0
SECTION
  2
HEADER
  9
$ACADVER
  1
AC1027
  9
$ACADMAINTVER
 70
     8
  9
$DWGCODEPAGE
  3
ANSI_1252
  9
$REQUIREDVERSIONS
160
                 0
  9
$COMMENTS
  1
File was created by Cadenas
  9
$CUSTOMPROPERTYTAG
  1
NN
  9
$CUSTOMPROPERTY
  1
Eccentric Collar Intermediate Duty Two-Bolt Pillow Block Inch Bore
  9
$CUSTOMPROPERTYTAG
  1
NT
  9
$CUSTOMPROPERTY
  1
Eccentric Collar Pillow Block Bearings -(Intermediate Duty)
  9
$CUSTOMPROPERTYTAG
  1
NB
  9
$CUSTOMPROPERTY
  1
131589
  9
$CUSTOMPROPERTYTAG
  1
NBSYN
  9
$CUSTOMPROPERTY
  1
$PN.
  9
$CUSTOMPROPERTYTAG
  1
LINA
  9
$CUSTOMPROPERTY
  1
131589
  9
$CUSTOMPROPERTYTAG
  1
SERIES
  9
$CUSTOMPROPERTY
  1
204
  9
$CUSTOMPROPERTYTAG
  1
SS
  9
$CUSTOMPROPERTY
  1
3/4
  9
$CUSTOMPROPERTYTAG
  1
PN
  9
$CUSTOMPROPERTY
  1
131589
  9
$CUSTOMPROPERTYTAG
  1
DESCRIPTION
  9
$CUSTOMPROPERTY
  1
P2B-SXV-012-NL
  9
$CUSTOMPROPERTYTAG
  1
LF
  9
$CUSTOMPROPERTY
  1
NO-LUBE
  9
$CUSTOMPROPERTYTAG
  1
WEIGHT
  9
$CUSTOMPROPERTY
  1
1.40
  9
$CUSTOMPROPERTYTAG
  1
A
  9
$CUSTOMPROPERTY
  1
1.22
  9
$CUSTOMPROPERTYTAG
  1
B
  9
$CUSTOMPROPERTY
  1
5.25
  9
$CUSTOMPROPERTYTAG
  1
C
  9
$CUSTOMPROPERTY
  1
1.34
  9
$CUSTOMPROPERTYTAG
  1
DMIN
  9
$CUSTOMPROPERTY
  1
3.38
  9
$CUSTOMPROPERTYTAG
  1
DMAX
  9
$CUSTOMPROPERTY
  1
4.19
  9
$CUSTOMPROPERTYTAG
  1
F
  9
$CUSTOMPROPERTY
  1
3/8
  9
$CUSTOMPROPERTYTAG
  1
G
  9
$CUSTOMPROPERTY
  1
0.85
  9
$CUSTOMPROPERTYTAG
  1
H
  9
$CUSTOMPROPERTY
  1
0.53
  9
$CUSTOMPROPERTYTAG
  1
J
  9
$CUSTOMPROPERTY
  1
2.56
  9
$CUSTOMPROPERTYTAG
  1
L
  9
$CUSTOMPROPERTY
  1
1.31
  9
$CUSTOMPROPERTYTAG
  1
M
  9
$CUSTOMPROPERTY
  1
1.31
  9
$CUSTOMPROPERTYTAG
  1
R
  9
$CUSTOMPROPERTY
  1
0.30
  9
$CUSTOMPROPERTYTAG
  1
S
  9
$CUSTOMPROPERTY
  1
0.92
  9
$CUSTOMPROPERTYTAG
  1
U
  9
$CUSTOMPROPERTY
  1
2.25
  9
$CUSTOMPROPERTYTAG
  1
V
  9
$CUSTOMPROPERTY
  1
4.50
  9
$CUSTOMPROPERTYTAG
  1
W
  9
$CUSTOMPROPERTY
  1
0.50
  9
$CUSTOMPROPERTYTAG
  1
X
  9
$CUSTOMPROPERTY
  1
0.12
  9
$CUSTOMPROPERTYTAG
  1
COMPANY
  9
$CUSTOMPROPERTY
  1
baldor
  9
$INSBASE
 10
0.0
 20
0.0
 30
0.0
  9
$EXTMIN
 10
1.000000000000000E+20
 20
1.000000000000000E+20
 30
1.000000000000000E+20
  9
$EXTMAX
 10
-1.000000000000000E+20
 20
-1.000000000000000E+20
 30
-1.000000000000000E+20
  9
$LIMMIN
 10
0.0
 20
0.0
  9
$LIMMAX
 10
12.0
 20
9.0
  9
$ORTHOMODE
 70
     0
  9
$REGENMODE
 70
     1
  9
$FILLMODE
 70
     1
  9
$QTEXTMODE
 70
     0
  9
$MIRRTEXT
 70
     1
  9
$LTSCALE
 40
1.0
  9
$ATTMODE
 70
     1
  9
$TEXTSIZE
 40
0.2
  9
$TRACEWID
 40
0.05
  9
$TEXTSTYLE
  7
Standard
  9
$CLAYER
  8
0
  9
$CELTYPE
  6
ByLayer
  9
$CECOLOR
 62
   256
  9
$CELTSCALE
 40
1.0
  9
$DISPSILH
 70
     0
  9
$DIMSCALE
 40
1.0
  9
$DIMASZ
 40
0.18
  9
$DIMEXO
 40
0.0625
  9
$DIMDLI
 40
0.38
  9
$DIMRND
 40
0.0
  9
$DIMDLE
 40
0.0
  9
$DIMEXE
 40
0.18
  9
$DIMTP
 40
0.0
  9
$DIMTM
 40
0.0
  9
$DIMTXT
 40
0.18
  9
$DIMCEN
 40
0.09
  9
$DIMTSZ
 40
0.0
  9
$DIMTOL
 70
     0
  9
$DIMLIM
 70
     0
  9
$DIMTIH
 70
     1
  9
$DIMTOH
 70
     1
  9
$DIMSE1
 70
     0
  9
$DIMSE2
 70
     0
  9
$DIMTAD
 70
     0
  9
$DIMZIN
 70
     0
  9
$DIMBLK
  1

  9
$DIMASO
 70
     1
  9
$DIMSHO
 70
     1
  9
$DIMPOST
  1

  9
$DIMAPOST
  1

  9
$DIMALT
 70
     0
  9
$DIMALTD
 70
     2
  9
$DIMALTF
 40
25.4
  9
$DIMLFAC
 40
1.0
  9
$DIMTOFL
 70
     0
  9
$DIMTVP
 40
0.0
  9
$DIMTIX
 70
     0
  9
$DIMSOXD
 70
     0
  9
$DIMSAH
 70
     0
  9
$DIMBLK1
  1

  9
$DIMBLK2
  1

  9
$DIMSTYLE
  2
Standard
  9
$DIMCLRD
 70
     0
  9
$DIMCLRE
 70
     0
  9
$DIMCLRT
 70
     0
  9
$DIMTFAC
 40
1.0
  9
$DIMGAP
 40
0.09
  9
$DIMJUST
 70
     0
  9
$DIMSD1
 70
     0
  9
$DIMSD2
 70
     0
  9
$DIMTOLJ
 70
     1
  9
$DIMTZIN
 70
     0
  9
$DIMALTZ
 70
     0
  9
$DIMALTTZ
 70
     0
  9
$DIMUPT
 70
     0
  9
$DIMDEC
 70
     4
  9
$DIMTDEC
 70
     4
  9
$DIMALTU
 70
     2
  9
$DIMALTTD
 70
     2
  9
$DIMTXSTY
  7
Standard
  9
$DIMAUNIT
 70
     0
  9
$DIMADEC
 70
     0
  9
$DIMALTRND
 40
0.0
  9
$DIMAZIN
 70
     0
  9
$DIMDSEP
 70
    46
  9
$DIMATFIT
 70
     3
  9
$DIMFRAC
 70
     0
  9
$DIMLDRBLK
  1

  9
$DIMLUNIT
 70
     2
  9
$DIMLWD
 70
    -2
  9
$DIMLWE
 70
    -2
  9
$DIMTMOVE
 70
     0
  9
$DIMFXL
 40
1.0
  9
$DIMFXLON
 70
     0
  9
$DIMJOGANG
 40
0.7853981633974483
  9
$DIMTFILL
 70
     0
  9
$DIMTFILLCLR
 70
     0
  9
$DIMARCSYM
 70
     0
  9
$DIMLTYPE
  6

  9
$DIMLTEX1
  6

  9
$DIMLTEX2
  6

  9
$DIMTXTDIRECTION
 70
     0
  9
$LUNITS
 70
     2
  9
$LUPREC
 70
     4
  9
$SKETCHINC
 40
0.1
  9
$FILLETRAD
 40
0.5
  9
$AUNITS
 70
     0
  9
$AUPREC
 70
     0
  9
$MENU
  1
.
  9
$ELEVATION
 40
0.0
  9
$PELEVATION
 40
0.0
  9
$THICKNESS
 40
0.0
  9
$LIMCHECK
 70
     0
  9
$CHAMFERA
 40
0.0
  9
$CHAMFERB
 40
0.0
  9
$CHAMFERC
 40
0.0
  9
$CHAMFERD
 40
0.0
  9
$SKPOLY
 70
     0
  9
$TDCREATE
 40
2458169.003592338
  9
$TDUCREATE
 40
2458168.961925671
  9
$TDUPDATE
 40
2458169.003592338
  9
$TDUUPDATE
 40
2458168.961925671
  9
$TDINDWG
 40
0.0000000116
  9
$TDUSRTIMER
 40
0.0000000116
  9
$USRTIMER
 70
     1
  9
$ANGBASE
 50
0.0
  9
$ANGDIR
 70
     0
  9
$PDMODE
 70
     0
  9
$PDSIZE
 40
0.0
  9
$PLINEWID
 40
0.0
  9
$SPLFRAME
 70
     0
  9
$SPLINETYPE
 70
     6
  9
$SPLINESEGS
 70
     8
  9
$HANDSEED
  5
18E
  9
$SURFTAB1
 70
     6
  9
$SURFTAB2
 70
     6
  9
$SURFTYPE
 70
     6
  9
$SURFU
 70
     6
  9
$SURFV
 70
     6
  9
$UCSBASE
  2

  9
$UCSNAME
  2

  9
$UCSORG
 10
0.0
 20
0.0
 30
0.0
  9
$UCSXDIR
 10
1.0
 20
0.0
 30
0.0
  9
$UCSYDIR
 10
0.0
 20
1.0
 30
0.0
  9
$UCSORTHOREF
  2

  9
$UCSORTHOVIEW
 70
     0
  9
$UCSORGTOP
 10
0.0
 20
0.0
 30
0.0
  9
$UCSORGBOTTOM
 10
0.0
 20
0.0
 30
0.0
  9
$UCSORGLEFT
 10
0.0
 20
0.0
 30
0.0
  9
$UCSORGRIGHT
 10
0.0
 20
0.0
 30
0.0
  9
$UCSORGFRONT
 10
0.0
 20
0.0
 30
0.0
  9
$UCSORGBACK
 10
0.0
 20
0.0
 30
0.0
  9
$PUCSBASE
  2

  9
$PUCSNAME
  2

  9
$PUCSORG
 10
0.0
 20
0.0
 30
0.0
  9
$PUCSXDIR
 10
1.0
 20
0.0
 30
0.0
  9
$PUCSYDIR
 10
0.0
 20
1.0
 30
0.0
  9
$PUCSORTHOREF
  2

  9
$PUCSORTHOVIEW
 70
     0
  9
$PUCSORGTOP
 10
0.0
 20
0.0
 30
0.0
  9
$PUCSORGBOTTOM
 10
0.0
 20
0.0
 30
0.0
  9
$PUCSORGLEFT
 10
0.0
 20
0.0
 30
0.0
  9
$PUCSORGRIGHT
 10
0.0
 20
0.0
 30
0.0
  9
$PUCSORGFRONT
 10
0.0
 20
0.0
 30
0.0
  9
$PUCSORGBACK
 10
0.0
 20
0.0
 30
0.0
  9
$USERI1
 70
     0
  9
$USERI2
 70
     0
  9
$USERI3
 70
     0
  9
$USERI4
 70
     0
  9
$USERI5
 70
     0
  9
$USERR1
 40
0.0
  9
$USERR2
 40
0.0
  9
$USERR3
 40
0.0
  9
$USERR4
 40
0.0
  9
$USERR5
 40
0.0
  9
$WORLDVIEW
 70
     1
  9
$SHADEDGE
 70
     3
  9
$SHADEDIF
 70
    70
  9
$TILEMODE
 70
     1
  9
$MAXACTVP
 70
    64
  9
$PINSBASE
 10
0.0
 20
0.0
 30
0.0
  9
$PLIMCHECK
 70
     0
  9
$PEXTMIN
 10
1.000000000000000E+20
 20
1.000000000000000E+20
 30
1.000000000000000E+20
  9
$PEXTMAX
 10
-1.000000000000000E+20
 20
-1.000000000000000E+20
 30
-1.000000000000000E+20
  9
$PLIMMIN
 10
0.0
 20
0.0
  9
$PLIMMAX
 10
12.0
 20
9.0
  9
$UNITMODE
 70
     0
  9
$VISRETAIN
 70
     1
  9
$PLINEGEN
 70
     0
  9
$PSLTSCALE
 70
     1
  9
$TREEDEPTH
 70
  3020
  9
$CMLSTYLE
  2
Standard
  9
$CMLJUST
 70
     0
  9
$CMLSCALE
 40
1.0
  9
$PROXYGRAPHICS
 70
     1
  9
$MEASUREMENT
 70
     0
  9
$CELWEIGHT
370
    -1
  9
$ENDCAPS
280
     0
  9
$JOINSTYLE
280
     0
  9
$LWDISPLAY
290
     0
  9
$INSUNITS
 70
     1
  9
$HYPERLINKBASE
  1

  9
$STYLESHEET
  1

  9
$XEDIT
290
     1
  9
$CEPSNTYPE
380
     0
  9
$PSTYLEMODE
290
     1
  9
$FINGERPRINTGUID
  2
{B3CCB114-677A-4B14-8146-E13230DA87E8}
  9
$VERSIONGUID
  2
{FAEB1C32-E019-11D5-929B-00C0DF256EC4}
  9
$EXTNAMES
290
     1
  9
$PSVPSCALE
 40
0.0
  9
$OLESTARTUP
290
     0
  9
$SORTENTS
280
   127
  9
$INDEXCTL
280
     0
  9
$HIDETEXT
280
     1
  9
$XCLIPFRAME
280
     2
  9
$HALOGAP
280
     0
  9
$OBSCOLOR
 70
   257
  9
$OBSLTYPE
280
     0
  9
$INTERSECTIONDISPLAY
280
     0
  9
$INTERSECTIONCOLOR
 70
   257
  9
$DIMASSOC
280
     2
  9
$PROJECTNAME
  1

  9
$CAMERADISPLAY
290
     0
  9
$LENSLENGTH
 40
50.0
  9
$CAMERAHEIGHT
 40
0.0
  9
$STEPSPERSEC
 40
2.0
  9
$STEPSIZE
 40
6.0
  9
$3DDWFPREC
 40
2.0
  9
$PSOLWIDTH
 40
0.25
  9
$PSOLHEIGHT
 40
4.0
  9
$LOFTANG1
 40
1.570796326794897
  9
$LOFTANG2
 40
1.570796326794897
  9
$LOFTMAG1
 40
0.0
  9
$LOFTMAG2
 40
0.0
  9
$LOFTPARAM
 70
     7
  9
$LOFTNORMALS
280
     1
  9
$LATITUDE
 40
37.795
  9
$LONGITUDE
 40
-122.394
  9
$NORTHDIRECTION
 40
0.0
  9
$TIMEZONE
 70
 -8000
  9
$LIGHTGLYPHDISPLAY
280
     1
  9
$TILEMODELIGHTSYNCH
280
     1
  9
$CMATERIAL
347
44
  9
$SOLIDHIST
280
     0
  9
$SHOWHIST
280
     1
  9
$DWFFRAME
280
     2
  9
$DGNFRAME
280
     2
  9
$REALWORLDSCALE
290
     1
  9
$INTERFERECOLOR
 62
   256
  9
$CSHADOW
280
     0
  9
$SHADOWPLANELOCATION
 40
0.0
  0
ENDSEC
  0
SECTION
  2
CLASSES
  0
CLASS
  1
ACDBDICTIONARYWDFLT
  2
AcDbDictionaryWithDefault
  3
ObjectDBX Classes
 90
        0
 91
        4
280
     0
281
     0
  0
CLASS
  1
VISUALSTYLE
  2
AcDbVisualStyle
  3
ObjectDBX Classes
 90
     4095
 91
        4
280
     0
281
     0
  0
CLASS
  1
MATERIAL
  2
AcDbMaterial
  3
ObjectDBX Classes
 90
     1153
 91
        4
280
     0
281
     0
  0
CLASS
  1
SCALE
  2
AcDbScale
  3
ObjectDBX Classes
 90
     1153
 91
        4
280
     0
281
     0
  0
CLASS
  1
TABLESTYLE
  2
AcDbTableStyle
  3
ObjectDBX Classes
 90
     4095
 91
        4
280
     0
281
     0
  0
CLASS
  1
MLEADERSTYLE
  2
AcDbMLeaderStyle
  3
ACDB_MLEADERSTYLE_CLASS
 90
     4095
 91
        4
280
     0
281
     0
  0
CLASS
  1
SUN
  2
AcDbSun
  3
SCENEOE
 90
     1153
 91
        4
280
     0
281
     0
  0
CLASS
  1
DICTIONARYVAR
  2
AcDbDictionaryVar
  3
ObjectDBX Classes
 90
        0
 91
        4
280
     0
281
     0
  0
CLASS
  1
CELLSTYLEMAP
  2
AcDbCellStyleMap
  3
ObjectDBX Classes
 90
     1152
 91
        4
280
     0
281
     0
  0
ENDSEC
  0
SECTION
  2
TABLES
  0
TABLE
  2
VPORT
  5
8
330
0
100
AcDbSymbolTable
 70
     1
  0
VPORT
  5
29
330
8
100
AcDbSymbolTableRecord
100
AcDbViewportTableRecord
  2
*Active
 70
     0
 10
0.0
 20
0.0
 11
1.0
 21
1.0
 12
-0.1219999999999999
 22
-0.0299999999999994
 13
0.0
 23
0.0
 14
0.5
 24
0.5
 15
0.5
 25
0.5
 16
0.0
 26
0.0
 36
1.0
 17
0.0
 27
0.0
 37
0.0
 40
2.611200000000002
 41
0.6710937499999995
 42
50.0
 43
0.0
 44
0.0
 50
0.0
 51
0.0
 71
     0
 72
   100
 73
     1
 74
     3
 75
     0
 76
     0
 77
     0
 78
     0
281
     0
 65
     1
110
0.0
120
0.0
130
0.0
111
1.0
121
0.0
131
0.0
112
0.0
122
1.0
132
0.0
 79
     0
146
0.0
348
2F
 60
     3
 61
     5
292
     1
282
     1
141
0.0
142
0.0
 63
   250
361
6D
  0
ENDTAB
  0
TABLE
  2
LTYPE
  5
5
330
0
100
AcDbSymbolTable
 70
     3
  0
LTYPE
  5
14
330
5
100
AcDbSymbolTableRecord
100
AcDbLinetypeTableRecord
  2
ByBlock
 70
     0
  3

 72
    65
 73
     0
 40
0.0
  0
LTYPE
  5
15
330
5
100
AcDbSymbolTableRecord
100
AcDbLinetypeTableRecord
  2
ByLayer
 70
     0
  3

 72
    65
 73
     0
 40
0.0
  0
LTYPE
  5
16
330
5
100
AcDbSymbolTableRecord
100
AcDbLinetypeTableRecord
  2
Continuous
 70
     0
  3
Solid line
 72
    65
 73
     0
 40
0.0
  0
LTYPE
  5
9B
330
5
100
AcDbSymbolTableRecord
100
AcDbLinetypeTableRecord
  2
Dashed
 70
     0
  3

 72
    65
 73
     2
 40
2.0
 49
1.0
 74
     0
 49
-1.0
 74
     0
  0
LTYPE
  5
10F
330
5
100
AcDbSymbolTableRecord
100
AcDbLinetypeTableRecord
  2
Center
 70
     0
  3

 72
    65
 73
     4
 40
1.5
 49
0.45
 74
     0
 49
-0.5
 74
     0
 49
0.05
 74
     0
 49
-0.5
 74
     0
  0
ENDTAB
  0
TABLE
  2
LAYER
  5
2
330
0
100
AcDbSymbolTable
 70
     7
  0
LAYER
  5
10
330
2
100
AcDbSymbolTableRecord
100
AcDbLayerTableRecord
  2
0
 70
     0
 62
     7
  6
Continuous
370
    -3
390
F
347
46
348
0
  0
LAYER
  5
72
330
2
100
AcDbSymbolTableRecord
100
AcDbLayerTableRecord
  2
AM_6
 70
     0
 62
    -2
  6
Continuous
370
    35
390
F
347
46
348
0
  0
LAYER
  5
9C
330
2
100
AcDbSymbolTableRecord
100
AcDbLayerTableRecord
  2
AM_9
 70
     0
 62
     6
  6
Dashed
370
    25
390
F
347
46
348
0
  0
LAYER
  5
AD
330
2
100
AcDbSymbolTableRecord
100
AcDbLayerTableRecord
  2
AM_4
 70
     0
 62
     7
  6
Continuous
370
    50
390
F
347
46
348
0
  0
LAYER
  5
10C
330
2
100
AcDbSymbolTableRecord
100
AcDbLayerTableRecord
  2
AM_5
 70
     0
 62
     3
  6
Continuous
370
    25
390
F
347
46
348
0
  0
LAYER
  5
110
330
2
100
AcDbSymbolTableRecord
100
AcDbLayerTableRecord
  2
AM_7
 70
     0
 62
     7
  6
Center
370
    25
390
F
347
46
348
0
  0
LAYER
  5
180
330
2
100
AcDbSymbolTableRecord
100
AcDbLayerTableRecord
  2
ConnectionPoints
 70
     0
 62
     7
  6
Continuous
370
    50
390
F
347
46
348
0
  0
ENDTAB
  0
TABLE
  2
STYLE
  5
3
330
0
100
AcDbSymbolTable
 70
     1
  0
STYLE
  5
11
330
3
100
AcDbSymbolTableRecord
100
AcDbTextStyleTableRecord
  2
Standard
 70
     0
 40
0.0
 41
1.0
 50
0.0
 71
     0
 42
0.2
  3
txt
  4

  0
ENDTAB
  0
TABLE
  2
VIEW
  5
6
330
0
100
AcDbSymbolTable
 70
     0
  0
ENDTAB
  0
TABLE
  2
UCS
  5
7
330
0
100
AcDbSymbolTable
 70
     0
  0
ENDTAB
  0
TABLE
  2
APPID
  5
9
330
0
100
AcDbSymbolTable
 70
     1
  0
APPID
  5
12
330
9
100
AcDbSymbolTableRecord
100
AcDbRegAppTableRecord
  2
ACAD
 70
     0
  0
ENDTAB
  0
TABLE
  2
DIMSTYLE
  5
A
330
0
100
AcDbSymbolTable
 70
     1
100
AcDbDimStyleTable
  0
DIMSTYLE
105
27
330
A
100
AcDbSymbolTableRecord
100
AcDbDimStyleTableRecord
  2
Standard
 70
     0
178
     0
340
11
  0
ENDTAB
  0
TABLE
  2
BLOCK_RECORD
  5
1
330
0
100
AcDbSymbolTable
 70
     5
  0
BLOCK_RECORD
  5
1F
330
1
100
AcDbSymbolTableRecord
100
AcDbBlockTableRecord
  2
*Model_Space
340
22
 70
     0
280
     1
281
     0
  0
BLOCK_RECORD
  5
1B
330
1
100
AcDbSymbolTableRecord
100
AcDbBlockTableRecord
  2
*Paper_Space
340
1E
 70
     0
280
     1
281
     0
  0
BLOCK_RECORD
  5
23
330
1
100
AcDbSymbolTableRecord
100
AcDbBlockTableRecord
  2
*Paper_Space0
340
26
 70
     0
280
     1
281
     0
  0
BLOCK_RECORD
  5
6E
330
1
100
AcDbSymbolTableRecord
100
AcDbBlockTableRecord
  2
1_131589_2
340
0
102
{BLKREFS
331
6F
102
}
 70
     0
280
     1
281
     0
  0
BLOCK_RECORD
  5
90
330
1
100
AcDbSymbolTableRecord
100
AcDbBlockTableRecord
  2
2_430026_0_in_131589_2
340
0
102
{BLKREFS
331
91
102
}
 70
     0
280
     1
281
     0
  0
BLOCK_RECORD
  5
BF
330
1
100
AcDbSymbolTableRecord
100
AcDbBlockTableRecord
  2
3_131435_0_in_131589_2
340
0
102
{BLKREFS
331
C0
102
}
 70
     0
280
     1
281
     0
  0
BLOCK_RECORD
  5
11E
330
1
100
AcDbSymbolTableRecord
100
AcDbBlockTableRecord
  2
4_131589H_0_in_131589_2
340
0
102
{BLKREFS
331
11F
102
}
 70
     0
280
     1
281
     0
  0
ENDTAB
  0
ENDSEC
  0
SECTION
  2
BLOCKS
  0
BLOCK
  5
20
330
1F
100
AcDbEntity
  8
0
100
AcDbBlockBegin
  2
*Model_Space
 70
     0
 10
0.0
 20
0.0
 30
0.0
  3
*Model_Space
  1

  0
ENDBLK
  5
21
330
1F
100
AcDbEntity
  8
0
100
AcDbBlockEnd
  0
BLOCK
  5
1C
330
1B
100
AcDbEntity
 67
     1
  8
0
100
AcDbBlockBegin
  2
*Paper_Space
 70
     0
 10
0.0
 20
0.0
 30
0.0
  3
*Paper_Space
  1

  0
ENDBLK
  5
1D
330
1B
100
AcDbEntity
 67
     1
  8
0
100
AcDbBlockEnd
  0
BLOCK
  5
24
330
23
100
AcDbEntity
  8
0
100
AcDbBlockBegin
  2
*Paper_Space0
 70
     0
 10
0.0
 20
0.0
 30
0.0
  3
*Paper_Space0
  1

  0
ENDBLK
  5
25
330
23
100
AcDbEntity
  8
0
100
AcDbBlockEnd
  0
BLOCK
  5
70
330
6E
100
AcDbEntity
  8
0
100
AcDbBlockBegin
  2
1_131589_2
 70
     2
 10
0.0
 20
0.0
 30
0.0
  3
1_131589_2
  1

  0
ATTDEF
  5
73
330
6E
100
AcDbEntity
  8
AM_6
100
AcDbText
 10
5.737
 20
1.250000000000001
 30
0.0
 40
0.5
  1
Eccentric Collar Intermediate Duty Two-Bolt Pillow Block Inch Bore
100
AcDbAttributeDefinition
  3

  2
NN
 70
     8
280
     0
  0
ATTDEF
  5
74
330
6E
100
AcDbEntity
  8
AM_6
100
AcDbText
 10
5.737
 20
0.7500000000000007
 30
0.0
 40
0.5
  1
Eccentric Collar Pillow Block Bearings -(Intermediate Duty)
100
AcDbAttributeDefinition
  3

  2
NT
 70
     8
280
     0
  0
ATTDEF
  5
75
330
6E
100
AcDbEntity
  8
AM_6
100
AcDbText
 10
5.737
 20
0.2500000000000007
 30
0.0
 40
0.5
  1
131589
100
AcDbAttributeDefinition
  3

  2
NB
 70
     8
280
     0
  0
ATTDEF
  5
76
330
6E
100
AcDbEntity
  8
AM_6
100
AcDbText
 10
5.737
 20
-0.2499999999999993
 30
0.0
 40
0.5
  1
$PN.
100
AcDbAttributeDefinition
  3

  2
NBSYN
 70
     8
280
     0
  0
ATTDEF
  5
77
330
6E
100
AcDbEntity
  8
AM_6
100
AcDbText
 10
5.737
 20
-0.7499999999999993
 30
0.0
 40
0.5
  1
131589
100
AcDbAttributeDefinition
  3

  2
LINA
 70
     8
280
     0
  0
ATTDEF
  5
78
330
6E
100
AcDbEntity
  8
AM_6
100
AcDbText
 10
5.737
 20
-1.249999999999999
 30
0.0
 40
0.5
  1
204
100
AcDbAttributeDefinition
  3

  2
SERIES
 70
     8
280
     0
  0
ATTDEF
  5
79
330
6E
100
AcDbEntity
  8
AM_6
100
AcDbText
 10
5.737
 20
-1.749999999999999
 30
0.0
 40
0.5
  1
3/4
100
AcDbAttributeDefinition
  3

  2
SS
 70
     8
280
     0
  0
ATTDEF
  5
7A
330
6E
100
AcDbEntity
  8
AM_6
100
AcDbText
 10
5.737
 20
-2.249999999999999
 30
0.0
 40
0.5
  1
131589
100
AcDbAttributeDefinition
  3

  2
PN
 70
     8
280
     0
  0
ATTDEF
  5
7B
330
6E
100
AcDbEntity
  8
AM_6
100
AcDbText
 10
5.737
 20
-2.749999999999999
 30
0.0
 40
0.5
  1
P2B-SXV-012-NL
100
AcDbAttributeDefinition
  3

  2
DESCRIPTION
 70
     8
280
     0
  0
ATTDEF
  5
7C
330
6E
100
AcDbEntity
  8
AM_6
100
AcDbText
 10
5.737
 20
-3.249999999999999
 30
0.0
 40
0.5
  1
NO-LUBE
100
AcDbAttributeDefinition
  3

  2
LF
 70
     8
280
     0
  0
ATTDEF
  5
7D
330
6E
100
AcDbEntity
  8
AM_6
100
AcDbText
 10
5.737
 20
-3.749999999999999
 30
0.0
 40
0.5
  1
1.40
100
AcDbAttributeDefinition
  3

  2
WEIGHT
 70
     8
280
     0
  0
ATTDEF
  5
7E
330
6E
100
AcDbEntity
  8
AM_6
100
AcDbText
 10
5.737
 20
-4.249999999999999
 30
0.0
 40
0.5
  1
1.22
100
AcDbAttributeDefinition
  3

  2
A
 70
     8
280
     0
  0
ATTDEF
  5
7F
330
6E
100
AcDbEntity
  8
AM_6
100
AcDbText
 10
5.737
 20
-4.749999999999999
 30
0.0
 40
0.5
  1
5.25
100
AcDbAttributeDefinition
  3

  2
B
 70
     8
280
     0
  0
ATTDEF
  5
80
330
6E
100
AcDbEntity
  8
AM_6
100
AcDbText
 10
5.737
 20
-5.249999999999999
 30
0.0
 40
0.5
  1
1.34
100
AcDbAttributeDefinition
  3

  2
C
 70
     8
280
     0
  0
ATTDEF
  5
81
330
6E
100
AcDbEntity
  8
AM_6
100
AcDbText
 10
5.737
 20
-5.749999999999999
 30
0.0
 40
0.5
  1
3.38
100
AcDbAttributeDefinition
  3

  2
DMIN
 70
     8
280
     0
  0
ATTDEF
  5
82
330
6E
100
AcDbEntity
  8
AM_6
100
AcDbText
 10
5.737
 20
-6.249999999999999
 30
0.0
 40
0.5
  1
4.19
100
AcDbAttributeDefinition
  3

  2
DMAX
 70
     8
280
     0
  0
ATTDEF
  5
83
330
6E
100
AcDbEntity
  8
AM_6
100
AcDbText
 10
5.737
 20
-6.749999999999999
 30
0.0
 40
0.5
  1
3/8
100
AcDbAttributeDefinition
  3

  2
F
 70
     8
280
     0
  0
ATTDEF
  5
84
330
6E
100
AcDbEntity
  8
AM_6
100
AcDbText
 10
5.737
 20
-7.249999999999999
 30
0.0
 40
0.5
  1
0.85
100
AcDbAttributeDefinition
  3

  2
G
 70
     8
280
     0
  0
ATTDEF
  5
85
330
6E
100
AcDbEntity
  8
AM_6
100
AcDbText
 10
5.737
 20
-7.749999999999999
 30
0.0
 40
0.5
  1
0.53
100
AcDbAttributeDefinition
  3

  2
H
 70
     8
280
     0
  0
ATTDEF
  5
86
330
6E
100
AcDbEntity
  8
AM_6
100
AcDbText
 10
5.737
 20
-8.25
 30
0.0
 40
0.5
  1
2.56
100
AcDbAttributeDefinition
  3

  2
J
 70
     8
280
     0
  0
ATTDEF
  5
87
330
6E
100
AcDbEntity
  8
AM_6
100
AcDbText
 10
5.737
 20
-8.75
 30
0.0
 40
0.5
  1
1.31
100
AcDbAttributeDefinition
  3

  2
L
 70
     8
280
     0
  0
ATTDEF
  5
88
330
6E
100
AcDbEntity
  8
AM_6
100
AcDbText
 10
5.737
 20
-9.25
 30
0.0
 40
0.5
  1
1.31
100
AcDbAttributeDefinition
  3

  2
M
 70
     8
280
     0
  0
ATTDEF
  5
89
330
6E
100
AcDbEntity
  8
AM_6
100
AcDbText
 10
5.737
 20
-9.75
 30
0.0
 40
0.5
  1
0.30
100
AcDbAttributeDefinition
  3

  2
R
 70
     8
280
     0
  0
ATTDEF
  5
8A
330
6E
100
AcDbEntity
  8
AM_6
100
AcDbText
 10
5.737
 20
-10.25
 30
0.0
 40
0.5
  1
0.92
100
AcDbAttributeDefinition
  3

  2
S
 70
     8
280
     0
  0
ATTDEF
  5
8B
330
6E
100
AcDbEntity
  8
AM_6
100
AcDbText
 10
5.737
 20
-10.75
 30
0.0
 40
0.5
  1
2.25
100
AcDbAttributeDefinition
  3

  2
U
 70
     8
280
     0
  0
ATTDEF
  5
8C
330
6E
100
AcDbEntity
  8
AM_6
100
AcDbText
 10
5.737
 20
-11.25
 30
0.0
 40
0.5
  1
4.50
100
AcDbAttributeDefinition
  3

  2
V
 70
     8
280
     0
  0
ATTDEF
  5
8D
330
6E
100
AcDbEntity
  8
AM_6
100
AcDbText
 10
5.737
 20
-11.75
 30
0.0
 40
0.5
  1
0.50
100
AcDbAttributeDefinition
  3

  2
W
 70
     8
280
     0
  0
ATTDEF
  5
8E
330
6E
100
AcDbEntity
  8
AM_6
100
AcDbText
 10
5.737
 20
-12.25
 30
0.0
 40
0.5
  1
0.12
100
AcDbAttributeDefinition
  3

  2
X
 70
     8
280
     0
  0
ATTDEF
  5
8F
330
6E
100
AcDbEntity
  8
AM_6
100
AcDbText
 10
5.737
 20
-12.75
 30
0.0
 40
0.5
  1
baldor
100
AcDbAttributeDefinition
  3

  2
COMPANY
 70
     8
280
     0
  0
INSERT
  5
91
330
6E
100
AcDbEntity
  8
0
100
AcDbBlockReference
  2
2_430026_0_in_131589_2
 10
0.0
 20
0.0
 30
0.0
  0
INSERT
  5
C0
330
6E
100
AcDbEntity
  8
0
100
AcDbBlockReference
  2
3_131435_0_in_131589_2
 10
0.0
 20
0.0
 30
0.0
  0
INSERT
  5
11F
330
6E
100
AcDbEntity
  8
0
100
AcDbBlockReference
  2
4_131589H_0_in_131589_2
 10
0.0
 20
0.0
 30
0.0
  0
ENDBLK
  5
71
330
6E
100
AcDbEntity
  8
0
100
AcDbBlockEnd
  0
BLOCK
  5
92
330
90
100
AcDbEntity
  8
0
100
AcDbBlockBegin
  2
2_430026_0_in_131589_2
 70
     2
 10
0.0
 20
0.0
 30
0.0
  3
2_430026_0_in_131589_2
  1

  0
ATTDEF
  5
94
330
90
100
AcDbEntity
  8
AM_6
100
AcDbText
 10
5.199363998253438
 20
1.047936180244817
 30
0.0
 40
0.5
  1
430026 Plug
100
AcDbAttributeDefinition
  3

  2
NN
 70
     8
280
     0
  0
ATTDEF
  5
95
330
90
100
AcDbEntity
  8
AM_6
100
AcDbText
 10
5.199363998253438
 20
0.5479361802448173
 30
0.0
 40
0.5
  1
Plug
100
AcDbAttributeDefinition
  3

  2
NT
 70
     8
280
     0
  0
ATTDEF
  5
96
330
90
100
AcDbEntity
  8
AM_6
100
AcDbText
 10
5.199363998253438
 20
0.0479361802448173
 30
0.0
 40
0.5
  1
430026
100
AcDbAttributeDefinition
  3

  2
NB
 70
     8
280
     0
  0
ATTDEF
  5
97
330
90
100
AcDbEntity
  8
AM_6
100
AcDbText
 10
5.199363998253438
 20
-0.4520638197551827
 30
0.0
 40
0.5
  1
$PN.
100
AcDbAttributeDefinition
  3

  2
NBSYN
 70
     8
280
     0
  0
ATTDEF
  5
98
330
90
100
AcDbEntity
  8
AM_6
100
AcDbText
 10
5.199363998253438
 20
-0.9520638197551827
 30
0.0
 40
0.5
  1
430026
100
AcDbAttributeDefinition
  3

  2
LINA
 70
     8
280
     0
  0
ATTDEF
  5
99
330
90
100
AcDbEntity
  8
AM_6
100
AcDbText
 10
5.199363998253438
 20
-1.452063819755183
 30
0.0
 40
0.5
  1
430026
100
AcDbAttributeDefinition
  3

  2
PN
 70
     8
280
     0
  0
ATTDEF
  5
9A
330
90
100
AcDbEntity
  8
AM_6
100
AcDbText
 10
5.199363998253438
 20
-1.952063819755183
 30
0.0
 40
0.5
  1
baldor
100
AcDbAttributeDefinition
  3

  2
COMPANY
 70
     8
280
     0
  0
ELLIPSE
  5
9D
330
90
100
AcDbEntity
  8
AM_9
100
AcDbEllipse
 10
0.0
 20
0.6996821599840891
 30
0.0
 11
0.1702494517657397
 21
0.0
 31
0.0
210
0.0
220
0.0
230
1.0
 40
0.7071067811865475
 41
0.0
 42
6.283185307179586
  0
LINE
  5
9E
330
90
100
AcDbEntity
  8
AM_9
100
AcDbLine
 10
0.0000000000000001
 20
0.7557181269945924
 30
0.0
 11
0.0937500000000001
 21
0.7939914042255795
 31
0.0
  0
LINE
  5
9F
330
90
100
AcDbEntity
  8
AM_9
100
AcDbLine
 10
-0.0937499999999999
 20
0.7939914042255795
 30
0.0
 11
0.0000000000000001
 21
0.7557181269945924
 31
0.0
  0
LINE
  5
A0
330
90
100
AcDbEntity
  8
AM_9
100
AcDbLine
 10
-0.0842132017773256
 20
0.8744313402584595
 30
0.0
 11
-0.09375
 21
0.8705379586875538
 31
0.0
  0
LINE
  5
A1
330
90
100
AcDbEntity
  8
AM_9
100
AcDbLine
 10
0.09375
 20
0.8705379586875538
 30
0.0
 11
0.0839479099707201
 21
0.8745396451849803
 31
0.0
  0
ELLIPSE
  5
A2
330
90
100
AcDbEntity
  8
AM_9
100
AcDbEllipse
 10
-0.0000000000000012
 20
0.8322646814565658
 30
0.0
 11
-0.0937499999999984
 21
1.148106374200624E-17
 31
0.0
210
0.0
220
0.0
230
1.0
 40
0.7071067811865475
 41
5.68583301032776
 42
10.02386098731617
  0
LINE
  5
A3
330
90
100
AcDbEntity
  8
AM_9
100
AcDbLine
 10
0.0661318839386913
 20
0.7697970555629726
 30
0.0
 11
0.0873197418766241
 21
0.808136635756596
 31
0.0
  0
LINE
  5
A4
330
90
100
AcDbEntity
  8
AM_9
100
AcDbLine
 10
-0.087319741876624
 20
0.808136635756596
 30
0.0
 11
-0.0661318839386912
 21
0.7697970555629726
 31
0.0
  0
ELLIPSE
  5
A5
330
90
100
AcDbEntity
  8
AM_9
100
AcDbEllipse
 10
0.0
 20
0.7880705076324075
 30
0.0
 11
-0.07100186035836235
 21
8.695220102137580E-18
 31
0.0
210
0.0
220
0.0
230
1.0
 40
0.7071067811865474
 41
1.84363807767258
 42
7.578347938857346
  0
LINE
  5
A6
330
90
100
AcDbEntity
  8
AM_9
100
AcDbLine
 10
-0.0937499999999999
 20
0.7939914042255795
 30
0.0
 11
-0.0937499999999999
 21
0.8818516671865385
 31
0.0
  0
LINE
  5
A7
330
90
100
AcDbEntity
  8
AM_9
100
AcDbLine
 10
0.0937500000000001
 20
0.7939914042255795
 30
0.0
 11
0.09375
 21
0.8818516671865385
 31
0.0
  0
LINE
  5
A8
330
90
100
AcDbEntity
  8
AM_9
100
AcDbLine
 10
0.0000000000000001
 20
0.7557181269945924
 30
0.0
 11
0.0000000000000001
 21
0.8435783899555515
 31
0.0
  0
LINE
  5
A9
330
90
100
AcDbEntity
  8
AM_9
100
AcDbLine
 10
0.190780497482923
 20
0.7096037704563382
 30
0.0
 11
0.1982849625309751
 21
0.8794932428478897
 31
0.0
  0
LINE
  5
AA
330
90
100
AcDbEntity
  8
AM_9
100
AcDbLine
 10
-0.198284962530975
 20
0.8794932428478897
 30
0.0
 11
-0.1907804974829229
 21
0.7096037704563382
 31
0.0
  0
ELLIPSE
  5
AB
330
90
100
AcDbEntity
  8
AM_9
100
AcDbEllipse
 10
0.0000000000000015
 20
0.906517780332813
 30
0.0
 11
-0.1993814718281152
 21
2.441718812835894E-17
 31
0.0
210
0.0
220
0.0
230
1.0
 40
0.7071067811865837
 41
4.463828942208121
 42
4.960949018561272
  0
ELLIPSE
  5
AC
330
90
100
AcDbEntity
  8
AM_9
100
AcDbEllipse
 10
-0.0000000000000002
 20
0.7138174087561584
 30
0.0
 11
-0.1908735385412946
 21
2.337526680165253E-17
 31
0.0
210
0.0
220
0.0
230
1.0
 40
0.7071067811865471
 41
0.0
 42
6.283185307179586
  0
LINE
  5
AE
330
90
100
AcDbEntity
  8
AM_4
100
AcDbLine
 10
0.0
 20
0.908811235918541
 30
0.0
 11
-0.0842132017773256
 21
0.8744313402584595
 31
0.0
  0
LINE
  5
AF
330
90
100
AcDbEntity
  8
AM_4
100
AcDbLine
 10
0.0
 20
0.908811235918541
 30
0.0
 11
0.0000000000000001
 21
0.9966714988795001
 31
0.0
  0
LINE
  5
B0
330
90
100
AcDbEntity
  8
AM_4
100
AcDbLine
 10
0.0839479099707201
 20
0.8745396451849803
 30
0.0
 11
0.0
 21
0.908811235918541
 31
0.0
  0
ELLIPSE
  5
B1
330
90
100
AcDbEntity
  8
AM_4
100
AcDbEllipse
 10
-0.0000000000000016
 20
0.8322646814565654
 30
0.0
 11
-0.09375000000000235
 21
1.148106374200672E-17
 31
0.0
210
0.0
220
0.0
230
1.0
 40
0.7071067811865462
 41
3.740675680136587
 42
5.685833010327751
  0
LWPOLYLINE
  5
B2
330
90
100
AcDbEntity
  8
AM_4
100
AcDbPolyline
 90
        8
 70
     0
 43
0.0
 10
-0.09375
 20
0.958398221648513
 10
-0.0742104790331714
 20
0.9597763631661447
 10
-0.063685504419161
 20
0.9618227623248734
 10
-0.0527625339528987
 20
0.9650500590927445
 10
-0.037736434300393
 20
0.9714289802503872
 10
-0.0225103644739311
 20
0.9801470347276652
 10
-0.0111009620107464
 20
0.9880341380574916
 10
0.0000000000000001
 20
0.9966714988795001
  0
LWPOLYLINE
  5
B3
330
90
100
AcDbEntity
  8
AM_4
100
AcDbPolyline
 90
        8
 70
     0
 43
0.0
 10
0.0000000000000001
 20
0.9966714988795001
 10
0.0195395209668286
 20
0.9820956883347507
 10
0.030064495580839
 20
0.9755484817067888
 10
0.0409874660471013
 20
0.9698572104353821
 10
0.056013565699607
 20
0.9639673726020748
 10
0.071239635526069
 20
0.9602533931250797
 10
0.0826490379892536
 20
0.9588247583532876
 10
0.09375
 20
0.958398221648513
  0
LINE
  5
B4
330
90
100
AcDbEntity
  8
AM_4
100
AcDbLine
 10
0.09375
 20
0.958398221648513
 30
0.0
 11
0.09375
 21
0.8818516671865385
 31
0.0
  0
LWPOLYLINE
  5
B5
330
90
100
AcDbEntity
  8
AM_4
100
AcDbPolyline
 90
        8
 70
     0
 43
0.0
 10
0.09375
 20
0.8818516671865385
 10
0.0742104790331715
 20
0.8672758566417893
 10
0.0636855044191611
 20
0.8607286500138274
 10
0.0527625339528988
 20
0.8550373787424207
 10
0.0377364343003931
 20
0.8491475409091134
 10
0.0225103644739312
 20
0.8454335614321183
 10
0.0111009620107465
 20
0.8440049266603262
 10
0.0000000000000001
 20
0.8435783899555515
  0
LWPOLYLINE
  5
B6
330
90
100
AcDbEntity
  8
AM_4
100
AcDbPolyline
 90
        8
 70
     0
 43
0.0
 10
0.0000000000000001
 20
0.8435783899555515
 10
-0.0195395209668285
 20
0.8449565314731833
 10
-0.0300644955808389
 20
0.847002930631912
 10
-0.0409874660471012
 20
0.850230227399783
 10
-0.0560135656996069
 20
0.8566091485574258
 10
-0.0712396355260689
 20
0.8653272030347038
 10
-0.0826490379892535
 20
0.8732143063645302
 10
-0.0937499999999999
 20
0.8818516671865385
  0
LINE
  5
B7
330
90
100
AcDbEntity
  8
AM_4
100
AcDbLine
 10
-0.0937499999999999
 20
0.8818516671865385
 30
0.0
 11
-0.09375
 21
0.958398221648513
 31
0.0
  0
LINE
  5
B8
330
90
100
AcDbEntity
  8
AM_4
100
AcDbLine
 10
0.1982849625309751
 20
0.8794932428478897
 30
0.0
 11
0.1992842835887235
 21
0.9021163247282835
 31
0.0
  0
LINE
  5
B9
330
90
100
AcDbEntity
  8
AM_4
100
AcDbLine
 10
-0.1992842835887233
 20
0.9021163247282835
 30
0.0
 11
-0.198284962530975
 21
0.8794932428478897
 31
0.0
  0
ELLIPSE
  5
BA
330
90
100
AcDbEntity
  8
AM_4
100
AcDbEllipse
 10
0.0000000000000001
 20
0.9065177803328159
 30
0.0
 11
-0.1993814718281217
 21
2.441718812835974E-17
 31
0.0
210
0.0
220
0.0
230
1.0
 40
0.7071067811865483
 41
4.960949018561258
 42
10.74701424938771
  0
ELLIPSE
  5
BB
330
90
100
AcDbEntity
  8
AM_4
100
AcDbEllipse
 10
0.0000000000000001
 20
0.9206530291048851
 30
0.0
 11
0.109
 21
0.0
 31
0.0
210
0.0
220
0.0
230
1.0
 40
0.7071067811865474
 41
0.0
 42
6.283185307179586
  0
LINE
  5
BC
330
90
100
AcDbEntity
  8
AM_4
100
AcDbLine
 10
-0.0442828986057772
 20
1.04402447235512
 30
0.0
 11
-0.0490495380771814
 21
1.043169004481674
 31
0.0
  0
LINE
  5
BD
330
90
100
AcDbEntity
  8
AM_4
100
AcDbLine
 10
0.0490495380771816
 20
1.043169004481674
 30
0.0
 11
0.0442828986057774
 21
1.04402447235512
 31
0.0
  0
ELLIPSE
  5
BE
330
90
100
AcDbEntity
  8
AM_4
100
AcDbEllipse
 10
-0.0000000000000038
 20
0.9206530291048767
 30
0.0
 11
-0.1800055586037037
 21
2.204432311727570E-17
 31
0.0
210
0.0
220
0.0
230
1.0
 40
0.7071067811864878
 41
0.0
 42
6.283185307179586
  0
ENDBLK
  5
93
330
90
100
AcDbEntity
  8
0
100
AcDbBlockEnd
  0
BLOCK
  5
C1
330
BF
100
AcDbEntity
  8
0
100
AcDbBlockBegin
  2
3_131435_0_in_131589_2
 70
     2
 10
0.0
 20
0.0
 30
0.0
  3
3_131435_0_in_131589_2
  1

  0
ATTDEF
  5
C3
330
BF
100
AcDbEntity
  8
AM_6
100
AcDbText
 10
5.3
 20
0.9250874647480041
 30
0.0
 40
0.5
  1
Eccentric Collar Intermediate Duty Insert Inch Bore
100
AcDbAttributeDefinition
  3

  2
NN
 70
     8
280
     0
  0
ATTDEF
  5
C4
330
BF
100
AcDbEntity
  8
AM_6
100
AcDbText
 10
5.3
 20
0.4250874647480041
 30
0.0
 40
0.5
  1
Eccentric Collar Bearing Inserts -(Intermediate Duty)
100
AcDbAttributeDefinition
  3

  2
NT
 70
     8
280
     0
  0
ATTDEF
  5
C5
330
BF
100
AcDbEntity
  8
AM_6
100
AcDbText
 10
5.3
 20
-0.0749125352519959
 30
0.0
 40
0.5
  1
131435
100
AcDbAttributeDefinition
  3

  2
NB
 70
     8
280
     0
  0
ATTDEF
  5
C6
330
BF
100
AcDbEntity
  8
AM_6
100
AcDbText
 10
5.3
 20
-0.5749125352519959
 30
0.0
 40
0.5
  1
$PN.
100
AcDbAttributeDefinition
  3

  2
NBSYN
 70
     8
280
     0
  0
ATTDEF
  5
C7
330
BF
100
AcDbEntity
  8
AM_6
100
AcDbText
 10
5.3
 20
-1.074912535251996
 30
0.0
 40
0.5
  1
131435
100
AcDbAttributeDefinition
  3

  2
LINA
 70
     8
280
     0
  0
ATTDEF
  5
C8
330
BF
100
AcDbEntity
  8
AM_6
100
AcDbText
 10
5.3
 20
-1.574912535251996
 30
0.0
 40
0.5
  1
204
100
AcDbAttributeDefinition
  3

  2
SERIES
 70
     8
280
     0
  0
ATTDEF
  5
C9
330
BF
100
AcDbEntity
  8
AM_6
100
AcDbText
 10
5.3
 20
-2.074912535251996
 30
0.0
 40
0.5
  1
3/4
100
AcDbAttributeDefinition
  3

  2
SS
 70
     8
280
     0
  0
ATTDEF
  5
CA
330
BF
100
AcDbEntity
  8
AM_6
100
AcDbText
 10
5.3
 20
-2.574912535251996
 30
0.0
 40
0.5
  1
131435
100
AcDbAttributeDefinition
  3

  2
PN
 70
     8
280
     0
  0
ATTDEF
  5
CB
330
BF
100
AcDbEntity
  8
AM_6
100
AcDbText
 10
5.3
 20
-3.074912535251996
 30
0.0
 40
0.5
  1
INS-SXV-012
100
AcDbAttributeDefinition
  3

  2
DESCRIPTION
 70
     8
280
     0
  0
ATTDEF
  5
CC
330
BF
100
AcDbEntity
  8
AM_6
100
AcDbText
 10
5.3
 20
-3.574912535251996
 30
0.0
 40
0.5
  1
0.3
100
AcDbAttributeDefinition
  3

  2
WEIGHT
 70
     8
280
     0
  0
ATTDEF
  5
CD
330
BF
100
AcDbEntity
  8
AM_6
100
AcDbText
 10
5.3
 20
-4.074912535251996
 30
0.0
 40
0.5
  1
1.22
100
AcDbAttributeDefinition
  3

  2
A
 70
     8
280
     0
  0
ATTDEF
  5
CE
330
BF
100
AcDbEntity
  8
AM_6
100
AcDbText
 10
5.3
 20
-4.574912535251996
 30
0.0
 40
0.5
  1
0.58
100
AcDbAttributeDefinition
  3

  2
C
 70
     8
280
     0
  0
ATTDEF
  5
CF
330
BF
100
AcDbEntity
  8
AM_6
100
AcDbText
 10
5.3
 20
-5.074912535251996
 30
0.0
 40
0.5
  1
1.8504
100
AcDbAttributeDefinition
  3

  2
D
 70
     8
280
     0
  0
ATTDEF
  5
D0
330
BF
100
AcDbEntity
  8
AM_6
100
AcDbText
 10
5.3
 20
-5.574912535251996
 30
0.0
 40
0.5
  1
0.15
100
AcDbAttributeDefinition
  3

  2
J
 70
     8
280
     0
  0
ATTDEF
  5
D1
330
BF
100
AcDbEntity
  8
AM_6
100
AcDbText
 10
5.3
 20
-6.074912535251996
 30
0.0
 40
0.5
  1
1.31
100
AcDbAttributeDefinition
  3

  2
L
 70
     8
280
     0
  0
ATTDEF
  5
D2
330
BF
100
AcDbEntity
  8
AM_6
100
AcDbText
 10
5.3
 20
-6.574912535251996
 30
0.0
 40
0.5
  1
1/4 - 28
100
AcDbAttributeDefinition
  3

  2
N
 70
     8
280
     0
  0
ATTDEF
  5
D3
330
BF
100
AcDbEntity
  8
AM_6
100
AcDbText
 10
5.3
 20
-7.074912535251996
 30
0.0
 40
0.5
  1
0.30
100
AcDbAttributeDefinition
  3

  2
W
 70
     8
280
     0
  0
ATTDEF
  5
D4
330
BF
100
AcDbEntity
  8
AM_6
100
AcDbText
 10
5.3
 20
-7.574912535251996
 30
0.0
 40
0.5
  1
0.92
100
AcDbAttributeDefinition
  3

  2
Y
 70
     8
280
     0
  0
ATTDEF
  5
D5
330
BF
100
AcDbEntity
  8
AM_6
100
AcDbText
 10
5.3
 20
-8.074912535251997
 30
0.0
 40
0.5
  1
1.12
100
AcDbAttributeDefinition
  3

  2
Z
 70
     8
280
     0
  0
ATTDEF
  5
D6
330
BF
100
AcDbEntity
  8
AM_6
100
AcDbText
 10
5.3
 20
-8.574912535251997
 30
0.0
 40
0.5
  1
baldor
100
AcDbAttributeDefinition
  3

  2
COMPANY
 70
     8
280
     0
  0
LINE
  5
D7
330
BF
100
AcDbEntity
  8
AM_9
100
AcDbLine
 10
-0.6244
 20
0.3749999999999999
 30
0.0
 11
-0.6244
 21
0.6455618962271404
 31
0.0
  0
LINE
  5
D8
330
BF
100
AcDbEntity
  8
AM_9
100
AcDbLine
 10
-0.8405999999999999
 20
0.6455618962271404
 30
0.0
 11
-0.8405999999999999
 21
0.3749999999999999
 31
0.0
  0
LINE
  5
D9
330
BF
100
AcDbEntity
  8
AM_9
100
AcDbLine
 10
-0.8405999999999999
 20
0.6455618962271404
 30
0.0
 11
-0.6244
 21
0.6455618962271404
 31
0.0
  0
LINE
  5
DA
330
BF
100
AcDbEntity
  8
AM_9
100
AcDbLine
 10
-0.6244
 20
0.6455618962271404
 30
0.0
 11
-0.6149618962271403
 21
0.655
 31
0.0
  0
LINE
  5
DB
330
BF
100
AcDbEntity
  8
AM_9
100
AcDbLine
 10
-0.8500381037728595
 20
0.655
 30
0.0
 11
-0.8405999999999999
 21
0.6455618962271404
 31
0.0
  0
LINE
  5
DC
330
BF
100
AcDbEntity
  8
AM_9
100
AcDbLine
 10
-0.5375
 20
-0.3749999999999999
 30
0.0
 11
-0.201
 21
-0.3749999999999999
 31
0.0
  0
LINE
  5
DD
330
BF
100
AcDbEntity
  8
AM_9
100
AcDbLine
 10
-0.2009999999999999
 20
0.3749999999999999
 30
0.0
 11
-0.5375
 21
0.3749999999999999
 31
0.0
  0
LWPOLYLINE
  5
DE
330
BF
100
AcDbEntity
  8
AM_9
100
AcDbPolyline
 90
       20
 70
     0
 43
0.0
 10
-0.8405999999999999
 20
0.3749999999999999
 10
-0.8391769352470901
 20
0.3745922563450984
 10
-0.8347890221619482
 20
0.3733663536726998
 10
-0.8278330946352283
 20
0.3715209131835372
 10
-0.8181335526881572
 20
0.3691510467897868
 10
-0.806162815489919
 20
0.3665591362739467
 10
-0.7917799744323519
 20
0.3639416235726552
 10
-0.7758027261843202
 20
0.3616828943909211
 10
-0.7579966923963875
 20
0.3599853765407089
 10
-0.7404074030974253
 20
0.3591683686291781
 10
-0.7220326622182587
 20
0.359233844675355
 10
-0.7050686416160692
 20
0.3601275738162625
 10
-0.6884024667813515
 20
0.3617789137525427
 10
-0.6731746543271483
 20
0.3639490165383103
 10
-0.6591624746054898
 20
0.3664939053122035
 10
-0.6470246124726888
 20
0.3691143886018858
 10
-0.6369879987086293
 20
0.3715668612654831
 10
-0.6298687811591275
 20
0.3734602483273997
 10
-0.6255452578007196
 20
0.3746714652584507
 10
-0.6244000000024715
 20
0.3749999999992875
  0
LINE
  5
DF
330
BF
100
AcDbEntity
  8
AM_9
100
AcDbLine
 10
-0.9093933982822017
 20
-0.3749999999999999
 30
0.0
 11
-0.5524999999999999
 21
-0.3749999999999999
 31
0.0
  0
LINE
  5
E0
330
BF
100
AcDbEntity
  8
AM_9
100
AcDbLine
 10
-0.5524999999999999
 20
0.3749999999999999
 30
0.0
 11
-0.6244
 21
0.3749999999999999
 31
0.0
  0
LINE
  5
E1
330
BF
100
AcDbEntity
  8
AM_9
100
AcDbLine
 10
-0.8405999999999999
 20
0.3749999999999999
 30
0.0
 11
-0.9093933982822017
 21
0.3749999999999999
 31
0.0
  0
LINE
  5
E2
330
BF
100
AcDbEntity
  8
AM_9
100
AcDbLine
 10
-0.5375
 20
0.3749999999999999
 30
0.0
 11
-0.5449999999999999
 21
0.3825
 31
0.0
  0
LINE
  5
E3
330
BF
100
AcDbEntity
  8
AM_9
100
AcDbLine
 10
-0.5449999999999999
 20
-0.3825
 30
0.0
 11
-0.5375
 21
-0.3749999999999999
 31
0.0
  0
LINE
  5
E4
330
BF
100
AcDbEntity
  8
AM_9
100
AcDbLine
 10
-0.5375
 20
0.3749999999999999
 30
0.0
 11
-0.5375
 21
-0.3749999999999999
 31
0.0
  0
LINE
  5
E5
330
BF
100
AcDbEntity
  8
AM_9
100
AcDbLine
 10
-0.5524999999999999
 20
-0.3749999999999999
 30
0.0
 11
-0.5449999999999999
 21
-0.3825
 31
0.0
  0
LINE
  5
E6
330
BF
100
AcDbEntity
  8
AM_9
100
AcDbLine
 10
-0.5449999999999999
 20
0.3825
 30
0.0
 11
-0.5524999999999999
 21
0.3749999999999999
 31
0.0
  0
LINE
  5
E7
330
BF
100
AcDbEntity
  8
AM_9
100
AcDbLine
 10
-0.5449999999999999
 20
0.3825
 30
0.0
 11
-0.5449999999999999
 21
-0.3825
 31
0.0
  0
LINE
  5
E8
330
BF
100
AcDbEntity
  8
AM_9
100
AcDbLine
 10
-0.5524999999999999
 20
0.3749999999999999
 30
0.0
 11
-0.5524999999999999
 21
-0.3749999999999999
 31
0.0
  0
LINE
  5
E9
330
BF
100
AcDbEntity
  8
AM_9
100
AcDbLine
 10
0.2893933982822018
 20
-0.3749999999999999
 30
0.0
 11
0.3
 21
-0.3856066017177982
 31
0.0
  0
LINE
  5
EA
330
BF
100
AcDbEntity
  8
AM_9
100
AcDbLine
 10
0.3
 20
0.3856066017177982
 30
0.0
 11
0.2893933982822018
 21
0.3749999999999999
 31
0.0
  0
LINE
  5
EB
330
BF
100
AcDbEntity
  8
AM_9
100
AcDbLine
 10
0.2893933982822018
 20
0.3749999999999999
 30
0.0
 11
0.2893933982822018
 21
-0.3749999999999999
 31
0.0
  0
LINE
  5
EC
330
BF
100
AcDbEntity
  8
AM_9
100
AcDbLine
 10
-0.9093933982822017
 20
0.3749999999999999
 30
0.0
 11
-0.9199999999999999
 21
0.3856066017177983
 31
0.0
  0
LINE
  5
ED
330
BF
100
AcDbEntity
  8
AM_9
100
AcDbLine
 10
-0.9199999999999999
 20
-0.3856066017177983
 30
0.0
 11
-0.9093933982822017
 21
-0.3749999999999999
 31
0.0
  0
LINE
  5
EE
330
BF
100
AcDbEntity
  8
AM_9
100
AcDbLine
 10
-0.9093933982822017
 20
0.3749999999999999
 30
0.0
 11
-0.9093933982822017
 21
-0.3749999999999999
 31
0.0
  0
LINE
  5
EF
330
BF
100
AcDbEntity
  8
AM_9
100
AcDbLine
 10
-0.4699999999999999
 20
-0.5333333333333333
 30
0.0
 11
-0.445
 21
-0.5333333333333333
 31
0.0
  0
LINE
  5
F0
330
BF
100
AcDbEntity
  8
AM_9
100
AcDbLine
 10
-0.445
 20
0.5333333333333333
 30
0.0
 11
-0.4532676518883415
 21
0.5333333333333333
 31
0.0
  0
LINE
  5
F1
330
BF
100
AcDbEntity
  8
AM_9
100
AcDbLine
 10
0.29
 20
-0.56
 30
0.0
 11
0.3
 21
-0.56
 31
0.0
  0
LINE
  5
F2
330
BF
100
AcDbEntity
  8
AM_9
100
AcDbLine
 10
0.3
 20
0.56
 30
0.0
 11
0.29
 21
0.56
 31
0.0
  0
LINE
  5
F3
330
BF
100
AcDbEntity
  8
AM_9
100
AcDbLine
 10
0.3
 20
0.56
 30
0.0
 11
0.3
 21
-0.56
 31
0.0
  0
LINE
  5
F4
330
BF
100
AcDbEntity
  8
AM_9
100
AcDbLine
 10
-0.445
 20
-0.56
 30
0.0
 11
-0.29
 21
-0.56
 31
0.0
  0
LINE
  5
F5
330
BF
100
AcDbEntity
  8
AM_9
100
AcDbLine
 10
-0.29
 20
0.56
 30
0.0
 11
-0.445
 21
0.56
 31
0.0
  0
LINE
  5
F6
330
BF
100
AcDbEntity
  8
AM_9
100
AcDbLine
 10
-0.445
 20
0.56
 30
0.0
 11
-0.445
 21
-0.56
 31
0.0
  0
LINE
  5
F7
330
BF
100
AcDbEntity
  8
AM_9
100
AcDbLine
 10
-0.6493719211822658
 20
-0.655
 30
0.0
 11
-0.5
 21
-0.655
 31
0.0
  0
LINE
  5
F8
330
BF
100
AcDbEntity
  8
AM_9
100
AcDbLine
 10
-0.4699999999999999
 20
0.431940298507463
 30
0.0
 11
-0.4699999999999999
 21
-0.625
 31
0.0
  0
ARC
  5
F9
330
BF
100
AcDbEntity
  8
AM_9
100
AcDbCircle
 10
-0.5000000000000001
 20
-0.6249999999999998
 30
0.0
 40
0.0300000000000002
100
AcDbArc
 50
270.0
 51
0.0000008537736463
  0
LINE
  5
FA
330
BF
100
AcDbEntity
  8
AM_9
100
AcDbLine
 10
-0.4999999999999999
 20
0.2501492537313427
 30
0.0
 11
-0.5
 21
-0.655
 31
0.0
  0
LINE
  5
FB
330
BF
100
AcDbEntity
  8
AM_9
100
AcDbLine
 10
-0.18
 20
-0.8811428571428572
 30
0.0
 11
-0.12
 21
-0.8811428571428572
 31
0.0
  0
LINE
  5
FC
330
BF
100
AcDbEntity
  8
AM_9
100
AcDbLine
 10
-0.12
 20
0.8811428571428572
 30
0.0
 11
-0.18
 21
0.8811428571428572
 31
0.0
  0
LINE
  5
FD
330
BF
100
AcDbEntity
  8
AM_9
100
AcDbLine
 10
-0.2899999999999999
 20
0.8676629760454231
 30
0.0
 11
-0.2899999999999999
 21
-0.8676629760454231
 31
0.0
  0
ARC
  5
FE
330
BF
100
AcDbEntity
  8
AM_9
100
AcDbCircle
 10
-0.2750000000000001
 20
-0.867662976045423
 30
0.0
 40
0.0149999999999998
100
AcDbArc
 50
180.0
 51
252.4143350008096
  0
ARC
  5
FF
330
BF
100
AcDbEntity
  8
AM_9
100
AcDbCircle
 10
-0.2750000000000001
 20
0.867662976045423
 30
0.0
 40
0.0149999999999998
100
AcDbArc
 50
107.5856649991903
 51
180.0
  0
LINE
  5
100
330
BF
100
AcDbEntity
  8
AM_9
100
AcDbLine
 10
0.29
 20
0.8676629760454226
 30
0.0
 11
0.29
 21
-0.8676629760454226
 31
0.0
  0
ARC
  5
101
330
BF
100
AcDbEntity
  8
AM_9
100
AcDbCircle
 10
0.2750000000000004
 20
-0.8676629760454232
 30
0.0
 40
0.0149999999999996
100
AcDbArc
 50
287.5856649991902
 51
0.0
  0
ARC
  5
102
330
BF
100
AcDbEntity
  8
AM_9
100
AcDbCircle
 10
0.2750000000000004
 20
0.8676629760454232
 30
0.0
 40
0.0149999999999996
100
AcDbArc
 50
0.0
 51
72.41433500080981
  0
ARC
  5
103
330
BF
100
AcDbEntity
  8
AM_9
100
AcDbCircle
 10
-0.0000000000000074
 20
0.0000000000000452
 30
0.0
 40
0.9251999999999546
100
AcDbArc
 50
101.2185847845105
 51
107.5856649991911
  0
ARC
  5
104
330
BF
100
AcDbEntity
  8
AM_9
100
AcDbCircle
 10
-0.000000000002912
 20
-0.0000000000113707
 30
0.0
 40
0.9251999999882988
100
AcDbArc
 50
252.4143350007688
 51
258.7814152155297
  0
LINE
  5
105
330
BF
100
AcDbEntity
  8
AM_9
100
AcDbLine
 10
-0.2795319709953856
 20
0.8819619703770877
 30
0.0
 11
-0.2795319709953856
 21
-0.8819619703771066
 31
0.0
  0
LINE
  5
106
330
BF
100
AcDbEntity
  8
AM_9
100
AcDbLine
 10
-0.18
 20
0.9075213716491755
 30
0.0
 11
-0.18
 21
-0.9075213716491942
 31
0.0
  0
ARC
  5
107
330
BF
100
AcDbEntity
  8
AM_9
100
AcDbCircle
 10
0.0000000000000022
 20
0.0000000000000278
 30
0.0
 40
0.9251999999999729
100
AcDbArc
 50
72.41433500080893
 51
97.45235424469989
  0
ARC
  5
108
330
BF
100
AcDbEntity
  8
AM_9
100
AcDbCircle
 10
-0.0000000000000004
 20
0.0000000000000081
 30
0.0
 40
0.9252000000000079
100
AcDbArc
 50
262.5476457553006
 51
287.5856649991906
  0
LINE
  5
109
330
BF
100
AcDbEntity
  8
AM_9
100
AcDbLine
 10
-0.12
 20
0.9173848919619291
 30
0.0
 11
-0.12
 21
-0.9173848919619289
 31
0.0
  0
LINE
  5
10A
330
BF
100
AcDbEntity
  8
AM_9
100
AcDbLine
 10
0.2795319709953857
 20
0.8819619703770877
 30
0.0
 11
0.2795319709953857
 21
-0.8819619703770877
 31
0.0
  0
ELLIPSE
  5
10B
330
BF
100
AcDbEntity
  8
AM_9
100
AcDbEllipse
 10
0.1517315709491838
 20
0.0
 30
0.0
 11
3.772261784213375E-18
 21
0.06160571010090046
 31
0.0
210
0.0
220
0.0
230
1.0
 40
0.9863998461991339
 41
0.0
 42
6.283185307179586
  0
LINE
  5
10D
330
BF
100
AcDbEntity
  8
AM_5
100
AcDbLine
 10
-0.6075
 20
0.3749999999999999
 30
0.0
 11
-0.6075
 21
0.655
 31
0.0
  0
LINE
  5
10E
330
BF
100
AcDbEntity
  8
AM_5
100
AcDbLine
 10
-0.8575
 20
0.3749999999999999
 30
0.0
 11
-0.8575
 21
0.655
 31
0.0
  0
LINE
  5
111
330
BF
100
AcDbEntity
  8
AM_7
100
AcDbLine
 10
-0.7325
 20
0.6788823215088338
 30
0.0
 11
-0.7325
 21
0.3176329653115803
 31
0.0
  0
LINE
  5
112
330
BF
100
AcDbEntity
  8
AM_4
100
AcDbLine
 10
-0.4532676518883415
 20
0.5333333333333333
 30
0.0
 11
-0.4699999999999999
 21
0.5333333333333333
 31
0.0
  0
LINE
  5
113
330
BF
100
AcDbEntity
  8
AM_4
100
AcDbLine
 10
-0.9199999999999999
 20
0.625
 30
0.0
 11
-0.9199999999999999
 21
-0.625
 31
0.0
  0
ARC
  5
114
330
BF
100
AcDbEntity
  8
AM_4
100
AcDbCircle
 10
-0.8899999999999997
 20
-0.6249999999999998
 30
0.0
 40
0.0300000000000002
100
AcDbArc
 50
180.0
 51
270.0
  0
ARC
  5
115
330
BF
100
AcDbEntity
  8
AM_4
100
AcDbCircle
 10
-0.8899999999999997
 20
0.6249999999999998
 30
0.0
 40
0.0300000000000002
100
AcDbArc
 50
90.0
 51
180.0
  0
LINE
  5
116
330
BF
100
AcDbEntity
  8
AM_4
100
AcDbLine
 10
-0.8899999999999999
 20
-0.655
 30
0.0
 11
-0.6493719211822658
 21
-0.655
 31
0.0
  0
LINE
  5
117
330
BF
100
AcDbEntity
  8
AM_4
100
AcDbLine
 10
-0.5
 20
0.655
 30
0.0
 11
-0.6149618962271403
 21
0.655
 31
0.0
  0
LINE
  5
118
330
BF
100
AcDbEntity
  8
AM_4
100
AcDbLine
 10
-0.8500381037728595
 20
0.655
 30
0.0
 11
-0.8899999999999999
 21
0.655
 31
0.0
  0
LINE
  5
119
330
BF
100
AcDbEntity
  8
AM_4
100
AcDbLine
 10
-0.8899999999999999
 20
0.655
 30
0.0
 11
-0.8899999999999999
 21
-0.655
 31
0.0
  0
LWPOLYLINE
  5
11A
330
BF
100
AcDbEntity
  8
AM_4
100
AcDbPolyline
 90
       20
 70
     0
 43
0.0
 10
-0.6149618962272774
 20
0.654999999999979
 10
-0.6163232150224216
 20
0.6547940261330111
 10
-0.6203265871288998
 20
0.6542015887641351
 10
-0.6270236077548481
 20
0.653255085439835
 10
-0.6361194737975248
 20
0.6520595022828554
 10
-0.6475974330822846
 20
0.650700057415082
 10
-0.6616068307085237
 20
0.6492688545724099
 10
-0.677642806181093
 20
0.6479417514707849
 10
-0.6958434188219339
 20
0.6468420825672037
 10
-0.7154759235730297
 20
0.646144629788039
 10
-0.7359280595027194
 20
0.6459603919828931
 10
-0.756857788631092
 20
0.6463456041579035
 10
-0.7767778899982595
 20
0.6472496970512295
 10
-0.7959834182528484
 20
0.6486141534840034
 10
-0.8124757860832013
 20
0.6501680211751627
 10
-0.8270412874742985
 20
0.6518304195888395
 10
-0.8376279482447105
 20
0.6532073716782055
 10
-0.8453734633550612
 20
0.654303751732893
 10
-0.8491770243642408
 20
0.6548694485680424
 10
-0.8500381037723792
 20
0.6549999999999269
  0
LINE
  5
11B
330
BF
100
AcDbEntity
  8
AM_4
100
AcDbLine
 10
-0.4699999999999999
 20
0.625
 30
0.0
 11
-0.4699999999999999
 21
0.431940298507463
 31
0.0
  0
ARC
  5
11C
330
BF
100
AcDbEntity
  8
AM_4
100
AcDbCircle
 10
-0.5000000000000001
 20
0.6249999999999998
 30
0.0
 40
0.0300000000000002
100
AcDbArc
 50
0.0000008537736463
 51
90.0
  0
LINE
  5
11D
330
BF
100
AcDbEntity
  8
AM_4
100
AcDbLine
 10
-0.5
 20
0.655
 30
0.0
 11
-0.4999999999999999
 21
0.2501492537313427
 31
0.0
  0
ENDBLK
  5
C2
330
BF
100
AcDbEntity
  8
0
100
AcDbBlockEnd
  0
BLOCK
  5
120
330
11E
100
AcDbEntity
  8
0
100
AcDbBlockBegin
  2
4_131589H_0_in_131589_2
 70
     2
 10
0.0
 20
0.0
 30
0.0
  3
4_131589H_0_in_131589_2
  1

  0
ATTDEF
  5
122
330
11E
100
AcDbEntity
  8
AM_6
100
AcDbText
 10
5.737
 20
1.250000000000001
 30
0.0
 40
0.5
  1
P2B-SXV and P2B-SXV-NL -I-Housing
100
AcDbAttributeDefinition
  3

  2
NN
 70
     8
280
     0
  0
ATTDEF
  5
123
330
11E
100
AcDbEntity
  8
AM_6
100
AcDbText
 10
5.737
 20
0.7500000000000007
 30
0.0
 40
0.5
  1
Eccentric Collar Pillow Block Bearings -(Intermediate Duty)
100
AcDbAttributeDefinition
  3

  2
NT
 70
     8
280
     0
  0
ATTDEF
  5
124
330
11E
100
AcDbEntity
  8
AM_6
100
AcDbText
 10
5.737
 20
0.2500000000000007
 30
0.0
 40
0.5
  1
131589H
100
AcDbAttributeDefinition
  3

  2
NB
 70
     8
280
     0
  0
ATTDEF
  5
125
330
11E
100
AcDbEntity
  8
AM_6
100
AcDbText
 10
5.737
 20
-0.2499999999999993
 30
0.0
 40
0.5
  1
$PN.H
100
AcDbAttributeDefinition
  3

  2
NBSYN
 70
     8
280
     0
  0
ATTDEF
  5
126
330
11E
100
AcDbEntity
  8
AM_6
100
AcDbText
 10
5.737
 20
-0.7499999999999993
 30
0.0
 40
0.5
  1
131589
100
AcDbAttributeDefinition
  3

  2
LINA
 70
     8
280
     0
  0
ATTDEF
  5
127
330
11E
100
AcDbEntity
  8
AM_6
100
AcDbText
 10
5.737
 20
-1.249999999999999
 30
0.0
 40
0.5
  1
204
100
AcDbAttributeDefinition
  3

  2
SERIES
 70
     8
280
     0
  0
ATTDEF
  5
128
330
11E
100
AcDbEntity
  8
AM_6
100
AcDbText
 10
5.737
 20
-1.749999999999999
 30
0.0
 40
0.5
  1
3/4
100
AcDbAttributeDefinition
  3

  2
SS
 70
     8
280
     0
  0
ATTDEF
  5
129
330
11E
100
AcDbEntity
  8
AM_6
100
AcDbText
 10
5.737
 20
-2.249999999999999
 30
0.0
 40
0.5
  1
131589
100
AcDbAttributeDefinition
  3

  2
PN
 70
     8
280
     0
  0
ATTDEF
  5
12A
330
11E
100
AcDbEntity
  8
AM_6
100
AcDbText
 10
5.737
 20
-2.749999999999999
 30
0.0
 40
0.5
  1
P2B-SXV-012-NL
100
AcDbAttributeDefinition
  3

  2
DESCRIPTION
 70
     8
280
     0
  0
ATTDEF
  5
12B
330
11E
100
AcDbEntity
  8
AM_6
100
AcDbText
 10
5.737
 20
-3.249999999999999
 30
0.0
 40
0.5
  1
NO-LUBE
100
AcDbAttributeDefinition
  3

  2
LF
 70
     8
280
     0
  0
ATTDEF
  5
12C
330
11E
100
AcDbEntity
  8
AM_6
100
AcDbText
 10
5.737
 20
-3.749999999999999
 30
0.0
 40
0.5
  1
1.40
100
AcDbAttributeDefinition
  3

  2
WEIGHT
 70
     8
280
     0
  0
ATTDEF
  5
12D
330
11E
100
AcDbEntity
  8
AM_6
100
AcDbText
 10
5.737
 20
-4.249999999999999
 30
0.0
 40
0.5
  1
1.22
100
AcDbAttributeDefinition
  3

  2
A
 70
     8
280
     0
  0
ATTDEF
  5
12E
330
11E
100
AcDbEntity
  8
AM_6
100
AcDbText
 10
5.737
 20
-4.749999999999999
 30
0.0
 40
0.5
  1
5.25
100
AcDbAttributeDefinition
  3

  2
B
 70
     8
280
     0
  0
ATTDEF
  5
12F
330
11E
100
AcDbEntity
  8
AM_6
100
AcDbText
 10
5.737
 20
-5.249999999999999
 30
0.0
 40
0.5
  1
1.34
100
AcDbAttributeDefinition
  3

  2
C
 70
     8
280
     0
  0
ATTDEF
  5
130
330
11E
100
AcDbEntity
  8
AM_6
100
AcDbText
 10
5.737
 20
-5.749999999999999
 30
0.0
 40
0.5
  1
3.38
100
AcDbAttributeDefinition
  3

  2
DMIN
 70
     8
280
     0
  0
ATTDEF
  5
131
330
11E
100
AcDbEntity
  8
AM_6
100
AcDbText
 10
5.737
 20
-6.249999999999999
 30
0.0
 40
0.5
  1
4.19
100
AcDbAttributeDefinition
  3

  2
DMAX
 70
     8
280
     0
  0
ATTDEF
  5
132
330
11E
100
AcDbEntity
  8
AM_6
100
AcDbText
 10
5.737
 20
-6.749999999999999
 30
0.0
 40
0.5
  1
3/8
100
AcDbAttributeDefinition
  3

  2
F
 70
     8
280
     0
  0
ATTDEF
  5
133
330
11E
100
AcDbEntity
  8
AM_6
100
AcDbText
 10
5.737
 20
-7.249999999999999
 30
0.0
 40
0.5
  1
0.85
100
AcDbAttributeDefinition
  3

  2
G
 70
     8
280
     0
  0
ATTDEF
  5
134
330
11E
100
AcDbEntity
  8
AM_6
100
AcDbText
 10
5.737
 20
-7.749999999999999
 30
0.0
 40
0.5
  1
0.53
100
AcDbAttributeDefinition
  3

  2
H
 70
     8
280
     0
  0
ATTDEF
  5
135
330
11E
100
AcDbEntity
  8
AM_6
100
AcDbText
 10
5.737
 20
-8.25
 30
0.0
 40
0.5
  1
2.56
100
AcDbAttributeDefinition
  3

  2
J
 70
     8
280
     0
  0
ATTDEF
  5
136
330
11E
100
AcDbEntity
  8
AM_6
100
AcDbText
 10
5.737
 20
-8.75
 30
0.0
 40
0.5
  1
1.31
100
AcDbAttributeDefinition
  3

  2
L
 70
     8
280
     0
  0
ATTDEF
  5
137
330
11E
100
AcDbEntity
  8
AM_6
100
AcDbText
 10
5.737
 20
-9.25
 30
0.0
 40
0.5
  1
1.31
100
AcDbAttributeDefinition
  3

  2
M
 70
     8
280
     0
  0
ATTDEF
  5
138
330
11E
100
AcDbEntity
  8
AM_6
100
AcDbText
 10
5.737
 20
-9.75
 30
0.0
 40
0.5
  1
0.30
100
AcDbAttributeDefinition
  3

  2
R
 70
     8
280
     0
  0
ATTDEF
  5
139
330
11E
100
AcDbEntity
  8
AM_6
100
AcDbText
 10
5.737
 20
-10.25
 30
0.0
 40
0.5
  1
0.92
100
AcDbAttributeDefinition
  3

  2
S
 70
     8
280
     0
  0
ATTDEF
  5
13A
330
11E
100
AcDbEntity
  8
AM_6
100
AcDbText
 10
5.737
 20
-10.75
 30
0.0
 40
0.5
  1
2.25
100
AcDbAttributeDefinition
  3

  2
U
 70
     8
280
     0
  0
ATTDEF
  5
13B
330
11E
100
AcDbEntity
  8
AM_6
100
AcDbText
 10
5.737
 20
-11.25
 30
0.0
 40
0.5
  1
4.50
100
AcDbAttributeDefinition
  3

  2
V
 70
     8
280
     0
  0
ATTDEF
  5
13C
330
11E
100
AcDbEntity
  8
AM_6
100
AcDbText
 10
5.737
 20
-11.75
 30
0.0
 40
0.5
  1
0.50
100
AcDbAttributeDefinition
  3

  2
W
 70
     8
280
     0
  0
ATTDEF
  5
13D
330
11E
100
AcDbEntity
  8
AM_6
100
AcDbText
 10
5.737
 20
-12.25
 30
0.0
 40
0.5
  1
0.12
100
AcDbAttributeDefinition
  3

  2
X
 70
     8
280
     0
  0
ATTDEF
  5
13E
330
11E
100
AcDbEntity
  8
AM_6
100
AcDbText
 10
5.737
 20
-12.75
 30
0.0
 40
0.5
  1
1390
100
AcDbAttributeDefinition
  3

  2
CAPS
 70
     8
280
     0
  0
ATTDEF
  5
13F
330
11E
100
AcDbEntity
  8
AM_6
100
AcDbText
 10
5.737
 20
-13.25
 30
0.0
 40
0.5
  1
2899
100
AcDbAttributeDefinition
  3

  2
CAPD
 70
     8
280
     0
  0
ATTDEF
  5
140
330
11E
100
AcDbEntity
  8
AM_6
100
AcDbText
 10
5.737
 20
-13.75
 30
0.0
 40
0.5
  1
baldor
100
AcDbAttributeDefinition
  3

  2
COMPANY
 70
     8
280
     0
  0
LINE
  5
141
330
11E
100
AcDbEntity
  8
AM_9
100
AcDbLine
 10
-0.335
 20
-1.24275
 30
0.0
 11
0.335
 21
-1.24275
 31
0.0
  0
LINE
  5
142
330
11E
100
AcDbEntity
  8
AM_9
100
AcDbLine
 10
-0.335
 20
-1.019492860292012
 30
0.0
 11
0.3350000000000001
 21
-1.019492860292012
 31
0.0
  0
LINE
  5
143
330
11E
100
AcDbEntity
  8
AM_9
100
AcDbLine
 10
-0.335
 20
-1.051289601785703
 30
0.0
 11
0.3350000000000001
 21
-1.051289601785703
 31
0.0
  0
LINE
  5
144
330
11E
100
AcDbEntity
  8
AM_9
100
AcDbLine
 10
0.3350000000000001
 20
-1.010463204258615
 30
0.0
 11
-0.335
 21
-1.010463204258615
 31
0.0
  0
LINE
  5
145
330
11E
100
AcDbEntity
  8
AM_9
100
AcDbLine
 10
-0.2009999999999999
 20
0.3750000000000005
 30
0.0
 11
0.4793965517241379
 21
0.3750000000000005
 31
0.0
  0
LINE
  5
146
330
11E
100
AcDbEntity
  8
AM_9
100
AcDbLine
 10
-0.2009999999999999
 20
-0.3749999999999999
 30
0.0
 11
0.5360000000000001
 21
-0.3749999999999999
 31
0.0
  0
LINE
  5
147
330
11E
100
AcDbEntity
  8
AM_9
100
AcDbLine
 10
-0.536
 20
-0.9252
 30
0.0
 11
0.5360000000000001
 21
-0.9252
 31
0.0
  0
LINE
  5
148
330
11E
100
AcDbEntity
  8
AM_9
100
AcDbLine
 10
0.3885999999999998
 20
0.9252
 30
0.0
 11
-0.3886
 21
0.9252
 31
0.0
  0
LINE
  5
149
330
11E
100
AcDbEntity
  8
AM_9
100
AcDbLine
 10
-0.5359999999999999
 20
0.0319999999999995
 30
0.0
 11
-0.5359999999999999
 21
-1.29675
 31
0.0
  0
LINE
  5
14A
330
11E
100
AcDbEntity
  8
AM_9
100
AcDbLine
 10
0.5459999999999976
 20
-0.0285970149253415
 30
0.0
 11
0.5459999999999989
 21
-1.29675
 31
0.0
  0
LWPOLYLINE
  5
14B
330
11E
100
AcDbEntity
  8
AM_9
100
AcDbPolyline
 90
        5
 70
     0
 43
0.0
 10
0.536
 20
-0.1383979768638249
 10
0.5363629215210477
 20
-0.1185758566293736
 10
0.5386373376536362
 20
-0.0788322260696312
 10
0.5421108915171584
 20
-0.0389248481355469
 10
0.5442027117520615
 20
-0.0177059846468197
  0
LINE
  5
14C
330
11E
100
AcDbEntity
  8
AM_9
100
AcDbLine
 10
0.536
 20
-0.1383979768638249
 30
0.0
 11
0.5360000000000001
 21
-1.265766133230341
 31
0.0
  0
LINE
  5
14D
330
11E
100
AcDbEntity
  8
AM_9
100
AcDbLine
 10
-0.5359999999999999
 20
-1.29675
 30
0.0
 11
-0.335
 21
-1.29675
 31
0.0
  0
LINE
  5
14E
330
11E
100
AcDbEntity
  8
AM_9
100
AcDbLine
 10
-0.5359999999999999
 20
-1.24375
 30
0.0
 11
-0.335
 21
-1.24375
 31
0.0
  0
LINE
  5
14F
330
11E
100
AcDbEntity
  8
AM_9
100
AcDbLine
 10
0.335
 20
-1.29675
 30
0.0
 11
0.5459999999999989
 21
-1.29675
 31
0.0
  0
LINE
  5
150
330
11E
100
AcDbEntity
  8
AM_9
100
AcDbLine
 10
0.335
 20
-1.24375
 30
0.0
 11
0.5360000000000001
 21
-1.24375
 31
0.0
  0
LWPOLYLINE
  5
151
330
11E
100
AcDbEntity
  8
AM_9
100
AcDbPolyline
 90
        6
 70
     0
 43
0.0
 10
0.5459999999999989
 20
-1.29675
 10
0.5458848998503134
 20
-1.296485015995817
 10
0.5426535006768197
 20
-1.288953559054597
 10
0.5396856981954039
 20
-1.281500761726878
 10
0.5373158046254662
 20
-1.274188941804305
 10
0.536
 20
-1.265766133230341
  0
LINE
  5
152
330
11E
100
AcDbEntity
  8
AM_9
100
AcDbLine
 10
-0.2009999999999999
 20
-0.3749999999999999
 30
0.0
 11
-0.2009999999999999
 21
0.3750000000000005
 31
0.0
  0
LINE
  5
153
330
11E
100
AcDbEntity
  8
AM_9
100
AcDbLine
 10
0.1806863231297344
 20
0.6589219121842225
 30
0.0
 11
0.1904358522643914
 21
0.879636160321453
 31
0.0
  0
LINE
  5
154
330
11E
100
AcDbEntity
  8
AM_9
100
AcDbLine
 10
-0.1904358827472208
 20
0.87963685040553
 30
0.0
 11
-0.1806863231297343
 21
0.6589219121842225
 31
0.0
  0
LWPOLYLINE
  5
155
330
11E
100
AcDbEntity
  8
AM_9
100
AcDbPolyline
 90
       28
 70
     0
 43
0.0
 10
-0.1872418218655834
 20
0.8586689873532444
 10
-0.1856165921371165
 20
0.8530796670330226
 10
-0.1797111152165315
 20
0.8381377140418346
 10
-0.1716381293079904
 20
0.8236037091646586
 10
-0.1613968451504997
 20
0.8095818239832687
 10
-0.1491460153973951
 20
0.7962954005352377
 10
-0.1351119206465573
 20
0.7840231761708035
 10
-0.1192054927221312
 20
0.7728073999444957
 10
-0.1017511734184085
 20
0.7629285496912268
 10
-0.0830716800924554
 20
0.754610981334136
 10
-0.0632654497184764
 20
0.747979704119058
 10
-0.0425860653941744
 20
0.7431311227136073
 10
-0.0214268543475399
 20
0.7401836309862124
 10
-0.0001623771035906
 20
0.7392145033121009
 10
0.0211715531739122
 20
0.7401744871719427
 10
0.0421704667309148
 20
0.7430399784796099
 10
0.0625389457775981
 20
0.747773237973833
 10
0.0821895971307878
 20
0.7542838541960454
 10
0.1007612949862613
 20
0.762419746621133
 10
0.1181836769758924
 20
0.7721638793141141
 10
0.1341826338090233
 20
0.7833128582326506
 10
0.148463721385352
 20
0.7956200094048199
 10
0.1609422203673315
 20
0.809032823329471
 10
0.1714268070806806
 20
0.8232991753900624
 10
0.1797144406143805
 20
0.8381144708416927
 10
0.1856580789981044
 20
0.8532139853428425
 10
0.1892877493246626
 20
0.868520893261028
 10
0.1904374265966085
 20
0.8796718030384721
  0
LWPOLYLINE
  5
156
330
11E
100
AcDbEntity
  8
AM_9
100
AcDbPolyline
 90
        3
 70
     0
 43
0.0
 10
-0.1904374290170294
 20
0.8796718578902017
 10
-0.1892404634762543
 20
0.8681311903393318
 10
-0.1872418218655834
 20
0.8586689873532444
  0
LWPOLYLINE
  5
157
330
11E
100
AcDbEntity
  8
AM_9
100
AcDbPolyline
 90
       10
 70
     0
 43
0.0
 10
0.1904374265966085
 20
0.8796718030384721
 10
0.1905304192478244
 20
0.8837270674590487
 10
0.1893653832361246
 20
0.8985021452464167
 10
0.1858670733535686
 20
0.9128943659019373
 10
0.1801043119957925
 20
0.9266471032947294
 10
0.1721099561185235
 20
0.939632917254146
 10
0.1619903969481435
 20
0.9517848501034705
 10
0.1499348418716111
 20
0.9629174142836384
 10
0.1349199776760757
 20
0.9736710905960474
 10
0.1180097448280108
 20
0.983083048013155
  0
LWPOLYLINE
  5
158
330
11E
100
AcDbEntity
  8
AM_9
100
AcDbPolyline
 90
       22
 70
     0
 43
0.0
 10
0.1180097448280108
 20
0.983083048013155
 10
0.1005374971683655
 20
0.990638719779636
 10
0.0817468709034914
 20
0.9969019270224526
 10
0.0619857477764128
 20
1.001791492695147
 10
0.0414191939965858
 20
1.005275602334538
 10
0.020259319047702
 20
1.007356523199683
 10
-0.0010914458582272
 20
1.008007522938308
 10
-0.022288190264339
 20
1.007220480739522
 10
-0.0432704960296959
 20
1.005022718658646
 10
-0.0636447550978283
 20
1.001442097606089
 10
-0.0832062990355557
 20
0.9964761400296206
 10
-0.1017913038331986
 20
0.990156725716996
 10
-0.1190602593770048
 20
0.9825647841825489
 10
-0.1349677604303506
 20
0.9736311266905838
 10
-0.1492308210813445
 20
0.96347113319115
 10
-0.1615831664866134
 20
0.9522290239516585
 10
-0.1719016874728947
 20
0.9399185615209289
 10
-0.1800794868007843
 20
0.9266606110271793
 10
-0.1859551752864328
 20
0.9126764375683143
 10
-0.1894104045662467
 20
0.8982123682198494
 10
-0.1905128870652471
 20
0.8832700639209878
 10
-0.1904374290170294
 20
0.8796718578902017
  0
LINE
  5
159
330
11E
100
AcDbEntity
  8
AM_9
100
AcDbLine
 10
-0.335
 20
-1.11527402126654
 30
0.0
 11
0.3350000000000001
 21
-1.11527402126654
 31
0.0
  0
LINE
  5
15A
330
11E
100
AcDbEntity
  8
AM_9
100
AcDbLine
 10
-0.5599999999999998
 20
-0.8424999999999999
 30
0.0
 11
-0.4399999999999999
 21
-0.8424999999999999
 31
0.0
  0
LINE
  5
15B
330
11E
100
AcDbEntity
  8
AM_9
100
AcDbLine
 10
-0.4399999999999999
 20
-0.8424999999999999
 30
0.0
 11
-0.4399999999999999
 21
-0.78
 31
0.0
  0
LINE
  5
15C
330
11E
100
AcDbEntity
  8
AM_9
100
AcDbLine
 10
-0.5599999999999998
 20
-0.78
 30
0.0
 11
-0.5599999999999998
 21
-0.8424999999999999
 31
0.0
  0
LINE
  5
15D
330
11E
100
AcDbEntity
  8
AM_9
100
AcDbLine
 10
0.3350000000000002
 20
-1.31
 30
0.0
 11
0.3350000000000001
 21
-1.010463204258615
 31
0.0
  0
LINE
  5
15E
330
11E
100
AcDbEntity
  8
AM_9
100
AcDbLine
 10
-0.3349999999999999
 20
-1.31
 30
0.0
 11
-0.335
 21
-1.010463204258615
 31
0.0
  0
LINE
  5
15F
330
11E
100
AcDbEntity
  8
AM_9
100
AcDbLine
 10
-0.3349999999999999
 20
-1.239333333333333
 30
0.0
 11
0.3350000000000002
 21
-1.239333333333333
 31
0.0
  0
LWPOLYLINE
  5
160
330
11E
100
AcDbEntity
  8
AM_9
100
AcDbPolyline
 90
       12
 70
     0
 43
0.0
 10
0.0000000000000001
 20
-1.239333333333333
 10
-0.0004871644153736
 20
-1.238997082633436
 10
-0.0312925274842652
 20
-1.217793947277843
 10
-0.0569879589634259
 20
-1.200358607890083
 10
-0.0823942655071348
 20
-1.183617177391552
 10
-0.1071391619844641
 20
-1.168109996520566
 10
-0.1241863237142297
 20
-1.158112410355272
 10
-0.1406876457051125
 20
-1.149249527649715
 10
-0.1563556403793892
 20
-1.14192343793382
 10
-0.168324311652592
 20
-1.137383579943748
 10
-0.1794873751373192
 20
-1.13440400057182
 10
-0.1895626545498871
 20
-1.133333333333333
  0
LINE
  5
161
330
11E
100
AcDbEntity
  8
AM_9
100
AcDbLine
 10
-0.2224999999999997
 20
-0.7799999999999999
 30
0.0
 11
-0.2224999999999997
 21
-1.133333333333333
 31
0.0
  0
LINE
  5
162
330
11E
100
AcDbEntity
  8
AM_9
100
AcDbLine
 10
0.2224999999999999
 20
-0.7799999999999999
 30
0.0
 11
0.2224999999999999
 21
-1.133333333333333
 31
0.0
  0
LINE
  5
163
330
11E
100
AcDbEntity
  8
AM_9
100
AcDbLine
 10
-0.3349999999999999
 20
-1.133333333333333
 30
0.0
 11
0.3350000000000002
 21
-1.133333333333333
 31
0.0
  0
LWPOLYLINE
  5
164
330
11E
100
AcDbEntity
  8
AM_9
100
AcDbPolyline
 90
       15
 70
     0
 43
0.0
 10
0.1895626545498872
 20
-1.133333333333333
 10
0.1822885954561717
 20
-1.133914200766611
 10
0.1743380911553497
 20
-1.13558831349303
 10
0.1656176043542559
 20
-1.138305374558023
 10
0.1563556403793895
 20
-1.14192343793382
 10
0.1448770612188617
 20
-1.14717346164021
 10
0.1328494580341559
 20
-1.153346537254256
 10
0.1201882776240184
 20
-1.160396540200058
 10
0.1071391619844643
 20
-1.168109996520566
 10
0.0889477823992436
 20
-1.179425468938865
 10
0.0702651685235974
 20
-1.191539818171087
 10
0.0509279645969208
 20
-1.204442626579663
 10
0.0312925274842654
 20
-1.217793947277843
 10
0.0004871644153738
 20
-1.238997082633436
 10
0.0000000000000001
 20
-1.239333333333333
  0
ELLIPSE
  5
165
330
11E
100
AcDbEntity
  8
AM_9
100
AcDbEllipse
 10
0.0000000000000041
 20
0.6629126073623801
 30
0.0
 11
-0.1807744413963318
 21
2.213848410236686E-17
 31
0.0
210
0.0
220
0.0
230
1.0
 40
0.7071067811865619
 41
0.0
 42
6.283185307179586
  0
LINE
  5
166
330
11E
100
AcDbEntity
  8
AM_7
100
AcDbLine
 10
0.7370000000000001
 20
0.0
 30
0.0
 11
-0.981
 21
0.0
 31
0.0
  0
LINE
  5
167
330
11E
100
AcDbEntity
  8
AM_7
100
AcDbLine
 10
-0.5000000000000001
 20
-0.776875
 30
0.0
 11
-0.5000000000000001
 21
-0.845625
 31
0.0
  0
LINE
  5
168
330
11E
100
AcDbEntity
  8
AM_4
100
AcDbLine
 10
0.6700000000000003
 20
-0.7799999999999999
 30
0.0
 11
0.3349999999999997
 21
1.250000000000001
 31
0.0
  0
LINE
  5
169
330
11E
100
AcDbEntity
  8
AM_4
100
AcDbLine
 10
0.3349999999999997
 20
1.25
 30
0.0
 11
-0.335
 21
1.25
 31
0.0
  0
LINE
  5
16A
330
11E
100
AcDbEntity
  8
AM_4
100
AcDbLine
 10
-0.335
 20
1.250000000000001
 30
0.0
 11
-0.6699999999999999
 21
-0.7800000000000009
 31
0.0
  0
LWPOLYLINE
  5
16B
330
11E
100
AcDbEntity
  8
AM_4
100
AcDbPolyline
 90
       25
 70
     0
 43
0.0
 10
0.3051940363507132
 20
0.4891506608058952
 10
0.2860336735982204
 20
0.512907197951403
 10
0.2652317888776805
 20
0.5352679498546465
 10
0.2422849997130147
 20
0.5564741095102693
 10
0.2176163147117383
 20
0.5758731989341055
 10
0.191756267519651
 20
0.5929743106267499
 10
0.1643659630653012
 20
0.6079752091756749
 10
0.1346068209386383
 20
0.6210705978019475
 10
0.1035556843415702
 20
0.6315742792568247
 10
0.0743753737366288
 20
0.6387446631596241
 10
0.044555151702341
 20
0.6435580712458127
 10
0.0132160786361496
 20
0.6459827989081824
 10
-0.0182491821510846
 20
0.6457747698705351
 10
-0.0451407940202381
 20
0.643485358160198
 10
-0.0717173264790384
 20
0.6392779651046585
 10
-0.0985354030928322
 20
0.6329863852167029
 10
-0.1246591120322152
 20
0.6247752951903982
 10
-0.1495462498724857
 20
0.614888754165621
 10
-0.1734896339325136
 20
0.6033103828913613
 10
-0.1969049234882722
 20
0.5898112224774361
 10
-0.2191526937792065
 20
0.574757859781026
 10
-0.2428833044689459
 20
0.5559625425788547
 10
-0.2650099352029072
 20
0.5354893669350789
 10
-0.2859312398238419
 20
0.5130254941110602
 10
-0.3051940363507136
 20
0.489150660805896
  0
LINE
  5
16C
330
11E
100
AcDbEntity
  8
AM_4
100
AcDbLine
 10
0.3051940363507132
 20
0.4891506608058952
 30
0.0
 11
0.4605588810985343
 21
0.4891506608058952
 31
0.0
  0
LWPOLYLINE
  5
16D
330
11E
100
AcDbEntity
  8
AM_4
100
AcDbPolyline
 90
       14
 70
     0
 43
0.0
 10
0.6200000000000003
 20
-0.7799999999999999
 10
0.6176407128168825
 20
-0.6529241596971926
 10
0.6105808068675692
 20
-0.5268154432695797
 10
0.5988740122992227
 20
-0.4026336141957007
 10
0.5826094248872635
 20
-0.281323771177846
 10
0.5619108279627233
 20
-0.1638091553702672
 10
0.5369357503463523
 20
-0.0509841239565256
 10
0.5078742674591753
 20
0.0562926564487041
 10
0.4749475547337668
 20
0.1572047447710467
 10
0.4384062043356599
 20
0.2509841390859845
 10
0.3985283180056549
 20
0.3369171215772344
 10
0.3556173905376492
 20
0.4143496903602845
 10
0.3100000000000007
 20
0.4826925368316326
 10
0.3051940363507132
 20
0.4891506608058954
  0
LINE
  5
16E
330
11E
100
AcDbEntity
  8
AM_4
100
AcDbLine
 10
-0.4605588810985344
 20
0.4891506608058954
 30
0.0
 11
-0.3051940363507131
 21
0.4891506608058952
 31
0.0
  0
LWPOLYLINE
  5
16F
330
11E
100
AcDbEntity
  8
AM_4
100
AcDbPolyline
 90
       14
 70
     0
 43
0.0
 10
-0.305194036350713
 20
0.4891506608058956
 10
-0.3510690615379505
 20
0.4217682744959647
 10
-0.3942722391855892
 20
0.3452397059695954
 10
-0.4344747670249386
 20
0.2601473838424865
 10
-0.4713706795441914
 20
0.1671389120661739
 10
-0.5046791765707144
 20
0.0669221412709266
 10
-0.5341467603299158
 20
-0.039740218404963
 10
-0.5595491647163745
 20
-0.1520364019998678
 10
-0.5806930620943183
 20
-0.2691117677503411
 10
-0.597417534637667
 20
-0.3900753014309832
 10
-0.6095952990118527
 20
-0.5140063975107056
 10
-0.617133675076853
 20
-0.6399618655167003
 10
-0.6199752912390173
 20
-0.7669831082834501
 10
-0.6200000000000001
 20
-0.7799999999999999
  0
LINE
  5
170
330
11E
100
AcDbEntity
  8
AM_4
100
AcDbLine
 10
-0.6699999999999999
 20
-0.8744799760363401
 30
0.0
 11
-0.6199999999999998
 21
-0.8744799760363401
 31
0.0
  0
LINE
  5
171
330
11E
100
AcDbEntity
  8
AM_4
100
AcDbLine
 10
0.6200000000000002
 20
-0.8744799760363401
 30
0.0
 11
0.6700000000000003
 21
-0.8744799760363401
 31
0.0
  0
LINE
  5
172
330
11E
100
AcDbEntity
  8
AM_4
100
AcDbLine
 10
0.5743624231604233
 20
-0.9390000000000001
 30
0.0
 11
0.6700000000000003
 21
-0.9390000000000004
 31
0.0
  0
LWPOLYLINE
  5
173
330
11E
100
AcDbEntity
  8
AM_4
100
AcDbPolyline
 90
       14
 70
     0
 43
0.0
 10
0.3700000000000002
 20
-1.045
 10
0.3705258092719932
 20
-1.044657618054032
 10
0.3982933003394177
 20
-1.026617110606049
 10
0.4196525421313414
 20
-1.012889792137422
 10
0.4408541709687764
 20
-0.9995237679460219
 10
0.462362910914295
 20
-0.9863735338693048
 10
0.4835062810059302
 20
-0.9740431448860601
 10
0.4977935801393271
 20
-0.9661734169730457
 10
0.5117813053091834
 20
-0.9589569150712153
 10
0.5257307026140402
 20
-0.9523901573646103
 10
0.5391891970161805
 20
-0.9468579392816835
 10
0.5574265052097322
 20
-0.941191482705794
 10
0.5661616486112518
 20
-0.939571364136447
 10
0.5743624231604233
 20
-0.9390000000000004
  0
LINE
  5
174
330
11E
100
AcDbEntity
  8
AM_4
100
AcDbLine
 10
0.6200000000000001
 20
-0.7799999999999999
 30
0.0
 11
0.6200000000000001
 21
-0.9390000000000001
 31
0.0
  0
LINE
  5
175
330
11E
100
AcDbEntity
  8
AM_4
100
AcDbLine
 10
-0.6699999999999999
 20
-0.9390000000000004
 30
0.0
 11
-0.5743624231604229
 21
-0.9390000000000001
 31
0.0
  0
LINE
  5
176
330
11E
100
AcDbEntity
  8
AM_4
100
AcDbLine
 10
-0.6199999999999998
 20
-0.7799999999999999
 30
0.0
 11
0.6200000000000001
 21
-0.7799999999999999
 31
0.0
  0
LWPOLYLINE
  5
177
330
11E
100
AcDbEntity
  8
AM_4
100
AcDbPolyline
 90
       12
 70
     0
 43
0.0
 10
-0.5743624231604229
 20
-0.9390000000000004
 10
-0.5634779323828722
 20
-0.9399747444032542
 10
-0.5516737907948547
 20
-0.9426956975357706
 10
-0.5391891970161806
 20
-0.9468579392816833
 10
-0.5213783591241788
 20
-0.9543521618515521
 10
-0.5027140691859727
 20
-0.9635656809839462
 10
-0.4835062810059309
 20
-0.9740431448860594
 10
-0.4556294559847704
 20
-0.9904242710750545
 10
-0.4270922604920309
 20
-1.008153131450715
 10
-0.398293300339418
 20
-1.026617110606048
 10
-0.3705258092719745
 20
-1.044657618054003
 10
-0.3700000000000002
 20
-1.045
  0
LINE
  5
178
330
11E
100
AcDbEntity
  8
AM_4
100
AcDbLine
 10
-0.6199999999999998
 20
-0.7799999999999999
 30
0.0
 11
-0.6199999999999998
 21
-0.9390000000000001
 31
0.0
  0
LINE
  5
179
330
11E
100
AcDbEntity
  8
AM_4
100
AcDbLine
 10
-0.6699999999999999
 20
-1.31
 30
0.0
 11
0.6700000000000003
 21
-1.31
 31
0.0
  0
LINE
  5
17A
330
11E
100
AcDbEntity
  8
AM_4
100
AcDbLine
 10
0.6700000000000003
 20
-1.31
 30
0.0
 11
0.6700000000000003
 21
-0.7799999999999999
 31
0.0
  0
LINE
  5
17B
330
11E
100
AcDbEntity
  8
AM_4
100
AcDbLine
 10
0.3700000000000002
 20
-1.045
 30
0.0
 11
0.6700000000000003
 21
-1.045
 31
0.0
  0
LINE
  5
17C
330
11E
100
AcDbEntity
  8
AM_4
100
AcDbLine
 10
0.3700000000000002
 20
-0.7799999999999999
 30
0.0
 11
0.3700000000000002
 21
-1.045
 31
0.0
  0
LINE
  5
17D
330
11E
100
AcDbEntity
  8
AM_4
100
AcDbLine
 10
-0.3700000000000002
 20
-0.7799999999999999
 30
0.0
 11
-0.3700000000000002
 21
-1.045
 31
0.0
  0
LINE
  5
17E
330
11E
100
AcDbEntity
  8
AM_4
100
AcDbLine
 10
-0.6699999999999999
 20
-1.045
 30
0.0
 11
-0.3700000000000002
 21
-1.045
 31
0.0
  0
LINE
  5
17F
330
11E
100
AcDbEntity
  8
AM_4
100
AcDbLine
 10
-0.6699999999999999
 20
-1.31
 30
0.0
 11
-0.6699999999999999
 21
-0.7800000000000009
 31
0.0
  0
ENDBLK
  5
121
330
11E
100
AcDbEntity
  8
0
100
AcDbBlockEnd
  0
ENDSEC
  0
SECTION
  2
ENTITIES
  0
INSERT
  5
6F
330
1F
100
AcDbEntity
  8
0
100
AcDbBlockReference
  2
1_131589_2
 10
0.0
 20
0.0
 30
0.0
  0
POINT
  5
181
330
1F
100
AcDbEntity
  8
ConnectionPoints
100
AcDbPoint
 10
-0.92
 20
0.0
 30
0.0000000000000001
  0
POINT
  5
182
330
1F
100
AcDbEntity
  8
ConnectionPoints
100
AcDbPoint
 10
0.0000000000000001
 20
0.8838834764831847
 30
0.8838834764831842
  0
POINT
  5
183
330
1F
100
AcDbEntity
  8
ConnectionPoints
100
AcDbPoint
 10
0.0000000000000001
 20
0.8838834764831847
 30
0.8838834764831842
  0
POINT
  5
184
330
1F
100
AcDbEntity
  8
ConnectionPoints
100
AcDbPoint
 10
-0.92
 20
0.0
 30
0.0000000000000001
  0
ENDSEC
  0
SECTION
  2
OBJECTS
  0
DICTIONARY
  5
C
330
0
100
AcDbDictionary
281
     1
  3
ACAD_DETAILVIEWSTYLE
350
18C
  3
ACAD_GROUP
350
D
  3
ACAD_LAYOUT
350
1A
  3
ACAD_MATERIAL
350
43
  3
ACAD_MLEADERSTYLE
350
6B
  3
ACAD_MLINESTYLE
350
17
  3
ACAD_PLOTSETTINGS
350
19
  3
ACAD_PLOTSTYLENAME
350
E
  3
ACAD_SCALELIST
350
47
  3
ACAD_SECTIONVIEWSTYLE
350
18D
  3
ACAD_TABLESTYLE
350
69
  3
ACAD_VISUALSTYLE
350
2A
  3
ACDB_RECOMPOSE_DATA
350
189
  3
AcDbVariableDictionary
350
185
  0
SUN
  5
6D
330
29
100
AcDbSun
 90
        1
290
     0
 63
     7
421
 16777215
 40
1.0
291
     1
 91
  2455826
 92
 54000000
292
     0
 70
     2
 71
   256
280
     1
  0
DICTIONARY
  5
18C
102
{ACAD_REACTORS
330
C
102
}
330
C
100
AcDbDictionary
281
     1
  0
DICTIONARY
  5
D
102
{ACAD_REACTORS
330
C
102
}
330
C
100
AcDbDictionary
281
     1
  0
DICTIONARY
  5
1A
102
{ACAD_REACTORS
330
C
102
}
330
C
100
AcDbDictionary
281
     1
  3
Layout1
350
1E
  3
Layout2
350
26
  3
Model
350
22
  0
DICTIONARY
  5
43
102
{ACAD_REACTORS
330
C
102
}
330
C
100
AcDbDictionary
281
     1
  3
ByBlock
350
45
  3
ByLayer
350
44
  3
Global
350
46
  0
DICTIONARY
  5
6B
102
{ACAD_REACTORS
330
C
102
}
330
C
100
AcDbDictionary
281
     1
  3
Standard
350
6C
  0
DICTIONARY
  5
17
102
{ACAD_REACTORS
330
C
102
}
330
C
100
AcDbDictionary
281
     1
  3
Standard
350
18
  0
DICTIONARY
  5
19
102
{ACAD_REACTORS
330
C
102
}
330
C
100
AcDbDictionary
281
     1
  0
ACDBDICTIONARYWDFLT
  5
E
102
{ACAD_REACTORS
330
C
102
}
330
C
100
AcDbDictionary
281
     1
  3
Normal
350
F
100
AcDbDictionaryWithDefault
340
F
  0
DICTIONARY
  5
47
102
{ACAD_REACTORS
330
C
102
}
330
C
100
AcDbDictionary
281
     1
  3
A0
350
48
  3
A1
350
49
  3
A2
350
4A
  3
A3
350
4B
  3
A4
350
4C
  3
A5
350
4D
  3
A6
350
4E
  3
A7
350
4F
  3
A8
350
50
  3
A9
350
51
  3
B0
350
52
  3
B1
350
53
  3
B2
350
54
  3
B3
350
55
  3
B4
350
56
  3
B5
350
57
  3
B6
350
58
  3
B7
350
59
  3
B8
350
5A
  3
B9
350
5B
  3
C0
350
5C
  3
C1
350
5D
  3
C2
350
5E
  3
C3
350
5F
  3
C4
350
60
  3
C5
350
61
  3
C6
350
62
  3
C7
350
63
  3
C8
350
64
  3
C9
350
65
  3
D0
350
66
  3
D1
350
67
  3
D2
350
68
  0
DICTIONARY
  5
18D
102
{ACAD_REACTORS
330
C
102
}
330
C
100
AcDbDictionary
281
     1
  0
DICTIONARY
  5
69
102
{ACAD_REACTORS
330
C
102
}
330
C
100
AcDbDictionary
281
     1
  3
Standard
350
6A
  0
DICTIONARY
  5
2A
102
{ACAD_REACTORS
330
C
102
}
330
C
100
AcDbDictionary
281
     1
  3
2dWireframe
350
2F
  3
Basic
350
32
  3
Brighten
350
36
  3
ColorChange
350
3A
  3
Conceptual
350
34
  3
Dim
350
35
  3
EdgeColorOff
350
3D
  3
Facepattern
350
39
  3
Flat
350
2B
  3
FlatWithEdges
350
2C
  3
Gouraud
350
2D
  3
GouraudWithEdges
350
2E
  3
Hidden
350
31
  3
JitterOff
350
3B
  3
Linepattern
350
38
  3
OverhangOff
350
3C
  3
Realistic
350
33
  3
Shaded
350
42
  3
Shaded with edges
350
41
  3
Shades of Gray
350
3E
  3
Sketchy
350
3F
  3
Thicken
350
37
  3
Wireframe
350
30
  3
X-Ray
350
40
  0
XRECORD
  5
189
102
{ACAD_REACTORS
330
C
102
}
330
C
100
AcDbXrecord
280
     1
 90
        1
330
6A
  0
DICTIONARY
  5
185
102
{ACAD_REACTORS
330
C
102
}
330
C
100
AcDbDictionary
281
     1
  3
CANNOSCALE
350
186
  3
CMLEADERSTYLE
350
18B
  3
CTABLESTYLE
350
18A
  0
LAYOUT
  5
1E
102
{ACAD_REACTORS
330
1A
102
}
330
1A
100
AcDbPlotSettings
  1

  2
none_device
  4

  6

 40
0.0
 41
0.0
 42
0.0
 43
0.0
 44
0.0
 45
0.0
 46
0.0
 47
0.0
 48
0.0
 49
0.0
140
0.0
141
0.0
142
1.0
143
1.0
 70
   688
 72
     0
 73
     0
 74
     5
  7

 75
    16
 76
     0
 77
     2
 78
   300
147
1.0
148
0.0
149
0.0
100
AcDbLayout
  1
Layout1
 70
     1
 71
     1
 10
0.0
 20
0.0
 11
12.0
 21
9.0
 12
0.0
 22
0.0
 32
0.0
 14
1.000000000000000E+20
 24
1.000000000000000E+20
 34
1.000000000000000E+20
 15
-1.000000000000000E+20
 25
-1.000000000000000E+20
 35
-1.000000000000000E+20
146
0.0
 13
0.0
 23
0.0
 33
0.0
 16
1.0
 26
0.0
 36
0.0
 17
0.0
 27
1.0
 37
0.0
 76
     0
330
1B
  0
LAYOUT
  5
26
102
{ACAD_REACTORS
330
1A
102
}
330
1A
100
AcDbPlotSettings
  1

  2
none_device
  4

  6

 40
0.0
 41
0.0
 42
0.0
 43
0.0
 44
0.0
 45
0.0
 46
0.0
 47
0.0
 48
0.0
 49
0.0
140
0.0
141
0.0
142
1.0
143
1.0
 70
   688
 72
     0
 73
     0
 74
     5
  7

 75
    16
 76
     0
 77
     2
 78
   300
147
1.0
148
0.0
149
0.0
100
AcDbLayout
  1
Layout2
 70
     1
 71
     2
 10
0.0
 20
0.0
 11
0.0
 21
0.0
 12
0.0
 22
0.0
 32
0.0
 14
0.0
 24
0.0
 34
0.0
 15
0.0
 25
0.0
 35
0.0
146
0.0
 13
0.0
 23
0.0
 33
0.0
 16
1.0
 26
0.0
 36
0.0
 17
0.0
 27
1.0
 37
0.0
 76
     0
330
23
  0
LAYOUT
  5
22
102
{ACAD_REACTORS
330
1A
102
}
330
1A
100
AcDbPlotSettings
  1

  2
none_device
  4
Letter_(8.50_x_11.00_Inches)
  6

 40
6.35
 41
6.35
 42
6.35000508
 43
6.35000508
 44
215.9
 45
279.4
 46
0.0
 47
0.0
 48
0.0
 49
0.0
140
0.0
141
0.0
142
1.0
143
1.0
 70
  1712
 72
     0
 73
     0
 74
     0
  7

 75
     0
 76
     0
 77
     2
 78
   300
147
1.0
148
0.0
149
0.0
100
AcDbLayout
  1
Model
 70
     1
 71
     0
 10
0.0
 20
0.0
 11
12.0
 21
9.0
 12
0.0
 22
0.0
 32
0.0
 14
1.000000000000000E+20
 24
1.000000000000000E+20
 34
1.000000000000000E+20
 15
-1.000000000000000E+20
 25
-1.000000000000000E+20
 35
-1.000000000000000E+20
146
0.0
 13
0.0
 23
0.0
 33
0.0
 16
1.0
 26
0.0
 36
0.0
 17
0.0
 27
1.0
 37
0.0
 76
     0
330
1F
331
29
  0
MATERIAL
  5
45
102
{ACAD_REACTORS
330
43
102
}
330
43
100
AcDbMaterial
  1
ByBlock
 72
     1
 94
      127
  0
MATERIAL
  5
44
102
{ACAD_REACTORS
330
43
102
}
330
43
100
AcDbMaterial
  1
ByLayer
 72
     1
 94
      127
  0
MATERIAL
  5
46
102
{ACAD_REACTORS
330
43
102
}
330
43
100
AcDbMaterial
  1
Global
 72
     1
 94
      127
  0
MLEADERSTYLE
  5
6C
102
{ACAD_REACTORS
330
6B
102
}
330
6B
100
AcDbMLeaderStyle
179
     2
170
     2
171
     1
172
     0
 90
        2
 40
0.0
 41
0.0
173
     1
 91
-1056964608
340
14
 92
       -2
290
     1
 42
0.09
291
     1
 43
0.36
  3
Standard
341
0
 44
0.18
300

342
11
174
     1
178
     6
175
     1
176
     0
 93
-1056964608
 45
0.18
292
     0
297
     0
 46
0.18
343
0
 94
-1056964608
 47
1.0
 49
1.0
140
1.0
293
     1
141
0.0
294
     1
177
     0
142
1.0
295
     0
296
     0
143
0.125
271
     0
272
     9
273
     9
298
     0
  0
MLINESTYLE
  5
18
102
{ACAD_REACTORS
330
17
102
}
330
17
100
AcDbMlineStyle
  2
Standard
 70
     0
  3

 62
   256
 51
90.0
 52
90.0
 71
     2
 49
0.5
 62
   256
  6
BYLAYER
 49
-0.5
 62
   256
  6
BYLAYER
  0
ACDBPLACEHOLDER
  5
F
102
{ACAD_REACTORS
330
E
102
}
330
E
  0
SCALE
  5
48
102
{ACAD_REACTORS
330
47
102
}
330
47
100
AcDbScale
 70
     0
300
1:1
140
1.0
141
1.0
290
     1
  0
SCALE
  5
49
102
{ACAD_REACTORS
330
47
102
}
330
47
100
AcDbScale
 70
     0
300
1:2
140
1.0
141
2.0
290
     0
  0
SCALE
  5
4A
102
{ACAD_REACTORS
330
47
102
}
330
47
100
AcDbScale
 70
     0
300
1:4
140
1.0
141
4.0
290
     0
  0
SCALE
  5
4B
102
{ACAD_REACTORS
330
47
102
}
330
47
100
AcDbScale
 70
     0
300
1:5
140
1.0
141
5.0
290
     0
  0
SCALE
  5
4C
102
{ACAD_REACTORS
330
47
102
}
330
47
100
AcDbScale
 70
     0
300
1:8
140
1.0
141
8.0
290
     0
  0
SCALE
  5
4D
102
{ACAD_REACTORS
330
47
102
}
330
47
100
AcDbScale
 70
     0
300
1:10
140
1.0
141
10.0
290
     0
  0
SCALE
  5
4E
102
{ACAD_REACTORS
330
47
102
}
330
47
100
AcDbScale
 70
     0
300
1:16
140
1.0
141
16.0
290
     0
  0
SCALE
  5
4F
102
{ACAD_REACTORS
330
47
102
}
330
47
100
AcDbScale
 70
     0
300
1:20
140
1.0
141
20.0
290
     0
  0
SCALE
  5
50
102
{ACAD_REACTORS
330
47
102
}
330
47
100
AcDbScale
 70
     0
300
1:30
140
1.0
141
30.0
290
     0
  0
SCALE
  5
51
102
{ACAD_REACTORS
330
47
102
}
330
47
100
AcDbScale
 70
     0
300
1:40
140
1.0
141
40.0
290
     0
  0
SCALE
  5
52
102
{ACAD_REACTORS
330
47
102
}
330
47
100
AcDbScale
 70
     0
300
1:50
140
1.0
141
50.0
290
     0
  0
SCALE
  5
53
102
{ACAD_REACTORS
330
47
102
}
330
47
100
AcDbScale
 70
     0
300
1:100
140
1.0
141
100.0
290
     0
  0
SCALE
  5
54
102
{ACAD_REACTORS
330
47
102
}
330
47
100
AcDbScale
 70
     0
300
2:1
140
2.0
141
1.0
290
     0
  0
SCALE
  5
55
102
{ACAD_REACTORS
330
47
102
}
330
47
100
AcDbScale
 70
     0
300
4:1
140
4.0
141
1.0
290
     0
  0
SCALE
  5
56
102
{ACAD_REACTORS
330
47
102
}
330
47
100
AcDbScale
 70
     0
300
8:1
140
8.0
141
1.0
290
     0
  0
SCALE
  5
57
102
{ACAD_REACTORS
330
47
102
}
330
47
100
AcDbScale
 70
     0
300
10:1
140
10.0
141
1.0
290
     0
  0
SCALE
  5
58
102
{ACAD_REACTORS
330
47
102
}
330
47
100
AcDbScale
 70
     0
300
100:1
140
100.0
141
1.0
290
     0
  0
SCALE
  5
59
102
{ACAD_REACTORS
330
47
102
}
330
47
100
AcDbScale
 70
     0
300
1/128" = 1'-0"
140
0.0078125
141
12.0
290
     0
  0
SCALE
  5
5A
102
{ACAD_REACTORS
330
47
102
}
330
47
100
AcDbScale
 70
     0
300
1/64" = 1'-0"
140
0.015625
141
12.0
290
     0
  0
SCALE
  5
5B
102
{ACAD_REACTORS
330
47
102
}
330
47
100
AcDbScale
 70
     0
300
1/32" = 1'-0"
140
0.03125
141
12.0
290
     0
  0
SCALE
  5
5C
102
{ACAD_REACTORS
330
47
102
}
330
47
100
AcDbScale
 70
     0
300
1/16" = 1'-0"
140
0.0625
141
12.0
290
     0
  0
SCALE
  5
5D
102
{ACAD_REACTORS
330
47
102
}
330
47
100
AcDbScale
 70
     0
300
3/32" = 1'-0"
140
0.09375
141
12.0
290
     0
  0
SCALE
  5
5E
102
{ACAD_REACTORS
330
47
102
}
330
47
100
AcDbScale
 70
     0
300
1/8" = 1'-0"
140
0.125
141
12.0
290
     0
  0
SCALE
  5
5F
102
{ACAD_REACTORS
330
47
102
}
330
47
100
AcDbScale
 70
     0
300
3/16" = 1'-0"
140
0.1875
141
12.0
290
     0
  0
SCALE
  5
60
102
{ACAD_REACTORS
330
47
102
}
330
47
100
AcDbScale
 70
     0
300
1/4" = 1'-0"
140
0.25
141
12.0
290
     0
  0
SCALE
  5
61
102
{ACAD_REACTORS
330
47
102
}
330
47
100
AcDbScale
 70
     0
300
3/8" = 1'-0"
140
0.375
141
12.0
290
     0
  0
SCALE
  5
62
102
{ACAD_REACTORS
330
47
102
}
330
47
100
AcDbScale
 70
     0
300
1/2" = 1'-0"
140
0.5
141
12.0
290
     0
  0
SCALE
  5
63
102
{ACAD_REACTORS
330
47
102
}
330
47
100
AcDbScale
 70
     0
300
3/4" = 1'-0"
140
0.75
141
12.0
290
     0
  0
SCALE
  5
64
102
{ACAD_REACTORS
330
47
102
}
330
47
100
AcDbScale
 70
     0
300
1" = 1'-0"
140
1.0
141
12.0
290
     0
  0
SCALE
  5
65
102
{ACAD_REACTORS
330
47
102
}
330
47
100
AcDbScale
 70
     0
300
1-1/2" = 1'-0"
140
1.5
141
12.0
290
     0
  0
SCALE
  5
66
102
{ACAD_REACTORS
330
47
102
}
330
47
100
AcDbScale
 70
     0
300
3" = 1'-0"
140
3.0
141
12.0
290
     0
  0
SCALE
  5
67
102
{ACAD_REACTORS
330
47
102
}
330
47
100
AcDbScale
 70
     0
300
6" = 1'-0"
140
6.0
141
12.0
290
     0
  0
SCALE
  5
68
102
{ACAD_REACTORS
330
47
102
}
330
47
100
AcDbScale
 70
     0
300
1'-0" = 1'-0"
140
12.0
141
12.0
290
     0
  0
TABLESTYLE
  5
6A
102
{ACAD_REACTORS
330
69
102
}
102
{ACAD_XDICTIONARY
360
187
102
}
330
69
100
AcDbTableStyle
  3
Standard
 70
     0
 71
     0
 40
0.06
 41
0.06
280
     0
281
     0
  7
Standard
140
0.18
170
     2
 62
     0
 63
   257
283
     0
 90
        4
 91
        0
  1

274
    -2
284
     1
 64
     0
275
    -2
285
     1
 65
     0
276
    -2
286
     1
 66
     0
277
    -2
287
     1
 67
     0
278
    -2
288
     1
 68
     0
279
    -2
289
     1
 69
     0
  7
Standard
140
0.25
170
     5
 62
     0
 63
   257
283
     0
 90
        4
 91
        0
  1

274
    -2
284
     1
 64
     0
275
    -2
285
     1
 65
     0
276
    -2
286
     1
 66
     0
277
    -2
287
     1
 67
     0
278
    -2
288
     1
 68
     0
279
    -2
289
     1
 69
     0
  7
Standard
140
0.18
170
     5
 62
     0
 63
   257
283
     0
 90
        4
 91
        0
  1

274
    -2
284
     1
 64
     0
275
    -2
285
     1
 65
     0
276
    -2
286
     1
 66
     0
277
    -2
287
     1
 67
     0
278
    -2
288
     1
 68
     0
279
    -2
289
     1
 69
     0
  0
VISUALSTYLE
  5
2F
102
{ACAD_REACTORS
330
2A
102
}
330
2A
100
AcDbVisualStyle
  2
2dWireframe
 70
     4
177
     3
291
     0
 70
    58
 90
        0
176
     1
 90
        2
176
     1
 90
        0
176
     1
 90
        0
176
     1
 40
0.6
176
     1
 40
30.0
176
     1
 62
     7
420
 16777215
176
     1
 90
        1
176
     1
 90
        4
176
     1
 62
     7
176
     1
 62
   257
176
     1
 90
        1
176
     1
 90
        1
176
     1
 40
1.0
176
     1
 90
        0
176
     1
 62
   257
176
     1
 40
1.0
176
     1
 90
        1
176
     1
 90
        6
176
     1
 90
        2
176
     1
 62
     7
176
     1
 90
        5
176
     1
 90
        0
176
     1
 90
        0
176
     1
290
     0
176
     1
 90
        1
176
     1
 40
0.0
176
     1
 90
        0
176
     1
290
     1
176
     1
290
     1
176
     1
290
     0
176
     1
290
     0
176
     1
290
     0
176
     1
290
     0
176
     1
290
     0
176
     1
290
     0
176
     1
290
     0
176
     1
 90
       50
176
     1
 40
0.0
176
     1
 40
1.0
176
     1
 90
        0
176
     1
 62
    18
420
        0
176
     1
 90
       50
176
     1
 90
        3
176
     1
 62
     5
420
      255
176
     1
290
     0
176
     1
 90
       50
176
     1
 90
       50
176
     1
 90
       50
176
     1
290
     0
176
     1
 90
       50
176
     1
 62
   256
176
     0
 40
1.0
176
     0
 90
        2
176
     1
  1
strokes_ogs.tif
176
     1
290
     0
176
     1
 40
1.0
176
     1
 40
1.0
176
     1
  0
VISUALSTYLE
  5
32
102
{ACAD_REACTORS
330
2A
102
}
330
2A
100
AcDbVisualStyle
  2
Basic
 70
     7
177
     3
291
     1
 70
    58
 90
        1
176
     1
 90
        0
176
     1
 90
        1
176
     1
 90
        0
176
     1
 40
0.6
176
     1
 40
30.0
176
     1
 62
     7
420
 16777215
176
     1
 90
        0
176
     1
 90
        4
176
     1
 62
     7
176
     1
 62
   257
176
     1
 90
        1
176
     1
 90
        1
176
     1
 40
1.0
176
     1
 90
        8
176
     1
 62
     7
176
     1
 40
1.0
176
     1
 90
        1
176
     1
 90
        6
176
     1
 90
        2
176
     1
 62
     7
176
     1
 90
        5
176
     1
 90
        0
176
     1
 90
        0
176
     1
290
     0
176
     1
 90
        1
176
     1
 40
0.0
176
     1
 90
        0
176
     1
290
     0
176
     1
290
     1
176
     1
290
     1
176
     1
290
     0
176
     1
290
     0
176
     1
290
     0
176
     1
290
     0
176
     1
290
     0
176
     1
290
     0
176
     1
 90
       50
176
     1
 40
0.0
176
     1
 40
1.0
176
     1
 90
        0
176
     1
 62
    18
420
        0
176
     1
 90
       50
176
     1
 90
        3
176
     1
 62
     5
420
      255
176
     1
290
     0
176
     1
 90
       50
176
     1
 90
       50
176
     1
 90
       50
176
     1
290
     0
176
     1
 90
       50
176
     1
 62
   256
176
     0
 40
1.0
176
     0
 90
        2
176
     1
  1
strokes_ogs.tif
176
     1
290
     0
176
     1
 40
1.0
176
     1
 40
1.0
176
     1
  0
VISUALSTYLE
  5
36
102
{ACAD_REACTORS
330
2A
102
}
330
2A
100
AcDbVisualStyle
  2
Brighten
 70
    12
177
     3
291
     1
 70
    58
 90
        2
176
     1
 90
        2
176
     1
 90
        0
176
     1
 90
        0
176
     1
 40
0.6
176
     1
 40
30.0
176
     1
 62
     7
420
 16777215
176
     1
 90
        1
176
     1
 90
        4
176
     1
 62
     7
176
     1
 62
   257
176
     1
 90
        1
176
     1
 90
        1
176
     1
 40
1.0
176
     1
 90
        8
176
     1
 62
     7
176
     1
 40
1.0
176
     1
 90
        1
176
     1
 90
        6
176
     1
 90
        2
176
     1
 62
     7
176
     1
 90
        5
176
     1
 90
        0
176
     1
 90
        0
176
     1
290
     0
176
     1
 90
        1
176
     1
 40
50.0
176
     1
 90
        0
176
     1
290
     0
176
     1
290
     1
176
     1
290
     1
176
     1
290
     0
176
     1
290
     0
176
     1
290
     0
176
     1
290
     0
176
     1
290
     0
176
     1
290
     0
176
     1
 90
       50
176
     1
 40
0.0
176
     1
 40
1.0
176
     1
 90
        0
176
     1
 62
    18
420
        0
176
     1
 90
       50
176
     1
 90
        3
176
     1
 62
     5
420
      255
176
     1
290
     0
176
     1
 90
       50
176
     1
 90
       50
176
     1
 90
       50
176
     1
290
     0
176
     1
 90
       50
176
     1
 62
   256
176
     0
 40
1.0
176
     0
 90
        2
176
     1
  1
strokes_ogs.tif
176
     1
290
     0
176
     1
 40
1.0
176
     1
 40
1.0
176
     1
  0
VISUALSTYLE
  5
3A
102
{ACAD_REACTORS
330
2A
102
}
330
2A
100
AcDbVisualStyle
  2
ColorChange
 70
    16
177
     3
291
     1
 70
    58
 90
        2
176
     1
 90
        2
176
     1
 90
        3
176
     1
 90
        0
176
     1
 40
0.6
176
     1
 40
30.0
176
     1
 62
     8
420
  8421504
176
     1
 90
        1
176
     1
 90
        4
176
     1
 62
     7
176
     1
 62
   257
176
     1
 90
        1
176
     1
 90
        1
176
     1
 40
1.0
176
     1
 90
        8
176
     1
 62
     8
420
  8421504
176
     1
 40
1.0
176
     1
 90
        1
176
     1
 90
        6
176
     1
 90
        2
176
     1
 62
     7
176
     1
 90
        5
176
     1
 90
        0
176
     1
 90
        0
176
     1
290
     0
176
     1
 90
        1
176
     1
 40
0.0
176
     1
 90
        0
176
     1
290
     0
176
     1
290
     1
176
     1
290
     1
176
     1
290
     0
176
     1
290
     0
176
     1
290
     0
176
     1
290
     0
176
     1
290
     0
176
     1
290
     0
176
     1
 90
       50
176
     1
 40
0.0
176
     1
 40
1.0
176
     1
 90
        0
176
     1
 62
    18
420
        0
176
     1
 90
       50
176
     1
 90
        3
176
     1
 62
     5
420
      255
176
     1
290
     0
176
     1
 90
       50
176
     1
 90
       50
176
     1
 90
       50
176
     1
290
     0
176
     1
 90
       50
176
     1
 62
   256
176
     0
 40
1.0
176
     0
 90
        2
176
     1
  1
strokes_ogs.tif
176
     1
290
     0
176
     1
 40
1.0
176
     1
 40
1.0
176
     1
  0
VISUALSTYLE
  5
34
102
{ACAD_REACTORS
330
2A
102
}
330
2A
100
AcDbVisualStyle
  2
Conceptual
 70
     9
177
     3
291
     0
 70
    58
 90
        3
176
     1
 90
        2
176
     1
 90
        0
176
     1
 90
        0
176
     1
 40
0.6
176
     1
 40
30.0
176
     1
 62
     7
420
 16777215
176
     1
 90
        2
176
     1
 90
        2
176
     1
 62
     7
176
     1
 62
   257
176
     1
 90
        1
176
     1
 90
        1
176
     1
 40
179.0
176
     1
 90
        8
176
     1
 62
     7
176
     1
 40
1.0
176
     1
 90
        1
176
     1
 90
        6
176
     1
 90
        2
176
     1
 62
     7
176
     1
 90
        3
176
     1
 90
        0
176
     1
 90
        0
176
     1
290
     0
176
     1
 90
        1
176
     1
 40
0.0
176
     1
 90
        0
176
     1
290
     0
176
     1
290
     1
176
     1
290
     1
176
     1
290
     0
176
     1
290
     0
176
     1
290
     0
176
     1
290
     0
176
     1
290
     0
176
     1
290
     0
176
     1
 90
       50
176
     1
 40
0.0
176
     1
 40
1.0
176
     1
 90
        0
176
     1
 62
    18
420
        0
176
     1
 90
       50
176
     1
 90
        3
176
     1
 62
     5
420
      255
176
     1
290
     0
176
     1
 90
       50
176
     1
 90
       50
176
     1
 90
       50
176
     1
290
     0
176
     1
 90
       50
176
     1
 62
   256
176
     0
 40
1.0
176
     0
 90
        2
176
     1
  1
strokes_ogs.tif
176
     1
290
     0
176
     1
 40
1.0
176
     1
 40
1.0
176
     1
  0
VISUALSTYLE
  5
35
102
{ACAD_REACTORS
330
2A
102
}
330
2A
100
AcDbVisualStyle
  2
Dim
 70
    11
177
     3
291
     1
 70
    58
 90
        2
176
     1
 90
        2
176
     1
 90
        0
176
     1
 90
        0
176
     1
 40
0.6
176
     1
 40
30.0
176
     1
 62
     7
420
 16777215
176
     1
 90
        1
176
     1
 90
        4
176
     1
 62
     7
176
     1
 62
   257
176
     1
 90
        1
176
     1
 90
        1
176
     1
 40
1.0
176
     1
 90
        8
176
     1
 62
     7
176
     1
 40
1.0
176
     1
 90
        1
176
     1
 90
        6
176
     1
 90
        2
176
     1
 62
     7
176
     1
 90
        5
176
     1
 90
        0
176
     1
 90
        0
176
     1
290
     0
176
     1
 90
        1
176
     1
 40
-50.0
176
     1
 90
        0
176
     1
290
     0
176
     1
290
     1
176
     1
290
     1
176
     1
290
     0
176
     1
290
     0
176
     1
290
     0
176
     1
290
     0
176
     1
290
     0
176
     1
290
     0
176
     1
 90
       50
176
     1
 40
0.0
176
     1
 40
1.0
176
     1
 90
        0
176
     1
 62
    18
420
        0
176
     1
 90
       50
176
     1
 90
        3
176
     1
 62
     5
420
      255
176
     1
290
     0
176
     1
 90
       50
176
     1
 90
       50
176
     1
 90
       50
176
     1
290
     0
176
     1
 90
       50
176
     1
 62
   256
176
     0
 40
1.0
176
     0
 90
        2
176
     1
  1
strokes_ogs.tif
176
     1
290
     0
176
     1
 40
1.0
176
     1
 40
1.0
176
     1
  0
VISUALSTYLE
  5
3D
102
{ACAD_REACTORS
330
2A
102
}
330
2A
100
AcDbVisualStyle
  2
EdgeColorOff
 70
    22
177
     3
291
     1
 70
    58
 90
        2
176
     0
 90
        2
176
     0
 90
        0
176
     0
 90
        0
176
     0
 40
0.6
176
     0
 40
30.0
176
     0
 62
     7
420
 16777215
176
     0
 90
        1
176
     0
 90
        4
176
     0
 62
     7
176
     0
 62
   257
176
     0
 90
        1
176
     0
 90
        1
176
     0
 40
1.0
176
     0
 90
        8
176
     2
 62
     7
176
     0
 40
1.0
176
     0
 90
        1
176
     0
 90
        6
176
     0
 90
        2
176
     0
 62
     7
176
     0
 90
        5
176
     0
 90
        0
176
     0
 90
        0
176
     0
290
     0
176
     0
 90
        1
176
     0
 40
0.0
176
     0
 90
        0
176
     0
290
     0
176
     0
290
     1
176
     0
290
     1
176
     0
290
     0
176
     0
290
     0
176
     0
290
     0
176
     0
290
     0
176
     0
290
     0
176
     0
290
     0
176
     0
 90
       50
176
     0
 40
0.0
176
     0
 40
1.0
176
     0
 90
        0
176
     0
 62
    18
420
        0
176
     0
 90
       50
176
     0
 90
        3
176
     0
 62
     5
420
      255
176
     0
290
     0
176
     0
 90
       50
176
     0
 90
       50
176
     0
 90
       50
176
     0
290
     0
176
     0
 90
       50
176
     0
 62
   256
176
     0
 40
1.0
176
     0
 90
        2
176
     0
  1
strokes_ogs.tif
176
     0
290
     0
176
     0
 40
1.0
176
     0
 40
1.0
176
     0
  0
VISUALSTYLE
  5
39
102
{ACAD_REACTORS
330
2A
102
}
330
2A
100
AcDbVisualStyle
  2
Facepattern
 70
    15
177
     3
291
     1
 70
    58
 90
        2
176
     1
 90
        2
176
     1
 90
        0
176
     1
 90
        0
176
     1
 40
0.6
176
     1
 40
30.0
176
     1
 62
     7
420
 16777215
176
     1
 90
        1
176
     1
 90
        4
176
     1
 62
     7
176
     1
 62
   257
176
     1
 90
        1
176
     1
 90
        1
176
     1
 40
1.0
176
     1
 90
        8
176
     1
 62
     7
176
     1
 40
1.0
176
     1
 90
        1
176
     1
 90
        6
176
     1
 90
        2
176
     1
 62
     7
176
     1
 90
        5
176
     1
 90
        0
176
     1
 90
        0
176
     1
290
     0
176
     1
 90
        1
176
     1
 40
0.0
176
     1
 90
        0
176
     1
290
     0
176
     1
290
     1
176
     1
290
     1
176
     1
290
     0
176
     1
290
     0
176
     1
290
     0
176
     1
290
     0
176
     1
290
     0
176
     1
290
     0
176
     1
 90
       50
176
     1
 40
0.0
176
     1
 40
1.0
176
     1
 90
        0
176
     1
 62
    18
420
        0
176
     1
 90
       50
176
     1
 90
        3
176
     1
 62
     5
420
      255
176
     1
290
     0
176
     1
 90
       50
176
     1
 90
       50
176
     1
 90
       50
176
     1
290
     0
176
     1
 90
       50
176
     1
 62
   256
176
     0
 40
1.0
176
     0
 90
        2
176
     1
  1
strokes_ogs.tif
176
     1
290
     0
176
     1
 40
1.0
176
     1
 40
1.0
176
     1
  0
VISUALSTYLE
  5
2B
102
{ACAD_REACTORS
330
2A
102
}
330
2A
100
AcDbVisualStyle
  2
Flat
 70
     0
177
     3
291
     1
 70
    58
 90
        2
176
     1
 90
        1
176
     1
 90
        1
176
     1
 90
        2
176
     1
 40
0.6
176
     1
 40
30.0
176
     1
 62
     7
420
 16777215
176
     1
 90
        0
176
     1
 90
        0
176
     1
 62
     7
176
     1
 62
   257
176
     1
 90
        1
176
     1
 90
        1
176
     1
 40
1.0
176
     1
 90
        8
176
     1
 62
     7
176
     1
 40
1.0
176
     1
 90
        1
176
     1
 90
        6
176
     1
 90
        2
176
     1
 62
     7
176
     1
 90
        5
176
     1
 90
        0
176
     1
 90
        0
176
     1
290
     0
176
     1
 90
       13
176
     1
 40
0.0
176
     1
 90
        0
176
     1
290
     0
176
     1
290
     1
176
     1
290
     1
176
     1
290
     0
176
     1
290
     0
176
     1
290
     0
176
     1
290
     0
176
     1
290
     0
176
     1
290
     0
176
     1
 90
       50
176
     1
 40
0.0
176
     1
 40
1.0
176
     1
 90
        0
176
     1
 62
    18
420
        0
176
     1
 90
       50
176
     1
 90
        3
176
     1
 62
     5
420
      255
176
     1
290
     0
176
     1
 90
       50
176
     1
 90
       50
176
     1
 90
       50
176
     1
290
     0
176
     1
 90
       50
176
     1
 62
   256
176
     0
 40
1.0
176
     0
 90
        2
176
     1
  1
strokes_ogs.tif
176
     1
290
     0
176
     1
 40
1.0
176
     1
 40
1.0
176
     1
  0
VISUALSTYLE
  5
2C
102
{ACAD_REACTORS
330
2A
102
}
330
2A
100
AcDbVisualStyle
  2
FlatWithEdges
 70
     1
177
     3
291
     1
 70
    58
 90
        2
176
     1
 90
        1
176
     1
 90
        1
176
     1
 90
        2
176
     1
 40
0.6
176
     1
 40
30.0
176
     1
 62
     7
420
 16777215
176
     1
 90
        1
176
     1
 90
        0
176
     1
 62
     7
176
     1
 62
   257
176
     1
 90
        1
176
     1
 90
        1
176
     1
 40
1.0
176
     1
 90
        0
176
     1
 62
   257
176
     1
 40
1.0
176
     1
 90
        1
176
     1
 90
        6
176
     1
 90
        2
176
     1
 62
     7
176
     1
 90
        5
176
     1
 90
        0
176
     1
 90
        0
176
     1
290
     0
176
     1
 90
       13
176
     1
 40
0.0
176
     1
 90
        0
176
     1
290
     0
176
     1
290
     1
176
     1
290
     1
176
     1
290
     0
176
     1
290
     0
176
     1
290
     0
176
     1
290
     0
176
     1
290
     0
176
     1
290
     0
176
     1
 90
       50
176
     1
 40
0.0
176
     1
 40
1.0
176
     1
 90
        0
176
     1
 62
    18
420
        0
176
     1
 90
       50
176
     1
 90
        3
176
     1
 62
     5
420
      255
176
     1
290
     0
176
     1
 90
       50
176
     1
 90
       50
176
     1
 90
       50
176
     1
290
     0
176
     1
 90
       50
176
     1
 62
   256
176
     0
 40
1.0
176
     0
 90
        2
176
     1
  1
strokes_ogs.tif
176
     1
290
     0
176
     1
 40
1.0
176
     1
 40
1.0
176
     1
  0
VISUALSTYLE
  5
2D
102
{ACAD_REACTORS
330
2A
102
}
330
2A
100
AcDbVisualStyle
  2
Gouraud
 70
     2
177
     3
291
     1
 70
    58
 90
        2
176
     1
 90
        2
176
     1
 90
        1
176
     1
 90
        2
176
     1
 40
0.6
176
     1
 40
30.0
176
     1
 62
     7
420
 16777215
176
     1
 90
        0
176
     1
 90
        0
176
     1
 62
     7
176
     1
 62
   257
176
     1
 90
        1
176
     1
 90
        1
176
     1
 40
1.0
176
     1
 90
        0
176
     1
 62
     7
176
     1
 40
1.0
176
     1
 90
        1
176
     1
 90
        6
176
     1
 90
        2
176
     1
 62
     7
176
     1
 90
        5
176
     1
 90
        0
176
     1
 90
        0
176
     1
290
     0
176
     1
 90
       13
176
     1
 40
0.0
176
     1
 90
        0
176
     1
290
     0
176
     1
290
     1
176
     1
290
     1
176
     1
290
     0
176
     1
290
     0
176
     1
290
     0
176
     1
290
     0
176
     1
290
     0
176
     1
290
     0
176
     1
 90
       50
176
     1
 40
0.0
176
     1
 40
1.0
176
     1
 90
        0
176
     1
 62
    18
420
        0
176
     1
 90
       50
176
     1
 90
        3
176
     1
 62
     5
420
      255
176
     1
290
     0
176
     1
 90
       50
176
     1
 90
       50
176
     1
 90
       50
176
     1
290
     0
176
     1
 90
       50
176
     1
 62
   256
176
     0
 40
1.0
176
     0
 90
        2
176
     1
  1
strokes_ogs.tif
176
     1
290
     0
176
     1
 40
1.0
176
     1
 40
1.0
176
     1
  0
VISUALSTYLE
  5
2E
102
{ACAD_REACTORS
330
2A
102
}
330
2A
100
AcDbVisualStyle
  2
GouraudWithEdges
 70
     3
177
     3
291
     1
 70
    58
 90
        2
176
     1
 90
        2
176
     1
 90
        1
176
     1
 90
        2
176
     1
 40
0.6
176
     1
 40
30.0
176
     1
 62
     7
420
 16777215
176
     1
 90
        1
176
     1
 90
        0
176
     1
 62
     7
176
     1
 62
   257
176
     1
 90
        1
176
     1
 90
        1
176
     1
 40
1.0
176
     1
 90
        0
176
     1
 62
   257
176
     1
 40
1.0
176
     1
 90
        1
176
     1
 90
        6
176
     1
 90
        2
176
     1
 62
     7
176
     1
 90
        5
176
     1
 90
        0
176
     1
 90
        0
176
     1
290
     0
176
     1
 90
       13
176
     1
 40
0.0
176
     1
 90
        0
176
     1
290
     0
176
     1
290
     1
176
     1
290
     1
176
     1
290
     0
176
     1
290
     0
176
     1
290
     0
176
     1
290
     0
176
     1
290
     0
176
     1
290
     0
176
     1
 90
       50
176
     1
 40
0.0
176
     1
 40
1.0
176
     1
 90
        0
176
     1
 62
    18
420
        0
176
     1
 90
       50
176
     1
 90
        3
176
     1
 62
     5
420
      255
176
     1
290
     0
176
     1
 90
       50
176
     1
 90
       50
176
     1
 90
       50
176
     1
290
     0
176
     1
 90
       50
176
     1
 62
   256
176
     0
 40
1.0
176
     0
 90
        2
176
     1
  1
strokes_ogs.tif
176
     1
290
     0
176
     1
 40
1.0
176
     1
 40
1.0
176
     1
  0
VISUALSTYLE
  5
31
102
{ACAD_REACTORS
330
2A
102
}
330
2A
100
AcDbVisualStyle
  2
Hidden
 70
     6
177
     3
291
     0
 70
    58
 90
        1
176
     1
 90
        2
176
     1
 90
        2
176
     1
 90
        0
176
     1
 40
0.6
176
     1
 40
30.0
176
     1
 62
     7
420
 16777215
176
     1
 90
        2
176
     1
 90
        2
176
     1
 62
     7
176
     1
 62
   257
176
     1
 90
        2
176
     1
 90
        1
176
     1
 40
40.0
176
     1
 90
        0
176
     1
 62
   257
176
     1
 40
1.0
176
     1
 90
        1
176
     1
 90
        6
176
     1
 90
        2
176
     1
 62
     7
176
     1
 90
        3
176
     1
 90
        0
176
     1
 90
        0
176
     1
290
     0
176
     1
 90
        1
176
     1
 40
0.0
176
     1
 90
        0
176
     1
290
     0
176
     1
290
     1
176
     1
290
     1
176
     1
290
     0
176
     1
290
     0
176
     1
290
     0
176
     1
290
     0
176
     1
290
     0
176
     1
290
     0
176
     1
 90
       50
176
     1
 40
0.0
176
     1
 40
1.0
176
     1
 90
        0
176
     1
 62
    18
420
        0
176
     1
 90
       50
176
     1
 90
        3
176
     1
 62
     5
420
      255
176
     1
290
     0
176
     1
 90
       50
176
     1
 90
       50
176
     1
 90
       50
176
     1
290
     0
176
     1
 90
       50
176
     1
 62
   256
176
     0
 40
1.0
176
     0
 90
        2
176
     1
  1
strokes_ogs.tif
176
     1
290
     0
176
     1
 40
1.0
176
     1
 40
1.0
176
     1
  0
VISUALSTYLE
  5
3B
102
{ACAD_REACTORS
330
2A
102
}
330
2A
100
AcDbVisualStyle
  2
JitterOff
 70
    20
177
     3
291
     1
 70
    58
 90
        2
176
     0
 90
        2
176
     0
 90
        0
176
     0
 90
        0
176
     0
 40
0.6
176
     0
 40
30.0
176
     0
 62
     7
420
 16777215
176
     0
 90
        1
176
     0
 90
        4
176
     0
 62
     7
176
     0
 62
   257
176
     0
 90
        1
176
     0
 90
        1
176
     0
 40
1.0
176
     0
 90
       10
176
     2
 62
     7
176
     0
 40
1.0
176
     0
 90
        1
176
     0
 90
        6
176
     0
 90
        2
176
     0
 62
     7
176
     0
 90
        5
176
     0
 90
        0
176
     0
 90
        0
176
     0
290
     0
176
     0
 90
        1
176
     0
 40
0.0
176
     0
 90
        0
176
     0
290
     0
176
     0
290
     1
176
     0
290
     1
176
     0
290
     0
176
     0
290
     0
176
     0
290
     0
176
     0
290
     0
176
     0
290
     0
176
     0
290
     0
176
     0
 90
       50
176
     0
 40
0.0
176
     0
 40
1.0
176
     0
 90
        0
176
     0
 62
    18
420
        0
176
     0
 90
       50
176
     0
 90
        3
176
     0
 62
     5
420
      255
176
     0
290
     0
176
     0
 90
       50
176
     0
 90
       50
176
     0
 90
       50
176
     0
290
     0
176
     0
 90
       50
176
     0
 62
   256
176
     0
 40
1.0
176
     0
 90
        2
176
     0
  1
strokes_ogs.tif
176
     0
290
     0
176
     0
 40
1.0
176
     0
 40
1.0
176
     0
  0
VISUALSTYLE
  5
38
102
{ACAD_REACTORS
330
2A
102
}
330
2A
100
AcDbVisualStyle
  2
Linepattern
 70
    14
177
     3
291
     1
 70
    58
 90
        2
176
     1
 90
        2
176
     1
 90
        0
176
     1
 90
        0
176
     1
 40
0.6
176
     1
 40
30.0
176
     1
 62
     7
420
 16777215
176
     1
 90
        1
176
     1
 90
        4
176
     1
 62
     7
176
     1
 62
   257
176
     1
 90
        7
176
     1
 90
        7
176
     1
 40
1.0
176
     1
 90
        8
176
     1
 62
     7
176
     1
 40
1.0
176
     1
 90
        1
176
     1
 90
        6
176
     1
 90
        2
176
     1
 62
     7
176
     1
 90
        5
176
     1
 90
        0
176
     1
 90
        0
176
     1
290
     0
176
     1
 90
        1
176
     1
 40
0.0
176
     1
 90
        0
176
     1
290
     0
176
     1
290
     1
176
     1
290
     1
176
     1
290
     0
176
     1
290
     0
176
     1
290
     0
176
     1
290
     0
176
     1
290
     0
176
     1
290
     0
176
     1
 90
       50
176
     1
 40
0.0
176
     1
 40
1.0
176
     1
 90
        0
176
     1
 62
    18
420
        0
176
     1
 90
       50
176
     1
 90
        3
176
     1
 62
     5
420
      255
176
     1
290
     0
176
     1
 90
       50
176
     1
 90
       50
176
     1
 90
       50
176
     1
290
     0
176
     1
 90
       50
176
     1
 62
   256
176
     0
 40
1.0
176
     0
 90
        2
176
     1
  1
strokes_ogs.tif
176
     1
290
     0
176
     1
 40
1.0
176
     1
 40
1.0
176
     1
  0
VISUALSTYLE
  5
3C
102
{ACAD_REACTORS
330
2A
102
}
330
2A
100
AcDbVisualStyle
  2
OverhangOff
 70
    21
177
     3
291
     1
 70
    58
 90
        2
176
     0
 90
        2
176
     0
 90
        0
176
     0
 90
        0
176
     0
 40
0.6
176
     0
 40
30.0
176
     0
 62
     7
420
 16777215
176
     0
 90
        1
176
     0
 90
        4
176
     0
 62
     7
176
     0
 62
   257
176
     0
 90
        1
176
     0
 90
        1
176
     0
 40
1.0
176
     0
 90
        9
176
     2
 62
     7
176
     0
 40
1.0
176
     0
 90
        1
176
     0
 90
        6
176
     0
 90
        2
176
     0
 62
     7
176
     0
 90
        5
176
     0
 90
        0
176
     0
 90
        0
176
     0
290
     0
176
     0
 90
        1
176
     0
 40
0.0
176
     0
 90
        0
176
     0
290
     0
176
     0
290
     1
176
     0
290
     1
176
     0
290
     0
176
     0
290
     0
176
     0
290
     0
176
     0
290
     0
176
     0
290
     0
176
     0
290
     0
176
     0
 90
       50
176
     0
 40
0.0
176
     0
 40
1.0
176
     0
 90
        0
176
     0
 62
    18
420
        0
176
     0
 90
       50
176
     0
 90
        3
176
     0
 62
     5
420
      255
176
     0
290
     0
176
     0
 90
       50
176
     0
 90
       50
176
     0
 90
       50
176
     0
290
     0
176
     0
 90
       50
176
     0
 62
   256
176
     0
 40
1.0
176
     0
 90
        2
176
     0
  1
strokes_ogs.tif
176
     0
290
     0
176
     0
 40
1.0
176
     0
 40
1.0
176
     0
  0
VISUALSTYLE
  5
33
102
{ACAD_REACTORS
330
2A
102
}
330
2A
100
AcDbVisualStyle
  2
Realistic
 70
     8
177
     3
291
     0
 70
    58
 90
        2
176
     1
 90
        3
176
     1
 90
        0
176
     1
 90
        2
176
     1
 40
0.6
176
     1
 40
30.0
176
     1
 62
     7
420
 16777215
176
     1
 90
        0
176
     1
 90
        0
176
     1
 62
     7
176
     1
 62
   257
176
     1
 90
        1
176
     1
 90
        1
176
     1
 40
1.0
176
     1
 90
        8
176
     1
 62
   257
176
     1
 40
1.0
176
     1
 90
        1
176
     1
 90
        6
176
     1
 90
        2
176
     1
 62
     7
176
     1
 90
        3
176
     1
 90
        0
176
     1
 90
        0
176
     1
290
     0
176
     1
 90
       13
176
     1
 40
0.0
176
     1
 90
        0
176
     1
290
     0
176
     1
290
     1
176
     1
290
     1
176
     1
290
     0
176
     1
290
     0
176
     1
290
     0
176
     1
290
     0
176
     1
290
     0
176
     1
290
     0
176
     1
 90
       50
176
     1
 40
0.0
176
     1
 40
1.0
176
     1
 90
        0
176
     1
 62
    18
420
        0
176
     1
 90
       50
176
     1
 90
        3
176
     1
 62
     5
420
      255
176
     1
290
     0
176
     1
 90
       50
176
     1
 90
       50
176
     1
 90
       50
176
     1
290
     0
176
     1
 90
       50
176
     1
 62
   256
176
     0
 40
1.0
176
     0
 90
        2
176
     1
  1
strokes_ogs.tif
176
     1
290
     0
176
     1
 40
1.0
176
     1
 40
1.0
176
     1
  0
VISUALSTYLE
  5
42
102
{ACAD_REACTORS
330
2A
102
}
330
2A
100
AcDbVisualStyle
  2
Shaded
 70
    27
177
     3
291
     0
 70
    58
 90
        2
176
     1
 90
        2
176
     1
 90
        1
176
     1
 90
        2
176
     1
 40
0.6
176
     1
 40
30.0
176
     1
 62
     7
420
 16777215
176
     1
 90
        0
176
     1
 90
        4
176
     1
 62
     7
176
     1
 62
   257
176
     1
 90
        1
176
     1
 90
        1
176
     1
 40
1.0
176
     1
 90
        8
176
     1
 62
   257
176
     1
 40
1.0
176
     1
 90
        1
176
     1
 90
        6
176
     1
 90
        2
176
     1
 62
     8
420
  7895160
176
     1
 90
        3
176
     1
 90
        0
176
     1
 90
        0
176
     1
290
     0
176
     1
 90
        5
176
     1
 40
0.0
176
     1
 90
        0
176
     1
290
     0
176
     1
290
     1
176
     1
290
     1
176
     1
290
     0
176
     1
290
     0
176
     1
290
     0
176
     1
290
     0
176
     1
290
     0
176
     1
290
     0
176
     1
 90
       50
176
     1
 40
0.0
176
     1
 40
1.0
176
     1
 90
        0
176
     1
 62
    18
420
        0
176
     1
 90
       50
176
     1
 90
        3
176
     1
 62
     5
420
      255
176
     1
290
     0
176
     1
 90
       50
176
     1
 90
       50
176
     1
 90
       50
176
     1
290
     0
176
     1
 90
       50
176
     1
 62
   256
176
     0
 40
1.0
176
     0
 90
        2
176
     1
  1
strokes_ogs.tif
176
     1
290
     0
176
     1
 40
1.0
176
     1
 40
1.0
176
     1
  0
VISUALSTYLE
  5
41
102
{ACAD_REACTORS
330
2A
102
}
330
2A
100
AcDbVisualStyle
  2
Shaded with edges
 70
    26
177
     3
291
     0
 70
    58
 90
        2
176
     1
 90
        2
176
     1
 90
        1
176
     1
 90
        2
176
     1
 40
0.6
176
     1
 40
30.0
176
     1
 62
     7
420
 16777215
176
     1
 90
        1
176
     1
 90
       10
176
     1
 62
     7
176
     1
 62
   257
176
     1
 90
        2
176
     1
 90
        1
176
     1
 40
1.0
176
     1
 90
        8
176
     1
 62
   257
176
     1
 40
1.0
176
     1
 90
        1
176
     1
 90
        6
176
     1
 90
        2
176
     1
 62
     7
176
     1
 90
        3
176
     1
 90
        0
176
     1
 90
        0
176
     1
290
     0
176
     1
 90
        5
176
     1
 40
0.0
176
     1
 90
        0
176
     1
290
     0
176
     1
290
     1
176
     1
290
     1
176
     1
290
     0
176
     1
290
     0
176
     1
290
     0
176
     1
290
     0
176
     1
290
     0
176
     1
290
     0
176
     1
 90
       50
176
     1
 40
0.0
176
     1
 40
1.0
176
     1
 90
        0
176
     1
 62
    18
420
        0
176
     1
 90
       50
176
     1
 90
        3
176
     1
 62
     5
420
      255
176
     1
290
     0
176
     1
 90
       50
176
     1
 90
       50
176
     1
 90
       50
176
     1
290
     0
176
     1
 90
       50
176
     1
 62
   256
176
     0
 40
1.0
176
     0
 90
        2
176
     1
  1
strokes_ogs.tif
176
     1
290
     0
176
     1
 40
1.0
176
     1
 40
1.0
176
     1
  0
VISUALSTYLE
  5
3E
102
{ACAD_REACTORS
330
2A
102
}
330
2A
100
AcDbVisualStyle
  2
Shades of Gray
 70
    23
177
     3
291
     0
 70
    58
 90
        2
176
     1
 90
        2
176
     1
 90
        3
176
     1
 90
        0
176
     1
 40
0.6
176
     1
 40
30.0
176
     1
 62
     7
420
 16777215
176
     1
 90
        2
176
     1
 90
        2
176
     1
 62
     7
176
     1
 62
     7
176
     1
 90
        1
176
     1
 90
        1
176
     1
 40
40.0
176
     1
 90
        8
176
     1
 62
     7
176
     1
 40
1.0
176
     1
 90
        1
176
     1
 90
        6
176
     1
 90
        2
176
     1
 62
     7
176
     1
 90
        3
176
     1
 90
        0
176
     1
 90
        0
176
     1
290
     0
176
     1
 90
        1
176
     1
 40
0.0
176
     1
 90
        0
176
     1
290
     0
176
     1
290
     1
176
     1
290
     1
176
     1
290
     0
176
     1
290
     0
176
     1
290
     0
176
     1
290
     0
176
     1
290
     0
176
     1
290
     0
176
     1
 90
       50
176
     1
 40
0.0
176
     1
 40
1.0
176
     1
 90
        0
176
     1
 62
    18
420
        0
176
     1
 90
       50
176
     1
 90
        3
176
     1
 62
     5
420
      255
176
     1
290
     0
176
     1
 90
       50
176
     1
 90
       50
176
     1
 90
       50
176
     1
290
     0
176
     1
 90
       50
176
     1
 62
   256
176
     0
 40
1.0
176
     0
 90
        2
176
     1
  1
strokes_ogs.tif
176
     1
290
     0
176
     1
 40
1.0
176
     1
 40
1.0
176
     1
  0
VISUALSTYLE
  5
3F
102
{ACAD_REACTORS
330
2A
102
}
330
2A
100
AcDbVisualStyle
  2
Sketchy
 70
    24
177
     3
291
     0
 70
    58
 90
        1
176
     1
 90
        2
176
     1
 90
        2
176
     1
 90
        0
176
     1
 40
0.6
176
     1
 40
30.0
176
     1
 62
     7
420
 16777215
176
     1
 90
        2
176
     1
 90
        2
176
     1
 62
     7
176
     1
 62
     7
176
     1
 90
        1
176
     1
 90
        1
176
     1
 40
40.0
176
     1
 90
       11
176
     1
 62
     7
176
     1
 40
1.0
176
     1
 90
        1
176
     1
 90
        6
176
     1
 90
        2
176
     1
 62
     7
176
     1
 90
        6
176
     1
 90
        0
176
     1
 90
        0
176
     1
290
     0
176
     1
 90
        1
176
     1
 40
0.0
176
     1
 90
        0
176
     1
290
     0
176
     1
290
     1
176
     1
290
     1
176
     1
290
     0
176
     1
290
     0
176
     1
290
     0
176
     1
290
     0
176
     1
290
     0
176
     1
290
     0
176
     1
 90
       50
176
     1
 40
0.0
176
     1
 40
1.0
176
     1
 90
        0
176
     1
 62
    18
420
        0
176
     1
 90
       50
176
     1
 90
        3
176
     1
 62
     5
420
      255
176
     1
290
     0
176
     1
 90
       50
176
     1
 90
       50
176
     1
 90
       50
176
     1
290
     0
176
     1
 90
       50
176
     1
 62
   256
176
     0
 40
1.0
176
     0
 90
        2
176
     1
  1
strokes_ogs.tif
176
     1
290
     0
176
     1
 40
1.0
176
     1
 40
1.0
176
     1
  0
VISUALSTYLE
  5
37
102
{ACAD_REACTORS
330
2A
102
}
330
2A
100
AcDbVisualStyle
  2
Thicken
 70
    13
177
     3
291
     1
 70
    58
 90
        2
176
     1
 90
        2
176
     1
 90
        0
176
     1
 90
        0
176
     1
 40
0.6
176
     1
 40
30.0
176
     1
 62
     7
420
 16777215
176
     1
 90
        1
176
     1
 90
        4
176
     1
 62
     7
176
     1
 62
   257
176
     1
 90
        1
176
     1
 90
        1
176
     1
 40
1.0
176
     1
 90
       12
176
     1
 62
     7
176
     1
 40
1.0
176
     1
 90
        1
176
     1
 90
        6
176
     1
 90
        2
176
     1
 62
     7
176
     1
 90
        5
176
     1
 90
        0
176
     1
 90
        0
176
     1
290
     0
176
     1
 90
        1
176
     1
 40
0.0
176
     1
 90
        0
176
     1
290
     0
176
     1
290
     1
176
     1
290
     1
176
     1
290
     0
176
     1
290
     0
176
     1
290
     0
176
     1
290
     0
176
     1
290
     0
176
     1
290
     0
176
     1
 90
       50
176
     1
 40
0.0
176
     1
 40
1.0
176
     1
 90
        0
176
     1
 62
    18
420
        0
176
     1
 90
       50
176
     1
 90
        3
176
     1
 62
     5
420
      255
176
     1
290
     0
176
     1
 90
       50
176
     1
 90
       50
176
     1
 90
       50
176
     1
290
     0
176
     1
 90
       50
176
     1
 62
   256
176
     0
 40
1.0
176
     0
 90
        2
176
     1
  1
strokes_ogs.tif
176
     1
290
     0
176
     1
 40
1.0
176
     1
 40
1.0
176
     1
  0
VISUALSTYLE
  5
30
102
{ACAD_REACTORS
330
2A
102
}
330
2A
100
AcDbVisualStyle
  2
Wireframe
 70
     5
177
     3
291
     0
 70
    58
 90
        0
176
     1
 90
        2
176
     1
 90
        0
176
     1
 90
        0
176
     1
 40
0.6
176
     1
 40
30.0
176
     1
 62
     7
420
 16777215
176
     1
 90
        1
176
     1
 90
        4
176
     1
 62
     7
176
     1
 62
   257
176
     1
 90
        1
176
     1
 90
        1
176
     1
 40
1.0
176
     1
 90
        0
176
     1
 62
   257
176
     1
 40
1.0
176
     1
 90
        1
176
     1
 90
        6
176
     1
 90
        2
176
     1
 62
     7
176
     1
 90
        3
176
     1
 90
        0
176
     1
 90
        0
176
     1
290
     0
176
     1
 90
        1
176
     1
 40
0.0
176
     1
 90
        0
176
     1
290
     0
176
     1
290
     1
176
     1
290
     1
176
     1
290
     0
176
     1
290
     0
176
     1
290
     0
176
     1
290
     0
176
     1
290
     0
176
     1
290
     0
176
     1
 90
       50
176
     1
 40
0.0
176
     1
 40
1.0
176
     1
 90
        0
176
     1
 62
    18
420
        0
176
     1
 90
       50
176
     1
 90
        3
176
     1
 62
     5
420
      255
176
     1
290
     0
176
     1
 90
       50
176
     1
 90
       50
176
     1
 90
       50
176
     1
290
     0
176
     1
 90
       50
176
     1
 62
   256
176
     0
 40
1.0
176
     0
 90
        2
176
     1
  1
strokes_ogs.tif
176
     1
290
     0
176
     1
 40
1.0
176
     1
 40
1.0
176
     1
  0
VISUALSTYLE
  5
40
102
{ACAD_REACTORS
330
2A
102
}
330
2A
100
AcDbVisualStyle
  2
X-Ray
 70
    25
177
     3
291
     0
 70
    58
 90
        2
176
     1
 90
        2
176
     1
 90
        1
176
     1
 90
        1
176
     1
 40
0.5
176
     1
 40
30.0
176
     1
 62
     7
420
 16777215
176
     1
 90
        1
176
     1
 90
        0
176
     1
 62
     7
176
     1
 62
   257
176
     1
 90
        1
176
     1
 90
        1
176
     1
 40
1.0
176
     1
 90
        8
176
     1
 62
     7
176
     1
 40
1.0
176
     1
 90
        1
176
     1
 90
        6
176
     1
 90
        2
176
     1
 62
     7
176
     1
 90
        3
176
     1
 90
        0
176
     1
 90
        0
176
     1
290
     0
176
     1
 90
       13
176
     1
 40
0.0
176
     1
 90
        0
176
     1
290
     0
176
     1
290
     1
176
     1
290
     1
176
     1
290
     0
176
     1
290
     0
176
     1
290
     0
176
     1
290
     0
176
     1
290
     0
176
     1
290
     0
176
     1
 90
       50
176
     1
 40
0.0
176
     1
 40
1.0
176
     1
 90
        0
176
     1
 62
    18
420
        0
176
     1
 90
       50
176
     1
 90
        3
176
     1
 62
     5
420
      255
176
     1
290
     0
176
     1
 90
       50
176
     1
 90
       50
176
     1
 90
       50
176
     1
290
     0
176
     1
 90
       50
176
     1
 62
   256
176
     0
 40
1.0
176
     0
 90
        2
176
     1
  1
strokes_ogs.tif
176
     1
290
     0
176
     1
 40
1.0
176
     1
 40
1.0
176
     1
  0
DICTIONARYVAR
  5
186
102
{ACAD_REACTORS
330
185
102
}
330
185
100
DictionaryVariables
280
     0
  1
1:1
  0
DICTIONARYVAR
  5
18B
102
{ACAD_REACTORS
330
185
102
}
330
185
100
DictionaryVariables
280
     0
  1
Standard
  0
DICTIONARYVAR
  5
18A
102
{ACAD_REACTORS
330
185
102
}
330
185
100
DictionaryVariables
280
     0
  1
Standard
  0
DICTIONARY
  5
187
330
6A
100
AcDbDictionary
280
     1
281
     1
  3
ACAD_ROUNDTRIP_2008_TABLESTYLE_CELLSTYLEMAP
360
188
  0
CELLSTYLEMAP
  5
188
102
{ACAD_REACTORS
330
187
102
}
330
187
100
AcDbCellStyleMap
 90
        3
300
CELLSTYLE
  1
TABLEFORMAT_BEGIN
 90
        5
170
     1
 91
        0
 92
    32768
 62
   257
 93
        1
300
CONTENTFORMAT
  1
CONTENTFORMAT_BEGIN
 90
        0
 91
        0
 92
        4
 93
        0
300

 40
0.0
140
1.0
 94
        5
 62
     0
340
11
144
0.25
309
CONTENTFORMAT_END
171
     1
301
MARGIN
  1
CELLMARGIN_BEGIN
 40
0.06
 40
0.06
 40
0.06
 40
0.06
 40
0.06
 40
0.06
309
CELLMARGIN_END
 94
        6
 95
        1
302
GRIDFORMAT
  1
GRIDFORMAT_BEGIN
 90
        0
 91
        1
 62
     0
 92
       -2
340
14
 93
        0
 40
0.045
309
GRIDFORMAT_END
 95
        2
302
GRIDFORMAT
  1
GRIDFORMAT_BEGIN
 90
        0
 91
        1
 62
     0
 92
       -2
340
14
 93
        0
 40
0.045
309
GRIDFORMAT_END
 95
        4
302
GRIDFORMAT
  1
GRIDFORMAT_BEGIN
 90
        0
 91
        1
 62
     0
 92
       -2
340
14
 93
        0
 40
0.045
309
GRIDFORMAT_END
 95
        8
302
GRIDFORMAT
  1
GRIDFORMAT_BEGIN
 90
        0
 91
        1
 62
     0
 92
       -2
340
14
 93
        0
 40
0.045
309
GRIDFORMAT_END
 95
       16
302
GRIDFORMAT
  1
GRIDFORMAT_BEGIN
 90
        0
 91
        1
 62
     0
 92
       -2
340
14
 93
        0
 40
0.045
309
GRIDFORMAT_END
 95
       32
302
GRIDFORMAT
  1
GRIDFORMAT_BEGIN
 90
        0
 91
        1
 62
     0
 92
       -2
340
14
 93
        0
 40
0.045
309
GRIDFORMAT_END
309
TABLEFORMAT_END
  1
CELLSTYLE_BEGIN
 90
        1
 91
        1
300
_TITLE
309
CELLSTYLE_END
300
CELLSTYLE
  1
TABLEFORMAT_BEGIN
 90
        5
170
     1
 91
        0
 92
        0
 62
   257
 93
        1
300
CONTENTFORMAT
  1
CONTENTFORMAT_BEGIN
 90
        0
 91
        0
 92
        4
 93
        0
300

 40
0.0
140
1.0
 94
        5
 62
     0
340
11
144
0.18
309
CONTENTFORMAT_END
171
     1
301
MARGIN
  1
CELLMARGIN_BEGIN
 40
0.06
 40
0.06
 40
0.06
 40
0.06
 40
0.06
 40
0.06
309
CELLMARGIN_END
 94
        6
 95
        1
302
GRIDFORMAT
  1
GRIDFORMAT_BEGIN
 90
        0
 91
        1
 62
     0
 92
       -2
340
14
 93
        0
 40
0.045
309
GRIDFORMAT_END
 95
        2
302
GRIDFORMAT
  1
GRIDFORMAT_BEGIN
 90
        0
 91
        1
 62
     0
 92
       -2
340
14
 93
        0
 40
0.045
309
GRIDFORMAT_END
 95
        4
302
GRIDFORMAT
  1
GRIDFORMAT_BEGIN
 90
        0
 91
        1
 62
     0
 92
       -2
340
14
 93
        0
 40
0.045
309
GRIDFORMAT_END
 95
        8
302
GRIDFORMAT
  1
GRIDFORMAT_BEGIN
 90
        0
 91
        1
 62
     0
 92
       -2
340
14
 93
        0
 40
0.045
309
GRIDFORMAT_END
 95
       16
302
GRIDFORMAT
  1
GRIDFORMAT_BEGIN
 90
        0
 91
        1
 62
     0
 92
       -2
340
14
 93
        0
 40
0.045
309
GRIDFORMAT_END
 95
       32
302
GRIDFORMAT
  1
GRIDFORMAT_BEGIN
 90
        0
 91
        1
 62
     0
 92
       -2
340
14
 93
        0
 40
0.045
309
GRIDFORMAT_END
309
TABLEFORMAT_END
  1
CELLSTYLE_BEGIN
 90
        2
 91
        1
300
_HEADER
309
CELLSTYLE_END
300
CELLSTYLE
  1
TABLEFORMAT_BEGIN
 90
        5
170
     1
 91
        0
 92
        0
 62
   257
 93
        1
300
CONTENTFORMAT
  1
CONTENTFORMAT_BEGIN
 90
        0
 91
        0
 92
        4
 93
        0
300

 40
0.0
140
1.0
 94
        2
 62
     0
340
11
144
0.18
309
CONTENTFORMAT_END
171
     1
301
MARGIN
  1
CELLMARGIN_BEGIN
 40
0.06
 40
0.06
 40
0.06
 40
0.06
 40
0.06
 40
0.06
309
CELLMARGIN_END
 94
        6
 95
        1
302
GRIDFORMAT
  1
GRIDFORMAT_BEGIN
 90
        0
 91
        1
 62
     0
 92
       -2
340
14
 93
        0
 40
0.045
309
GRIDFORMAT_END
 95
        2
302
GRIDFORMAT
  1
GRIDFORMAT_BEGIN
 90
        0
 91
        1
 62
     0
 92
       -2
340
14
 93
        0
 40
0.045
309
GRIDFORMAT_END
 95
        4
302
GRIDFORMAT
  1
GRIDFORMAT_BEGIN
 90
        0
 91
        1
 62
     0
 92
       -2
340
14
 93
        0
 40
0.045
309
GRIDFORMAT_END
 95
        8
302
GRIDFORMAT
  1
GRIDFORMAT_BEGIN
 90
        0
 91
        1
 62
     0
 92
       -2
340
14
 93
        0
 40
0.045
309
GRIDFORMAT_END
 95
       16
302
GRIDFORMAT
  1
GRIDFORMAT_BEGIN
 90
        0
 91
        1
 62
     0
 92
       -2
340
14
 93
        0
 40
0.045
309
GRIDFORMAT_END
 95
       32
302
GRIDFORMAT
  1
GRIDFORMAT_BEGIN
 90
        0
 91
        1
 62
     0
 92
       -2
340
14
 93
        0
 40
0.045
309
GRIDFORMAT_END
309
TABLEFORMAT_END
  1
CELLSTYLE_BEGIN
 90
        3
 91
        2
300
_DATA
309
CELLSTYLE_END
  0
ENDSEC
  0
EOF