0
SECTION
  2
HEADER
  9
$ACADVER
  1
AC1027
  9
$ACADMAINTVER
 70
     8
  9
$DWGCODEPAGE
  3
ANSI_1252
  9
$REQUIREDVERSIONS
160
                 0
  9
$COMMENTS
  1
File was created by Cadenas
  9
$CUSTOMPROPERTYTAG
  1
NN
  9
$CUSTOMPROPERTY
  1
Eccentric Collar Low Backing Height Two-Bolt Pillow Block Inch Bore
  9
$CUSTOMPROPERTYTAG
  1
NT
  9
$CUSTOMPROPERTY
  1
Eccentric Collar Pillow Block Bearings -(Normal Duty) -Low Backing Height
  9
$CUSTOMPROPERTYTAG
  1
NB
  9
$CUSTOMPROPERTY
  1
131434
  9
$CUSTOMPROPERTYTAG
  1
NBSYN
  9
$CUSTOMPROPERTY
  1
$PN.
  9
$CUSTOMPROPERTYTAG
  1
LINA
  9
$CUSTOMPROPERTY
  1
131434
  9
$CUSTOMPROPERTYTAG
  1
SERIES
  9
$CUSTOMPROPERTY
  1
215
  9
$CUSTOMPROPERTYTAG
  1
SS
  9
$CUSTOMPROPERTY
  1
2-15/16
  9
$CUSTOMPROPERTYTAG
  1
PN
  9
$CUSTOMPROPERTY
  1
131434
  9
$CUSTOMPROPERTYTAG
  1
DESCRIPTION
  9
$CUSTOMPROPERTY
  1
P2B-SXRB-215
  9
$CUSTOMPROPERTYTAG
  1
WEIGHT
  9
$CUSTOMPROPERTY
  1
21.0
  9
$CUSTOMPROPERTYTAG
  1
A
  9
$CUSTOMPROPERTY
  1
3.02
  9
$CUSTOMPROPERTYTAG
  1
B
  9
$CUSTOMPROPERTY
  1
11.75
  9
$CUSTOMPROPERTYTAG
  1
C
  9
$CUSTOMPROPERTY
  1
2.88
  9
$CUSTOMPROPERTYTAG
  1
DMIN
  9
$CUSTOMPROPERTY
  1
8.50
  9
$CUSTOMPROPERTYTAG
  1
DMAX
  9
$CUSTOMPROPERTY
  1
9.50
  9
$CUSTOMPROPERTYTAG
  1
F
  9
$CUSTOMPROPERTY
  1
7/8
  9
$CUSTOMPROPERTYTAG
  1
G
  9
$CUSTOMPROPERTY
  1
1.44
  9
$CUSTOMPROPERTYTAG
  1
H
  9
$CUSTOMPROPERTY
  1
1.06
  9
$CUSTOMPROPERTYTAG
  1
J
  9
$CUSTOMPROPERTY
  1
6.56
  9
$CUSTOMPROPERTYTAG
  1
L
  9
$CUSTOMPROPERTY
  1
4.00
  9
$CUSTOMPROPERTYTAG
  1
M
  9
$CUSTOMPROPERTY
  1
3.31
  9
$CUSTOMPROPERTYTAG
  1
R
  9
$CUSTOMPROPERTY
  1
0.86
  9
$CUSTOMPROPERTYTAG
  1
S
  9
$CUSTOMPROPERTY
  1
2.16
  9
$CUSTOMPROPERTYTAG
  1
U
  9
$CUSTOMPROPERTY
  1
5.48
  9
$CUSTOMPROPERTYTAG
  1
V
  9
$CUSTOMPROPERTY
  1
10.96
  9
$CUSTOMPROPERTYTAG
  1
W
  9
$CUSTOMPROPERTY
  1
1.04
  9
$CUSTOMPROPERTYTAG
  1
X
  9
$CUSTOMPROPERTY
  1
0.12
  9
$CUSTOMPROPERTYTAG
  1
COMPANY
  9
$CUSTOMPROPERTY
  1
baldor
  9
$INSBASE
 10
0.0
 20
0.0
 30
0.0
  9
$EXTMIN
 10
1.000000000000000E+20
 20
1.000000000000000E+20
 30
1.000000000000000E+20
  9
$EXTMAX
 10
-1.000000000000000E+20
 20
-1.000000000000000E+20
 30
-1.000000000000000E+20
  9
$LIMMIN
 10
0.0
 20
0.0
  9
$LIMMAX
 10
12.0
 20
9.0
  9
$ORTHOMODE
 70
     0
  9
$REGENMODE
 70
     1
  9
$FILLMODE
 70
     1
  9
$QTEXTMODE
 70
     0
  9
$MIRRTEXT
 70
     1
  9
$LTSCALE
 40
1.0
  9
$ATTMODE
 70
     1
  9
$TEXTSIZE
 40
0.2
  9
$TRACEWID
 40
0.05
  9
$TEXTSTYLE
  7
Standard
  9
$CLAYER
  8
0
  9
$CELTYPE
  6
ByLayer
  9
$CECOLOR
 62
   256
  9
$CELTSCALE
 40
1.0
  9
$DISPSILH
 70
     0
  9
$DIMSCALE
 40
1.0
  9
$DIMASZ
 40
0.18
  9
$DIMEXO
 40
0.0625
  9
$DIMDLI
 40
0.38
  9
$DIMRND
 40
0.0
  9
$DIMDLE
 40
0.0
  9
$DIMEXE
 40
0.18
  9
$DIMTP
 40
0.0
  9
$DIMTM
 40
0.0
  9
$DIMTXT
 40
0.18
  9
$DIMCEN
 40
0.09
  9
$DIMTSZ
 40
0.0
  9
$DIMTOL
 70
     0
  9
$DIMLIM
 70
     0
  9
$DIMTIH
 70
     1
  9
$DIMTOH
 70
     1
  9
$DIMSE1
 70
     0
  9
$DIMSE2
 70
     0
  9
$DIMTAD
 70
     0
  9
$DIMZIN
 70
     0
  9
$DIMBLK
  1

  9
$DIMASO
 70
     1
  9
$DIMSHO
 70
     1
  9
$DIMPOST
  1

  9
$DIMAPOST
  1

  9
$DIMALT
 70
     0
  9
$DIMALTD
 70
     2
  9
$DIMALTF
 40
25.4
  9
$DIMLFAC
 40
1.0
  9
$DIMTOFL
 70
     0
  9
$DIMTVP
 40
0.0
  9
$DIMTIX
 70
     0
  9
$DIMSOXD
 70
     0
  9
$DIMSAH
 70
     0
  9
$DIMBLK1
  1

  9
$DIMBLK2
  1

  9
$DIMSTYLE
  2
Standard
  9
$DIMCLRD
 70
     0
  9
$DIMCLRE
 70
     0
  9
$DIMCLRT
 70
     0
  9
$DIMTFAC
 40
1.0
  9
$DIMGAP
 40
0.09
  9
$DIMJUST
 70
     0
  9
$DIMSD1
 70
     0
  9
$DIMSD2
 70
     0
  9
$DIMTOLJ
 70
     1
  9
$DIMTZIN
 70
     0
  9
$DIMALTZ
 70
     0
  9
$DIMALTTZ
 70
     0
  9
$DIMUPT
 70
     0
  9
$DIMDEC
 70
     4
  9
$DIMTDEC
 70
     4
  9
$DIMALTU
 70
     2
  9
$DIMALTTD
 70
     2
  9
$DIMTXSTY
  7
Standard
  9
$DIMAUNIT
 70
     0
  9
$DIMADEC
 70
     0
  9
$DIMALTRND
 40
0.0
  9
$DIMAZIN
 70
     0
  9
$DIMDSEP
 70
    46
  9
$DIMATFIT
 70
     3
  9
$DIMFRAC
 70
     0
  9
$DIMLDRBLK
  1

  9
$DIMLUNIT
 70
     2
  9
$DIMLWD
 70
    -2
  9
$DIMLWE
 70
    -2
  9
$DIMTMOVE
 70
     0
  9
$DIMFXL
 40
1.0
  9
$DIMFXLON
 70
     0
  9
$DIMJOGANG
 40
0.7853981633974483
  9
$DIMTFILL
 70
     0
  9
$DIMTFILLCLR
 70
     0
  9
$DIMARCSYM
 70
     0
  9
$DIMLTYPE
  6

  9
$DIMLTEX1
  6

  9
$DIMLTEX2
  6

  9
$DIMTXTDIRECTION
 70
     0
  9
$LUNITS
 70
     2
  9
$LUPREC
 70
     4
  9
$SKETCHINC
 40
0.1
  9
$FILLETRAD
 40
0.5
  9
$AUNITS
 70
     0
  9
$AUPREC
 70
     0
  9
$MENU
  1
.
  9
$ELEVATION
 40
0.0
  9
$PELEVATION
 40
0.0
  9
$THICKNESS
 40
0.0
  9
$LIMCHECK
 70
     0
  9
$CHAMFERA
 40
0.0
  9
$CHAMFERB
 40
0.0
  9
$CHAMFERC
 40
0.0
  9
$CHAMFERD
 40
0.0
  9
$SKPOLY
 70
     0
  9
$TDCREATE
 40
2458168.980725127
  9
$TDUCREATE
 40
2458168.939058461
  9
$TDUPDATE
 40
2458168.980725301
  9
$TDUUPDATE
 40
2458168.939058634
  9
$TDINDWG
 40
0.0000000116
  9
$TDUSRTIMER
 40
0.0000000116
  9
$USRTIMER
 70
     1
  9
$ANGBASE
 50
0.0
  9
$ANGDIR
 70
     0
  9
$PDMODE
 70
     0
  9
$PDSIZE
 40
0.0
  9
$PLINEWID
 40
0.0
  9
$SPLFRAME
 70
     0
  9
$SPLINETYPE
 70
     6
  9
$SPLINESEGS
 70
     8
  9
$HANDSEED
  5
1EC
  9
$SURFTAB1
 70
     6
  9
$SURFTAB2
 70
     6
  9
$SURFTYPE
 70
     6
  9
$SURFU
 70
     6
  9
$SURFV
 70
     6
  9
$UCSBASE
  2

  9
$UCSNAME
  2

  9
$UCSORG
 10
0.0
 20
0.0
 30
0.0
  9
$UCSXDIR
 10
1.0
 20
0.0
 30
0.0
  9
$UCSYDIR
 10
0.0
 20
1.0
 30
0.0
  9
$UCSORTHOREF
  2

  9
$UCSORTHOVIEW
 70
     0
  9
$UCSORGTOP
 10
0.0
 20
0.0
 30
0.0
  9
$UCSORGBOTTOM
 10
0.0
 20
0.0
 30
0.0
  9
$UCSORGLEFT
 10
0.0
 20
0.0
 30
0.0
  9
$UCSORGRIGHT
 10
0.0
 20
0.0
 30
0.0
  9
$UCSORGFRONT
 10
0.0
 20
0.0
 30
0.0
  9
$UCSORGBACK
 10
0.0
 20
0.0
 30
0.0
  9
$PUCSBASE
  2

  9
$PUCSNAME
  2

  9
$PUCSORG
 10
0.0
 20
0.0
 30
0.0
  9
$PUCSXDIR
 10
1.0
 20
0.0
 30
0.0
  9
$PUCSYDIR
 10
0.0
 20
1.0
 30
0.0
  9
$PUCSORTHOREF
  2

  9
$PUCSORTHOVIEW
 70
     0
  9
$PUCSORGTOP
 10
0.0
 20
0.0
 30
0.0
  9
$PUCSORGBOTTOM
 10
0.0
 20
0.0
 30
0.0
  9
$PUCSORGLEFT
 10
0.0
 20
0.0
 30
0.0
  9
$PUCSORGRIGHT
 10
0.0
 20
0.0
 30
0.0
  9
$PUCSORGFRONT
 10
0.0
 20
0.0
 30
0.0
  9
$PUCSORGBACK
 10
0.0
 20
0.0
 30
0.0
  9
$USERI1
 70
     0
  9
$USERI2
 70
     0
  9
$USERI3
 70
     0
  9
$USERI4
 70
     0
  9
$USERI5
 70
     0
  9
$USERR1
 40
0.0
  9
$USERR2
 40
0.0
  9
$USERR3
 40
0.0
  9
$USERR4
 40
0.0
  9
$USERR5
 40
0.0
  9
$WORLDVIEW
 70
     1
  9
$SHADEDGE
 70
     3
  9
$SHADEDIF
 70
    70
  9
$TILEMODE
 70
     1
  9
$MAXACTVP
 70
    64
  9
$PINSBASE
 10
0.0
 20
0.0
 30
0.0
  9
$PLIMCHECK
 70
     0
  9
$PEXTMIN
 10
1.000000000000000E+20
 20
1.000000000000000E+20
 30
1.000000000000000E+20
  9
$PEXTMAX
 10
-1.000000000000000E+20
 20
-1.000000000000000E+20
 30
-1.000000000000000E+20
  9
$PLIMMIN
 10
0.0
 20
0.0
  9
$PLIMMAX
 10
12.0
 20
9.0
  9
$UNITMODE
 70
     0
  9
$VISRETAIN
 70
     1
  9
$PLINEGEN
 70
     0
  9
$PSLTSCALE
 70
     1
  9
$TREEDEPTH
 70
  3020
  9
$CMLSTYLE
  2
Standard
  9
$CMLJUST
 70
     0
  9
$CMLSCALE
 40
1.0
  9
$PROXYGRAPHICS
 70
     1
  9
$MEASUREMENT
 70
     0
  9
$CELWEIGHT
370
    -1
  9
$ENDCAPS
280
     0
  9
$JOINSTYLE
280
     0
  9
$LWDISPLAY
290
     0
  9
$INSUNITS
 70
     1
  9
$HYPERLINKBASE
  1

  9
$STYLESHEET
  1

  9
$XEDIT
290
     1
  9
$CEPSNTYPE
380
     0
  9
$PSTYLEMODE
290
     1
  9
$FINGERPRINTGUID
  2
{11086401-F4EA-4A36-ABCE-256B6976A086}
  9
$VERSIONGUID
  2
{FAEB1C32-E019-11D5-929B-00C0DF256EC4}
  9
$EXTNAMES
290
     1
  9
$PSVPSCALE
 40
0.0
  9
$OLESTARTUP
290
     0
  9
$SORTENTS
280
   127
  9
$INDEXCTL
280
     0
  9
$HIDETEXT
280
     1
  9
$XCLIPFRAME
280
     2
  9
$HALOGAP
280
     0
  9
$OBSCOLOR
 70
   257
  9
$OBSLTYPE
280
     0
  9
$INTERSECTIONDISPLAY
280
     0
  9
$INTERSECTIONCOLOR
 70
   257
  9
$DIMASSOC
280
     2
  9
$PROJECTNAME
  1

  9
$CAMERADISPLAY
290
     0
  9
$LENSLENGTH
 40
50.0
  9
$CAMERAHEIGHT
 40
0.0
  9
$STEPSPERSEC
 40
2.0
  9
$STEPSIZE
 40
6.0
  9
$3DDWFPREC
 40
2.0
  9
$PSOLWIDTH
 40
0.25
  9
$PSOLHEIGHT
 40
4.0
  9
$LOFTANG1
 40
1.570796326794897
  9
$LOFTANG2
 40
1.570796326794897
  9
$LOFTMAG1
 40
0.0
  9
$LOFTMAG2
 40
0.0
  9
$LOFTPARAM
 70
     7
  9
$LOFTNORMALS
280
     1
  9
$LATITUDE
 40
37.795
  9
$LONGITUDE
 40
-122.394
  9
$NORTHDIRECTION
 40
0.0
  9
$TIMEZONE
 70
 -8000
  9
$LIGHTGLYPHDISPLAY
280
     1
  9
$TILEMODELIGHTSYNCH
280
     1
  9
$CMATERIAL
347
44
  9
$SOLIDHIST
280
     0
  9
$SHOWHIST
280
     1
  9
$DWFFRAME
280
     2
  9
$DGNFRAME
280
     2
  9
$REALWORLDSCALE
290
     1
  9
$INTERFERECOLOR
 62
   256
  9
$CSHADOW
280
     0
  9
$SHADOWPLANELOCATION
 40
0.0
  0
ENDSEC
  0
SECTION
  2
CLASSES
  0
CLASS
  1
ACDBDICTIONARYWDFLT
  2
AcDbDictionaryWithDefault
  3
ObjectDBX Classes
 90
        0
 91
        4
280
     0
281
     0
  0
CLASS
  1
VISUALSTYLE
  2
AcDbVisualStyle
  3
ObjectDBX Classes
 90
     4095
 91
        4
280
     0
281
     0
  0
CLASS
  1
MATERIAL
  2
AcDbMaterial
  3
ObjectDBX Classes
 90
     1153
 91
        4
280
     0
281
     0
  0
CLASS
  1
SCALE
  2
AcDbScale
  3
ObjectDBX Classes
 90
     1153
 91
        4
280
     0
281
     0
  0
CLASS
  1
TABLESTYLE
  2
AcDbTableStyle
  3
ObjectDBX Classes
 90
     4095
 91
        4
280
     0
281
     0
  0
CLASS
  1
MLEADERSTYLE
  2
AcDbMLeaderStyle
  3
ACDB_MLEADERSTYLE_CLASS
 90
     4095
 91
        4
280
     0
281
     0
  0
CLASS
  1
SUN
  2
AcDbSun
  3
SCENEOE
 90
     1153
 91
        4
280
     0
281
     0
  0
CLASS
  1
DICTIONARYVAR
  2
AcDbDictionaryVar
  3
ObjectDBX Classes
 90
        0
 91
        4
280
     0
281
     0
  0
CLASS
  1
CELLSTYLEMAP
  2
AcDbCellStyleMap
  3
ObjectDBX Classes
 90
     1152
 91
        4
280
     0
281
     0
  0
ENDSEC
  0
SECTION
  2
TABLES
  0
TABLE
  2
VPORT
  5
8
330
0
100
AcDbSymbolTable
 70
     1
  0
VPORT
  5
29
330
8
100
AcDbSymbolTableRecord
100
AcDbViewportTableRecord
  2
*Active
 70
     0
 10
0.0
 20
0.0
 11
1.0
 21
1.0
 12
0.0
 22
-0.3635000000000002
 13
0.0
 23
0.0
 14
0.5
 24
0.5
 15
0.5
 25
0.5
 16
0.0
 26
0.0
 36
1.0
 17
0.0
 27
0.0
 37
0.0
 40
3.9729
 41
3.016688061617459
 42
50.0
 43
0.0
 44
0.0
 50
0.0
 51
0.0
 71
     0
 72
   100
 73
     1
 74
     3
 75
     0
 76
     0
 77
     0
 78
     0
281
     0
 65
     1
110
0.0
120
0.0
130
0.0
111
1.0
121
0.0
131
0.0
112
0.0
122
1.0
132
0.0
 79
     0
146
0.0
348
2F
 60
     3
 61
     5
292
     1
282
     1
141
0.0
142
0.0
 63
   250
361
6D
  0
ENDTAB
  0
TABLE
  2
LTYPE
  5
5
330
0
100
AcDbSymbolTable
 70
     3
  0
LTYPE
  5
14
330
5
100
AcDbSymbolTableRecord
100
AcDbLinetypeTableRecord
  2
ByBlock
 70
     0
  3

 72
    65
 73
     0
 40
0.0
  0
LTYPE
  5
15
330
5
100
AcDbSymbolTableRecord
100
AcDbLinetypeTableRecord
  2
ByLayer
 70
     0
  3

 72
    65
 73
     0
 40
0.0
  0
LTYPE
  5
16
330
5
100
AcDbSymbolTableRecord
100
AcDbLinetypeTableRecord
  2
Continuous
 70
     0
  3
Solid line
 72
    65
 73
     0
 40
0.0
  0
LTYPE
  5
9B
330
5
100
AcDbSymbolTableRecord
100
AcDbLinetypeTableRecord
  2
Dashed
 70
     0
  3

 72
    65
 73
     2
 40
2.0
 49
1.0
 74
     0
 49
-1.0
 74
     0
  0
LTYPE
  5
11F
330
5
100
AcDbSymbolTableRecord
100
AcDbLinetypeTableRecord
  2
Center
 70
     0
  3

 72
    65
 73
     4
 40
1.5
 49
0.45
 74
     0
 49
-0.5
 74
     0
 49
0.05
 74
     0
 49
-0.5
 74
     0
  0
ENDTAB
  0
TABLE
  2
LAYER
  5
2
330
0
100
AcDbSymbolTable
 70
     7
  0
LAYER
  5
10
330
2
100
AcDbSymbolTableRecord
100
AcDbLayerTableRecord
  2
0
 70
     0
 62
     7
  6
Continuous
370
    -3
390
F
347
46
348
0
  0
LAYER
  5
72
330
2
100
AcDbSymbolTableRecord
100
AcDbLayerTableRecord
  2
AM_6
 70
     0
 62
    -2
  6
Continuous
370
    35
390
F
347
46
348
0
  0
LAYER
  5
9C
330
2
100
AcDbSymbolTableRecord
100
AcDbLayerTableRecord
  2
AM_9
 70
     0
 62
     6
  6
Dashed
370
    25
390
F
347
46
348
0
  0
LAYER
  5
BB
330
2
100
AcDbSymbolTableRecord
100
AcDbLayerTableRecord
  2
AM_4
 70
     0
 62
     7
  6
Continuous
370
    50
390
F
347
46
348
0
  0
LAYER
  5
120
330
2
100
AcDbSymbolTableRecord
100
AcDbLayerTableRecord
  2
AM_7
 70
     0
 62
     7
  6
Center
370
    25
390
F
347
46
348
0
  0
LAYER
  5
13C
330
2
100
AcDbSymbolTableRecord
100
AcDbLayerTableRecord
  2
AM_5
 70
     0
 62
     3
  6
Continuous
370
    25
390
F
347
46
348
0
  0
LAYER
  5
1DD
330
2
100
AcDbSymbolTableRecord
100
AcDbLayerTableRecord
  2
ConnectionPoints
 70
     0
 62
     7
  6
Continuous
370
    50
390
F
347
46
348
0
  0
ENDTAB
  0
TABLE
  2
STYLE
  5
3
330
0
100
AcDbSymbolTable
 70
     1
  0
STYLE
  5
11
330
3
100
AcDbSymbolTableRecord
100
AcDbTextStyleTableRecord
  2
Standard
 70
     0
 40
0.0
 41
1.0
 50
0.0
 71
     0
 42
0.2
  3
txt
  4

  0
ENDTAB
  0
TABLE
  2
VIEW
  5
6
330
0
100
AcDbSymbolTable
 70
     0
  0
ENDTAB
  0
TABLE
  2
UCS
  5
7
330
0
100
AcDbSymbolTable
 70
     0
  0
ENDTAB
  0
TABLE
  2
APPID
  5
9
330
0
100
AcDbSymbolTable
 70
     1
  0
APPID
  5
12
330
9
100
AcDbSymbolTableRecord
100
AcDbRegAppTableRecord
  2
ACAD
 70
     0
  0
ENDTAB
  0
TABLE
  2
DIMSTYLE
  5
A
330
0
100
AcDbSymbolTable
 70
     1
100
AcDbDimStyleTable
  0
DIMSTYLE
105
27
330
A
100
AcDbSymbolTableRecord
100
AcDbDimStyleTableRecord
  2
Standard
 70
     0
178
     0
340
11
  0
ENDTAB
  0
TABLE
  2
BLOCK_RECORD
  5
1
330
0
100
AcDbSymbolTable
 70
     5
  0
BLOCK_RECORD
  5
1F
330
1
100
AcDbSymbolTableRecord
100
AcDbBlockTableRecord
  2
*Model_Space
340
22
 70
     0
280
     1
281
     0
  0
BLOCK_RECORD
  5
1B
330
1
100
AcDbSymbolTableRecord
100
AcDbBlockTableRecord
  2
*Paper_Space
340
1E
 70
     0
280
     1
281
     0
  0
BLOCK_RECORD
  5
23
330
1
100
AcDbSymbolTableRecord
100
AcDbBlockTableRecord
  2
*Paper_Space0
340
26
 70
     0
280
     1
281
     0
  0
BLOCK_RECORD
  5
6E
330
1
100
AcDbSymbolTableRecord
100
AcDbBlockTableRecord
  2
1_131434_4
340
0
102
{BLKREFS
331
6F
102
}
 70
     0
280
     1
281
     0
  0
BLOCK_RECORD
  5
8F
330
1
100
AcDbSymbolTableRecord
100
AcDbBlockTableRecord
  2
2_405015E_Inch_0_in_131434_4
340
0
102
{BLKREFS
331
90
102
}
 70
     0
280
     1
281
     0
  0
BLOCK_RECORD
  5
D7
330
1
100
AcDbSymbolTableRecord
100
AcDbBlockTableRecord
  2
3_131933_0_in_131434_4
340
0
102
{BLKREFS
331
D8
102
}
 70
     0
280
     1
281
     0
  0
BLOCK_RECORD
  5
13E
330
1
100
AcDbSymbolTableRecord
100
AcDbBlockTableRecord
  2
4_131434H_0_in_131434_4
340
0
102
{BLKREFS
331
13F
102
}
 70
     0
280
     1
281
     0
  0
ENDTAB
  0
ENDSEC
  0
SECTION
  2
BLOCKS
  0
BLOCK
  5
20
330
1F
100
AcDbEntity
  8
0
100
AcDbBlockBegin
  2
*Model_Space
 70
     0
 10
0.0
 20
0.0
 30
0.0
  3
*Model_Space
  1

  0
ENDBLK
  5
21
330
1F
100
AcDbEntity
  8
0
100
AcDbBlockEnd
  0
BLOCK
  5
1C
330
1B
100
AcDbEntity
 67
     1
  8
0
100
AcDbBlockBegin
  2
*Paper_Space
 70
     0
 10
0.0
 20
0.0
 30
0.0
  3
*Paper_Space
  1

  0
ENDBLK
  5
1D
330
1B
100
AcDbEntity
 67
     1
  8
0
100
AcDbBlockEnd
  0
BLOCK
  5
24
330
23
100
AcDbEntity
  8
0
100
AcDbBlockBegin
  2
*Paper_Space0
 70
     0
 10
0.0
 20
0.0
 30
0.0
  3
*Paper_Space0
  1

  0
ENDBLK
  5
25
330
23
100
AcDbEntity
  8
0
100
AcDbBlockEnd
  0
BLOCK
  5
70
330
6E
100
AcDbEntity
  8
0
100
AcDbBlockBegin
  2
1_131434_4
 70
     2
 10
0.0
 20
0.0
 30
0.0
  3
1_131434_4
  1

  0
ATTDEF
  5
73
330
6E
100
AcDbEntity
  8
AM_6
100
AcDbText
 10
10.875
 20
1.584
 30
0.0
 40
0.5
  1
Eccentric Collar Low Backing Height Two-Bolt Pillow Block Inch Bore
100
AcDbAttributeDefinition
  3

  2
NN
 70
     8
280
     0
  0
ATTDEF
  5
74
330
6E
100
AcDbEntity
  8
AM_6
100
AcDbText
 10
10.875
 20
1.084
 30
0.0
 40
0.5
  1
Eccentric Collar Pillow Block Bearings -(Normal Duty) -Low Backing Height
100
AcDbAttributeDefinition
  3

  2
NT
 70
     8
280
     0
  0
ATTDEF
  5
75
330
6E
100
AcDbEntity
  8
AM_6
100
AcDbText
 10
10.875
 20
0.5839999999999999
 30
0.0
 40
0.5
  1
131434
100
AcDbAttributeDefinition
  3

  2
NB
 70
     8
280
     0
  0
ATTDEF
  5
76
330
6E
100
AcDbEntity
  8
AM_6
100
AcDbText
 10
10.875
 20
0.0839999999999999
 30
0.0
 40
0.5
  1
$PN.
100
AcDbAttributeDefinition
  3

  2
NBSYN
 70
     8
280
     0
  0
ATTDEF
  5
77
330
6E
100
AcDbEntity
  8
AM_6
100
AcDbText
 10
10.875
 20
-0.4160000000000001
 30
0.0
 40
0.5
  1
131434
100
AcDbAttributeDefinition
  3

  2
LINA
 70
     8
280
     0
  0
ATTDEF
  5
78
330
6E
100
AcDbEntity
  8
AM_6
100
AcDbText
 10
10.875
 20
-0.9160000000000001
 30
0.0
 40
0.5
  1
215
100
AcDbAttributeDefinition
  3

  2
SERIES
 70
     8
280
     0
  0
ATTDEF
  5
79
330
6E
100
AcDbEntity
  8
AM_6
100
AcDbText
 10
10.875
 20
-1.416
 30
0.0
 40
0.5
  1
2-15/16
100
AcDbAttributeDefinition
  3

  2
SS
 70
     8
280
     0
  0
ATTDEF
  5
7A
330
6E
100
AcDbEntity
  8
AM_6
100
AcDbText
 10
10.875
 20
-1.916
 30
0.0
 40
0.5
  1
131434
100
AcDbAttributeDefinition
  3

  2
PN
 70
     8
280
     0
  0
ATTDEF
  5
7B
330
6E
100
AcDbEntity
  8
AM_6
100
AcDbText
 10
10.875
 20
-2.416
 30
0.0
 40
0.5
  1
P2B-SXRB-215
100
AcDbAttributeDefinition
  3

  2
DESCRIPTION
 70
     8
280
     0
  0
ATTDEF
  5
7C
330
6E
100
AcDbEntity
  8
AM_6
100
AcDbText
 10
10.875
 20
-2.916
 30
0.0
 40
0.5
  1
21.0
100
AcDbAttributeDefinition
  3

  2
WEIGHT
 70
     8
280
     0
  0
ATTDEF
  5
7D
330
6E
100
AcDbEntity
  8
AM_6
100
AcDbText
 10
10.875
 20
-3.416
 30
0.0
 40
0.5
  1
3.02
100
AcDbAttributeDefinition
  3

  2
A
 70
     8
280
     0
  0
ATTDEF
  5
7E
330
6E
100
AcDbEntity
  8
AM_6
100
AcDbText
 10
10.875
 20
-3.916
 30
0.0
 40
0.5
  1
11.75
100
AcDbAttributeDefinition
  3

  2
B
 70
     8
280
     0
  0
ATTDEF
  5
7F
330
6E
100
AcDbEntity
  8
AM_6
100
AcDbText
 10
10.875
 20
-4.416
 30
0.0
 40
0.5
  1
2.88
100
AcDbAttributeDefinition
  3

  2
C
 70
     8
280
     0
  0
ATTDEF
  5
80
330
6E
100
AcDbEntity
  8
AM_6
100
AcDbText
 10
10.875
 20
-4.916
 30
0.0
 40
0.5
  1
8.50
100
AcDbAttributeDefinition
  3

  2
DMIN
 70
     8
280
     0
  0
ATTDEF
  5
81
330
6E
100
AcDbEntity
  8
AM_6
100
AcDbText
 10
10.875
 20
-5.416
 30
0.0
 40
0.5
  1
9.50
100
AcDbAttributeDefinition
  3

  2
DMAX
 70
     8
280
     0
  0
ATTDEF
  5
82
330
6E
100
AcDbEntity
  8
AM_6
100
AcDbText
 10
10.875
 20
-5.916
 30
0.0
 40
0.5
  1
7/8
100
AcDbAttributeDefinition
  3

  2
F
 70
     8
280
     0
  0
ATTDEF
  5
83
330
6E
100
AcDbEntity
  8
AM_6
100
AcDbText
 10
10.875
 20
-6.416
 30
0.0
 40
0.5
  1
1.44
100
AcDbAttributeDefinition
  3

  2
G
 70
     8
280
     0
  0
ATTDEF
  5
84
330
6E
100
AcDbEntity
  8
AM_6
100
AcDbText
 10
10.875
 20
-6.916
 30
0.0
 40
0.5
  1
1.06
100
AcDbAttributeDefinition
  3

  2
H
 70
     8
280
     0
  0
ATTDEF
  5
85
330
6E
100
AcDbEntity
  8
AM_6
100
AcDbText
 10
10.875
 20
-7.416
 30
0.0
 40
0.5
  1
6.56
100
AcDbAttributeDefinition
  3

  2
J
 70
     8
280
     0
  0
ATTDEF
  5
86
330
6E
100
AcDbEntity
  8
AM_6
100
AcDbText
 10
10.875
 20
-7.916
 30
0.0
 40
0.5
  1
4.00
100
AcDbAttributeDefinition
  3

  2
L
 70
     8
280
     0
  0
ATTDEF
  5
87
330
6E
100
AcDbEntity
  8
AM_6
100
AcDbText
 10
10.875
 20
-8.416
 30
0.0
 40
0.5
  1
3.31
100
AcDbAttributeDefinition
  3

  2
M
 70
     8
280
     0
  0
ATTDEF
  5
88
330
6E
100
AcDbEntity
  8
AM_6
100
AcDbText
 10
10.875
 20
-8.916
 30
0.0
 40
0.5
  1
0.86
100
AcDbAttributeDefinition
  3

  2
R
 70
     8
280
     0
  0
ATTDEF
  5
89
330
6E
100
AcDbEntity
  8
AM_6
100
AcDbText
 10
10.875
 20
-9.416
 30
0.0
 40
0.5
  1
2.16
100
AcDbAttributeDefinition
  3

  2
S
 70
     8
280
     0
  0
ATTDEF
  5
8A
330
6E
100
AcDbEntity
  8
AM_6
100
AcDbText
 10
10.875
 20
-9.916
 30
0.0
 40
0.5
  1
5.48
100
AcDbAttributeDefinition
  3

  2
U
 70
     8
280
     0
  0
ATTDEF
  5
8B
330
6E
100
AcDbEntity
  8
AM_6
100
AcDbText
 10
10.875
 20
-10.416
 30
0.0
 40
0.5
  1
10.96
100
AcDbAttributeDefinition
  3

  2
V
 70
     8
280
     0
  0
ATTDEF
  5
8C
330
6E
100
AcDbEntity
  8
AM_6
100
AcDbText
 10
10.875
 20
-10.916
 30
0.0
 40
0.5
  1
1.04
100
AcDbAttributeDefinition
  3

  2
W
 70
     8
280
     0
  0
ATTDEF
  5
8D
330
6E
100
AcDbEntity
  8
AM_6
100
AcDbText
 10
10.875
 20
-11.416
 30
0.0
 40
0.5
  1
0.12
100
AcDbAttributeDefinition
  3

  2
X
 70
     8
280
     0
  0
ATTDEF
  5
8E
330
6E
100
AcDbEntity
  8
AM_6
100
AcDbText
 10
10.875
 20
-11.916
 30
0.0
 40
0.5
  1
baldor
100
AcDbAttributeDefinition
  3

  2
COMPANY
 70
     8
280
     0
  0
INSERT
  5
90
330
6E
100
AcDbEntity
  8
0
100
AcDbBlockReference
  2
2_405015E_Inch_0_in_131434_4
 10
0.0
 20
0.0
 30
0.0
  0
INSERT
  5
D8
330
6E
100
AcDbEntity
  8
0
100
AcDbBlockReference
  2
3_131933_0_in_131434_4
 10
0.0
 20
0.0
 30
0.0
  0
INSERT
  5
13F
330
6E
100
AcDbEntity
  8
0
100
AcDbBlockReference
  2
4_131434H_0_in_131434_4
 10
0.0
 20
0.0
 30
0.0
  0
ENDBLK
  5
71
330
6E
100
AcDbEntity
  8
0
100
AcDbBlockEnd
  0
BLOCK
  5
91
330
8F
100
AcDbEntity
  8
0
100
AcDbBlockBegin
  2
2_405015E_Inch_0_in_131434_4
 70
     2
 10
0.0
 20
0.0
 30
0.0
  3
2_405015E_Inch_0_in_131434_4
  1

  0
ATTDEF
  5
93
330
8F
100
AcDbEntity
  8
AM_6
100
AcDbText
 10
7.635866322536198
 20
0.2187500000000003
 30
0.0
 40
0.5
  1
405015E -Inch
100
AcDbAttributeDefinition
  3

  2
NN
 70
     8
280
     0
  0
ATTDEF
  5
94
330
8F
100
AcDbEntity
  8
AM_6
100
AcDbText
 10
7.635866322536198
 20
-0.2812499999999997
 30
0.0
 40
0.5
  1
Grease Fitting
100
AcDbAttributeDefinition
  3

  2
NT
 70
     8
280
     0
  0
ATTDEF
  5
95
330
8F
100
AcDbEntity
  8
AM_6
100
AcDbText
 10
7.635866322536198
 20
-0.7812499999999998
 30
0.0
 40
0.5
  1
405015E-Inch
100
AcDbAttributeDefinition
  3

  2
NB
 70
     8
280
     0
  0
ATTDEF
  5
96
330
8F
100
AcDbEntity
  8
AM_6
100
AcDbText
 10
7.635866322536198
 20
-1.28125
 30
0.0
 40
0.5
  1
$MN.-Inch
100
AcDbAttributeDefinition
  3

  2
NBSYN
 70
     8
280
     0
  0
ATTDEF
  5
97
330
8F
100
AcDbEntity
  8
AM_6
100
AcDbText
 10
7.635866322536198
 20
-1.78125
 30
0.0
 40
0.5
  1
405015E
100
AcDbAttributeDefinition
  3

  2
LINA
 70
     8
280
     0
  0
ATTDEF
  5
98
330
8F
100
AcDbEntity
  8
AM_6
100
AcDbText
 10
7.635866322536198
 20
-2.28125
 30
0.0
 40
0.5
  1
405015E
100
AcDbAttributeDefinition
  3

  2
MN
 70
     8
280
     0
  0
ATTDEF
  5
99
330
8F
100
AcDbEntity
  8
AM_6
100
AcDbText
 10
7.635866322536198
 20
-2.78125
 30
0.0
 40
0.5
  1
1/8 x 27PTF
100
AcDbAttributeDefinition
  3

  2
T
 70
     8
280
     0
  0
ATTDEF
  5
9A
330
8F
100
AcDbEntity
  8
AM_6
100
AcDbText
 10
7.635866322536198
 20
-3.28125
 30
0.0
 40
0.5
  1
baldor
100
AcDbAttributeDefinition
  3

  2
COMPANY
 70
     8
280
     0
  0
LWPOLYLINE
  5
9D
330
8F
100
AcDbEntity
  8
AM_9
100
AcDbPolyline
 90
        3
 70
     0
 43
0.0
 10
2.483117427168779
 20
0.0000000000000001
 10
2.456187298574917
 20
-0.0544416102741494
 10
2.432053509164733
 20
-0.1093749999999998
  0
LWPOLYLINE
  5
9E
330
8F
100
AcDbEntity
  8
AM_9
100
AcDbPolyline
 90
        3
 70
     0
 43
0.0
 10
2.432053509164733
 20
0.1093750000000001
 10
2.456071963332536
 20
0.0546875000000001
 10
2.483117427168779
 20
0.0000000000000001
  0
ELLIPSE
  5
9F
330
8F
100
AcDbEntity
  8
AM_9
100
AcDbEllipse
 10
2.110713741841843
 20
0.0000000000000001
 30
0.0
 11
9.913691727296317E-18
 21
0.161902872472269
 31
0.0
210
0.0
220
0.0
230
1.0
 40
0.7071067811865478
 41
0.0
 42
6.283185307179586
  0
LINE
  5
A0
330
8F
100
AcDbEntity
  8
AM_9
100
AcDbLine
 10
2.537414100177773
 20
-0.0118334770074164
 30
0.0
 11
2.541004582818312
 21
0.0000000000000001
 31
0.0
  0
LINE
  5
A1
330
8F
100
AcDbEntity
  8
AM_9
100
AcDbLine
 10
2.502764187283388
 20
-0.1093749999999998
 30
0.0
 11
2.517099673113407
 21
-0.0723384158450938
 31
0.0
  0
LINE
  5
A2
330
8F
100
AcDbEntity
  8
AM_9
100
AcDbLine
 10
2.51701197824626
 20
0.0725777566203771
 30
0.0
 11
2.502764187283388
 21
0.109375
 31
0.0
  0
LINE
  5
A3
330
8F
100
AcDbEntity
  8
AM_9
100
AcDbLine
 10
2.541004582818312
 20
0.0000000000000001
 30
0.0
 11
2.537298485502763
 21
0.0122085449933195
 31
0.0
  0
LWPOLYLINE
  5
A4
330
8F
100
AcDbEntity
  8
AM_9
100
AcDbPolyline
 90
        3
 70
     0
 43
0.0
 10
2.39381311362981
 20
0.2187500000000001
 10
2.41133437368499
 20
0.1643083897258505
 10
2.432053509164733
 20
0.1093750000000001
  0
LINE
  5
A5
330
8F
100
AcDbEntity
  8
AM_9
100
AcDbLine
 10
2.541004582818312
 20
0.0000000000000001
 30
0.0
 11
2.483117427168779
 21
0.0000000000000001
 31
0.0
  0
LWPOLYLINE
  5
A6
330
8F
100
AcDbEntity
  8
AM_9
100
AcDbPolyline
 90
        3
 70
     0
 43
0.0
 10
2.432053509164733
 20
-0.1093749999999998
 10
2.411419806563051
 20
-0.1640624999999998
 10
2.393813113629809
 20
-0.2187499999999999
  0
LINE
  5
A7
330
8F
100
AcDbEntity
  8
AM_9
100
AcDbLine
 10
2.502764187283388
 20
0.109375
 30
0.0
 11
2.492834383761905
 21
0.132917052063249
 31
0.0
  0
LINE
  5
A8
330
8F
100
AcDbEntity
  8
AM_9
100
AcDbLine
 10
2.493153345894167
 20
-0.1321834926502621
 30
0.0
 11
2.502764187283388
 21
-0.1093749999999998
 31
0.0
  0
LINE
  5
A9
330
8F
100
AcDbEntity
  8
AM_9
100
AcDbLine
 10
2.13228590329027
 20
-0.1985206121313387
 30
0.0
 11
2.293545800660597
 21
-0.205651199153047
 31
0.0
  0
LINE
  5
AA
330
8F
100
AcDbEntity
  8
AM_9
100
AcDbLine
 10
2.293545800660597
 20
0.2056511991530472
 30
0.0
 11
2.13228590329027
 21
0.198520612131339
 31
0.0
  0
ELLIPSE
  5
AB
330
8F
100
AcDbEntity
  8
AM_9
100
AcDbEllipse
 10
2.368807716974869
 20
0.0000000000000338
 30
0.0
 11
-4.018372309701083E-17
 21
-0.2187499999999363
 31
0.0
210
0.0
220
0.0
230
1.0
 40
0.7071067811869377
 41
0.9156936017145529
 42
2.225899051874998
  0
LINE
  5
AC
330
8F
100
AcDbEntity
  8
AM_9
100
AcDbLine
 10
2.474873734152915
 20
0.0948683298050516
 30
0.0
 11
2.45625986772385
 21
0.1073548910028991
 31
0.0
  0
LINE
  5
AD
330
8F
100
AcDbEntity
  8
AM_9
100
AcDbLine
 10
2.45625986772385
 20
-0.1073548910028988
 30
0.0
 11
2.474873734152915
 21
-0.0948683298050513
 31
0.0
  0
ELLIPSE
  5
AE
330
8F
100
AcDbEntity
  8
AM_9
100
AcDbEllipse
 10
2.443053928999521
 20
-0.0000000000000012
 30
0.0
 11
-1.928818708657040E-17
 21
-0.1049999999999978
 31
0.0
210
0.0
220
0.0
230
1.0
 40
0.7071067811865519
 41
0.0
 42
3.141592653589793
  0
ELLIPSE
  5
AF
330
8F
100
AcDbEntity
  8
AM_9
100
AcDbEllipse
 10
2.368807716974926
 20
0.0000000000000003
 30
0.0
 11
-3.926523799766218E-17
 21
-0.2137500000000009
 31
0.0
210
0.0
220
0.0
230
1.0
 40
0.7071067811865757
 41
0.903655218840373
 42
2.23793743474942
  0
LINE
  5
B0
330
8F
100
AcDbEntity
  8
AM_9
100
AcDbLine
 10
2.444372919882059
 20
-0.1049999999999999
 30
0.0
 11
2.464267132435117
 21
-0.1049999999999999
 31
0.0
  0
LINE
  5
B1
330
8F
100
AcDbEntity
  8
AM_9
100
AcDbLine
 10
2.464267132435117
 20
0.1050000000000002
 30
0.0
 11
2.444372919882059
 21
0.1050000000000002
 31
0.0
  0
ELLIPSE
  5
B2
330
8F
100
AcDbEntity
  8
AM_9
100
AcDbEllipse
 10
2.464267132435118
 20
-0.0000000000000009
 30
0.0
 11
-1.928818708657059E-17
 21
-0.1049999999999988
 31
0.0
210
0.0
220
0.0
230
1.0
 40
0.7071067811865492
 41
5.759586531581274
 42
9.948376736367685
  0
ELLIPSE
  5
B3
330
8F
100
AcDbEntity
  8
AM_9
100
AcDbEllipse
 10
2.420251942623931
 20
0.0000000000000052
 30
0.0
 11
-2.182689656892083E-17
 21
-0.1188200907348283
 31
0.0
210
0.0
220
0.0
230
1.0
 40
0.7071067811868297
 41
0.3762206261005945
 42
2.765372027489169
  0
LINE
  5
B4
330
8F
100
AcDbEntity
  8
AM_9
100
AcDbLine
 10
2.503157655943593
 20
0.0192743186691522
 30
0.0
 11
2.502144815752602
 21
0.0279874918769155
 31
0.0
  0
LINE
  5
B5
330
8F
100
AcDbEntity
  8
AM_9
100
AcDbLine
 10
2.502144815752602
 20
-0.0279874918769152
 30
0.0
 11
2.503157655943593
 21
-0.0192743186691519
 31
0.0
  0
ELLIPSE
  5
B6
330
8F
100
AcDbEntity
  8
AM_9
100
AcDbEllipse
 10
2.38176063938231
 20
0.000000000000002
 30
0.0
 11
-3.169399141454516E-17
 21
-0.1725340532830187
 31
0.0
210
0.0
220
0.0
230
1.0
 40
0.7071067811865469
 41
0.777291343142128
 42
2.364301310447651
  0
ELLIPSE
  5
B7
330
8F
100
AcDbEntity
  8
AM_9
100
AcDbEllipse
 10
2.50669353930631
 20
0.0000000000000007
 30
0.0
 11
-2.479909768273381E-17
 21
-0.1349999999999995
 31
0.0
210
0.0
220
0.0
230
1.0
 40
0.7071067811865474
 41
0.4159140521025426
 42
2.725678601487246
  0
ELLIPSE
  5
B8
330
8F
100
AcDbEntity
  8
AM_9
100
AcDbEllipse
 10
2.298097038856279
 20
0.0000000000000008
 30
0.0
 11
-3.779601035290896E-17
 21
-0.2057518972230688
 31
0.0
210
0.0
220
0.0
230
1.0
 40
0.7071067811865468
 41
0.0
 42
6.283185307179586
  0
ELLIPSE
  5
B9
330
8F
100
AcDbEntity
  8
AM_9
100
AcDbEllipse
 10
2.136674993583298
 20
0.0000000000000008
 30
0.0
 11
-3.648546613377872E-17
 21
-0.1986176267812147
 31
0.0
210
0.0
220
0.0
230
1.0
 40
0.7071067811865481
 41
0.0
 42
6.283185307179586
  0
ELLIPSE
  5
BA
330
8F
100
AcDbEntity
  8
AM_9
100
AcDbEllipse
 10
2.298097038856277
 20
0.0000000000000001
 30
0.0
 11
-4.018372309702256E-17
 21
-0.2187500000000002
 31
0.0
210
0.0
220
0.0
230
1.0
 40
0.7071067811865405
 41
0.0
 42
6.283185307179586
  0
LWPOLYLINE
  5
BC
330
8F
100
AcDbEntity
  8
AM_4
100
AcDbPolyline
 90
        3
 70
     0
 43
0.0
 10
2.492834383761905
 20
0.132917052063249
 10
2.478745733115586
 20
0.1640625000000001
 10
2.451700269279342
 20
0.2187500000000001
  0
LWPOLYLINE
  5
BD
330
8F
100
AcDbEntity
  8
AM_4
100
AcDbPolyline
 90
        3
 70
     0
 43
0.0
 10
2.451700269279342
 20
-0.2187499999999999
 10
2.478630397873204
 20
-0.1643083897258503
 10
2.493153345894167
 20
-0.1321834926502621
  0
ELLIPSE
  5
BE
330
8F
100
AcDbEntity
  8
AM_4
100
AcDbEllipse
 10
2.368807716974935
 20
-0.0000000000000002
 30
0.0
 11
-4.018372309702259E-17
 21
-0.2187500000000003
 31
0.0
210
0.0
220
0.0
230
1.0
 40
0.707106781186544
 41
2.225899051875111
 42
7.198878908894272
  0
ELLIPSE
  5
BF
330
8F
100
AcDbEntity
  8
AM_4
100
AcDbEllipse
 10
2.420251942623915
 20
0.0000000000000001
 30
0.0
 11
-2.182689656893351E-17
 21
-0.1188200907348973
 31
0.0
210
0.0
220
0.0
230
1.0
 40
0.7071067811865458
 41
2.765372027488874
 42
6.659405933280505
  0
ELLIPSE
  5
C0
330
8F
100
AcDbEntity
  8
AM_4
100
AcDbEllipse
 10
2.368807716974933
 20
0.0000000000000001
 30
0.0
 11
-3.926523799766201E-17
 21
-0.21375
 31
0.0
210
0.0
220
0.0
230
1.0
 40
0.7071067811865475
 41
2.237937434749429
 42
7.186840526019951
  0
LINE
  5
C1
330
8F
100
AcDbEntity
  8
AM_4
100
AcDbLine
 10
2.44305392899952
 20
-0.1049999999999999
 30
0.0
 11
2.444372919882059
 21
-0.1049999999999999
 31
0.0
  0
LINE
  5
C2
330
8F
100
AcDbEntity
  8
AM_4
100
AcDbLine
 10
2.444372919882059
 20
0.1050000000000002
 30
0.0
 11
2.44305392899952
 21
0.1050000000000002
 31
0.0
  0
ELLIPSE
  5
C3
330
8F
100
AcDbEntity
  8
AM_4
100
AcDbEllipse
 10
2.44305392899952
 20
0.0000000000000002
 30
0.0
 11
-1.928818708657081E-17
 21
-0.105
 31
0.0
210
0.0
220
0.0
230
1.0
 40
0.7071067811865454
 41
3.141592653589793
 42
6.283185307179586
  0
ELLIPSE
  5
C4
330
8F
100
AcDbEntity
  8
AM_4
100
AcDbEllipse
 10
2.381760639382312
 20
0.0000000000000002
 30
0.0
 11
-3.169399141454455E-17
 21
-0.1725340532830154
 31
0.0
210
0.0
220
0.0
230
1.0
 40
0.7071067811865475
 41
2.364301310447673
 42
7.060476650321707
  0
LWPOLYLINE
  5
C5
330
8F
100
AcDbEntity
  8
AM_4
100
AcDbPolyline
 90
        3
 70
     0
 43
0.0
 10
2.273091642201402
 20
0.2187500000000001
 10
2.255570382146221
 20
0.1643083897258505
 10
2.234851246666478
 20
0.109375
  0
LINE
  5
C6
330
8F
100
AcDbEntity
  8
AM_4
100
AcDbLine
 10
2.451700269279342
 20
0.2187500000000001
 30
0.0
 11
2.215204486551869
 21
0.2187500000000001
 31
0.0
  0
LWPOLYLINE
  5
C7
330
8F
100
AcDbEntity
  8
AM_4
100
AcDbPolyline
 90
        3
 70
     0
 43
0.0
 10
2.164140568547823
 20
0.1093750000000001
 10
2.188159022715625
 20
0.1640625000000001
 10
2.215204486551869
 20
0.2187500000000001
  0
LWPOLYLINE
  5
C8
330
8F
100
AcDbEntity
  8
AM_4
100
AcDbPolyline
 90
        3
 70
     0
 43
0.0
 10
2.1259001730129
 20
0.0000000000000002
 10
2.14342143306808
 20
0.0544416102741497
 10
2.164140568547823
 20
0.1093750000000001
  0
LWPOLYLINE
  5
C9
330
8F
100
AcDbEntity
  8
AM_4
100
AcDbPolyline
 90
        3
 70
     0
 43
0.0
 10
2.234851246666478
 20
0.109375
 10
2.210832792498676
 20
0.0546875000000001
 10
2.183787328662432
 20
0.0000000000000002
  0
LINE
  5
CA
330
8F
100
AcDbEntity
  8
AM_4
100
AcDbLine
 10
2.451700269279342
 20
-0.2187499999999999
 30
0.0
 11
2.215204486551869
 21
-0.2187499999999999
 31
0.0
  0
LWPOLYLINE
  5
CB
330
8F
100
AcDbEntity
  8
AM_4
100
AcDbPolyline
 90
        3
 70
     0
 43
0.0
 10
2.234851246666478
 20
-0.1093749999999998
 10
2.255484949268161
 20
-0.1640624999999998
 10
2.273091642201402
 20
-0.2187499999999999
  0
LWPOLYLINE
  5
CC
330
8F
100
AcDbEntity
  8
AM_4
100
AcDbPolyline
 90
        3
 70
     0
 43
0.0
 10
2.183787328662432
 20
0.0000000000000002
 10
2.210717457256294
 20
-0.0544416102741494
 10
2.234851246666478
 20
-0.1093749999999998
  0
LINE
  5
CD
330
8F
100
AcDbEntity
  8
AM_4
100
AcDbLine
 10
2.183787328662432
 20
0.0000000000000002
 30
0.0
 11
2.1259001730129
 21
0.0000000000000002
 31
0.0
  0
LWPOLYLINE
  5
CE
330
8F
100
AcDbEntity
  8
AM_4
100
AcDbPolyline
 90
        3
 70
     0
 43
0.0
 10
2.164140568547823
 20
-0.1093749999999998
 10
2.14350686594614
 20
-0.0546874999999999
 10
2.1259001730129
 20
0.0000000000000002
  0
LWPOLYLINE
  5
CF
330
8F
100
AcDbEntity
  8
AM_4
100
AcDbPolyline
 90
        3
 70
     0
 43
0.0
 10
2.215204486551869
 20
-0.2187499999999999
 10
2.188274357958007
 20
-0.1643083897258503
 10
2.164140568547823
 20
-0.1093749999999998
  0
LINE
  5
D0
330
8F
100
AcDbEntity
  8
AM_4
100
AcDbLine
 10
2.427144026422823
 20
-0.0909326673973659
 30
0.0
 11
2.458963831576217
 21
-0.116913429510899
 31
0.0
  0
LINE
  5
D1
330
8F
100
AcDbEntity
  8
AM_4
100
AcDbLine
 10
2.458963831576217
 20
0.1169134295108993
 30
0.0
 11
2.427144026422823
 21
0.0909326673973662
 31
0.0
  0
ELLIPSE
  5
D2
330
8F
100
AcDbEntity
  8
AM_4
100
AcDbEllipse
 10
2.50669353930631
 20
0.0000000000000002
 30
0.0
 11
-2.479909768273392E-17
 21
-0.1350000000000001
 31
0.0
210
0.0
220
0.0
230
1.0
 40
0.7071067811865508
 41
2.725678601487245
 42
6.699099359282135
  0
ELLIPSE
  5
D3
330
8F
100
AcDbEntity
  8
AM_4
100
AcDbEllipse
 10
2.464267132435118
 20
0.0000000000000002
 30
0.0
 11
-1.928818708657087E-17
 21
-0.1050000000000003
 31
0.0
210
0.0
220
0.0
230
1.0
 40
0.7071067811865517
 41
3.665191429188095
 42
5.759586531581284
  0
LINE
  5
D4
330
8F
100
AcDbEntity
  8
AM_4
100
AcDbLine
 10
2.592596099165008
 20
0.0939243440009288
 30
0.0
 11
2.545261646655118
 21
0.1234908992236336
 31
0.0
  0
LINE
  5
D5
330
8F
100
AcDbEntity
  8
AM_4
100
AcDbLine
 10
2.545261646655118
 20
-0.1234908992236333
 30
0.0
 11
2.592596099165008
 21
-0.0939243440009285
 31
0.0
  0
ELLIPSE
  5
D6
330
8F
100
AcDbEntity
  8
AM_4
100
AcDbEllipse
 10
2.563262081801234
 20
0.0000000000000018
 30
0.0
 11
-1.886162459184609E-17
 21
-0.1026779019331848
 31
0.0
210
0.0
220
0.0
230
1.0
 40
0.7071067811865649
 41
0.0
 42
6.283185307179586
  0
ENDBLK
  5
92
330
8F
100
AcDbEntity
  8
0
100
AcDbBlockEnd
  0
BLOCK
  5
D9
330
D7
100
AcDbEntity
  8
0
100
AcDbBlockBegin
  2
3_131933_0_in_131434_4
 70
     2
 10
0.0
 20
0.0
 30
0.0
  3
3_131933_0_in_131434_4
  1

  0
ATTDEF
  5
DB
330
D7
100
AcDbEntity
  8
AM_6
100
AcDbText
 10
7.75072125
 20
0.8600000000000001
 30
0.0
 40
0.5
  1
Eccentric Collar Insert Inch Bore
100
AcDbAttributeDefinition
  3

  2
NN
 70
     8
280
     0
  0
ATTDEF
  5
DC
330
D7
100
AcDbEntity
  8
AM_6
100
AcDbText
 10
7.75072125
 20
0.3600000000000001
 30
0.0
 40
0.5
  1
SXR Normal Duty Bearing Inserts
100
AcDbAttributeDefinition
  3

  2
NT
 70
     8
280
     0
  0
ATTDEF
  5
DD
330
D7
100
AcDbEntity
  8
AM_6
100
AcDbText
 10
7.75072125
 20
-0.1399999999999999
 30
0.0
 40
0.5
  1
131933
100
AcDbAttributeDefinition
  3

  2
NB
 70
     8
280
     0
  0
ATTDEF
  5
DE
330
D7
100
AcDbEntity
  8
AM_6
100
AcDbText
 10
7.75072125
 20
-0.6399999999999999
 30
0.0
 40
0.5
  1
$PN.
100
AcDbAttributeDefinition
  3

  2
NBSYN
 70
     8
280
     0
  0
ATTDEF
  5
DF
330
D7
100
AcDbEntity
  8
AM_6
100
AcDbText
 10
7.75072125
 20
-1.14
 30
0.0
 40
0.5
  1
131933
100
AcDbAttributeDefinition
  3

  2
LINA
 70
     8
280
     0
  0
ATTDEF
  5
E0
330
D7
100
AcDbEntity
  8
AM_6
100
AcDbText
 10
7.75072125
 20
-1.64
 30
0.0
 40
0.5
  1
215
100
AcDbAttributeDefinition
  3

  2
SERIES
 70
     8
280
     0
  0
ATTDEF
  5
E1
330
D7
100
AcDbEntity
  8
AM_6
100
AcDbText
 10
7.75072125
 20
-2.14
 30
0.0
 40
0.5
  1
2-15/16
100
AcDbAttributeDefinition
  3

  2
SS
 70
     8
280
     0
  0
ATTDEF
  5
E2
330
D7
100
AcDbEntity
  8
AM_6
100
AcDbText
 10
7.75072125
 20
-2.64
 30
0.0
 40
0.5
  1
131933
100
AcDbAttributeDefinition
  3

  2
PN
 70
     8
280
     0
  0
ATTDEF
  5
E3
330
D7
100
AcDbEntity
  8
AM_6
100
AcDbText
 10
7.75072125
 20
-3.14
 30
0.0
 40
0.5
  1
INS-SXR-215
100
AcDbAttributeDefinition
  3

  2
DESCRIPTION
 70
     8
280
     0
  0
ATTDEF
  5
E4
330
D7
100
AcDbEntity
  8
AM_6
100
AcDbText
 10
7.75072125
 20
-3.64
 30
0.0
 40
0.5
  1
4.5
100
AcDbAttributeDefinition
  3

  2
WEIGHT
 70
     8
280
     0
  0
ATTDEF
  5
E5
330
D7
100
AcDbEntity
  8
AM_6
100
AcDbText
 10
7.75072125
 20
-4.14
 30
0.0
 40
0.5
  1
3.02
100
AcDbAttributeDefinition
  3

  2
A
 70
     8
280
     0
  0
ATTDEF
  5
E6
330
D7
100
AcDbEntity
  8
AM_6
100
AcDbText
 10
7.75072125
 20
-4.64
 30
0.0
 40
0.5
  1
1.14
100
AcDbAttributeDefinition
  3

  2
C
 70
     8
280
     0
  0
ATTDEF
  5
E7
330
D7
100
AcDbEntity
  8
AM_6
100
AcDbText
 10
7.75072125
 20
-5.14
 30
0.0
 40
0.5
  1
5.1181
100
AcDbAttributeDefinition
  3

  2
D
 70
     8
280
     0
  0
ATTDEF
  5
E8
330
D7
100
AcDbEntity
  8
AM_6
100
AcDbText
 10
7.75072125
 20
-5.64
 30
0.0
 40
0.5
  1
0.28
100
AcDbAttributeDefinition
  3

  2
J
 70
     8
280
     0
  0
ATTDEF
  5
E9
330
D7
100
AcDbEntity
  8
AM_6
100
AcDbText
 10
7.75072125
 20
-6.14
 30
0.0
 40
0.5
  1
4.00
100
AcDbAttributeDefinition
  3

  2
L
 70
     8
280
     0
  0
ATTDEF
  5
EA
330
D7
100
AcDbEntity
  8
AM_6
100
AcDbText
 10
7.75072125
 20
-6.64
 30
0.0
 40
0.5
  1
7/16-20
100
AcDbAttributeDefinition
  3

  2
N
 70
     8
280
     0
  0
ATTDEF
  5
EB
330
D7
100
AcDbEntity
  8
AM_6
100
AcDbText
 10
7.75072125
 20
-7.14
 30
0.0
 40
0.5
  1
0.86
100
AcDbAttributeDefinition
  3

  2
W
 70
     8
280
     0
  0
ATTDEF
  5
EC
330
D7
100
AcDbEntity
  8
AM_6
100
AcDbText
 10
7.75072125
 20
-7.64
 30
0.0
 40
0.5
  1
2.16
100
AcDbAttributeDefinition
  3

  2
Y
 70
     8
280
     0
  0
ATTDEF
  5
ED
330
D7
100
AcDbEntity
  8
AM_6
100
AcDbText
 10
7.75072125
 20
-8.14
 30
0.0
 40
0.5
  1
3.62
100
AcDbAttributeDefinition
  3

  2
Z
 70
     8
280
     0
  0
ATTDEF
  5
EE
330
D7
100
AcDbEntity
  8
AM_6
100
AcDbText
 10
7.75072125
 20
-8.64
 30
0.0
 40
0.5
  1
baldor
100
AcDbAttributeDefinition
  3

  2
COMPANY
 70
     8
280
     0
  0
LINE
  5
EF
330
D7
100
AcDbEntity
  8
AM_9
100
AcDbLine
 10
2.555530514013829
 20
0.1341666666666666
 30
0.0
 11
2.560091666666667
 21
0.1341666666666666
 31
0.0
  0
LINE
  5
F0
330
D7
100
AcDbEntity
  8
AM_9
100
AcDbLine
 10
2.560091666666667
 20
0.4258333333333334
 30
0.0
 11
2.52342437576812
 21
0.4258333333333334
 31
0.0
  0
LINE
  5
F1
330
D7
100
AcDbEntity
  8
AM_9
100
AcDbLine
 10
2.560091666666667
 20
0.4258333333333334
 30
0.0
 11
2.560091666666667
 21
0.1341666666666665
 31
0.0
  0
ARC
  5
F2
330
D7
100
AcDbEntity
  8
AM_9
100
AcDbCircle
 10
2.560091666666667
 20
0.28
 30
0.0
 40
0.1458333333333335
100
AcDbArc
 50
270.0
 51
90.0
  0
LINE
  5
F3
330
D7
100
AcDbEntity
  8
AM_9
100
AcDbLine
 10
1.46875
 20
-2.1372
 30
0.0
 11
1.46875
 21
-1.519872034611053
 31
0.0
  0
LINE
  5
F4
330
D7
100
AcDbEntity
  8
AM_9
100
AcDbLine
 10
-1.46875
 20
-1.519872034611053
 30
0.0
 11
-1.46875
 21
-2.1372
 31
0.0
  0
LINE
  5
F5
330
D7
100
AcDbEntity
  8
AM_9
100
AcDbLine
 10
1.46875
 20
-1.487627965388947
 30
0.0
 11
1.46875
 21
0.8371999999999997
 31
0.0
  0
LINE
  5
F6
330
D7
100
AcDbEntity
  8
AM_9
100
AcDbLine
 10
-1.46875
 20
0.8371999999999997
 30
0.0
 11
-1.46875
 21
-1.487627965388947
 31
0.0
  0
LINE
  5
F7
330
D7
100
AcDbEntity
  8
AM_9
100
AcDbLine
 10
-1.46875
 20
-1.519872034611053
 30
0.0
 11
1.46875
 21
-1.519872034611053
 31
0.0
  0
LINE
  5
F8
330
D7
100
AcDbEntity
  8
AM_9
100
AcDbLine
 10
1.46875
 20
-1.519872034611053
 30
0.0
 11
1.484872034611054
 21
-1.50375
 31
0.0
  0
LINE
  5
F9
330
D7
100
AcDbEntity
  8
AM_9
100
AcDbLine
 10
-1.484872034611054
 20
-1.50375
 30
0.0
 11
-1.46875
 21
-1.519872034611053
 31
0.0
  0
LINE
  5
FA
330
D7
100
AcDbEntity
  8
AM_9
100
AcDbLine
 10
-1.46875
 20
-1.487627965388947
 30
0.0
 11
1.46875
 21
-1.487627965388947
 31
0.0
  0
LINE
  5
FB
330
D7
100
AcDbEntity
  8
AM_9
100
AcDbLine
 10
-1.484872034611054
 20
-1.50375
 30
0.0
 11
1.484872034611054
 21
-1.50375
 31
0.0
  0
LINE
  5
FC
330
D7
100
AcDbEntity
  8
AM_9
100
AcDbLine
 10
-1.46875
 20
-1.487627965388947
 30
0.0
 11
-1.484872034611054
 21
-1.50375
 31
0.0
  0
LINE
  5
FD
330
D7
100
AcDbEntity
  8
AM_9
100
AcDbLine
 10
1.484872034611054
 20
-1.50375
 30
0.0
 11
1.46875
 21
-1.487627965388947
 31
0.0
  0
LINE
  5
FE
330
D7
100
AcDbEntity
  8
AM_9
100
AcDbLine
 10
-1.46875
 20
-2.1372
 30
0.0
 11
1.46875
 21
-2.1372
 31
0.0
  0
LINE
  5
FF
330
D7
100
AcDbEntity
  8
AM_9
100
AcDbLine
 10
-1.46875
 20
-2.1372
 30
0.0
 11
-1.491549999999999
 21
-2.16
 31
0.0
  0
LINE
  5
100
330
D7
100
AcDbEntity
  8
AM_9
100
AcDbLine
 10
1.491549999999999
 20
-2.16
 30
0.0
 11
1.46875
 21
-2.1372
 31
0.0
  0
LINE
  5
101
330
D7
100
AcDbEntity
  8
AM_9
100
AcDbLine
 10
1.46875
 20
0.8371999999999997
 30
0.0
 11
1.49155
 21
0.86
 31
0.0
  0
LINE
  5
102
330
D7
100
AcDbEntity
  8
AM_9
100
AcDbLine
 10
-1.49155
 20
0.86
 30
0.0
 11
-1.46875
 21
0.8371999999999997
 31
0.0
  0
LINE
  5
103
330
D7
100
AcDbEntity
  8
AM_9
100
AcDbLine
 10
1.33937088651195
 20
0.8600000000000001
 30
0.0
 11
1.7872
 21
0.86
 31
0.0
  0
LINE
  5
104
330
D7
100
AcDbEntity
  8
AM_9
100
AcDbLine
 10
-1.7872
 20
0.86
 30
0.0
 11
-1.33937088651195
 21
0.8600000000000001
 31
0.0
  0
LINE
  5
105
330
D7
100
AcDbEntity
  8
AM_9
100
AcDbLine
 10
-1.7872
 20
0.86
 30
0.0
 11
-1.81
 21
0.8371999999999998
 31
0.0
  0
LINE
  5
106
330
D7
100
AcDbEntity
  8
AM_9
100
AcDbLine
 10
1.81
 20
0.8371999999999998
 30
0.0
 11
1.7872
 21
0.86
 31
0.0
  0
LINE
  5
107
330
D7
100
AcDbEntity
  8
AM_9
100
AcDbLine
 10
1.810000000000001
 20
-0.9086343590902496
 30
0.0
 11
1.810000000000001
 21
-0.5699999999999998
 31
0.0
  0
LINE
  5
108
330
D7
100
AcDbEntity
  8
AM_9
100
AcDbLine
 10
-1.810000000000001
 20
-0.5699999999999998
 30
0.0
 11
-1.810000000000001
 21
-0.9086343590902496
 31
0.0
  0
LINE
  5
109
330
D7
100
AcDbEntity
  8
AM_9
100
AcDbLine
 10
1.002008063177558
 20
0.8372
 30
0.0
 11
1.810000000000001
 21
0.8371999999999998
 31
0.0
  0
LINE
  5
10A
330
D7
100
AcDbEntity
  8
AM_9
100
AcDbLine
 10
-1.81
 20
0.8371999999999998
 30
0.0
 11
-1.002008063177558
 21
0.8372
 31
0.0
  0
LINE
  5
10B
330
D7
100
AcDbEntity
  8
AM_9
100
AcDbLine
 10
1.810000000000001
 20
0.57
 30
0.0
 11
1.810000000000001
 21
0.8371999999999998
 31
0.0
  0
LINE
  5
10C
330
D7
100
AcDbEntity
  8
AM_9
100
AcDbLine
 10
-1.810000000000001
 20
0.8371999999999998
 30
0.0
 11
-1.810000000000001
 21
0.57
 31
0.0
  0
LINE
  5
10D
330
D7
100
AcDbEntity
  8
AM_9
100
AcDbLine
 10
2.437190476190477
 20
-0.3360000000000001
 30
0.0
 11
2.437190476190477
 21
-0.224
 31
0.0
  0
LINE
  5
10E
330
D7
100
AcDbEntity
  8
AM_9
100
AcDbLine
 10
-2.437190476190477
 20
-0.224
 30
0.0
 11
-2.437190476190477
 21
-0.3360000000000001
 31
0.0
  0
LINE
  5
10F
330
D7
100
AcDbEntity
  8
AM_9
100
AcDbLine
 10
-2.458136599642094
 20
-0.5699999999999995
 30
0.0
 11
2.458136599636895
 21
-0.5699999999999995
 31
0.0
  0
ARC
  5
110
330
D7
100
AcDbEntity
  8
AM_9
100
AcDbCircle
 10
2.458136599642094
 20
-0.5243999999999986
 30
0.0
 40
0.0456000000000009
100
AcDbArc
 50
270.0
 51
347.9574800256379
  0
ARC
  5
111
330
D7
100
AcDbEntity
  8
AM_9
100
AcDbCircle
 10
-2.458136599642094
 20
-0.5243999999999986
 30
0.0
 40
0.0456000000000007
100
AcDbArc
 50
192.0425199743621
 51
270.0
  0
LINE
  5
112
330
D7
100
AcDbEntity
  8
AM_9
100
AcDbLine
 10
-2.458136599642095
 20
0.57
 30
0.0
 11
2.458136599636896
 21
0.57
 31
0.0
  0
ARC
  5
113
330
D7
100
AcDbEntity
  8
AM_9
100
AcDbCircle
 10
2.458136599642095
 20
0.5243999999999982
 30
0.0
 40
0.0456000000000012
100
AcDbArc
 50
12.04251567479524
 51
90.0
  0
ARC
  5
114
330
D7
100
AcDbEntity
  8
AM_9
100
AcDbCircle
 10
-2.458136599642095
 20
0.5243999999999982
 30
0.0
 40
0.0456000000000018
100
AcDbArc
 50
90.0
 51
167.9574843252048
  0
LINE
  5
115
330
D7
100
AcDbEntity
  8
AM_9
100
AcDbLine
 10
-2.502733082143708
 20
-0.5339138713720182
 30
0.0
 11
2.502733082143956
 21
-0.5339138713720182
 31
0.0
  0
LINE
  5
116
330
D7
100
AcDbEntity
  8
AM_9
100
AcDbLine
 10
-2.536895918736124
 20
-0.3360000000000001
 30
0.0
 11
2.536895918736371
 21
-0.3360000000000001
 31
0.0
  0
ARC
  5
117
330
D7
100
AcDbEntity
  8
AM_9
100
AcDbCircle
 10
0.0000000003127005
 20
-0.0000000000539391
 30
0.0
 40
2.55904999968317
100
AcDbArc
 50
347.9574800253605
 51
352.4553529451878
  0
ARC
  5
118
330
D7
100
AcDbEntity
  8
AM_9
100
AcDbCircle
 10
-0.0000000003127969
 20
-0.0000000000539556
 30
0.0
 40
2.559049999683072
100
AcDbArc
 50
187.5446470548121
 51
192.0425199746396
  0
LINE
  5
119
330
D7
100
AcDbEntity
  8
AM_9
100
AcDbLine
 10
-2.549227510933459
 20
-0.2240000000000005
 30
0.0
 11
2.549227510933481
 21
-0.2240000000000005
 31
0.0
  0
LINE
  5
11A
330
D7
100
AcDbEntity
  8
AM_9
100
AcDbLine
 10
-2.502733082857645
 20
0.5339138680254265
 30
0.0
 11
2.502733082857667
 21
0.5339138680254265
 31
0.0
  0
ARC
  5
11B
330
D7
100
AcDbEntity
  8
AM_9
100
AcDbCircle
 10
-0.0000000000093836
 20
0.0000000000003266
 30
0.0
 40
2.559050000009398
100
AcDbArc
 50
354.978331574966
 51
3.006574373556053
  0
ARC
  5
11C
330
D7
100
AcDbEntity
  8
AM_9
100
AcDbCircle
 10
0.0000000000464055
 20
0.0000000000083331
 30
0.0
 40
2.5590499999529
100
AcDbArc
 50
9.568074328627885
 51
12.04251989778072
  0
ARC
  5
11D
330
D7
100
AcDbEntity
  8
AM_9
100
AcDbCircle
 10
-0.000000000002029
 20
0.0000000000001268
 30
0.0
 40
2.559049999998012
100
AcDbArc
 50
167.9574801022468
 51
185.0216684250519
  0
LINE
  5
11E
330
D7
100
AcDbEntity
  8
AM_9
100
AcDbLine
 10
2.555530514011284
 20
0.1341666666898915
 30
0.0
 11
2.523371331120842
 21
0.4258333333331183
 31
0.0
  0
LINE
  5
121
330
D7
100
AcDbEntity
  8
AM_7
100
AcDbLine
 10
1.76520375
 20
0.28
 30
0.0
 11
2.75072125
 21
0.28
 31
0.0
  0
LINE
  5
122
330
D7
100
AcDbEntity
  8
AM_4
100
AcDbLine
 10
1.723809523809524
 20
-1.41625
 30
0.0
 11
1.723809523809524
 21
-1.3725
 31
0.0
  0
LINE
  5
123
330
D7
100
AcDbEntity
  8
AM_4
100
AcDbLine
 10
-1.723809523809524
 20
-1.3725
 30
0.0
 11
-1.723809523809524
 21
-1.41625
 31
0.0
  0
LINE
  5
124
330
D7
100
AcDbEntity
  8
AM_4
100
AcDbLine
 10
-1.7872
 20
-1.3725
 30
0.0
 11
1.7872
 21
-1.3725
 31
0.0
  0
LINE
  5
125
330
D7
100
AcDbEntity
  8
AM_4
100
AcDbLine
 10
1.7872
 20
-1.3725
 30
0.0
 11
1.81
 21
-1.349699999999999
 31
0.0
  0
LINE
  5
126
330
D7
100
AcDbEntity
  8
AM_4
100
AcDbLine
 10
-1.81
 20
-1.349699999999999
 30
0.0
 11
-1.7872
 21
-1.3725
 31
0.0
  0
LINE
  5
127
330
D7
100
AcDbEntity
  8
AM_4
100
AcDbLine
 10
-1.33937088651195
 20
0.8600000000000001
 30
0.0
 11
1.33937088651195
 21
0.8600000000000001
 31
0.0
  0
LINE
  5
128
330
D7
100
AcDbEntity
  8
AM_4
100
AcDbLine
 10
-1.81
 20
-1.349699999999999
 30
0.0
 11
1.810000000000001
 21
-1.349699999999999
 31
0.0
  0
LINE
  5
129
330
D7
100
AcDbEntity
  8
AM_4
100
AcDbLine
 10
1.810000000000001
 20
-1.349699999999999
 30
0.0
 11
1.810000000000001
 21
-0.9086343590902496
 31
0.0
  0
LINE
  5
12A
330
D7
100
AcDbEntity
  8
AM_4
100
AcDbLine
 10
-1.810000000000001
 20
-0.9086343590902496
 30
0.0
 11
-1.810000000000001
 21
-1.349699999999999
 31
0.0
  0
LINE
  5
12B
330
D7
100
AcDbEntity
  8
AM_4
100
AcDbLine
 10
-1.002008063177558
 20
0.8372
 30
0.0
 11
1.002008063177558
 21
0.8372
 31
0.0
  0
LINE
  5
12C
330
D7
100
AcDbEntity
  8
AM_4
100
AcDbLine
 10
-1.9453125
 20
-1.41625
 30
0.0
 11
1.945312499987528
 21
-1.41625
 31
0.0
  0
ARC
  5
12D
330
D7
100
AcDbEntity
  8
AM_4
100
AcDbCircle
 10
1.9453125
 20
-1.4709375
 30
0.0
 40
0.0546875
100
AcDbArc
 50
0.0
 51
90.0
  0
ARC
  5
12E
330
D7
100
AcDbEntity
  8
AM_4
100
AcDbCircle
 10
-1.9453125
 20
-1.4709375
 30
0.0
 40
0.0546875000000002
100
AcDbArc
 50
90.0
 51
180.0
  0
ARC
  5
12F
330
D7
100
AcDbEntity
  8
AM_4
100
AcDbCircle
 10
0.0
 20
-1.831874999999998
 30
0.0
 40
0.2018499999999979
100
AcDbArc
 50
66.28046733678657
 51
113.7195326632134
  0
ARC
  5
130
330
D7
100
AcDbEntity
  8
AM_4
100
AcDbCircle
 10
0.0
 20
-1.831874999999997
 30
0.0
 40
0.2018500000000029
100
AcDbArc
 50
246.2804673367872
 51
293.7195326632128
  0
LWPOLYLINE
  5
131
330
D7
100
AcDbEntity
  8
AM_4
100
AcDbPolyline
 90
       15
 70
     0
 43
0.0
 10
-0.0811961630702038
 20
-2.01667382467883
 10
-0.1110818370913242
 20
-2.000386402275232
 10
-0.1378237042026919
 20
-1.979347197582626
 10
-0.1606192157514781
 20
-1.954091057228802
 10
-0.1788858673773976
 20
-1.925380448785812
 10
-0.1920396932518509
 20
-1.89397053663026
 10
-0.1997677892774137
 20
-1.860793037056738
 10
-0.2017686757521267
 20
-1.826922086639713
 10
-0.1981085582158212
 20
-1.79319139027122
 10
-0.1888470461245514
 20
-1.76065598149554
 10
-0.1743245008830103
 20
-1.730118472485106
 10
-0.1548167740793308
 20
-1.702386813311207
 10
-0.1309738202700441
 20
-1.678286976691312
 10
-0.1072240290549294
 20
-1.66087251752955
 10
-0.0811961630702037
 20
-1.647076175321171
  0
LWPOLYLINE
  5
132
330
D7
100
AcDbEntity
  8
AM_4
100
AcDbPolyline
 90
        7
 70
     0
 43
0.0
 10
-0.0811961630702038
 20
-1.647076175321171
 10
-0.0557473419058408
 20
-1.636968974976827
 10
-0.0284855142538388
 20
-1.630584547635854
 10
0.0025281741899193
 20
-1.628393419139373
 10
0.0343909230856917
 20
-1.631603194625397
 10
0.0581007330315156
 20
-1.637727464626578
 10
0.0811961630702038
 20
-1.647076175321171
  0
LWPOLYLINE
  5
133
330
D7
100
AcDbEntity
  8
AM_4
100
AcDbPolyline
 90
       15
 70
     0
 43
0.0
 10
0.0811961630702038
 20
-1.647076175321171
 10
0.1110818370913242
 20
-1.663363597724769
 10
0.1378237042026919
 20
-1.684402802417375
 10
0.1606192157514781
 20
-1.709658942771198
 10
0.1788858673773976
 20
-1.738369551214188
 10
0.1920396932518509
 20
-1.76977946336974
 10
0.1997677892774137
 20
-1.802956962943263
 10
0.2017686757521267
 20
-1.836827913360288
 10
0.1981085582158212
 20
-1.870558609728781
 10
0.1888470461245514
 20
-1.90309401850446
 10
0.1743245008830103
 20
-1.933631527514894
 10
0.1548167740793308
 20
-1.961363186688793
 10
0.1309738202700441
 20
-1.985463023308689
 10
0.1072240290549294
 20
-2.00287748247045
 10
0.0811961630702037
 20
-2.01667382467883
  0
LWPOLYLINE
  5
134
330
D7
100
AcDbEntity
  8
AM_4
100
AcDbPolyline
 90
        7
 70
     0
 43
0.0
 10
0.0811961630702038
 20
-2.01667382467883
 10
0.0557473419058408
 20
-2.026781025023173
 10
0.0284855142538388
 20
-2.033165452364146
 10
-0.0025281741899193
 20
-2.035356580860628
 10
-0.0343909230856917
 20
-2.032146805374603
 10
-0.0581007330315156
 20
-2.026022535373422
 10
-0.0811961630702038
 20
-2.01667382467883
  0
LINE
  5
135
330
D7
100
AcDbEntity
  8
AM_4
100
AcDbLine
 10
-2.0
 20
-1.4709375
 30
0.0
 11
2.0
 21
-1.4709375
 31
0.0
  0
LINE
  5
136
330
D7
100
AcDbEntity
  8
AM_4
100
AcDbLine
 10
2.0
 20
-2.1053125
 30
0.0
 11
2.0
 21
-1.4709375
 31
0.0
  0
LINE
  5
137
330
D7
100
AcDbEntity
  8
AM_4
100
AcDbLine
 10
-2.0
 20
-1.4709375
 30
0.0
 11
-2.0
 21
-2.1053125
 31
0.0
  0
LINE
  5
138
330
D7
100
AcDbEntity
  8
AM_4
100
AcDbLine
 10
-1.9453125
 20
-2.16
 30
0.0
 11
1.945312499987528
 21
-2.16
 31
0.0
  0
LINE
  5
139
330
D7
100
AcDbEntity
  8
AM_4
100
AcDbLine
 10
-2.0
 20
-2.1053125
 30
0.0
 11
2.0
 21
-2.1053125
 31
0.0
  0
ARC
  5
13A
330
D7
100
AcDbEntity
  8
AM_4
100
AcDbCircle
 10
1.9453125
 20
-2.1053125
 30
0.0
 40
0.0546875
100
AcDbArc
 50
270.0
 51
0.0
  0
ARC
  5
13B
330
D7
100
AcDbEntity
  8
AM_4
100
AcDbCircle
 10
-1.9453125
 20
-2.1053125
 30
0.0
 40
0.0546874999999998
100
AcDbArc
 50
180.0
 51
270.0
  0
ARC
  5
13D
330
D7
100
AcDbEntity
  8
AM_5
100
AcDbCircle
 10
0.0000000000000001
 20
-1.831875
 30
0.0
 40
0.2187499999999999
100
AcDbArc
 50
75.00000000000001
 51
15.00000000000002
  0
ENDBLK
  5
DA
330
D7
100
AcDbEntity
  8
0
100
AcDbBlockEnd
  0
BLOCK
  5
140
330
13E
100
AcDbEntity
  8
0
100
AcDbBlockBegin
  2
4_131434H_0_in_131434_4
 70
     2
 10
0.0
 20
0.0
 30
0.0
  3
4_131434H_0_in_131434_4
  1

  0
ATTDEF
  5
142
330
13E
100
AcDbEntity
  8
AM_6
100
AcDbText
 10
10.875
 20
1.584
 30
0.0
 40
0.5
  1
P2B-SXRB -I-Housing
100
AcDbAttributeDefinition
  3

  2
NN
 70
     8
280
     0
  0
ATTDEF
  5
143
330
13E
100
AcDbEntity
  8
AM_6
100
AcDbText
 10
10.875
 20
1.084
 30
0.0
 40
0.5
  1
Eccentric Collar Pillow Block Bearings -(Normal Duty) -Low Backing Height
100
AcDbAttributeDefinition
  3

  2
NT
 70
     8
280
     0
  0
ATTDEF
  5
144
330
13E
100
AcDbEntity
  8
AM_6
100
AcDbText
 10
10.875
 20
0.5839999999999999
 30
0.0
 40
0.5
  1
131434H
100
AcDbAttributeDefinition
  3

  2
NB
 70
     8
280
     0
  0
ATTDEF
  5
145
330
13E
100
AcDbEntity
  8
AM_6
100
AcDbText
 10
10.875
 20
0.0839999999999999
 30
0.0
 40
0.5
  1
$PN.H
100
AcDbAttributeDefinition
  3

  2
NBSYN
 70
     8
280
     0
  0
ATTDEF
  5
146
330
13E
100
AcDbEntity
  8
AM_6
100
AcDbText
 10
10.875
 20
-0.4160000000000001
 30
0.0
 40
0.5
  1
131434
100
AcDbAttributeDefinition
  3

  2
LINA
 70
     8
280
     0
  0
ATTDEF
  5
147
330
13E
100
AcDbEntity
  8
AM_6
100
AcDbText
 10
10.875
 20
-0.9160000000000001
 30
0.0
 40
0.5
  1
215
100
AcDbAttributeDefinition
  3

  2
SERIES
 70
     8
280
     0
  0
ATTDEF
  5
148
330
13E
100
AcDbEntity
  8
AM_6
100
AcDbText
 10
10.875
 20
-1.416
 30
0.0
 40
0.5
  1
2-15/16
100
AcDbAttributeDefinition
  3

  2
SS
 70
     8
280
     0
  0
ATTDEF
  5
149
330
13E
100
AcDbEntity
  8
AM_6
100
AcDbText
 10
10.875
 20
-1.916
 30
0.0
 40
0.5
  1
131434
100
AcDbAttributeDefinition
  3

  2
PN
 70
     8
280
     0
  0
ATTDEF
  5
14A
330
13E
100
AcDbEntity
  8
AM_6
100
AcDbText
 10
10.875
 20
-2.416
 30
0.0
 40
0.5
  1
P2B-SXRB-215
100
AcDbAttributeDefinition
  3

  2
DESCRIPTION
 70
     8
280
     0
  0
ATTDEF
  5
14B
330
13E
100
AcDbEntity
  8
AM_6
100
AcDbText
 10
10.875
 20
-2.916
 30
0.0
 40
0.5
  1
21.0
100
AcDbAttributeDefinition
  3

  2
WEIGHT
 70
     8
280
     0
  0
ATTDEF
  5
14C
330
13E
100
AcDbEntity
  8
AM_6
100
AcDbText
 10
10.875
 20
-3.416
 30
0.0
 40
0.5
  1
3.02
100
AcDbAttributeDefinition
  3

  2
A
 70
     8
280
     0
  0
ATTDEF
  5
14D
330
13E
100
AcDbEntity
  8
AM_6
100
AcDbText
 10
10.875
 20
-3.916
 30
0.0
 40
0.5
  1
11.75
100
AcDbAttributeDefinition
  3

  2
B
 70
     8
280
     0
  0
ATTDEF
  5
14E
330
13E
100
AcDbEntity
  8
AM_6
100
AcDbText
 10
10.875
 20
-4.416
 30
0.0
 40
0.5
  1
2.88
100
AcDbAttributeDefinition
  3

  2
C
 70
     8
280
     0
  0
ATTDEF
  5
14F
330
13E
100
AcDbEntity
  8
AM_6
100
AcDbText
 10
10.875
 20
-4.916
 30
0.0
 40
0.5
  1
8.50
100
AcDbAttributeDefinition
  3

  2
DMIN
 70
     8
280
     0
  0
ATTDEF
  5
150
330
13E
100
AcDbEntity
  8
AM_6
100
AcDbText
 10
10.875
 20
-5.416
 30
0.0
 40
0.5
  1
9.50
100
AcDbAttributeDefinition
  3

  2
DMAX
 70
     8
280
     0
  0
ATTDEF
  5
151
330
13E
100
AcDbEntity
  8
AM_6
100
AcDbText
 10
10.875
 20
-5.916
 30
0.0
 40
0.5
  1
7/8
100
AcDbAttributeDefinition
  3

  2
F
 70
     8
280
     0
  0
ATTDEF
  5
152
330
13E
100
AcDbEntity
  8
AM_6
100
AcDbText
 10
10.875
 20
-6.416
 30
0.0
 40
0.5
  1
1.44
100
AcDbAttributeDefinition
  3

  2
G
 70
     8
280
     0
  0
ATTDEF
  5
153
330
13E
100
AcDbEntity
  8
AM_6
100
AcDbText
 10
10.875
 20
-6.916
 30
0.0
 40
0.5
  1
1.06
100
AcDbAttributeDefinition
  3

  2
H
 70
     8
280
     0
  0
ATTDEF
  5
154
330
13E
100
AcDbEntity
  8
AM_6
100
AcDbText
 10
10.875
 20
-7.416
 30
0.0
 40
0.5
  1
6.56
100
AcDbAttributeDefinition
  3

  2
J
 70
     8
280
     0
  0
ATTDEF
  5
155
330
13E
100
AcDbEntity
  8
AM_6
100
AcDbText
 10
10.875
 20
-7.916
 30
0.0
 40
0.5
  1
4.00
100
AcDbAttributeDefinition
  3

  2
L
 70
     8
280
     0
  0
ATTDEF
  5
156
330
13E
100
AcDbEntity
  8
AM_6
100
AcDbText
 10
10.875
 20
-8.416
 30
0.0
 40
0.5
  1
3.31
100
AcDbAttributeDefinition
  3

  2
M
 70
     8
280
     0
  0
ATTDEF
  5
157
330
13E
100
AcDbEntity
  8
AM_6
100
AcDbText
 10
10.875
 20
-8.916
 30
0.0
 40
0.5
  1
0.86
100
AcDbAttributeDefinition
  3

  2
R
 70
     8
280
     0
  0
ATTDEF
  5
158
330
13E
100
AcDbEntity
  8
AM_6
100
AcDbText
 10
10.875
 20
-9.416
 30
0.0
 40
0.5
  1
2.16
100
AcDbAttributeDefinition
  3

  2
S
 70
     8
280
     0
  0
ATTDEF
  5
159
330
13E
100
AcDbEntity
  8
AM_6
100
AcDbText
 10
10.875
 20
-9.916
 30
0.0
 40
0.5
  1
5.48
100
AcDbAttributeDefinition
  3

  2
U
 70
     8
280
     0
  0
ATTDEF
  5
15A
330
13E
100
AcDbEntity
  8
AM_6
100
AcDbText
 10
10.875
 20
-10.416
 30
0.0
 40
0.5
  1
5.48
100
AcDbAttributeDefinition
  3

  2
U1
 70
     8
280
     0
  0
ATTDEF
  5
15B
330
13E
100
AcDbEntity
  8
AM_6
100
AcDbText
 10
10.875
 20
-10.916
 30
0.0
 40
0.5
  1
10.96
100
AcDbAttributeDefinition
  3

  2
V
 70
     8
280
     0
  0
ATTDEF
  5
15C
330
13E
100
AcDbEntity
  8
AM_6
100
AcDbText
 10
10.875
 20
-11.416
 30
0.0
 40
0.5
  1
10.96
100
AcDbAttributeDefinition
  3

  2
V1
 70
     8
280
     0
  0
ATTDEF
  5
15D
330
13E
100
AcDbEntity
  8
AM_6
100
AcDbText
 10
10.875
 20
-11.916
 30
0.0
 40
0.5
  1
1.04
100
AcDbAttributeDefinition
  3

  2
W
 70
     8
280
     0
  0
ATTDEF
  5
15E
330
13E
100
AcDbEntity
  8
AM_6
100
AcDbText
 10
10.875
 20
-12.416
 30
0.0
 40
0.5
  1
1.04
100
AcDbAttributeDefinition
  3

  2
W1
 70
     8
280
     0
  0
ATTDEF
  5
15F
330
13E
100
AcDbEntity
  8
AM_6
100
AcDbText
 10
10.875
 20
-12.916
 30
0.0
 40
0.5
  1
0.12
100
AcDbAttributeDefinition
  3

  2
X
 70
     8
280
     0
  0
ATTDEF
  5
160
330
13E
100
AcDbEntity
  8
AM_6
100
AcDbText
 10
10.875
 20
-13.416
 30
0.0
 40
0.5
  1
0.12
100
AcDbAttributeDefinition
  3

  2
X1
 70
     8
280
     0
  0
ATTDEF
  5
161
330
13E
100
AcDbEntity
  8
AM_6
100
AcDbText
 10
10.875
 20
-13.916
 30
0.0
 40
0.5
  1
9255
100
AcDbAttributeDefinition
  3

  2
CAPS
 70
     8
280
     0
  0
ATTDEF
  5
162
330
13E
100
AcDbEntity
  8
AM_6
100
AcDbText
 10
10.875
 20
-14.416
 30
0.0
 40
0.5
  1
14875
100
AcDbAttributeDefinition
  3

  2
CAPD
 70
     8
280
     0
  0
ATTDEF
  5
163
330
13E
100
AcDbEntity
  8
AM_6
100
AcDbText
 10
10.875
 20
-14.916
 30
0.0
 40
0.5
  1
baldor
100
AcDbAttributeDefinition
  3

  2
COMPANY
 70
     8
280
     0
  0
LINE
  5
164
330
13E
100
AcDbEntity
  8
AM_9
100
AcDbLine
 10
-2.705925
 20
-1.152
 30
0.0
 11
-2.705925
 21
-0.7200000000000001
 31
0.0
  0
LINE
  5
165
330
13E
100
AcDbEntity
  8
AM_9
100
AcDbLine
 10
-2.599925
 20
-1.152
 30
0.0
 11
-2.599925
 21
-0.7200000000000001
 31
0.0
  0
LINE
  5
166
330
13E
100
AcDbEntity
  8
AM_9
100
AcDbLine
 10
2.705925
 20
-0.4319999999999999
 30
0.0
 11
2.705925
 21
1.161999999999998
 31
0.0
  0
LINE
  5
167
330
13E
100
AcDbEntity
  8
AM_9
100
AcDbLine
 10
2.599925
 20
0.7199999999999999
 30
0.0
 11
2.599925
 21
1.152
 31
0.0
  0
LINE
  5
168
330
13E
100
AcDbEntity
  8
AM_9
100
AcDbLine
 10
-2.705925
 20
-0.4319999999999999
 30
0.0
 11
-2.705925
 21
1.161999999999999
 31
0.0
  0
LINE
  5
169
330
13E
100
AcDbEntity
  8
AM_9
100
AcDbLine
 10
-2.599925
 20
0.7199999999999999
 30
0.0
 11
-2.599925
 21
1.152
 31
0.0
  0
LINE
  5
16A
330
13E
100
AcDbEntity
  8
AM_9
100
AcDbLine
 10
2.705925
 20
-1.152
 30
0.0
 11
2.705925
 21
-0.7200000000000001
 31
0.0
  0
LINE
  5
16B
330
13E
100
AcDbEntity
  8
AM_9
100
AcDbLine
 10
2.599925
 20
-1.152
 30
0.0
 11
2.599925
 21
-0.7200000000000001
 31
0.0
  0
LINE
  5
16C
330
13E
100
AcDbEntity
  8
AM_9
100
AcDbLine
 10
5.007999999999998
 20
0.3928562077910954
 30
0.0
 11
5.007999999999998
 21
0.7199999999999999
 31
0.0
  0
LINE
  5
16D
330
13E
100
AcDbEntity
  8
AM_9
100
AcDbLine
 10
5.22
 20
-0.7200000000000001
 30
0.0
 11
5.22
 21
0.7199999999999999
 31
0.0
  0
LINE
  5
16E
330
13E
100
AcDbEntity
  8
AM_9
100
AcDbLine
 10
-5.008
 20
0.392856207791095
 30
0.0
 11
-5.008
 21
0.7199999999999999
 31
0.0
  0
LINE
  5
16F
330
13E
100
AcDbEntity
  8
AM_9
100
AcDbLine
 10
-5.22
 20
-0.7200000000000001
 30
0.0
 11
-5.22
 21
0.7199999999999999
 31
0.0
  0
LINE
  5
170
330
13E
100
AcDbEntity
  8
AM_9
100
AcDbLine
 10
-5.008
 20
-0.7200000000000001
 30
0.0
 11
-5.008
 21
-0.3928562077910942
 31
0.0
  0
LINE
  5
171
330
13E
100
AcDbEntity
  8
AM_9
100
AcDbLine
 10
-3.631551647442644
 20
-0.7200000000000001
 30
0.0
 11
-3.631551647442644
 21
0.7199999999999999
 31
0.0
  0
LINE
  5
172
330
13E
100
AcDbEntity
  8
AM_9
100
AcDbLine
 10
5.007999999999998
 20
-0.7200000000000001
 30
0.0
 11
5.007999999999998
 21
-0.3928562077910957
 31
0.0
  0
LINE
  5
173
330
13E
100
AcDbEntity
  8
AM_9
100
AcDbLine
 10
3.631551647442639
 20
-0.7200000000000001
 30
0.0
 11
3.631551647442639
 21
0.7199999999999999
 31
0.0
  0
LINE
  5
174
330
13E
100
AcDbEntity
  8
AM_9
100
AcDbLine
 10
3.357203459633967
 20
-0.7200000000000001
 30
0.0
 11
3.357203459633967
 21
0.7199999999999999
 31
0.0
  0
LINE
  5
175
330
13E
100
AcDbEntity
  8
AM_9
100
AcDbLine
 10
-3.357203459633967
 20
-0.7200000000000001
 30
0.0
 11
-3.357203459633967
 21
0.7199999999999999
 31
0.0
  0
LINE
  5
176
330
13E
100
AcDbEntity
  8
AM_9
100
AcDbLine
 10
1.728118216534956
 20
-0.7200000000000001
 30
0.0
 11
1.728118216534956
 21
0.7199999999999999
 31
0.0
  0
LINE
  5
177
330
13E
100
AcDbEntity
  8
AM_9
100
AcDbLine
 10
-1.728118216534956
 20
-0.7200000000000001
 30
0.0
 11
-1.728118216534956
 21
0.7199999999999999
 31
0.0
  0
LINE
  5
178
330
13E
100
AcDbEntity
  8
AM_9
100
AcDbLine
 10
-2.153629365299524
 20
-0.7200000000000001
 30
0.0
 11
-2.153629365299524
 21
0.7199999999999999
 31
0.0
  0
LINE
  5
179
330
13E
100
AcDbEntity
  8
AM_9
100
AcDbLine
 10
2.153629365299524
 20
-0.7200000000000001
 30
0.0
 11
2.153629365299524
 21
0.7199999999999999
 31
0.0
  0
LINE
  5
17A
330
13E
100
AcDbEntity
  8
AM_9
100
AcDbLine
 10
5.22
 20
-0.7200000000000001
 30
0.0
 11
-5.22
 21
-0.7200000000000001
 31
0.0
  0
LINE
  5
17B
330
13E
100
AcDbEntity
  8
AM_9
100
AcDbLine
 10
5.22
 20
0.7199999999999999
 30
0.0
 11
-5.22
 21
0.7199999999999999
 31
0.0
  0
LINE
  5
17C
330
13E
100
AcDbEntity
  8
AM_9
100
AcDbLine
 10
2.272620413338972
 20
-0.4319999999999999
 30
0.0
 11
2.272620413338972
 21
0.953181818181818
 31
0.0
  0
LINE
  5
17D
330
13E
100
AcDbEntity
  8
AM_9
100
AcDbLine
 10
2.705925
 20
-0.4319999999999999
 30
0.0
 11
2.095593075957258
 21
-0.4319999999999999
 31
0.0
  0
LINE
  5
17E
330
13E
100
AcDbEntity
  8
AM_9
100
AcDbLine
 10
-2.095593075957258
 20
-0.4319999999999999
 30
0.0
 11
-2.705925
 21
-0.4319999999999999
 31
0.0
  0
LINE
  5
17F
330
13E
100
AcDbEntity
  8
AM_9
100
AcDbLine
 10
-2.272620413338972
 20
-0.4319999999999999
 30
0.0
 11
-2.272620413338972
 21
0.953181818181818
 31
0.0
  0
LINE
  5
180
330
13E
100
AcDbEntity
  8
AM_9
100
AcDbLine
 10
2.073135474557318
 20
-0.1806863231297342
 30
0.0
 11
2.293859615173352
 21
-0.1904362892412115
 31
0.0
  0
LINE
  5
181
330
13E
100
AcDbEntity
  8
AM_9
100
AcDbLine
 10
2.293860423994262
 20
0.1904363249689598
 30
0.0
 11
2.073135474557318
 21
0.1806863231297345
 31
0.0
  0
LWPOLYLINE
  5
182
330
13E
100
AcDbEntity
  8
AM_9
100
AcDbPolyline
 90
       21
 70
     0
 43
0.0
 10
2.293871355970755
 20
-0.1904368065605591
 10
2.312283180283842
 20
-0.1894627968669109
 10
2.334246243149016
 20
-0.1833959384256398
 10
2.354997458187323
 20
-0.1721886294180582
 10
2.373977019244141
 20
-0.1560777407603116
 10
2.390712597378667
 20
-0.1355922104610922
 10
2.404781256495365
 20
-0.111197296116172
 10
2.415841311859765
 20
-0.0836725993604417
 10
2.423592780388112
 20
-0.0537273368718749
 10
2.42788573757941
 20
-0.0222649237813096
 10
2.428573882167027
 20
0.0098112695794878
 10
2.425693150648526
 20
0.041610658689473
 10
2.419267913366816
 20
0.0722041699582393
 10
2.409493730568402
 20
0.1007648221213498
 10
2.396546805599356
 20
0.12646934897256
 10
2.38078641221814
 20
0.1486112571522689
 10
2.362555578956984
 20
0.1665147953169145
 10
2.342357541348308
 20
0.1797199472273622
 10
2.320730554372812
 20
0.1877703798603818
 10
2.298253177377712
 20
0.1905304200368365
 10
2.293902724238414
 20
0.1904381922080133
  0
LWPOLYLINE
  5
183
330
13E
100
AcDbEntity
  8
AM_9
100
AcDbPolyline
 90
        6
 70
     0
 43
0.0
 10
2.293902724238414
 20
0.1904381922080133
 10
2.275593423391499
 20
0.1878559267599399
 10
2.253358898785021
 20
0.1799105029774379
 10
2.232216425869918
 20
0.1668510508055701
 10
2.212783459997099
 20
0.1491177338194146
 10
2.191465204294963
 20
0.1204971508756227
  0
LINE
  5
184
330
13E
100
AcDbEntity
  8
AM_9
100
AcDbLine
 10
1.81
 20
-1.152
 30
0.0
 11
-1.81
 21
-1.152
 31
0.0
  0
LINE
  5
185
330
13E
100
AcDbEntity
  8
AM_9
100
AcDbLine
 10
-2.095593075957258
 20
-0.4319999999999999
 30
0.0
 11
-2.095593075957258
 21
0.9531818181818182
 31
0.0
  0
LINE
  5
186
330
13E
100
AcDbEntity
  8
AM_9
100
AcDbLine
 10
2.095593075957258
 20
0.9531818181818182
 30
0.0
 11
2.095593075957258
 21
-0.4319999999999999
 31
0.0
  0
LINE
  5
187
330
13E
100
AcDbEntity
  8
AM_9
100
AcDbLine
 10
2.55905
 20
-1.145454545454545
 30
0.0
 11
2.55905
 21
-0.4319999999999999
 31
0.0
  0
LINE
  5
188
330
13E
100
AcDbEntity
  8
AM_9
100
AcDbLine
 10
-2.55905
 20
-0.4319999999999999
 30
0.0
 11
-2.55905
 21
-1.145454545454545
 31
0.0
  0
LWPOLYLINE
  5
189
330
13E
100
AcDbEntity
  8
AM_9
100
AcDbPolyline
 90
       15
 70
     0
 43
0.0
 10
2.191465204294963
 20
0.1204971508756227
 10
2.178047343863093
 20
0.0939968296922178
 10
2.168042636081967
 20
0.0648466736654268
 10
2.161829389227449
 20
0.0338400608434923
 10
2.159556395936364
 20
0.0018781551921804
 10
2.16135531987664
 20
-0.0301147102888057
 10
2.167104437982733
 20
-0.0612586143949538
 10
2.176670014505134
 20
-0.0906496341372387
 10
2.18968778074368
 20
-0.1174888893433841
 10
2.205802133935233
 20
-0.1409965063818795
 10
2.224451974538776
 20
-0.1605298026915608
 10
2.245085100200319
 20
-0.1754714806969011
 10
2.267050008390627
 20
-0.1854620886407947
 10
2.289655988536343
 20
-0.1901376855034349
 10
2.293871355970755
 20
-0.1904368065605591
  0
ELLIPSE
  5
18A
330
13E
100
AcDbEntity
  8
AM_9
100
AcDbEllipse
 10
2.077126169735452
 20
-0.0000000000000591
 30
0.0
 11
1.106924205118861E-17
 21
0.1807744413964165
 31
0.0
210
0.0
220
0.0
230
1.0
 40
0.7071067811864673
 41
0.0
 42
6.283185307179586
  0
LINE
  5
18B
330
13E
100
AcDbEntity
  8
AM_7
100
AcDbLine
 10
-5.543
 20
-1.04
 30
0.0
 11
-5.417000000000001
 21
-1.04
 31
0.0
  0
LINE
  5
18C
330
13E
100
AcDbEntity
  8
AM_7
100
AcDbLine
 10
-5.48
 20
-1.103
 30
0.0
 11
-5.48
 21
-0.9770000000000001
 31
0.0
  0
LINE
  5
18D
330
13E
100
AcDbEntity
  8
AM_7
100
AcDbLine
 10
5.417000000000001
 20
-1.04
 30
0.0
 11
5.543
 21
-1.04
 31
0.0
  0
LINE
  5
18E
330
13E
100
AcDbEntity
  8
AM_7
100
AcDbLine
 10
5.48
 20
-1.103
 30
0.0
 11
5.48
 21
-0.9770000000000001
 31
0.0
  0
LINE
  5
18F
330
13E
100
AcDbEntity
  8
AM_7
100
AcDbLine
 10
0.0
 20
1.584
 30
0.0
 11
0.0
 21
-2.311
 31
0.0
  0
LINE
  5
190
330
13E
100
AcDbEntity
  8
AM_7
100
AcDbLine
 10
-5.2435
 20
0.0000000000000004
 30
0.0
 11
-3.7565
 21
0.0000000000000003
 31
0.0
  0
LINE
  5
191
330
13E
100
AcDbEntity
  8
AM_7
100
AcDbLine
 10
-4.249999999999999
 20
-0.4934999999999995
 30
0.0
 11
-4.249999999999999
 21
0.4935
 31
0.0
  0
LINE
  5
192
330
13E
100
AcDbEntity
  8
AM_7
100
AcDbLine
 10
3.7565
 20
-0.0000000000000001
 30
0.0
 11
5.2435
 21
0.0
 31
0.0
  0
LINE
  5
193
330
13E
100
AcDbEntity
  8
AM_7
100
AcDbLine
 10
4.75
 20
-0.4934999999999998
 30
0.0
 11
4.75
 21
0.4934999999999997
 31
0.0
  0
LINE
  5
194
330
13E
100
AcDbEntity
  8
AM_7
100
AcDbLine
 10
-4.75
 20
-0.4934999999999994
 30
0.0
 11
-4.75
 21
0.4935000000000002
 31
0.0
  0
LINE
  5
195
330
13E
100
AcDbEntity
  8
AM_7
100
AcDbLine
 10
4.249999999999999
 20
-0.4934999999999999
 30
0.0
 11
4.249999999999999
 21
0.4934999999999996
 31
0.0
  0
LINE
  5
196
330
13E
100
AcDbEntity
  8
AM_4
100
AcDbLine
 10
-5.875
 20
-1.44
 30
0.0
 11
-5.875
 21
1.44
 31
0.0
  0
LINE
  5
197
330
13E
100
AcDbEntity
  8
AM_4
100
AcDbLine
 10
-5.663
 20
1.058970166002307
 30
0.0
 11
-5.663
 21
1.44
 31
0.0
  0
LINE
  5
198
330
13E
100
AcDbEntity
  8
AM_4
100
AcDbLine
 10
-5.663
 20
-1.44
 30
0.0
 11
-5.663
 21
-1.058970166002306
 31
0.0
  0
LINE
  5
199
330
13E
100
AcDbEntity
  8
AM_4
100
AcDbLine
 10
5.662999999999999
 20
-1.44
 30
0.0
 11
5.662999999999999
 21
-1.058970166002307
 31
0.0
  0
LINE
  5
19A
330
13E
100
AcDbEntity
  8
AM_4
100
AcDbLine
 10
5.875
 20
-1.44
 30
0.0
 11
5.875
 21
1.44
 31
0.0
  0
LINE
  5
19B
330
13E
100
AcDbEntity
  8
AM_4
100
AcDbLine
 10
5.662999999999999
 20
1.058970166002307
 30
0.0
 11
5.662999999999999
 21
1.44
 31
0.0
  0
LINE
  5
19C
330
13E
100
AcDbEntity
  8
AM_4
100
AcDbLine
 10
-4.512726740389299
 20
1.16
 30
0.0
 11
-4.512726740389299
 21
1.44
 31
0.0
  0
LINE
  5
19D
330
13E
100
AcDbEntity
  8
AM_4
100
AcDbLine
 10
-4.512726740389299
 20
-1.44
 30
0.0
 11
-4.512726740389299
 21
-1.16
 31
0.0
  0
LINE
  5
19E
330
13E
100
AcDbEntity
  8
AM_4
100
AcDbLine
 10
4.512726740389299
 20
1.16
 30
0.0
 11
4.512726740389299
 21
1.44
 31
0.0
  0
LINE
  5
19F
330
13E
100
AcDbEntity
  8
AM_4
100
AcDbLine
 10
4.512726740389299
 20
-1.44
 30
0.0
 11
4.512726740389299
 21
-1.16
 31
0.0
  0
ARC
  5
1A0
330
13E
100
AcDbEntity
  8
AM_4
100
AcDbCircle
 10
-4.249999999999999
 20
0.0000000000000003
 30
0.0
 40
0.47
100
AcDbArc
 50
270.0
 51
90.0
  0
ARC
  5
1A1
330
13E
100
AcDbEntity
  8
AM_4
100
AcDbCircle
 10
-4.75
 20
0.0000000000000004
 30
0.0
 40
0.4699999999999999
100
AcDbArc
 50
90.0
 51
270.0
  0
LINE
  5
1A2
330
13E
100
AcDbEntity
  8
AM_4
100
AcDbLine
 10
-4.25
 20
-0.4699999999999996
 30
0.0
 11
-4.749999999999999
 21
-0.4699999999999995
 31
0.0
  0
LINE
  5
1A3
330
13E
100
AcDbEntity
  8
AM_4
100
AcDbLine
 10
-4.749999999999999
 20
0.4700000000000003
 30
0.0
 11
-4.25
 21
0.4700000000000002
 31
0.0
  0
CIRCLE
  5
1A4
330
13E
100
AcDbEntity
  8
AM_4
100
AcDbCircle
 10
-5.48
 20
-1.04
 30
0.0
 40
0.06
  0
ARC
  5
1A5
330
13E
100
AcDbEntity
  8
AM_4
100
AcDbCircle
 10
-5.354999999999998
 20
-0.639999999999999
 30
0.0
 40
0.5200000000000022
100
AcDbArc
 50
179.9999991462263
 51
270.0
  0
LINE
  5
1A6
330
13E
100
AcDbEntity
  8
AM_4
100
AcDbLine
 10
-5.354999999999999
 20
-1.160000000000001
 30
0.0
 11
-4.250000000000001
 21
-1.16
 31
0.0
  0
LINE
  5
1A7
330
13E
100
AcDbEntity
  8
AM_4
100
AcDbLine
 10
-4.25
 20
1.160000000000001
 30
0.0
 11
-5.355
 21
1.16
 31
0.0
  0
ARC
  5
1A8
330
13E
100
AcDbEntity
  8
AM_4
100
AcDbCircle
 10
-5.355000000000002
 20
0.6400000000000022
 30
0.0
 40
0.5199999999999979
100
AcDbArc
 50
90.0
 51
180.0
  0
LINE
  5
1A9
330
13E
100
AcDbEntity
  8
AM_4
100
AcDbLine
 10
5.354999999999999
 20
1.160000000000001
 30
0.0
 11
4.25
 21
1.16
 31
0.0
  0
CIRCLE
  5
1AA
330
13E
100
AcDbEntity
  8
AM_4
100
AcDbCircle
 10
5.48
 20
-1.04
 30
0.0
 40
0.06
  0
ARC
  5
1AB
330
13E
100
AcDbEntity
  8
AM_4
100
AcDbCircle
 10
4.249999999999999
 20
-0.0000000000000001
 30
0.0
 40
0.4699999999999998
100
AcDbArc
 50
90.0
 51
270.0
  0
LINE
  5
1AC
330
13E
100
AcDbEntity
  8
AM_4
100
AcDbLine
 10
4.25
 20
0.4699999999999998
 30
0.0
 11
4.749999999999999
 21
0.47
 31
0.0
  0
ARC
  5
1AD
330
13E
100
AcDbEntity
  8
AM_4
100
AcDbCircle
 10
4.75
 20
-0.0000000000000001
 30
0.0
 40
0.47
100
AcDbArc
 50
270.0
 51
90.0
  0
LINE
  5
1AE
330
13E
100
AcDbEntity
  8
AM_4
100
AcDbLine
 10
4.749999999999999
 20
-0.4700000000000001
 30
0.0
 11
4.25
 21
-0.47
 31
0.0
  0
ARC
  5
1AF
330
13E
100
AcDbEntity
  8
AM_4
100
AcDbCircle
 10
5.354999999999998
 20
0.6399999999999986
 30
0.0
 40
0.5200000000000022
100
AcDbArc
 50
0.0000008537736463
 51
90.0
  0
LINE
  5
1B0
330
13E
100
AcDbEntity
  8
AM_4
100
AcDbLine
 10
4.25
 20
-1.16
 30
0.0
 11
5.355
 21
-1.16
 31
0.0
  0
ARC
  5
1B1
330
13E
100
AcDbEntity
  8
AM_4
100
AcDbCircle
 10
5.354999999999998
 20
-0.6399999999999981
 30
0.0
 40
0.5200000000000022
100
AcDbArc
 50
270.0
 51
0.0000008537736463
  0
LINE
  5
1B2
330
13E
100
AcDbEntity
  8
AM_4
100
AcDbLine
 10
4.312990068376678
 20
-1.44
 30
0.0
 11
4.312990068376678
 21
-1.16
 31
0.0
  0
LWPOLYLINE
  5
1B3
330
13E
100
AcDbEntity
  8
AM_4
100
AcDbPolyline
 90
       37
 70
     0
 43
0.0
 10
4.25
 20
1.16
 10
4.148899338412717
 20
1.155585849786425
 10
4.04856811390636
 20
1.142376993494161
 10
3.949769907681075
 20
1.120473958495319
 10
3.853256633742224
 20
1.090043440111654
 10
3.759762816380788
 20
1.051317032962514
 10
3.67
 20
1.004589468389949
 10
3.584651333832786
 20
0.9502163713752309
 10
3.504366372763614
 20
0.888611554018015
 10
3.429756133823605
 20
0.8202438661763959
 10
3.361388445981986
 20
0.7456336272363864
 10
3.29978362862477
 20
0.6653486661672144
 10
3.245410531610051
 20
0.5800000000000011
 10
3.198682967037486
 20
0.4902371836192125
 10
3.159956559888347
 20
0.3967433662577771
 10
3.12952604150468
 20
0.3002300923189256
 10
3.107623006505839
 20
0.2014318860936408
 10
3.094414150213575
 20
0.1011006615872852
 10
3.089999999999999
 20
0.0000000000000018
 10
3.094414150213575
 20
-0.1011006615872816
 10
3.107623006505838
 20
-0.2014318860936372
 10
3.12952604150468
 20
-0.3002300923189221
 10
3.159956559888345
 20
-0.3967433662577736
 10
3.198682967037485
 20
-0.4902371836192093
 10
3.245410531610049
 20
-0.579999999999998
 10
3.299783628624767
 20
-0.6653486661672113
 10
3.361388445981984
 20
-0.7456336272363836
 10
3.429756133823602
 20
-0.8202438661763933
 10
3.504366372763612
 20
-0.8886115540180131
 10
3.584651333832784
 20
-0.9502163713752292
 10
3.669999999999998
 20
-1.004589468389948
 10
3.759762816380786
 20
-1.051317032962513
 10
3.853256633742221
 20
-1.090043440111653
 10
3.949769907681073
 20
-1.120473958495319
 10
4.048568113906358
 20
-1.142376993494161
 10
4.148899338412713
 20
-1.155585849786425
 10
4.249999999999996
 20
-1.16
  0
LINE
  5
1B4
330
13E
100
AcDbEntity
  8
AM_4
100
AcDbLine
 10
4.312990068376678
 20
1.16
 30
0.0
 11
4.312990068376678
 21
1.44
 31
0.0
  0
LINE
  5
1B5
330
13E
100
AcDbEntity
  8
AM_4
100
AcDbLine
 10
-4.312990068376678
 20
1.16
 30
0.0
 11
-4.312990068376678
 21
1.44
 31
0.0
  0
LWPOLYLINE
  5
1B6
330
13E
100
AcDbEntity
  8
AM_4
100
AcDbPolyline
 90
       37
 70
     0
 43
0.0
 10
-4.25
 20
-1.16
 10
-4.148899338412717
 20
-1.155585849786424
 10
-4.048568113906361
 20
-1.142376993494161
 10
-3.949769907681076
 20
-1.120473958495319
 10
-3.853256633742224
 20
-1.090043440111654
 10
-3.759762816380789
 20
-1.051317032962514
 10
-3.67
 20
-1.004589468389949
 10
-3.584651333832787
 20
-0.9502163713752307
 10
-3.504366372763615
 20
-0.888611554018015
 10
-3.429756133823605
 20
-0.8202438661763958
 10
-3.361388445981986
 20
-0.7456336272363864
 10
-3.29978362862477
 20
-0.6653486661672143
 10
-3.245410531610051
 20
-0.5800000000000011
 10
-3.198682967037486
 20
-0.4902371836192126
 10
-3.159956559888346
 20
-0.3967433662577772
 10
-3.12952604150468
 20
-0.3002300923189258
 10
-3.107623006505838
 20
-0.201431886093641
 10
-3.094414150213574
 20
-0.1011006615872854
 10
-3.089999999999999
 20
-0.0000000000000021
 10
-3.094414150213574
 20
0.1011006615872813
 10
-3.107623006505837
 20
0.2014318860936369
 10
-3.129526041504679
 20
0.3002300923189217
 10
-3.159956559888344
 20
0.3967433662577733
 10
-3.198682967037484
 20
0.490237183619209
 10
-3.245410531610049
 20
0.5799999999999977
 10
-3.299783628624767
 20
0.665348666167211
 10
-3.361388445981982
 20
0.7456336272363834
 10
-3.429756133823601
 20
0.820243866176393
 10
-3.504366372763611
 20
0.888611554018013
 10
-3.584651333832782
 20
0.950216371375229
 10
-3.669999999999996
 20
1.004589468389948
 10
-3.759762816380785
 20
1.051317032962513
 10
-3.85325663374222
 20
1.090043440111653
 10
-3.949769907681072
 20
1.120473958495319
 10
-4.048568113906356
 20
1.142376993494161
 10
-4.148899338412711
 20
1.155585849786425
 10
-4.249999999999995
 20
1.16
  0
LINE
  5
1B7
330
13E
100
AcDbEntity
  8
AM_4
100
AcDbLine
 10
-4.312990068376678
 20
-1.44
 30
0.0
 11
-4.312990068376678
 21
-1.16
 31
0.0
  0
LINE
  5
1B8
330
13E
100
AcDbEntity
  8
AM_4
100
AcDbLine
 10
2.272620413338972
 20
0.9531818181818179
 30
0.0
 11
2.272620413338972
 21
1.152
 31
0.0
  0
LWPOLYLINE
  5
1B9
330
13E
100
AcDbEntity
  8
AM_4
100
AcDbPolyline
 90
        5
 70
     0
 43
0.0
 10
2.695925
 20
1.152
 10
2.697569211298481
 20
1.152136097668449
 10
2.700414957181421
 20
1.153064660918073
 10
2.70267086467266
 20
1.154618041600079
 10
2.704516436380793
 20
1.156882654895867
  0
LINE
  5
1BA
330
13E
100
AcDbEntity
  8
AM_4
100
AcDbLine
 10
2.705925000000001
 20
1.145454545454545
 30
0.0
 11
2.704516436380795
 21
1.156882654895866
 31
0.0
  0
LINE
  5
1BB
330
13E
100
AcDbEntity
  8
AM_4
100
AcDbLine
 10
2.695925
 20
1.152
 30
0.0
 11
-2.695925
 21
1.152
 31
0.0
  0
LWPOLYLINE
  5
1BC
330
13E
100
AcDbEntity
  8
AM_4
100
AcDbPolyline
 90
        5
 70
     0
 43
0.0
 10
-2.704516436380793
 20
1.156882654895867
 10
-2.704411655703569
 20
1.156710701845322
 10
-2.702780457005157
 20
1.154719704041009
 10
-2.69983683473371
 20
1.152796872867544
 10
-2.695925
 20
1.152
  0
LINE
  5
1BD
330
13E
100
AcDbEntity
  8
AM_4
100
AcDbLine
 10
-2.272620413338973
 20
0.9531818181818181
 30
0.0
 11
-2.272620413338973
 21
1.152
 31
0.0
  0
LWPOLYLINE
  5
1BE
330
13E
100
AcDbEntity
  8
AM_4
100
AcDbPolyline
 90
        8
 70
     0
 43
0.0
 10
-2.705925000000001
 20
1.145454545454545
 10
-2.695628138433908
 20
1.114581350854543
 10
-2.66481591906956
 20
1.083943119907192
 10
-2.613722841501248
 20
1.053773028049871
 10
-2.54273775490011
 20
1.024300687898813
 10
-2.452400898637149
 20
0.9957504017584534
 10
-2.343399790735409
 20
0.9683394545454546
 10
-2.272620413338971
 20
0.9531818181818178
  0
LINE
  5
1BF
330
13E
100
AcDbEntity
  8
AM_4
100
AcDbLine
 10
-1.81
 20
-1.152
 30
0.0
 11
-2.705925
 21
-1.152000000000001
 31
0.0
  0
LINE
  5
1C0
330
13E
100
AcDbEntity
  8
AM_4
100
AcDbLine
 10
2.705925000000001
 20
-1.152
 30
0.0
 11
1.81
 21
-1.152
 31
0.0
  0
LINE
  5
1C1
330
13E
100
AcDbEntity
  8
AM_4
100
AcDbLine
 10
2.095593075957258
 20
0.9531818181818179
 30
0.0
 11
2.095593075957258
 21
1.152
 31
0.0
  0
LINE
  5
1C2
330
13E
100
AcDbEntity
  8
AM_4
100
AcDbLine
 10
-2.095593075957258
 20
1.152
 30
0.0
 11
-2.095593075957258
 21
0.9531818181818179
 31
0.0
  0
LWPOLYLINE
  5
1C3
330
13E
100
AcDbEntity
  8
AM_4
100
AcDbPolyline
 90
       37
 70
     0
 43
0.0
 10
2.55905
 20
-1.145454545454545
 10
2.549312042151682
 20
-1.116257118090101
 10
2.520172280345892
 20
-1.087281900777789
 10
2.471852485765041
 20
-1.05874941241707
 10
2.40472040122218
 20
-1.030876802472757
 10
2.319286942416141
 20
-1.003876198336468
 10
2.21620230955457
 20
-0.9779530909090911
 10
2.096251038937746
 20
-0.9533047706909485
 10
1.960346032163623
 20
-0.930118826281963
 10
1.809521608395437
 20
-0.9085717167191432
 10
1.644925632568341
 20
-0.8888274285167624
 10
1.467810779444148
 20
-0.871036227629968
 10
1.279525000000003
 20
-0.8553335158401294
 10
1.081501262707541
 20
-0.8418388002655237
 10
0.8752466477775567
 20
-0.8306547838400056
 10
0.6623308773696102
 20
-0.8218665836816675
 10
0.4443743690585628
 20
-0.8155410833001743
 10
0.2230359034783996
 20
-0.8117264235728707
 10
0.0000000000000052
 20
-0.8104516363636363
 10
-0.2230359034783893
 20
-0.8117264235728705
 10
-0.4443743690585527
 20
-0.8155410833001739
 10
-0.6623308773696002
 20
-0.8218665836816671
 10
-0.8752466477775469
 20
-0.8306547838400052
 10
-1.081501262707531
 20
-0.841838800265523
 10
-1.279524999999995
 20
-0.8553335158401287
 10
-1.467810779444139
 20
-0.8710362276299672
 10
-1.644925632568333
 20
-0.8888274285167617
 10
-1.809521608395429
 20
-0.9085717167191423
 10
-1.960346032163617
 20
-0.9301188262819619
 10
-2.096251038937741
 20
-0.9533047706909472
 10
-2.216202309554564
 20
-0.9779530909090898
 10
-2.319286942416136
 20
-1.003876198336467
 10
-2.404720401222177
 20
-1.030876802472755
 10
-2.471852485765038
 20
-1.058749412417068
 10
-2.52017228034589
 20
-1.087281900777787
 10
-2.549312042151681
 20
-1.1162571180901
 10
-2.55905
 20
-1.145454545454544
  0
LINE
  5
1C4
330
13E
100
AcDbEntity
  8
AM_4
100
AcDbLine
 10
-2.55905
 20
-1.145454545454545
 30
0.0
 11
-2.558561490857705
 21
-1.152
 31
0.0
  0
LINE
  5
1C5
330
13E
100
AcDbEntity
  8
AM_4
100
AcDbLine
 10
-2.272620413338972
 20
0.953181818181818
 30
0.0
 11
-2.095593075957258
 21
0.9531818181818182
 31
0.0
  0
LINE
  5
1C6
330
13E
100
AcDbEntity
  8
AM_4
100
AcDbLine
 10
-2.704516436380795
 20
1.156882654895867
 30
0.0
 11
-2.705925000000001
 21
1.145454545454545
 31
0.0
  0
LWPOLYLINE
  5
1C7
330
13E
100
AcDbEntity
  8
AM_4
100
AcDbPolyline
 90
        8
 70
     0
 43
0.0
 10
-2.705925
 20
1.161999999999999
 10
-2.705886946980917
 20
1.161128442572523
 10
-2.705773077530122
 20
1.16026351822333
 10
-2.705584258262891
 20
1.159411809548974
 10
-2.705321926207859
 20
1.158579798566743
 10
-2.704988077870367
 20
1.157773817382593
 10
-2.704585254037845
 20
1.157
 10
-2.704516436380793
 20
1.156882654895867
  0
LINE
  5
1C8
330
13E
100
AcDbEntity
  8
AM_4
100
AcDbLine
 10
-2.705925
 20
1.161999999999999
 30
0.0
 11
-2.705925
 21
1.44
 31
0.0
  0
LINE
  5
1C9
330
13E
100
AcDbEntity
  8
AM_4
100
AcDbLine
 10
-5.875
 20
1.44
 30
0.0
 11
-2.705925
 21
1.44
 31
0.0
  0
LINE
  5
1CA
330
13E
100
AcDbEntity
  8
AM_4
100
AcDbLine
 10
-3.062000868118017
 20
1.002850694428999
 30
0.0
 11
-4.250000000000001
 21
1.44
 31
0.0
  0
LINE
  5
1CB
330
13E
100
AcDbEntity
  8
AM_4
100
AcDbLine
 10
4.250000000000001
 20
1.44
 30
0.0
 11
3.062000868118018
 21
1.002850694429
 31
0.0
  0
LINE
  5
1CC
330
13E
100
AcDbEntity
  8
AM_4
100
AcDbLine
 10
2.705925
 20
1.44
 30
0.0
 11
5.875
 21
1.44
 31
0.0
  0
LINE
  5
1CD
330
13E
100
AcDbEntity
  8
AM_4
100
AcDbLine
 10
2.705925
 20
1.44
 30
0.0
 11
2.705925
 21
1.161999999999996
 31
0.0
  0
LWPOLYLINE
  5
1CE
330
13E
100
AcDbEntity
  8
AM_4
100
AcDbPolyline
 90
        8
 70
     0
 43
0.0
 10
2.704516436380793
 20
1.156882654895867
 10
2.704929749384985
 20
1.157650920957994
 10
2.705274530809141
 20
1.158452286137676
 10
2.705548156658439
 20
1.159280651562019
 10
2.705748544474945
 20
1.160129712869963
 10
2.705874169186379
 20
1.160993008192276
 10
2.705924074712831
 20
1.161863967330285
 10
2.705925
 20
1.161999999999992
  0
LWPOLYLINE
  5
1CF
330
13E
100
AcDbEntity
  8
AM_4
100
AcDbPolyline
 90
        8
 70
     0
 43
0.0
 10
2.272620413338972
 20
0.9531818181818179
 10
2.391982403703979
 20
0.9798428889537767
 10
2.493139963658333
 20
1.007764364430759
 10
2.575323223090178
 20
1.036733745324936
 10
2.637906717771629
 20
1.066530557155513
 10
2.680414149519213
 20
1.096928028192654
 10
2.702522011110642
 20
1.127694815327269
 10
2.705925000000001
 20
1.145454545454545
  0
LINE
  5
1D0
330
13E
100
AcDbEntity
  8
AM_4
100
AcDbLine
 10
2.095593075957258
 20
0.9531818181818182
 30
0.0
 11
2.272620413338972
 21
0.953181818181818
 31
0.0
  0
LWPOLYLINE
  5
1D1
330
13E
100
AcDbEntity
  8
AM_4
100
AcDbPolyline
 90
       23
 70
     0
 43
0.0
 10
-2.095593075957258
 20
0.953181818181818
 10
-1.959608714465771
 20
0.9300038486590922
 10
-1.808710547413105
 20
0.9084655890316674
 10
-1.644047000965338
 20
0.888730958460465
 10
-1.466871264137504
 20
0.8709501494002277
 10
-1.278531751268498
 20
0.8552584845442498
 10
-1.08046183977376
 20
0.8417753869369716
 10
-0.874168961277647
 20
0.8306034710925015
 10
-0.6612231291485613
 20
0.8218277620362031
 10
-0.4432449897492134
 20
0.8155150482129129
 10
-0.2218934883392319
 20
0.8117133731865468
 10
0.0011467564999628
 20
0.8104516699995696
 10
0.2241782738297622
 20
0.8117395409750717
 10
0.4455036591331745
 20
0.8155671846372915
 10
0.6634384925881192
 20
0.821905470306765
 10
0.8763241585193537
 20
0.8307061598023863
 10
1.082540468465262
 20
0.8419022745630919
 10
1.280517991790343
 20
0.855408605395154
 10
1.468749999999996
 20
0.8711223609655949
 10
1.645803933854152
 20
0.8889239501062987
 10
1.810332306008092
 20
0.9086778919750113
 10
1.961082956204778
 20
0.9302338471463552
 10
2.095593075957258
 20
0.9531818181818179
  0
LINE
  5
1D2
330
13E
100
AcDbEntity
  8
AM_4
100
AcDbLine
 10
2.705925000000001
 20
-1.152
 30
0.0
 11
2.705925000000001
 21
-1.44
 31
0.0
  0
LINE
  5
1D3
330
13E
100
AcDbEntity
  8
AM_4
100
AcDbLine
 10
2.705925000000001
 20
-1.44
 30
0.0
 11
5.875
 21
-1.44
 31
0.0
  0
LINE
  5
1D4
330
13E
100
AcDbEntity
  8
AM_4
100
AcDbLine
 10
3.062000868118017
 20
-1.002850694428999
 30
0.0
 11
4.250000000000001
 21
-1.44
 31
0.0
  0
LINE
  5
1D5
330
13E
100
AcDbEntity
  8
AM_4
100
AcDbLine
 10
-4.25
 20
-1.44
 30
0.0
 11
-3.062000868118017
 21
-1.002850694428999
 31
0.0
  0
LINE
  5
1D6
330
13E
100
AcDbEntity
  8
AM_4
100
AcDbLine
 10
-5.875
 20
-1.44
 30
0.0
 11
-2.705925000000001
 21
-1.44
 31
0.0
  0
LINE
  5
1D7
330
13E
100
AcDbEntity
  8
AM_4
100
AcDbLine
 10
-2.705925000000001
 20
-1.44
 30
0.0
 11
-2.705925
 21
-1.152000000000001
 31
0.0
  0
LINE
  5
1D8
330
13E
100
AcDbEntity
  8
AM_4
100
AcDbLine
 10
2.558561490857705
 20
-1.152
 30
0.0
 11
2.55905
 21
-1.145454545454545
 31
0.0
  0
LINE
  5
1D9
330
13E
100
AcDbEntity
  8
AM_4
100
AcDbLine
 10
-3.062000868118017
 20
-1.002850694428999
 30
0.0
 11
-3.062000868118017
 21
1.002850694428999
 31
0.0
  0
LWPOLYLINE
  5
1DA
330
13E
100
AcDbEntity
  8
AM_4
100
AcDbPolyline
 90
       30
 70
     0
 43
0.0
 10
-3.062000868118018
 20
-1.002850694428999
 10
-2.955407231688932
 20
-0.968457510377712
 10
-2.826321161703016
 20
-0.9354113806370913
 10
-2.675725081097163
 20
-0.9039638062082618
 10
-2.504765116977183
 20
-0.8743541221211917
 10
-2.314742377898478
 20
-0.8468076759505996
 10
-2.107103051644303
 20
-0.8215341127848426
 10
-1.883427398863508
 20
-0.7987257797002071
 10
-1.645417726332804
 20
-0.7785562618835148
 10
-1.394885431374321
 20
-0.7611790615440387
 10
-1.133737216028227
 20
-0.7467264296690028
 10
-0.863960575898911
 20
-0.7353083595137139
 10
-0.5876086741133453
 20
-0.7270117494864725
 10
-0.3067847155099588
 20
-0.7218997417992167
 10
-0.0236259399798656
 20
-0.7200112419171607
 10
0.259712643219207
 20
-0.7213606224647146
 10
0.5410746563845998
 20
-0.725937613841133
 10
0.8183187647050958
 20
-0.7337073823783786
 10
1.089334973111806
 20
-0.7446107954463684
 10
1.352060684614695
 20
-0.7585648714879942
 10
1.604496397911104
 20
-0.7754634115588777
 10
1.844720924797996
 20
-0.7951778075654622
 10
2.070906011574227
 20
-0.8175580210502595
 10
2.281330253155139
 20
-0.8424337250751079
 10
2.474392194004671
 20
-0.869615600512018
 10
2.648622516178972
 20
-0.8988967768760493
 10
2.80269522172315
 20
-0.9300544067346143
 10
2.93543772431637
 20
-0.9628513617109975
 10
3.045839773361784
 20
-0.997038037174486
 10
3.062000868118018
 20
-1.002850694428999
  0
LINE
  5
1DB
330
13E
100
AcDbEntity
  8
AM_4
100
AcDbLine
 10
3.062000868118017
 20
-1.002850694428999
 30
0.0
 11
3.062000868118018
 21
1.002850694429
 31
0.0
  0
LWPOLYLINE
  5
1DC
330
13E
100
AcDbEntity
  8
AM_4
100
AcDbPolyline
 90
       30
 70
     0
 43
0.0
 10
3.062000868118018
 20
1.002850694429
 10
2.955407231688931
 20
0.9684575103777127
 10
2.826321161703014
 20
0.9354113806370918
 10
2.675725081097161
 20
0.9039638062082624
 10
2.504765116977181
 20
0.8743541221211923
 10
2.314742377898476
 20
0.8468076759506004
 10
2.107103051644303
 20
0.8215341127848435
 10
1.883427398863507
 20
0.7987257797002079
 10
1.645417726332803
 20
0.7785562618835157
 10
1.394885431374319
 20
0.7611790615440396
 10
1.133737216028226
 20
0.7467264296690037
 10
0.8639605758989093
 20
0.7353083595137148
 10
0.5876086741133435
 20
0.7270117494864736
 10
0.306784715509957
 20
0.7218997417992178
 10
0.0236259399798638
 20
0.7200112419171617
 10
-0.2597126432192088
 20
0.7213606224647157
 10
-0.5410746563846017
 20
0.7259376138411341
 10
-0.8183187647050976
 20
0.7337073823783797
 10
-1.089334973111808
 20
0.7446107954463697
 10
-1.352060684614697
 20
0.7585648714879953
 10
-1.604496397911106
 20
0.7754634115588789
 10
-1.844720924797998
 20
0.7951778075654633
 10
-2.070906011574228
 20
0.8175580210502605
 10
-2.28133025315514
 20
0.842433725075109
 10
-2.474392194004674
 20
0.8696156005120192
 10
-2.648622516178974
 20
0.8988967768760506
 10
-2.802695221723151
 20
0.9300544067346154
 10
-2.935437724316372
 20
0.9628513617109986
 10
-3.045839773361785
 20
0.9970380371744871
 10
-3.062000868118018
 20
1.002850694429
  0
ENDBLK
  5
141
330
13E
100
AcDbEntity
  8
0
100
AcDbBlockEnd
  0
ENDSEC
  0
SECTION
  2
ENTITIES
  0
INSERT
  5
6F
330
1F
100
AcDbEntity
  8
0
100
AcDbBlockReference
  2
1_131434_4
 10
0.0
 20
0.0
 30
0.0
  0
POINT
  5
1DE
330
1F
100
AcDbEntity
  8
ConnectionPoints
100
AcDbPoint
 10
0.0
 20
0.0
 30
0.0
  0
POINT
  5
1DF
330
1F
100
AcDbEntity
  8
ConnectionPoints
100
AcDbPoint
 10
0.0
 20
-2.16
 30
0.0000000000000001
  0
POINT
  5
1E0
330
1F
100
AcDbEntity
  8
ConnectionPoints
100
AcDbPoint
 10
2.298097038856278
 20
0.0000000000000001
 30
2.29809703885628
  0
POINT
  5
1E1
330
1F
100
AcDbEntity
  8
ConnectionPoints
100
AcDbPoint
 10
2.298097038856278
 20
0.0000000000000001
 30
2.29809703885628
  0
POINT
  5
1E2
330
1F
100
AcDbEntity
  8
ConnectionPoints
100
AcDbPoint
 10
0.0
 20
-2.16
 30
0.0000000000000001
  0
ENDSEC
  0
SECTION
  2
OBJECTS
  0
DICTIONARY
  5
C
330
0
100
AcDbDictionary
281
     1
  3
ACAD_DETAILVIEWSTYLE
350
1EA
  3
ACAD_GROUP
350
D
  3
ACAD_LAYOUT
350
1A
  3
ACAD_MATERIAL
350
43
  3
ACAD_MLEADERSTYLE
350
6B
  3
ACAD_MLINESTYLE
350
17
  3
ACAD_PLOTSETTINGS
350
19
  3
ACAD_PLOTSTYLENAME
350
E
  3
ACAD_SCALELIST
350
47
  3
ACAD_SECTIONVIEWSTYLE
350
1EB
  3
ACAD_TABLESTYLE
350
69
  3
ACAD_VISUALSTYLE
350
2A
  3
ACDB_RECOMPOSE_DATA
350
1E7
  3
AcDbVariableDictionary
350
1E3
  0
SUN
  5
6D
330
29
100
AcDbSun
 90
        1
290
     0
 63
     7
421
 16777215
 40
1.0
291
     1
 91
  2455826
 92
 54000000
292
     0
 70
     2
 71
   256
280
     1
  0
DICTIONARY
  5
1EA
102
{ACAD_REACTORS
330
C
102
}
330
C
100
AcDbDictionary
281
     1
  0
DICTIONARY
  5
D
102
{ACAD_REACTORS
330
C
102
}
330
C
100
AcDbDictionary
281
     1
  0
DICTIONARY
  5
1A
102
{ACAD_REACTORS
330
C
102
}
330
C
100
AcDbDictionary
281
     1
  3
Layout1
350
1E
  3
Layout2
350
26
  3
Model
350
22
  0
DICTIONARY
  5
43
102
{ACAD_REACTORS
330
C
102
}
330
C
100
AcDbDictionary
281
     1
  3
ByBlock
350
45
  3
ByLayer
350
44
  3
Global
350
46
  0
DICTIONARY
  5
6B
102
{ACAD_REACTORS
330
C
102
}
330
C
100
AcDbDictionary
281
     1
  3
Standard
350
6C
  0
DICTIONARY
  5
17
102
{ACAD_REACTORS
330
C
102
}
330
C
100
AcDbDictionary
281
     1
  3
Standard
350
18
  0
DICTIONARY
  5
19
102
{ACAD_REACTORS
330
C
102
}
330
C
100
AcDbDictionary
281
     1
  0
ACDBDICTIONARYWDFLT
  5
E
102
{ACAD_REACTORS
330
C
102
}
330
C
100
AcDbDictionary
281
     1
  3
Normal
350
F
100
AcDbDictionaryWithDefault
340
F
  0
DICTIONARY
  5
47
102
{ACAD_REACTORS
330
C
102
}
330
C
100
AcDbDictionary
281
     1
  3
A0
350
48
  3
A1
350
49
  3
A2
350
4A
  3
A3
350
4B
  3
A4
350
4C
  3
A5
350
4D
  3
A6
350
4E
  3
A7
350
4F
  3
A8
350
50
  3
A9
350
51
  3
B0
350
52
  3
B1
350
53
  3
B2
350
54
  3
B3
350
55
  3
B4
350
56
  3
B5
350
57
  3
B6
350
58
  3
B7
350
59
  3
B8
350
5A
  3
B9
350
5B
  3
C0
350
5C
  3
C1
350
5D
  3
C2
350
5E
  3
C3
350
5F
  3
C4
350
60
  3
C5
350
61
  3
C6
350
62
  3
C7
350
63
  3
C8
350
64
  3
C9
350
65
  3
D0
350
66
  3
D1
350
67
  3
D2
350
68
  0
DICTIONARY
  5
1EB
102
{ACAD_REACTORS
330
C
102
}
330
C
100
AcDbDictionary
281
     1
  0
DICTIONARY
  5
69
102
{ACAD_REACTORS
330
C
102
}
330
C
100
AcDbDictionary
281
     1
  3
Standard
350
6A
  0
DICTIONARY
  5
2A
102
{ACAD_REACTORS
330
C
102
}
330
C
100
AcDbDictionary
281
     1
  3
2dWireframe
350
2F
  3
Basic
350
32
  3
Brighten
350
36
  3
ColorChange
350
3A
  3
Conceptual
350
34
  3
Dim
350
35
  3
EdgeColorOff
350
3D
  3
Facepattern
350
39
  3
Flat
350
2B
  3
FlatWithEdges
350
2C
  3
Gouraud
350
2D
  3
GouraudWithEdges
350
2E
  3
Hidden
350
31
  3
JitterOff
350
3B
  3
Linepattern
350
38
  3
OverhangOff
350
3C
  3
Realistic
350
33
  3
Shaded
350
42
  3
Shaded with edges
350
41
  3
Shades of Gray
350
3E
  3
Sketchy
350
3F
  3
Thicken
350
37
  3
Wireframe
350
30
  3
X-Ray
350
40
  0
XRECORD
  5
1E7
102
{ACAD_REACTORS
330
C
102
}
330
C
100
AcDbXrecord
280
     1
 90
        1
330
6A
  0
DICTIONARY
  5
1E3
102
{ACAD_REACTORS
330
C
102
}
330
C
100
AcDbDictionary
281
     1
  3
CANNOSCALE
350
1E4
  3
CMLEADERSTYLE
350
1E9
  3
CTABLESTYLE
350
1E8
  0
LAYOUT
  5
1E
102
{ACAD_REACTORS
330
1A
102
}
330
1A
100
AcDbPlotSettings
  1

  2
none_device
  4

  6

 40
0.0
 41
0.0
 42
0.0
 43
0.0
 44
0.0
 45
0.0
 46
0.0
 47
0.0
 48
0.0
 49
0.0
140
0.0
141
0.0
142
1.0
143
1.0
 70
   688
 72
     0
 73
     0
 74
     5
  7

 75
    16
 76
     0
 77
     2
 78
   300
147
1.0
148
0.0
149
0.0
100
AcDbLayout
  1
Layout1
 70
     1
 71
     1
 10
0.0
 20
0.0
 11
12.0
 21
9.0
 12
0.0
 22
0.0
 32
0.0
 14
1.000000000000000E+20
 24
1.000000000000000E+20
 34
1.000000000000000E+20
 15
-1.000000000000000E+20
 25
-1.000000000000000E+20
 35
-1.000000000000000E+20
146
0.0
 13
0.0
 23
0.0
 33
0.0
 16
1.0
 26
0.0
 36
0.0
 17
0.0
 27
1.0
 37
0.0
 76
     0
330
1B
  0
LAYOUT
  5
26
102
{ACAD_REACTORS
330
1A
102
}
330
1A
100
AcDbPlotSettings
  1

  2
none_device
  4

  6

 40
0.0
 41
0.0
 42
0.0
 43
0.0
 44
0.0
 45
0.0
 46
0.0
 47
0.0
 48
0.0
 49
0.0
140
0.0
141
0.0
142
1.0
143
1.0
 70
   688
 72
     0
 73
     0
 74
     5
  7

 75
    16
 76
     0
 77
     2
 78
   300
147
1.0
148
0.0
149
0.0
100
AcDbLayout
  1
Layout2
 70
     1
 71
     2
 10
0.0
 20
0.0
 11
0.0
 21
0.0
 12
0.0
 22
0.0
 32
0.0
 14
0.0
 24
0.0
 34
0.0
 15
0.0
 25
0.0
 35
0.0
146
0.0
 13
0.0
 23
0.0
 33
0.0
 16
1.0
 26
0.0
 36
0.0
 17
0.0
 27
1.0
 37
0.0
 76
     0
330
23
  0
LAYOUT
  5
22
102
{ACAD_REACTORS
330
1A
102
}
330
1A
100
AcDbPlotSettings
  1

  2
none_device
  4
Letter_(8.50_x_11.00_Inches)
  6

 40
6.35
 41
6.35
 42
6.35000508
 43
6.35000508
 44
215.9
 45
279.4
 46
0.0
 47
0.0
 48
0.0
 49
0.0
140
0.0
141
0.0
142
1.0
143
1.0
 70
  1712
 72
     0
 73
     0
 74
     0
  7

 75
     0
 76
     0
 77
     2
 78
   300
147
1.0
148
0.0
149
0.0
100
AcDbLayout
  1
Model
 70
     1
 71
     0
 10
0.0
 20
0.0
 11
12.0
 21
9.0
 12
0.0
 22
0.0
 32
0.0
 14
1.000000000000000E+20
 24
1.000000000000000E+20
 34
1.000000000000000E+20
 15
-1.000000000000000E+20
 25
-1.000000000000000E+20
 35
-1.000000000000000E+20
146
0.0
 13
0.0
 23
0.0
 33
0.0
 16
1.0
 26
0.0
 36
0.0
 17
0.0
 27
1.0
 37
0.0
 76
     0
330
1F
331
29
  0
MATERIAL
  5
45
102
{ACAD_REACTORS
330
43
102
}
330
43
100
AcDbMaterial
  1
ByBlock
 72
     1
 94
      127
  0
MATERIAL
  5
44
102
{ACAD_REACTORS
330
43
102
}
330
43
100
AcDbMaterial
  1
ByLayer
 72
     1
 94
      127
  0
MATERIAL
  5
46
102
{ACAD_REACTORS
330
43
102
}
330
43
100
AcDbMaterial
  1
Global
 72
     1
 94
      127
  0
MLEADERSTYLE
  5
6C
102
{ACAD_REACTORS
330
6B
102
}
330
6B
100
AcDbMLeaderStyle
179
     2
170
     2
171
     1
172
     0
 90
        2
 40
0.0
 41
0.0
173
     1
 91
-1056964608
340
14
 92
       -2
290
     1
 42
0.09
291
     1
 43
0.36
  3
Standard
341
0
 44
0.18
300

342
11
174
     1
178
     6
175
     1
176
     0
 93
-1056964608
 45
0.18
292
     0
297
     0
 46
0.18
343
0
 94
-1056964608
 47
1.0
 49
1.0
140
1.0
293
     1
141
0.0
294
     1
177
     0
142
1.0
295
     0
296
     0
143
0.125
271
     0
272
     9
273
     9
298
     0
  0
MLINESTYLE
  5
18
102
{ACAD_REACTORS
330
17
102
}
330
17
100
AcDbMlineStyle
  2
Standard
 70
     0
  3

 62
   256
 51
90.0
 52
90.0
 71
     2
 49
0.5
 62
   256
  6
BYLAYER
 49
-0.5
 62
   256
  6
BYLAYER
  0
ACDBPLACEHOLDER
  5
F
102
{ACAD_REACTORS
330
E
102
}
330
E
  0
SCALE
  5
48
102
{ACAD_REACTORS
330
47
102
}
330
47
100
AcDbScale
 70
     0
300
1:1
140
1.0
141
1.0
290
     1
  0
SCALE
  5
49
102
{ACAD_REACTORS
330
47
102
}
330
47
100
AcDbScale
 70
     0
300
1:2
140
1.0
141
2.0
290
     0
  0
SCALE
  5
4A
102
{ACAD_REACTORS
330
47
102
}
330
47
100
AcDbScale
 70
     0
300
1:4
140
1.0
141
4.0
290
     0
  0
SCALE
  5
4B
102
{ACAD_REACTORS
330
47
102
}
330
47
100
AcDbScale
 70
     0
300
1:5
140
1.0
141
5.0
290
     0
  0
SCALE
  5
4C
102
{ACAD_REACTORS
330
47
102
}
330
47
100
AcDbScale
 70
     0
300
1:8
140
1.0
141
8.0
290
     0
  0
SCALE
  5
4D
102
{ACAD_REACTORS
330
47
102
}
330
47
100
AcDbScale
 70
     0
300
1:10
140
1.0
141
10.0
290
     0
  0
SCALE
  5
4E
102
{ACAD_REACTORS
330
47
102
}
330
47
100
AcDbScale
 70
     0
300
1:16
140
1.0
141
16.0
290
     0
  0
SCALE
  5
4F
102
{ACAD_REACTORS
330
47
102
}
330
47
100
AcDbScale
 70
     0
300
1:20
140
1.0
141
20.0
290
     0
  0
SCALE
  5
50
102
{ACAD_REACTORS
330
47
102
}
330
47
100
AcDbScale
 70
     0
300
1:30
140
1.0
141
30.0
290
     0
  0
SCALE
  5
51
102
{ACAD_REACTORS
330
47
102
}
330
47
100
AcDbScale
 70
     0
300
1:40
140
1.0
141
40.0
290
     0
  0
SCALE
  5
52
102
{ACAD_REACTORS
330
47
102
}
330
47
100
AcDbScale
 70
     0
300
1:50
140
1.0
141
50.0
290
     0
  0
SCALE
  5
53
102
{ACAD_REACTORS
330
47
102
}
330
47
100
AcDbScale
 70
     0
300
1:100
140
1.0
141
100.0
290
     0
  0
SCALE
  5
54
102
{ACAD_REACTORS
330
47
102
}
330
47
100
AcDbScale
 70
     0
300
2:1
140
2.0
141
1.0
290
     0
  0
SCALE
  5
55
102
{ACAD_REACTORS
330
47
102
}
330
47
100
AcDbScale
 70
     0
300
4:1
140
4.0
141
1.0
290
     0
  0
SCALE
  5
56
102
{ACAD_REACTORS
330
47
102
}
330
47
100
AcDbScale
 70
     0
300
8:1
140
8.0
141
1.0
290
     0
  0
SCALE
  5
57
102
{ACAD_REACTORS
330
47
102
}
330
47
100
AcDbScale
 70
     0
300
10:1
140
10.0
141
1.0
290
     0
  0
SCALE
  5
58
102
{ACAD_REACTORS
330
47
102
}
330
47
100
AcDbScale
 70
     0
300
100:1
140
100.0
141
1.0
290
     0
  0
SCALE
  5
59
102
{ACAD_REACTORS
330
47
102
}
330
47
100
AcDbScale
 70
     0
300
1/128" = 1'-0"
140
0.0078125
141
12.0
290
     0
  0
SCALE
  5
5A
102
{ACAD_REACTORS
330
47
102
}
330
47
100
AcDbScale
 70
     0
300
1/64" = 1'-0"
140
0.015625
141
12.0
290
     0
  0
SCALE
  5
5B
102
{ACAD_REACTORS
330
47
102
}
330
47
100
AcDbScale
 70
     0
300
1/32" = 1'-0"
140
0.03125
141
12.0
290
     0
  0
SCALE
  5
5C
102
{ACAD_REACTORS
330
47
102
}
330
47
100
AcDbScale
 70
     0
300
1/16" = 1'-0"
140
0.0625
141
12.0
290
     0
  0
SCALE
  5
5D
102
{ACAD_REACTORS
330
47
102
}
330
47
100
AcDbScale
 70
     0
300
3/32" = 1'-0"
140
0.09375
141
12.0
290
     0
  0
SCALE
  5
5E
102
{ACAD_REACTORS
330
47
102
}
330
47
100
AcDbScale
 70
     0
300
1/8" = 1'-0"
140
0.125
141
12.0
290
     0
  0
SCALE
  5
5F
102
{ACAD_REACTORS
330
47
102
}
330
47
100
AcDbScale
 70
     0
300
3/16" = 1'-0"
140
0.1875
141
12.0
290
     0
  0
SCALE
  5
60
102
{ACAD_REACTORS
330
47
102
}
330
47
100
AcDbScale
 70
     0
300
1/4" = 1'-0"
140
0.25
141
12.0
290
     0
  0
SCALE
  5
61
102
{ACAD_REACTORS
330
47
102
}
330
47
100
AcDbScale
 70
     0
300
3/8" = 1'-0"
140
0.375
141
12.0
290
     0
  0
SCALE
  5
62
102
{ACAD_REACTORS
330
47
102
}
330
47
100
AcDbScale
 70
     0
300
1/2" = 1'-0"
140
0.5
141
12.0
290
     0
  0
SCALE
  5
63
102
{ACAD_REACTORS
330
47
102
}
330
47
100
AcDbScale
 70
     0
300
3/4" = 1'-0"
140
0.75
141
12.0
290
     0
  0
SCALE
  5
64
102
{ACAD_REACTORS
330
47
102
}
330
47
100
AcDbScale
 70
     0
300
1" = 1'-0"
140
1.0
141
12.0
290
     0
  0
SCALE
  5
65
102
{ACAD_REACTORS
330
47
102
}
330
47
100
AcDbScale
 70
     0
300
1-1/2" = 1'-0"
140
1.5
141
12.0
290
     0
  0
SCALE
  5
66
102
{ACAD_REACTORS
330
47
102
}
330
47
100
AcDbScale
 70
     0
300
3" = 1'-0"
140
3.0
141
12.0
290
     0
  0
SCALE
  5
67
102
{ACAD_REACTORS
330
47
102
}
330
47
100
AcDbScale
 70
     0
300
6" = 1'-0"
140
6.0
141
12.0
290
     0
  0
SCALE
  5
68
102
{ACAD_REACTORS
330
47
102
}
330
47
100
AcDbScale
 70
     0
300
1'-0" = 1'-0"
140
12.0
141
12.0
290
     0
  0
TABLESTYLE
  5
6A
102
{ACAD_REACTORS
330
69
102
}
102
{ACAD_XDICTIONARY
360
1E5
102
}
330
69
100
AcDbTableStyle
  3
Standard
 70
     0
 71
     0
 40
0.06
 41
0.06
280
     0
281
     0
  7
Standard
140
0.18
170
     2
 62
     0
 63
   257
283
     0
 90
        4
 91
        0
  1

274
    -2
284
     1
 64
     0
275
    -2
285
     1
 65
     0
276
    -2
286
     1
 66
     0
277
    -2
287
     1
 67
     0
278
    -2
288
     1
 68
     0
279
    -2
289
     1
 69
     0
  7
Standard
140
0.25
170
     5
 62
     0
 63
   257
283
     0
 90
        4
 91
        0
  1

274
    -2
284
     1
 64
     0
275
    -2
285
     1
 65
     0
276
    -2
286
     1
 66
     0
277
    -2
287
     1
 67
     0
278
    -2
288
     1
 68
     0
279
    -2
289
     1
 69
     0
  7
Standard
140
0.18
170
     5
 62
     0
 63
   257
283
     0
 90
        4
 91
        0
  1

274
    -2
284
     1
 64
     0
275
    -2
285
     1
 65
     0
276
    -2
286
     1
 66
     0
277
    -2
287
     1
 67
     0
278
    -2
288
     1
 68
     0
279
    -2
289
     1
 69
     0
  0
VISUALSTYLE
  5
2F
102
{ACAD_REACTORS
330
2A
102
}
330
2A
100
AcDbVisualStyle
  2
2dWireframe
 70
     4
177
     3
291
     0
 70
    58
 90
        0
176
     1
 90
        2
176
     1
 90
        0
176
     1
 90
        0
176
     1
 40
0.6
176
     1
 40
30.0
176
     1
 62
     7
420
 16777215
176
     1
 90
        1
176
     1
 90
        4
176
     1
 62
     7
176
     1
 62
   257
176
     1
 90
        1
176
     1
 90
        1
176
     1
 40
1.0
176
     1
 90
        0
176
     1
 62
   257
176
     1
 40
1.0
176
     1
 90
        1
176
     1
 90
        6
176
     1
 90
        2
176
     1
 62
     7
176
     1
 90
        5
176
     1
 90
        0
176
     1
 90
        0
176
     1
290
     0
176
     1
 90
        1
176
     1
 40
0.0
176
     1
 90
        0
176
     1
290
     1
176
     1
290
     1
176
     1
290
     0
176
     1
290
     0
176
     1
290
     0
176
     1
290
     0
176
     1
290
     0
176
     1
290
     0
176
     1
290
     0
176
     1
 90
       50
176
     1
 40
0.0
176
     1
 40
1.0
176
     1
 90
        0
176
     1
 62
    18
420
        0
176
     1
 90
       50
176
     1
 90
        3
176
     1
 62
     5
420
      255
176
     1
290
     0
176
     1
 90
       50
176
     1
 90
       50
176
     1
 90
       50
176
     1
290
     0
176
     1
 90
       50
176
     1
 62
   256
176
     0
 40
1.0
176
     0
 90
        2
176
     1
  1
strokes_ogs.tif
176
     1
290
     0
176
     1
 40
1.0
176
     1
 40
1.0
176
     1
  0
VISUALSTYLE
  5
32
102
{ACAD_REACTORS
330
2A
102
}
330
2A
100
AcDbVisualStyle
  2
Basic
 70
     7
177
     3
291
     1
 70
    58
 90
        1
176
     1
 90
        0
176
     1
 90
        1
176
     1
 90
        0
176
     1
 40
0.6
176
     1
 40
30.0
176
     1
 62
     7
420
 16777215
176
     1
 90
        0
176
     1
 90
        4
176
     1
 62
     7
176
     1
 62
   257
176
     1
 90
        1
176
     1
 90
        1
176
     1
 40
1.0
176
     1
 90
        8
176
     1
 62
     7
176
     1
 40
1.0
176
     1
 90
        1
176
     1
 90
        6
176
     1
 90
        2
176
     1
 62
     7
176
     1
 90
        5
176
     1
 90
        0
176
     1
 90
        0
176
     1
290
     0
176
     1
 90
        1
176
     1
 40
0.0
176
     1
 90
        0
176
     1
290
     0
176
     1
290
     1
176
     1
290
     1
176
     1
290
     0
176
     1
290
     0
176
     1
290
     0
176
     1
290
     0
176
     1
290
     0
176
     1
290
     0
176
     1
 90
       50
176
     1
 40
0.0
176
     1
 40
1.0
176
     1
 90
        0
176
     1
 62
    18
420
        0
176
     1
 90
       50
176
     1
 90
        3
176
     1
 62
     5
420
      255
176
     1
290
     0
176
     1
 90
       50
176
     1
 90
       50
176
     1
 90
       50
176
     1
290
     0
176
     1
 90
       50
176
     1
 62
   256
176
     0
 40
1.0
176
     0
 90
        2
176
     1
  1
strokes_ogs.tif
176
     1
290
     0
176
     1
 40
1.0
176
     1
 40
1.0
176
     1
  0
VISUALSTYLE
  5
36
102
{ACAD_REACTORS
330
2A
102
}
330
2A
100
AcDbVisualStyle
  2
Brighten
 70
    12
177
     3
291
     1
 70
    58
 90
        2
176
     1
 90
        2
176
     1
 90
        0
176
     1
 90
        0
176
     1
 40
0.6
176
     1
 40
30.0
176
     1
 62
     7
420
 16777215
176
     1
 90
        1
176
     1
 90
        4
176
     1
 62
     7
176
     1
 62
   257
176
     1
 90
        1
176
     1
 90
        1
176
     1
 40
1.0
176
     1
 90
        8
176
     1
 62
     7
176
     1
 40
1.0
176
     1
 90
        1
176
     1
 90
        6
176
     1
 90
        2
176
     1
 62
     7
176
     1
 90
        5
176
     1
 90
        0
176
     1
 90
        0
176
     1
290
     0
176
     1
 90
        1
176
     1
 40
50.0
176
     1
 90
        0
176
     1
290
     0
176
     1
290
     1
176
     1
290
     1
176
     1
290
     0
176
     1
290
     0
176
     1
290
     0
176
     1
290
     0
176
     1
290
     0
176
     1
290
     0
176
     1
 90
       50
176
     1
 40
0.0
176
     1
 40
1.0
176
     1
 90
        0
176
     1
 62
    18
420
        0
176
     1
 90
       50
176
     1
 90
        3
176
     1
 62
     5
420
      255
176
     1
290
     0
176
     1
 90
       50
176
     1
 90
       50
176
     1
 90
       50
176
     1
290
     0
176
     1
 90
       50
176
     1
 62
   256
176
     0
 40
1.0
176
     0
 90
        2
176
     1
  1
strokes_ogs.tif
176
     1
290
     0
176
     1
 40
1.0
176
     1
 40
1.0
176
     1
  0
VISUALSTYLE
  5
3A
102
{ACAD_REACTORS
330
2A
102
}
330
2A
100
AcDbVisualStyle
  2
ColorChange
 70
    16
177
     3
291
     1
 70
    58
 90
        2
176
     1
 90
        2
176
     1
 90
        3
176
     1
 90
        0
176
     1
 40
0.6
176
     1
 40
30.0
176
     1
 62
     8
420
  8421504
176
     1
 90
        1
176
     1
 90
        4
176
     1
 62
     7
176
     1
 62
   257
176
     1
 90
        1
176
     1
 90
        1
176
     1
 40
1.0
176
     1
 90
        8
176
     1
 62
     8
420
  8421504
176
     1
 40
1.0
176
     1
 90
        1
176
     1
 90
        6
176
     1
 90
        2
176
     1
 62
     7
176
     1
 90
        5
176
     1
 90
        0
176
     1
 90
        0
176
     1
290
     0
176
     1
 90
        1
176
     1
 40
0.0
176
     1
 90
        0
176
     1
290
     0
176
     1
290
     1
176
     1
290
     1
176
     1
290
     0
176
     1
290
     0
176
     1
290
     0
176
     1
290
     0
176
     1
290
     0
176
     1
290
     0
176
     1
 90
       50
176
     1
 40
0.0
176
     1
 40
1.0
176
     1
 90
        0
176
     1
 62
    18
420
        0
176
     1
 90
       50
176
     1
 90
        3
176
     1
 62
     5
420
      255
176
     1
290
     0
176
     1
 90
       50
176
     1
 90
       50
176
     1
 90
       50
176
     1
290
     0
176
     1
 90
       50
176
     1
 62
   256
176
     0
 40
1.0
176
     0
 90
        2
176
     1
  1
strokes_ogs.tif
176
     1
290
     0
176
     1
 40
1.0
176
     1
 40
1.0
176
     1
  0
VISUALSTYLE
  5
34
102
{ACAD_REACTORS
330
2A
102
}
330
2A
100
AcDbVisualStyle
  2
Conceptual
 70
     9
177
     3
291
     0
 70
    58
 90
        3
176
     1
 90
        2
176
     1
 90
        0
176
     1
 90
        0
176
     1
 40
0.6
176
     1
 40
30.0
176
     1
 62
     7
420
 16777215
176
     1
 90
        2
176
     1
 90
        2
176
     1
 62
     7
176
     1
 62
   257
176
     1
 90
        1
176
     1
 90
        1
176
     1
 40
179.0
176
     1
 90
        8
176
     1
 62
     7
176
     1
 40
1.0
176
     1
 90
        1
176
     1
 90
        6
176
     1
 90
        2
176
     1
 62
     7
176
     1
 90
        3
176
     1
 90
        0
176
     1
 90
        0
176
     1
290
     0
176
     1
 90
        1
176
     1
 40
0.0
176
     1
 90
        0
176
     1
290
     0
176
     1
290
     1
176
     1
290
     1
176
     1
290
     0
176
     1
290
     0
176
     1
290
     0
176
     1
290
     0
176
     1
290
     0
176
     1
290
     0
176
     1
 90
       50
176
     1
 40
0.0
176
     1
 40
1.0
176
     1
 90
        0
176
     1
 62
    18
420
        0
176
     1
 90
       50
176
     1
 90
        3
176
     1
 62
     5
420
      255
176
     1
290
     0
176
     1
 90
       50
176
     1
 90
       50
176
     1
 90
       50
176
     1
290
     0
176
     1
 90
       50
176
     1
 62
   256
176
     0
 40
1.0
176
     0
 90
        2
176
     1
  1
strokes_ogs.tif
176
     1
290
     0
176
     1
 40
1.0
176
     1
 40
1.0
176
     1
  0
VISUALSTYLE
  5
35
102
{ACAD_REACTORS
330
2A
102
}
330
2A
100
AcDbVisualStyle
  2
Dim
 70
    11
177
     3
291
     1
 70
    58
 90
        2
176
     1
 90
        2
176
     1
 90
        0
176
     1
 90
        0
176
     1
 40
0.6
176
     1
 40
30.0
176
     1
 62
     7
420
 16777215
176
     1
 90
        1
176
     1
 90
        4
176
     1
 62
     7
176
     1
 62
   257
176
     1
 90
        1
176
     1
 90
        1
176
     1
 40
1.0
176
     1
 90
        8
176
     1
 62
     7
176
     1
 40
1.0
176
     1
 90
        1
176
     1
 90
        6
176
     1
 90
        2
176
     1
 62
     7
176
     1
 90
        5
176
     1
 90
        0
176
     1
 90
        0
176
     1
290
     0
176
     1
 90
        1
176
     1
 40
-50.0
176
     1
 90
        0
176
     1
290
     0
176
     1
290
     1
176
     1
290
     1
176
     1
290
     0
176
     1
290
     0
176
     1
290
     0
176
     1
290
     0
176
     1
290
     0
176
     1
290
     0
176
     1
 90
       50
176
     1
 40
0.0
176
     1
 40
1.0
176
     1
 90
        0
176
     1
 62
    18
420
        0
176
     1
 90
       50
176
     1
 90
        3
176
     1
 62
     5
420
      255
176
     1
290
     0
176
     1
 90
       50
176
     1
 90
       50
176
     1
 90
       50
176
     1
290
     0
176
     1
 90
       50
176
     1
 62
   256
176
     0
 40
1.0
176
     0
 90
        2
176
     1
  1
strokes_ogs.tif
176
     1
290
     0
176
     1
 40
1.0
176
     1
 40
1.0
176
     1
  0
VISUALSTYLE
  5
3D
102
{ACAD_REACTORS
330
2A
102
}
330
2A
100
AcDbVisualStyle
  2
EdgeColorOff
 70
    22
177
     3
291
     1
 70
    58
 90
        2
176
     0
 90
        2
176
     0
 90
        0
176
     0
 90
        0
176
     0
 40
0.6
176
     0
 40
30.0
176
     0
 62
     7
420
 16777215
176
     0
 90
        1
176
     0
 90
        4
176
     0
 62
     7
176
     0
 62
   257
176
     0
 90
        1
176
     0
 90
        1
176
     0
 40
1.0
176
     0
 90
        8
176
     2
 62
     7
176
     0
 40
1.0
176
     0
 90
        1
176
     0
 90
        6
176
     0
 90
        2
176
     0
 62
     7
176
     0
 90
        5
176
     0
 90
        0
176
     0
 90
        0
176
     0
290
     0
176
     0
 90
        1
176
     0
 40
0.0
176
     0
 90
        0
176
     0
290
     0
176
     0
290
     1
176
     0
290
     1
176
     0
290
     0
176
     0
290
     0
176
     0
290
     0
176
     0
290
     0
176
     0
290
     0
176
     0
290
     0
176
     0
 90
       50
176
     0
 40
0.0
176
     0
 40
1.0
176
     0
 90
        0
176
     0
 62
    18
420
        0
176
     0
 90
       50
176
     0
 90
        3
176
     0
 62
     5
420
      255
176
     0
290
     0
176
     0
 90
       50
176
     0
 90
       50
176
     0
 90
       50
176
     0
290
     0
176
     0
 90
       50
176
     0
 62
   256
176
     0
 40
1.0
176
     0
 90
        2
176
     0
  1
strokes_ogs.tif
176
     0
290
     0
176
     0
 40
1.0
176
     0
 40
1.0
176
     0
  0
VISUALSTYLE
  5
39
102
{ACAD_REACTORS
330
2A
102
}
330
2A
100
AcDbVisualStyle
  2
Facepattern
 70
    15
177
     3
291
     1
 70
    58
 90
        2
176
     1
 90
        2
176
     1
 90
        0
176
     1
 90
        0
176
     1
 40
0.6
176
     1
 40
30.0
176
     1
 62
     7
420
 16777215
176
     1
 90
        1
176
     1
 90
        4
176
     1
 62
     7
176
     1
 62
   257
176
     1
 90
        1
176
     1
 90
        1
176
     1
 40
1.0
176
     1
 90
        8
176
     1
 62
     7
176
     1
 40
1.0
176
     1
 90
        1
176
     1
 90
        6
176
     1
 90
        2
176
     1
 62
     7
176
     1
 90
        5
176
     1
 90
        0
176
     1
 90
        0
176
     1
290
     0
176
     1
 90
        1
176
     1
 40
0.0
176
     1
 90
        0
176
     1
290
     0
176
     1
290
     1
176
     1
290
     1
176
     1
290
     0
176
     1
290
     0
176
     1
290
     0
176
     1
290
     0
176
     1
290
     0
176
     1
290
     0
176
     1
 90
       50
176
     1
 40
0.0
176
     1
 40
1.0
176
     1
 90
        0
176
     1
 62
    18
420
        0
176
     1
 90
       50
176
     1
 90
        3
176
     1
 62
     5
420
      255
176
     1
290
     0
176
     1
 90
       50
176
     1
 90
       50
176
     1
 90
       50
176
     1
290
     0
176
     1
 90
       50
176
     1
 62
   256
176
     0
 40
1.0
176
     0
 90
        2
176
     1
  1
strokes_ogs.tif
176
     1
290
     0
176
     1
 40
1.0
176
     1
 40
1.0
176
     1
  0
VISUALSTYLE
  5
2B
102
{ACAD_REACTORS
330
2A
102
}
330
2A
100
AcDbVisualStyle
  2
Flat
 70
     0
177
     3
291
     1
 70
    58
 90
        2
176
     1
 90
        1
176
     1
 90
        1
176
     1
 90
        2
176
     1
 40
0.6
176
     1
 40
30.0
176
     1
 62
     7
420
 16777215
176
     1
 90
        0
176
     1
 90
        0
176
     1
 62
     7
176
     1
 62
   257
176
     1
 90
        1
176
     1
 90
        1
176
     1
 40
1.0
176
     1
 90
        8
176
     1
 62
     7
176
     1
 40
1.0
176
     1
 90
        1
176
     1
 90
        6
176
     1
 90
        2
176
     1
 62
     7
176
     1
 90
        5
176
     1
 90
        0
176
     1
 90
        0
176
     1
290
     0
176
     1
 90
       13
176
     1
 40
0.0
176
     1
 90
        0
176
     1
290
     0
176
     1
290
     1
176
     1
290
     1
176
     1
290
     0
176
     1
290
     0
176
     1
290
     0
176
     1
290
     0
176
     1
290
     0
176
     1
290
     0
176
     1
 90
       50
176
     1
 40
0.0
176
     1
 40
1.0
176
     1
 90
        0
176
     1
 62
    18
420
        0
176
     1
 90
       50
176
     1
 90
        3
176
     1
 62
     5
420
      255
176
     1
290
     0
176
     1
 90
       50
176
     1
 90
       50
176
     1
 90
       50
176
     1
290
     0
176
     1
 90
       50
176
     1
 62
   256
176
     0
 40
1.0
176
     0
 90
        2
176
     1
  1
strokes_ogs.tif
176
     1
290
     0
176
     1
 40
1.0
176
     1
 40
1.0
176
     1
  0
VISUALSTYLE
  5
2C
102
{ACAD_REACTORS
330
2A
102
}
330
2A
100
AcDbVisualStyle
  2
FlatWithEdges
 70
     1
177
     3
291
     1
 70
    58
 90
        2
176
     1
 90
        1
176
     1
 90
        1
176
     1
 90
        2
176
     1
 40
0.6
176
     1
 40
30.0
176
     1
 62
     7
420
 16777215
176
     1
 90
        1
176
     1
 90
        0
176
     1
 62
     7
176
     1
 62
   257
176
     1
 90
        1
176
     1
 90
        1
176
     1
 40
1.0
176
     1
 90
        0
176
     1
 62
   257
176
     1
 40
1.0
176
     1
 90
        1
176
     1
 90
        6
176
     1
 90
        2
176
     1
 62
     7
176
     1
 90
        5
176
     1
 90
        0
176
     1
 90
        0
176
     1
290
     0
176
     1
 90
       13
176
     1
 40
0.0
176
     1
 90
        0
176
     1
290
     0
176
     1
290
     1
176
     1
290
     1
176
     1
290
     0
176
     1
290
     0
176
     1
290
     0
176
     1
290
     0
176
     1
290
     0
176
     1
290
     0
176
     1
 90
       50
176
     1
 40
0.0
176
     1
 40
1.0
176
     1
 90
        0
176
     1
 62
    18
420
        0
176
     1
 90
       50
176
     1
 90
        3
176
     1
 62
     5
420
      255
176
     1
290
     0
176
     1
 90
       50
176
     1
 90
       50
176
     1
 90
       50
176
     1
290
     0
176
     1
 90
       50
176
     1
 62
   256
176
     0
 40
1.0
176
     0
 90
        2
176
     1
  1
strokes_ogs.tif
176
     1
290
     0
176
     1
 40
1.0
176
     1
 40
1.0
176
     1
  0
VISUALSTYLE
  5
2D
102
{ACAD_REACTORS
330
2A
102
}
330
2A
100
AcDbVisualStyle
  2
Gouraud
 70
     2
177
     3
291
     1
 70
    58
 90
        2
176
     1
 90
        2
176
     1
 90
        1
176
     1
 90
        2
176
     1
 40
0.6
176
     1
 40
30.0
176
     1
 62
     7
420
 16777215
176
     1
 90
        0
176
     1
 90
        0
176
     1
 62
     7
176
     1
 62
   257
176
     1
 90
        1
176
     1
 90
        1
176
     1
 40
1.0
176
     1
 90
        0
176
     1
 62
     7
176
     1
 40
1.0
176
     1
 90
        1
176
     1
 90
        6
176
     1
 90
        2
176
     1
 62
     7
176
     1
 90
        5
176
     1
 90
        0
176
     1
 90
        0
176
     1
290
     0
176
     1
 90
       13
176
     1
 40
0.0
176
     1
 90
        0
176
     1
290
     0
176
     1
290
     1
176
     1
290
     1
176
     1
290
     0
176
     1
290
     0
176
     1
290
     0
176
     1
290
     0
176
     1
290
     0
176
     1
290
     0
176
     1
 90
       50
176
     1
 40
0.0
176
     1
 40
1.0
176
     1
 90
        0
176
     1
 62
    18
420
        0
176
     1
 90
       50
176
     1
 90
        3
176
     1
 62
     5
420
      255
176
     1
290
     0
176
     1
 90
       50
176
     1
 90
       50
176
     1
 90
       50
176
     1
290
     0
176
     1
 90
       50
176
     1
 62
   256
176
     0
 40
1.0
176
     0
 90
        2
176
     1
  1
strokes_ogs.tif
176
     1
290
     0
176
     1
 40
1.0
176
     1
 40
1.0
176
     1
  0
VISUALSTYLE
  5
2E
102
{ACAD_REACTORS
330
2A
102
}
330
2A
100
AcDbVisualStyle
  2
GouraudWithEdges
 70
     3
177
     3
291
     1
 70
    58
 90
        2
176
     1
 90
        2
176
     1
 90
        1
176
     1
 90
        2
176
     1
 40
0.6
176
     1
 40
30.0
176
     1
 62
     7
420
 16777215
176
     1
 90
        1
176
     1
 90
        0
176
     1
 62
     7
176
     1
 62
   257
176
     1
 90
        1
176
     1
 90
        1
176
     1
 40
1.0
176
     1
 90
        0
176
     1
 62
   257
176
     1
 40
1.0
176
     1
 90
        1
176
     1
 90
        6
176
     1
 90
        2
176
     1
 62
     7
176
     1
 90
        5
176
     1
 90
        0
176
     1
 90
        0
176
     1
290
     0
176
     1
 90
       13
176
     1
 40
0.0
176
     1
 90
        0
176
     1
290
     0
176
     1
290
     1
176
     1
290
     1
176
     1
290
     0
176
     1
290
     0
176
     1
290
     0
176
     1
290
     0
176
     1
290
     0
176
     1
290
     0
176
     1
 90
       50
176
     1
 40
0.0
176
     1
 40
1.0
176
     1
 90
        0
176
     1
 62
    18
420
        0
176
     1
 90
       50
176
     1
 90
        3
176
     1
 62
     5
420
      255
176
     1
290
     0
176
     1
 90
       50
176
     1
 90
       50
176
     1
 90
       50
176
     1
290
     0
176
     1
 90
       50
176
     1
 62
   256
176
     0
 40
1.0
176
     0
 90
        2
176
     1
  1
strokes_ogs.tif
176
     1
290
     0
176
     1
 40
1.0
176
     1
 40
1.0
176
     1
  0
VISUALSTYLE
  5
31
102
{ACAD_REACTORS
330
2A
102
}
330
2A
100
AcDbVisualStyle
  2
Hidden
 70
     6
177
     3
291
     0
 70
    58
 90
        1
176
     1
 90
        2
176
     1
 90
        2
176
     1
 90
        0
176
     1
 40
0.6
176
     1
 40
30.0
176
     1
 62
     7
420
 16777215
176
     1
 90
        2
176
     1
 90
        2
176
     1
 62
     7
176
     1
 62
   257
176
     1
 90
        2
176
     1
 90
        1
176
     1
 40
40.0
176
     1
 90
        0
176
     1
 62
   257
176
     1
 40
1.0
176
     1
 90
        1
176
     1
 90
        6
176
     1
 90
        2
176
     1
 62
     7
176
     1
 90
        3
176
     1
 90
        0
176
     1
 90
        0
176
     1
290
     0
176
     1
 90
        1
176
     1
 40
0.0
176
     1
 90
        0
176
     1
290
     0
176
     1
290
     1
176
     1
290
     1
176
     1
290
     0
176
     1
290
     0
176
     1
290
     0
176
     1
290
     0
176
     1
290
     0
176
     1
290
     0
176
     1
 90
       50
176
     1
 40
0.0
176
     1
 40
1.0
176
     1
 90
        0
176
     1
 62
    18
420
        0
176
     1
 90
       50
176
     1
 90
        3
176
     1
 62
     5
420
      255
176
     1
290
     0
176
     1
 90
       50
176
     1
 90
       50
176
     1
 90
       50
176
     1
290
     0
176
     1
 90
       50
176
     1
 62
   256
176
     0
 40
1.0
176
     0
 90
        2
176
     1
  1
strokes_ogs.tif
176
     1
290
     0
176
     1
 40
1.0
176
     1
 40
1.0
176
     1
  0
VISUALSTYLE
  5
3B
102
{ACAD_REACTORS
330
2A
102
}
330
2A
100
AcDbVisualStyle
  2
JitterOff
 70
    20
177
     3
291
     1
 70
    58
 90
        2
176
     0
 90
        2
176
     0
 90
        0
176
     0
 90
        0
176
     0
 40
0.6
176
     0
 40
30.0
176
     0
 62
     7
420
 16777215
176
     0
 90
        1
176
     0
 90
        4
176
     0
 62
     7
176
     0
 62
   257
176
     0
 90
        1
176
     0
 90
        1
176
     0
 40
1.0
176
     0
 90
       10
176
     2
 62
     7
176
     0
 40
1.0
176
     0
 90
        1
176
     0
 90
        6
176
     0
 90
        2
176
     0
 62
     7
176
     0
 90
        5
176
     0
 90
        0
176
     0
 90
        0
176
     0
290
     0
176
     0
 90
        1
176
     0
 40
0.0
176
     0
 90
        0
176
     0
290
     0
176
     0
290
     1
176
     0
290
     1
176
     0
290
     0
176
     0
290
     0
176
     0
290
     0
176
     0
290
     0
176
     0
290
     0
176
     0
290
     0
176
     0
 90
       50
176
     0
 40
0.0
176
     0
 40
1.0
176
     0
 90
        0
176
     0
 62
    18
420
        0
176
     0
 90
       50
176
     0
 90
        3
176
     0
 62
     5
420
      255
176
     0
290
     0
176
     0
 90
       50
176
     0
 90
       50
176
     0
 90
       50
176
     0
290
     0
176
     0
 90
       50
176
     0
 62
   256
176
     0
 40
1.0
176
     0
 90
        2
176
     0
  1
strokes_ogs.tif
176
     0
290
     0
176
     0
 40
1.0
176
     0
 40
1.0
176
     0
  0
VISUALSTYLE
  5
38
102
{ACAD_REACTORS
330
2A
102
}
330
2A
100
AcDbVisualStyle
  2
Linepattern
 70
    14
177
     3
291
     1
 70
    58
 90
        2
176
     1
 90
        2
176
     1
 90
        0
176
     1
 90
        0
176
     1
 40
0.6
176
     1
 40
30.0
176
     1
 62
     7
420
 16777215
176
     1
 90
        1
176
     1
 90
        4
176
     1
 62
     7
176
     1
 62
   257
176
     1
 90
        7
176
     1
 90
        7
176
     1
 40
1.0
176
     1
 90
        8
176
     1
 62
     7
176
     1
 40
1.0
176
     1
 90
        1
176
     1
 90
        6
176
     1
 90
        2
176
     1
 62
     7
176
     1
 90
        5
176
     1
 90
        0
176
     1
 90
        0
176
     1
290
     0
176
     1
 90
        1
176
     1
 40
0.0
176
     1
 90
        0
176
     1
290
     0
176
     1
290
     1
176
     1
290
     1
176
     1
290
     0
176
     1
290
     0
176
     1
290
     0
176
     1
290
     0
176
     1
290
     0
176
     1
290
     0
176
     1
 90
       50
176
     1
 40
0.0
176
     1
 40
1.0
176
     1
 90
        0
176
     1
 62
    18
420
        0
176
     1
 90
       50
176
     1
 90
        3
176
     1
 62
     5
420
      255
176
     1
290
     0
176
     1
 90
       50
176
     1
 90
       50
176
     1
 90
       50
176
     1
290
     0
176
     1
 90
       50
176
     1
 62
   256
176
     0
 40
1.0
176
     0
 90
        2
176
     1
  1
strokes_ogs.tif
176
     1
290
     0
176
     1
 40
1.0
176
     1
 40
1.0
176
     1
  0
VISUALSTYLE
  5
3C
102
{ACAD_REACTORS
330
2A
102
}
330
2A
100
AcDbVisualStyle
  2
OverhangOff
 70
    21
177
     3
291
     1
 70
    58
 90
        2
176
     0
 90
        2
176
     0
 90
        0
176
     0
 90
        0
176
     0
 40
0.6
176
     0
 40
30.0
176
     0
 62
     7
420
 16777215
176
     0
 90
        1
176
     0
 90
        4
176
     0
 62
     7
176
     0
 62
   257
176
     0
 90
        1
176
     0
 90
        1
176
     0
 40
1.0
176
     0
 90
        9
176
     2
 62
     7
176
     0
 40
1.0
176
     0
 90
        1
176
     0
 90
        6
176
     0
 90
        2
176
     0
 62
     7
176
     0
 90
        5
176
     0
 90
        0
176
     0
 90
        0
176
     0
290
     0
176
     0
 90
        1
176
     0
 40
0.0
176
     0
 90
        0
176
     0
290
     0
176
     0
290
     1
176
     0
290
     1
176
     0
290
     0
176
     0
290
     0
176
     0
290
     0
176
     0
290
     0
176
     0
290
     0
176
     0
290
     0
176
     0
 90
       50
176
     0
 40
0.0
176
     0
 40
1.0
176
     0
 90
        0
176
     0
 62
    18
420
        0
176
     0
 90
       50
176
     0
 90
        3
176
     0
 62
     5
420
      255
176
     0
290
     0
176
     0
 90
       50
176
     0
 90
       50
176
     0
 90
       50
176
     0
290
     0
176
     0
 90
       50
176
     0
 62
   256
176
     0
 40
1.0
176
     0
 90
        2
176
     0
  1
strokes_ogs.tif
176
     0
290
     0
176
     0
 40
1.0
176
     0
 40
1.0
176
     0
  0
VISUALSTYLE
  5
33
102
{ACAD_REACTORS
330
2A
102
}
330
2A
100
AcDbVisualStyle
  2
Realistic
 70
     8
177
     3
291
     0
 70
    58
 90
        2
176
     1
 90
        3
176
     1
 90
        0
176
     1
 90
        2
176
     1
 40
0.6
176
     1
 40
30.0
176
     1
 62
     7
420
 16777215
176
     1
 90
        0
176
     1
 90
        0
176
     1
 62
     7
176
     1
 62
   257
176
     1
 90
        1
176
     1
 90
        1
176
     1
 40
1.0
176
     1
 90
        8
176
     1
 62
   257
176
     1
 40
1.0
176
     1
 90
        1
176
     1
 90
        6
176
     1
 90
        2
176
     1
 62
     7
176
     1
 90
        3
176
     1
 90
        0
176
     1
 90
        0
176
     1
290
     0
176
     1
 90
       13
176
     1
 40
0.0
176
     1
 90
        0
176
     1
290
     0
176
     1
290
     1
176
     1
290
     1
176
     1
290
     0
176
     1
290
     0
176
     1
290
     0
176
     1
290
     0
176
     1
290
     0
176
     1
290
     0
176
     1
 90
       50
176
     1
 40
0.0
176
     1
 40
1.0
176
     1
 90
        0
176
     1
 62
    18
420
        0
176
     1
 90
       50
176
     1
 90
        3
176
     1
 62
     5
420
      255
176
     1
290
     0
176
     1
 90
       50
176
     1
 90
       50
176
     1
 90
       50
176
     1
290
     0
176
     1
 90
       50
176
     1
 62
   256
176
     0
 40
1.0
176
     0
 90
        2
176
     1
  1
strokes_ogs.tif
176
     1
290
     0
176
     1
 40
1.0
176
     1
 40
1.0
176
     1
  0
VISUALSTYLE
  5
42
102
{ACAD_REACTORS
330
2A
102
}
330
2A
100
AcDbVisualStyle
  2
Shaded
 70
    27
177
     3
291
     0
 70
    58
 90
        2
176
     1
 90
        2
176
     1
 90
        1
176
     1
 90
        2
176
     1
 40
0.6
176
     1
 40
30.0
176
     1
 62
     7
420
 16777215
176
     1
 90
        0
176
     1
 90
        4
176
     1
 62
     7
176
     1
 62
   257
176
     1
 90
        1
176
     1
 90
        1
176
     1
 40
1.0
176
     1
 90
        8
176
     1
 62
   257
176
     1
 40
1.0
176
     1
 90
        1
176
     1
 90
        6
176
     1
 90
        2
176
     1
 62
     8
420
  7895160
176
     1
 90
        3
176
     1
 90
        0
176
     1
 90
        0
176
     1
290
     0
176
     1
 90
        5
176
     1
 40
0.0
176
     1
 90
        0
176
     1
290
     0
176
     1
290
     1
176
     1
290
     1
176
     1
290
     0
176
     1
290
     0
176
     1
290
     0
176
     1
290
     0
176
     1
290
     0
176
     1
290
     0
176
     1
 90
       50
176
     1
 40
0.0
176
     1
 40
1.0
176
     1
 90
        0
176
     1
 62
    18
420
        0
176
     1
 90
       50
176
     1
 90
        3
176
     1
 62
     5
420
      255
176
     1
290
     0
176
     1
 90
       50
176
     1
 90
       50
176
     1
 90
       50
176
     1
290
     0
176
     1
 90
       50
176
     1
 62
   256
176
     0
 40
1.0
176
     0
 90
        2
176
     1
  1
strokes_ogs.tif
176
     1
290
     0
176
     1
 40
1.0
176
     1
 40
1.0
176
     1
  0
VISUALSTYLE
  5
41
102
{ACAD_REACTORS
330
2A
102
}
330
2A
100
AcDbVisualStyle
  2
Shaded with edges
 70
    26
177
     3
291
     0
 70
    58
 90
        2
176
     1
 90
        2
176
     1
 90
        1
176
     1
 90
        2
176
     1
 40
0.6
176
     1
 40
30.0
176
     1
 62
     7
420
 16777215
176
     1
 90
        1
176
     1
 90
       10
176
     1
 62
     7
176
     1
 62
   257
176
     1
 90
        2
176
     1
 90
        1
176
     1
 40
1.0
176
     1
 90
        8
176
     1
 62
   257
176
     1
 40
1.0
176
     1
 90
        1
176
     1
 90
        6
176
     1
 90
        2
176
     1
 62
     7
176
     1
 90
        3
176
     1
 90
        0
176
     1
 90
        0
176
     1
290
     0
176
     1
 90
        5
176
     1
 40
0.0
176
     1
 90
        0
176
     1
290
     0
176
     1
290
     1
176
     1
290
     1
176
     1
290
     0
176
     1
290
     0
176
     1
290
     0
176
     1
290
     0
176
     1
290
     0
176
     1
290
     0
176
     1
 90
       50
176
     1
 40
0.0
176
     1
 40
1.0
176
     1
 90
        0
176
     1
 62
    18
420
        0
176
     1
 90
       50
176
     1
 90
        3
176
     1
 62
     5
420
      255
176
     1
290
     0
176
     1
 90
       50
176
     1
 90
       50
176
     1
 90
       50
176
     1
290
     0
176
     1
 90
       50
176
     1
 62
   256
176
     0
 40
1.0
176
     0
 90
        2
176
     1
  1
strokes_ogs.tif
176
     1
290
     0
176
     1
 40
1.0
176
     1
 40
1.0
176
     1
  0
VISUALSTYLE
  5
3E
102
{ACAD_REACTORS
330
2A
102
}
330
2A
100
AcDbVisualStyle
  2
Shades of Gray
 70
    23
177
     3
291
     0
 70
    58
 90
        2
176
     1
 90
        2
176
     1
 90
        3
176
     1
 90
        0
176
     1
 40
0.6
176
     1
 40
30.0
176
     1
 62
     7
420
 16777215
176
     1
 90
        2
176
     1
 90
        2
176
     1
 62
     7
176
     1
 62
     7
176
     1
 90
        1
176
     1
 90
        1
176
     1
 40
40.0
176
     1
 90
        8
176
     1
 62
     7
176
     1
 40
1.0
176
     1
 90
        1
176
     1
 90
        6
176
     1
 90
        2
176
     1
 62
     7
176
     1
 90
        3
176
     1
 90
        0
176
     1
 90
        0
176
     1
290
     0
176
     1
 90
        1
176
     1
 40
0.0
176
     1
 90
        0
176
     1
290
     0
176
     1
290
     1
176
     1
290
     1
176
     1
290
     0
176
     1
290
     0
176
     1
290
     0
176
     1
290
     0
176
     1
290
     0
176
     1
290
     0
176
     1
 90
       50
176
     1
 40
0.0
176
     1
 40
1.0
176
     1
 90
        0
176
     1
 62
    18
420
        0
176
     1
 90
       50
176
     1
 90
        3
176
     1
 62
     5
420
      255
176
     1
290
     0
176
     1
 90
       50
176
     1
 90
       50
176
     1
 90
       50
176
     1
290
     0
176
     1
 90
       50
176
     1
 62
   256
176
     0
 40
1.0
176
     0
 90
        2
176
     1
  1
strokes_ogs.tif
176
     1
290
     0
176
     1
 40
1.0
176
     1
 40
1.0
176
     1
  0
VISUALSTYLE
  5
3F
102
{ACAD_REACTORS
330
2A
102
}
330
2A
100
AcDbVisualStyle
  2
Sketchy
 70
    24
177
     3
291
     0
 70
    58
 90
        1
176
     1
 90
        2
176
     1
 90
        2
176
     1
 90
        0
176
     1
 40
0.6
176
     1
 40
30.0
176
     1
 62
     7
420
 16777215
176
     1
 90
        2
176
     1
 90
        2
176
     1
 62
     7
176
     1
 62
     7
176
     1
 90
        1
176
     1
 90
        1
176
     1
 40
40.0
176
     1
 90
       11
176
     1
 62
     7
176
     1
 40
1.0
176
     1
 90
        1
176
     1
 90
        6
176
     1
 90
        2
176
     1
 62
     7
176
     1
 90
        6
176
     1
 90
        0
176
     1
 90
        0
176
     1
290
     0
176
     1
 90
        1
176
     1
 40
0.0
176
     1
 90
        0
176
     1
290
     0
176
     1
290
     1
176
     1
290
     1
176
     1
290
     0
176
     1
290
     0
176
     1
290
     0
176
     1
290
     0
176
     1
290
     0
176
     1
290
     0
176
     1
 90
       50
176
     1
 40
0.0
176
     1
 40
1.0
176
     1
 90
        0
176
     1
 62
    18
420
        0
176
     1
 90
       50
176
     1
 90
        3
176
     1
 62
     5
420
      255
176
     1
290
     0
176
     1
 90
       50
176
     1
 90
       50
176
     1
 90
       50
176
     1
290
     0
176
     1
 90
       50
176
     1
 62
   256
176
     0
 40
1.0
176
     0
 90
        2
176
     1
  1
strokes_ogs.tif
176
     1
290
     0
176
     1
 40
1.0
176
     1
 40
1.0
176
     1
  0
VISUALSTYLE
  5
37
102
{ACAD_REACTORS
330
2A
102
}
330
2A
100
AcDbVisualStyle
  2
Thicken
 70
    13
177
     3
291
     1
 70
    58
 90
        2
176
     1
 90
        2
176
     1
 90
        0
176
     1
 90
        0
176
     1
 40
0.6
176
     1
 40
30.0
176
     1
 62
     7
420
 16777215
176
     1
 90
        1
176
     1
 90
        4
176
     1
 62
     7
176
     1
 62
   257
176
     1
 90
        1
176
     1
 90
        1
176
     1
 40
1.0
176
     1
 90
       12
176
     1
 62
     7
176
     1
 40
1.0
176
     1
 90
        1
176
     1
 90
        6
176
     1
 90
        2
176
     1
 62
     7
176
     1
 90
        5
176
     1
 90
        0
176
     1
 90
        0
176
     1
290
     0
176
     1
 90
        1
176
     1
 40
0.0
176
     1
 90
        0
176
     1
290
     0
176
     1
290
     1
176
     1
290
     1
176
     1
290
     0
176
     1
290
     0
176
     1
290
     0
176
     1
290
     0
176
     1
290
     0
176
     1
290
     0
176
     1
 90
       50
176
     1
 40
0.0
176
     1
 40
1.0
176
     1
 90
        0
176
     1
 62
    18
420
        0
176
     1
 90
       50
176
     1
 90
        3
176
     1
 62
     5
420
      255
176
     1
290
     0
176
     1
 90
       50
176
     1
 90
       50
176
     1
 90
       50
176
     1
290
     0
176
     1
 90
       50
176
     1
 62
   256
176
     0
 40
1.0
176
     0
 90
        2
176
     1
  1
strokes_ogs.tif
176
     1
290
     0
176
     1
 40
1.0
176
     1
 40
1.0
176
     1
  0
VISUALSTYLE
  5
30
102
{ACAD_REACTORS
330
2A
102
}
330
2A
100
AcDbVisualStyle
  2
Wireframe
 70
     5
177
     3
291
     0
 70
    58
 90
        0
176
     1
 90
        2
176
     1
 90
        0
176
     1
 90
        0
176
     1
 40
0.6
176
     1
 40
30.0
176
     1
 62
     7
420
 16777215
176
     1
 90
        1
176
     1
 90
        4
176
     1
 62
     7
176
     1
 62
   257
176
     1
 90
        1
176
     1
 90
        1
176
     1
 40
1.0
176
     1
 90
        0
176
     1
 62
   257
176
     1
 40
1.0
176
     1
 90
        1
176
     1
 90
        6
176
     1
 90
        2
176
     1
 62
     7
176
     1
 90
        3
176
     1
 90
        0
176
     1
 90
        0
176
     1
290
     0
176
     1
 90
        1
176
     1
 40
0.0
176
     1
 90
        0
176
     1
290
     0
176
     1
290
     1
176
     1
290
     1
176
     1
290
     0
176
     1
290
     0
176
     1
290
     0
176
     1
290
     0
176
     1
290
     0
176
     1
290
     0
176
     1
 90
       50
176
     1
 40
0.0
176
     1
 40
1.0
176
     1
 90
        0
176
     1
 62
    18
420
        0
176
     1
 90
       50
176
     1
 90
        3
176
     1
 62
     5
420
      255
176
     1
290
     0
176
     1
 90
       50
176
     1
 90
       50
176
     1
 90
       50
176
     1
290
     0
176
     1
 90
       50
176
     1
 62
   256
176
     0
 40
1.0
176
     0
 90
        2
176
     1
  1
strokes_ogs.tif
176
     1
290
     0
176
     1
 40
1.0
176
     1
 40
1.0
176
     1
  0
VISUALSTYLE
  5
40
102
{ACAD_REACTORS
330
2A
102
}
330
2A
100
AcDbVisualStyle
  2
X-Ray
 70
    25
177
     3
291
     0
 70
    58
 90
        2
176
     1
 90
        2
176
     1
 90
        1
176
     1
 90
        1
176
     1
 40
0.5
176
     1
 40
30.0
176
     1
 62
     7
420
 16777215
176
     1
 90
        1
176
     1
 90
        0
176
     1
 62
     7
176
     1
 62
   257
176
     1
 90
        1
176
     1
 90
        1
176
     1
 40
1.0
176
     1
 90
        8
176
     1
 62
     7
176
     1
 40
1.0
176
     1
 90
        1
176
     1
 90
        6
176
     1
 90
        2
176
     1
 62
     7
176
     1
 90
        3
176
     1
 90
        0
176
     1
 90
        0
176
     1
290
     0
176
     1
 90
       13
176
     1
 40
0.0
176
     1
 90
        0
176
     1
290
     0
176
     1
290
     1
176
     1
290
     1
176
     1
290
     0
176
     1
290
     0
176
     1
290
     0
176
     1
290
     0
176
     1
290
     0
176
     1
290
     0
176
     1
 90
       50
176
     1
 40
0.0
176
     1
 40
1.0
176
     1
 90
        0
176
     1
 62
    18
420
        0
176
     1
 90
       50
176
     1
 90
        3
176
     1
 62
     5
420
      255
176
     1
290
     0
176
     1
 90
       50
176
     1
 90
       50
176
     1
 90
       50
176
     1
290
     0
176
     1
 90
       50
176
     1
 62
   256
176
     0
 40
1.0
176
     0
 90
        2
176
     1
  1
strokes_ogs.tif
176
     1
290
     0
176
     1
 40
1.0
176
     1
 40
1.0
176
     1
  0
DICTIONARYVAR
  5
1E4
102
{ACAD_REACTORS
330
1E3
102
}
330
1E3
100
DictionaryVariables
280
     0
  1
1:1
  0
DICTIONARYVAR
  5
1E9
102
{ACAD_REACTORS
330
1E3
102
}
330
1E3
100
DictionaryVariables
280
     0
  1
Standard
  0
DICTIONARYVAR
  5
1E8
102
{ACAD_REACTORS
330
1E3
102
}
330
1E3
100
DictionaryVariables
280
     0
  1
Standard
  0
DICTIONARY
  5
1E5
330
6A
100
AcDbDictionary
280
     1
281
     1
  3
ACAD_ROUNDTRIP_2008_TABLESTYLE_CELLSTYLEMAP
360
1E6
  0
CELLSTYLEMAP
  5
1E6
102
{ACAD_REACTORS
330
1E5
102
}
330
1E5
100
AcDbCellStyleMap
 90
        3
300
CELLSTYLE
  1
TABLEFORMAT_BEGIN
 90
        5
170
     1
 91
        0
 92
    32768
 62
   257
 93
        1
300
CONTENTFORMAT
  1
CONTENTFORMAT_BEGIN
 90
        0
 91
        0
 92
        4
 93
        0
300

 40
0.0
140
1.0
 94
        5
 62
     0
340
11
144
0.25
309
CONTENTFORMAT_END
171
     1
301
MARGIN
  1
CELLMARGIN_BEGIN
 40
0.06
 40
0.06
 40
0.06
 40
0.06
 40
0.06
 40
0.06
309
CELLMARGIN_END
 94
        6
 95
        1
302
GRIDFORMAT
  1
GRIDFORMAT_BEGIN
 90
        0
 91
        1
 62
     0
 92
       -2
340
14
 93
        0
 40
0.045
309
GRIDFORMAT_END
 95
        2
302
GRIDFORMAT
  1
GRIDFORMAT_BEGIN
 90
        0
 91
        1
 62
     0
 92
       -2
340
14
 93
        0
 40
0.045
309
GRIDFORMAT_END
 95
        4
302
GRIDFORMAT
  1
GRIDFORMAT_BEGIN
 90
        0
 91
        1
 62
     0
 92
       -2
340
14
 93
        0
 40
0.045
309
GRIDFORMAT_END
 95
        8
302
GRIDFORMAT
  1
GRIDFORMAT_BEGIN
 90
        0
 91
        1
 62
     0
 92
       -2
340
14
 93
        0
 40
0.045
309
GRIDFORMAT_END
 95
       16
302
GRIDFORMAT
  1
GRIDFORMAT_BEGIN
 90
        0
 91
        1
 62
     0
 92
       -2
340
14
 93
        0
 40
0.045
309
GRIDFORMAT_END
 95
       32
302
GRIDFORMAT
  1
GRIDFORMAT_BEGIN
 90
        0
 91
        1
 62
     0
 92
       -2
340
14
 93
        0
 40
0.045
309
GRIDFORMAT_END
309
TABLEFORMAT_END
  1
CELLSTYLE_BEGIN
 90
        1
 91
        1
300
_TITLE
309
CELLSTYLE_END
300
CELLSTYLE
  1
TABLEFORMAT_BEGIN
 90
        5
170
     1
 91
        0
 92
        0
 62
   257
 93
        1
300
CONTENTFORMAT
  1
CONTENTFORMAT_BEGIN
 90
        0
 91
        0
 92
        4
 93
        0
300

 40
0.0
140
1.0
 94
        5
 62
     0
340
11
144
0.18
309
CONTENTFORMAT_END
171
     1
301
MARGIN
  1
CELLMARGIN_BEGIN
 40
0.06
 40
0.06
 40
0.06
 40
0.06
 40
0.06
 40
0.06
309
CELLMARGIN_END
 94
        6
 95
        1
302
GRIDFORMAT
  1
GRIDFORMAT_BEGIN
 90
        0
 91
        1
 62
     0
 92
       -2
340
14
 93
        0
 40
0.045
309
GRIDFORMAT_END
 95
        2
302
GRIDFORMAT
  1
GRIDFORMAT_BEGIN
 90
        0
 91
        1
 62
     0
 92
       -2
340
14
 93
        0
 40
0.045
309
GRIDFORMAT_END
 95
        4
302
GRIDFORMAT
  1
GRIDFORMAT_BEGIN
 90
        0
 91
        1
 62
     0
 92
       -2
340
14
 93
        0
 40
0.045
309
GRIDFORMAT_END
 95
        8
302
GRIDFORMAT
  1
GRIDFORMAT_BEGIN
 90
        0
 91
        1
 62
     0
 92
       -2
340
14
 93
        0
 40
0.045
309
GRIDFORMAT_END
 95
       16
302
GRIDFORMAT
  1
GRIDFORMAT_BEGIN
 90
        0
 91
        1
 62
     0
 92
       -2
340
14
 93
        0
 40
0.045
309
GRIDFORMAT_END
 95
       32
302
GRIDFORMAT
  1
GRIDFORMAT_BEGIN
 90
        0
 91
        1
 62
     0
 92
       -2
340
14
 93
        0
 40
0.045
309
GRIDFORMAT_END
309
TABLEFORMAT_END
  1
CELLSTYLE_BEGIN
 90
        2
 91
        1
300
_HEADER
309
CELLSTYLE_END
300
CELLSTYLE
  1
TABLEFORMAT_BEGIN
 90
        5
170
     1
 91
        0
 92
        0
 62
   257
 93
        1
300
CONTENTFORMAT
  1
CONTENTFORMAT_BEGIN
 90
        0
 91
        0
 92
        4
 93
        0
300

 40
0.0
140
1.0
 94
        2
 62
     0
340
11
144
0.18
309
CONTENTFORMAT_END
171
     1
301
MARGIN
  1
CELLMARGIN_BEGIN
 40
0.06
 40
0.06
 40
0.06
 40
0.06
 40
0.06
 40
0.06
309
CELLMARGIN_END
 94
        6
 95
        1
302
GRIDFORMAT
  1
GRIDFORMAT_BEGIN
 90
        0
 91
        1
 62
     0
 92
       -2
340
14
 93
        0
 40
0.045
309
GRIDFORMAT_END
 95
        2
302
GRIDFORMAT
  1
GRIDFORMAT_BEGIN
 90
        0
 91
        1
 62
     0
 92
       -2
340
14
 93
        0
 40
0.045
309
GRIDFORMAT_END
 95
        4
302
GRIDFORMAT
  1
GRIDFORMAT_BEGIN
 90
        0
 91
        1
 62
     0
 92
       -2
340
14
 93
        0
 40
0.045
309
GRIDFORMAT_END
 95
        8
302
GRIDFORMAT
  1
GRIDFORMAT_BEGIN
 90
        0
 91
        1
 62
     0
 92
       -2
340
14
 93
        0
 40
0.045
309
GRIDFORMAT_END
 95
       16
302
GRIDFORMAT
  1
GRIDFORMAT_BEGIN
 90
        0
 91
        1
 62
     0
 92
       -2
340
14
 93
        0
 40
0.045
309
GRIDFORMAT_END
 95
       32
302
GRIDFORMAT
  1
GRIDFORMAT_BEGIN
 90
        0
 91
        1
 62
     0
 92
       -2
340
14
 93
        0
 40
0.045
309
GRIDFORMAT_END
309
TABLEFORMAT_END
  1
CELLSTYLE_BEGIN
 90
        3
 91
        2
300
_DATA
309
CELLSTYLE_END
  0
ENDSEC
  0
EOF