0
SECTION
  2
HEADER
  9
$ACADVER
  1
AC1027
  9
$ACADMAINTVER
 70
     8
  9
$DWGCODEPAGE
  3
ANSI_1252
  9
$REQUIREDVERSIONS
160
                 0
  9
$COMMENTS
  1
File was created by Cadenas
  9
$CUSTOMPROPERTYTAG
  1
NN
  9
$CUSTOMPROPERTY
  1
Eccentric Collar Screw Conveyor Hanger Bearing Inch Bore
  9
$CUSTOMPROPERTYTAG
  1
NT
  9
$CUSTOMPROPERTY
  1
SXR Screw Conveyor Hanger Bearings -(Normal Duty)
  9
$CUSTOMPROPERTYTAG
  1
NB
  9
$CUSTOMPROPERTY
  1
131335
  9
$CUSTOMPROPERTYTAG
  1
NBSYN
  9
$CUSTOMPROPERTY
  1
$PN.
  9
$CUSTOMPROPERTYTAG
  1
LINA
  9
$CUSTOMPROPERTY
  1
131335
  9
$CUSTOMPROPERTYTAG
  1
SERIES
  9
$CUSTOMPROPERTY
  1
212
  9
$CUSTOMPROPERTYTAG
  1
SS
  9
$CUSTOMPROPERTY
  1
2-7/16
  9
$CUSTOMPROPERTYTAG
  1
PN
  9
$CUSTOMPROPERTY
  1
131335
  9
$CUSTOMPROPERTYTAG
  1
DESCRIPTION
  9
$CUSTOMPROPERTY
  1
SCHB-SXR-207
  9
$CUSTOMPROPERTYTAG
  1
W
  9
$CUSTOMPROPERTY
  1
9.2
  9
$CUSTOMPROPERTYTAG
  1
A
  9
$CUSTOMPROPERTY
  1
2.74
  9
$CUSTOMPROPERTYTAG
  1
B
  9
$CUSTOMPROPERTY
  1
5.50
  9
$CUSTOMPROPERTYTAG
  1
C
  9
$CUSTOMPROPERTY
  1
1.16
  9
$CUSTOMPROPERTYTAG
  1
D
  9
$CUSTOMPROPERTY
  1
1.78
  9
$CUSTOMPROPERTYTAG
  1
F
  9
$CUSTOMPROPERTY
  1
11-1/2
  9
$CUSTOMPROPERTYTAG
  1
G
  9
$CUSTOMPROPERTY
  1
1.13
  9
$CUSTOMPROPERTYTAG
  1
H
  9
$CUSTOMPROPERTY
  1
1.44
  9
$CUSTOMPROPERTYTAG
  1
J
  9
$CUSTOMPROPERTY
  1
6.75
  9
$CUSTOMPROPERTYTAG
  1
K
  9
$CUSTOMPROPERTY
  1
1.50
  9
$CUSTOMPROPERTYTAG
  1
L
  9
$CUSTOMPROPERTY
  1
3.31
  9
$CUSTOMPROPERTYTAG
  1
M
  9
$CUSTOMPROPERTY
  1
4.00
  9
$CUSTOMPROPERTYTAG
  1
COMPANY
  9
$CUSTOMPROPERTY
  1
baldor
  9
$INSBASE
 10
0.0
 20
0.0
 30
0.0
  9
$EXTMIN
 10
1.000000000000000E+20
 20
1.000000000000000E+20
 30
1.000000000000000E+20
  9
$EXTMAX
 10
-1.000000000000000E+20
 20
-1.000000000000000E+20
 30
-1.000000000000000E+20
  9
$LIMMIN
 10
0.0
 20
0.0
  9
$LIMMAX
 10
12.0
 20
9.0
  9
$ORTHOMODE
 70
     0
  9
$REGENMODE
 70
     1
  9
$FILLMODE
 70
     1
  9
$QTEXTMODE
 70
     0
  9
$MIRRTEXT
 70
     1
  9
$LTSCALE
 40
1.0
  9
$ATTMODE
 70
     1
  9
$TEXTSIZE
 40
0.2
  9
$TRACEWID
 40
0.05
  9
$TEXTSTYLE
  7
Standard
  9
$CLAYER
  8
0
  9
$CELTYPE
  6
ByLayer
  9
$CECOLOR
 62
   256
  9
$CELTSCALE
 40
1.0
  9
$DISPSILH
 70
     0
  9
$DIMSCALE
 40
1.0
  9
$DIMASZ
 40
0.18
  9
$DIMEXO
 40
0.0625
  9
$DIMDLI
 40
0.38
  9
$DIMRND
 40
0.0
  9
$DIMDLE
 40
0.0
  9
$DIMEXE
 40
0.18
  9
$DIMTP
 40
0.0
  9
$DIMTM
 40
0.0
  9
$DIMTXT
 40
0.18
  9
$DIMCEN
 40
0.09
  9
$DIMTSZ
 40
0.0
  9
$DIMTOL
 70
     0
  9
$DIMLIM
 70
     0
  9
$DIMTIH
 70
     1
  9
$DIMTOH
 70
     1
  9
$DIMSE1
 70
     0
  9
$DIMSE2
 70
     0
  9
$DIMTAD
 70
     0
  9
$DIMZIN
 70
     0
  9
$DIMBLK
  1

  9
$DIMASO
 70
     1
  9
$DIMSHO
 70
     1
  9
$DIMPOST
  1

  9
$DIMAPOST
  1

  9
$DIMALT
 70
     0
  9
$DIMALTD
 70
     2
  9
$DIMALTF
 40
25.4
  9
$DIMLFAC
 40
1.0
  9
$DIMTOFL
 70
     0
  9
$DIMTVP
 40
0.0
  9
$DIMTIX
 70
     0
  9
$DIMSOXD
 70
     0
  9
$DIMSAH
 70
     0
  9
$DIMBLK1
  1

  9
$DIMBLK2
  1

  9
$DIMSTYLE
  2
Standard
  9
$DIMCLRD
 70
     0
  9
$DIMCLRE
 70
     0
  9
$DIMCLRT
 70
     0
  9
$DIMTFAC
 40
1.0
  9
$DIMGAP
 40
0.09
  9
$DIMJUST
 70
     0
  9
$DIMSD1
 70
     0
  9
$DIMSD2
 70
     0
  9
$DIMTOLJ
 70
     1
  9
$DIMTZIN
 70
     0
  9
$DIMALTZ
 70
     0
  9
$DIMALTTZ
 70
     0
  9
$DIMUPT
 70
     0
  9
$DIMDEC
 70
     4
  9
$DIMTDEC
 70
     4
  9
$DIMALTU
 70
     2
  9
$DIMALTTD
 70
     2
  9
$DIMTXSTY
  7
Standard
  9
$DIMAUNIT
 70
     0
  9
$DIMADEC
 70
     0
  9
$DIMALTRND
 40
0.0
  9
$DIMAZIN
 70
     0
  9
$DIMDSEP
 70
    46
  9
$DIMATFIT
 70
     3
  9
$DIMFRAC
 70
     0
  9
$DIMLDRBLK
  1

  9
$DIMLUNIT
 70
     2
  9
$DIMLWD
 70
    -2
  9
$DIMLWE
 70
    -2
  9
$DIMTMOVE
 70
     0
  9
$DIMFXL
 40
1.0
  9
$DIMFXLON
 70
     0
  9
$DIMJOGANG
 40
0.7853981633974483
  9
$DIMTFILL
 70
     0
  9
$DIMTFILLCLR
 70
     0
  9
$DIMARCSYM
 70
     0
  9
$DIMLTYPE
  6

  9
$DIMLTEX1
  6

  9
$DIMLTEX2
  6

  9
$DIMTXTDIRECTION
 70
     0
  9
$LUNITS
 70
     2
  9
$LUPREC
 70
     4
  9
$SKETCHINC
 40
0.1
  9
$FILLETRAD
 40
0.5
  9
$AUNITS
 70
     0
  9
$AUPREC
 70
     0
  9
$MENU
  1
.
  9
$ELEVATION
 40
0.0
  9
$PELEVATION
 40
0.0
  9
$THICKNESS
 40
0.0
  9
$LIMCHECK
 70
     0
  9
$CHAMFERA
 40
0.0
  9
$CHAMFERB
 40
0.0
  9
$CHAMFERC
 40
0.0
  9
$CHAMFERD
 40
0.0
  9
$SKPOLY
 70
     0
  9
$TDCREATE
 40
2458168.980464155
  9
$TDUCREATE
 40
2458168.938797488
  9
$TDUPDATE
 40
2458168.980464155
  9
$TDUUPDATE
 40
2458168.938797488
  9
$TDINDWG
 40
0.0000000116
  9
$TDUSRTIMER
 40
0.0000000116
  9
$USRTIMER
 70
     1
  9
$ANGBASE
 50
0.0
  9
$ANGDIR
 70
     0
  9
$PDMODE
 70
     0
  9
$PDSIZE
 40
0.0
  9
$PLINEWID
 40
0.0
  9
$SPLFRAME
 70
     0
  9
$SPLINETYPE
 70
     6
  9
$SPLINESEGS
 70
     8
  9
$HANDSEED
  5
1B8
  9
$SURFTAB1
 70
     6
  9
$SURFTAB2
 70
     6
  9
$SURFTYPE
 70
     6
  9
$SURFU
 70
     6
  9
$SURFV
 70
     6
  9
$UCSBASE
  2

  9
$UCSNAME
  2

  9
$UCSORG
 10
0.0
 20
0.0
 30
0.0
  9
$UCSXDIR
 10
1.0
 20
0.0
 30
0.0
  9
$UCSYDIR
 10
0.0
 20
1.0
 30
0.0
  9
$UCSORTHOREF
  2

  9
$UCSORTHOVIEW
 70
     0
  9
$UCSORGTOP
 10
0.0
 20
0.0
 30
0.0
  9
$UCSORGBOTTOM
 10
0.0
 20
0.0
 30
0.0
  9
$UCSORGLEFT
 10
0.0
 20
0.0
 30
0.0
  9
$UCSORGRIGHT
 10
0.0
 20
0.0
 30
0.0
  9
$UCSORGFRONT
 10
0.0
 20
0.0
 30
0.0
  9
$UCSORGBACK
 10
0.0
 20
0.0
 30
0.0
  9
$PUCSBASE
  2

  9
$PUCSNAME
  2

  9
$PUCSORG
 10
0.0
 20
0.0
 30
0.0
  9
$PUCSXDIR
 10
1.0
 20
0.0
 30
0.0
  9
$PUCSYDIR
 10
0.0
 20
1.0
 30
0.0
  9
$PUCSORTHOREF
  2

  9
$PUCSORTHOVIEW
 70
     0
  9
$PUCSORGTOP
 10
0.0
 20
0.0
 30
0.0
  9
$PUCSORGBOTTOM
 10
0.0
 20
0.0
 30
0.0
  9
$PUCSORGLEFT
 10
0.0
 20
0.0
 30
0.0
  9
$PUCSORGRIGHT
 10
0.0
 20
0.0
 30
0.0
  9
$PUCSORGFRONT
 10
0.0
 20
0.0
 30
0.0
  9
$PUCSORGBACK
 10
0.0
 20
0.0
 30
0.0
  9
$USERI1
 70
     0
  9
$USERI2
 70
     0
  9
$USERI3
 70
     0
  9
$USERI4
 70
     0
  9
$USERI5
 70
     0
  9
$USERR1
 40
0.0
  9
$USERR2
 40
0.0
  9
$USERR3
 40
0.0
  9
$USERR4
 40
0.0
  9
$USERR5
 40
0.0
  9
$WORLDVIEW
 70
     1
  9
$SHADEDGE
 70
     3
  9
$SHADEDIF
 70
    70
  9
$TILEMODE
 70
     1
  9
$MAXACTVP
 70
    64
  9
$PINSBASE
 10
0.0
 20
0.0
 30
0.0
  9
$PLIMCHECK
 70
     0
  9
$PEXTMIN
 10
1.000000000000000E+20
 20
1.000000000000000E+20
 30
1.000000000000000E+20
  9
$PEXTMAX
 10
-1.000000000000000E+20
 20
-1.000000000000000E+20
 30
-1.000000000000000E+20
  9
$PLIMMIN
 10
0.0
 20
0.0
  9
$PLIMMAX
 10
12.0
 20
9.0
  9
$UNITMODE
 70
     0
  9
$VISRETAIN
 70
     1
  9
$PLINEGEN
 70
     0
  9
$PSLTSCALE
 70
     1
  9
$TREEDEPTH
 70
  3020
  9
$CMLSTYLE
  2
Standard
  9
$CMLJUST
 70
     0
  9
$CMLSCALE
 40
1.0
  9
$PROXYGRAPHICS
 70
     1
  9
$MEASUREMENT
 70
     0
  9
$CELWEIGHT
370
    -1
  9
$ENDCAPS
280
     0
  9
$JOINSTYLE
280
     0
  9
$LWDISPLAY
290
     0
  9
$INSUNITS
 70
     1
  9
$HYPERLINKBASE
  1

  9
$STYLESHEET
  1

  9
$XEDIT
290
     1
  9
$CEPSNTYPE
380
     0
  9
$PSTYLEMODE
290
     1
  9
$FINGERPRINTGUID
  2
{D18F33CE-6FFA-4EEC-9754-702224D45BEF}
  9
$VERSIONGUID
  2
{FAEB1C32-E019-11D5-929B-00C0DF256EC4}
  9
$EXTNAMES
290
     1
  9
$PSVPSCALE
 40
0.0
  9
$OLESTARTUP
290
     0
  9
$SORTENTS
280
   127
  9
$INDEXCTL
280
     0
  9
$HIDETEXT
280
     1
  9
$XCLIPFRAME
280
     2
  9
$HALOGAP
280
     0
  9
$OBSCOLOR
 70
   257
  9
$OBSLTYPE
280
     0
  9
$INTERSECTIONDISPLAY
280
     0
  9
$INTERSECTIONCOLOR
 70
   257
  9
$DIMASSOC
280
     2
  9
$PROJECTNAME
  1

  9
$CAMERADISPLAY
290
     0
  9
$LENSLENGTH
 40
50.0
  9
$CAMERAHEIGHT
 40
0.0
  9
$STEPSPERSEC
 40
2.0
  9
$STEPSIZE
 40
6.0
  9
$3DDWFPREC
 40
2.0
  9
$PSOLWIDTH
 40
0.25
  9
$PSOLHEIGHT
 40
4.0
  9
$LOFTANG1
 40
1.570796326794897
  9
$LOFTANG2
 40
1.570796326794897
  9
$LOFTMAG1
 40
0.0
  9
$LOFTMAG2
 40
0.0
  9
$LOFTPARAM
 70
     7
  9
$LOFTNORMALS
280
     1
  9
$LATITUDE
 40
37.795
  9
$LONGITUDE
 40
-122.394
  9
$NORTHDIRECTION
 40
0.0
  9
$TIMEZONE
 70
 -8000
  9
$LIGHTGLYPHDISPLAY
280
     1
  9
$TILEMODELIGHTSYNCH
280
     1
  9
$CMATERIAL
347
44
  9
$SOLIDHIST
280
     0
  9
$SHOWHIST
280
     1
  9
$DWFFRAME
280
     2
  9
$DGNFRAME
280
     2
  9
$REALWORLDSCALE
290
     1
  9
$INTERFERECOLOR
 62
   256
  9
$CSHADOW
280
     0
  9
$SHADOWPLANELOCATION
 40
0.0
  0
ENDSEC
  0
SECTION
  2
CLASSES
  0
CLASS
  1
ACDBDICTIONARYWDFLT
  2
AcDbDictionaryWithDefault
  3
ObjectDBX Classes
 90
        0
 91
        4
280
     0
281
     0
  0
CLASS
  1
VISUALSTYLE
  2
AcDbVisualStyle
  3
ObjectDBX Classes
 90
     4095
 91
        4
280
     0
281
     0
  0
CLASS
  1
MATERIAL
  2
AcDbMaterial
  3
ObjectDBX Classes
 90
     1153
 91
        4
280
     0
281
     0
  0
CLASS
  1
SCALE
  2
AcDbScale
  3
ObjectDBX Classes
 90
     1153
 91
        4
280
     0
281
     0
  0
CLASS
  1
TABLESTYLE
  2
AcDbTableStyle
  3
ObjectDBX Classes
 90
     4095
 91
        4
280
     0
281
     0
  0
CLASS
  1
MLEADERSTYLE
  2
AcDbMLeaderStyle
  3
ACDB_MLEADERSTYLE_CLASS
 90
     4095
 91
        4
280
     0
281
     0
  0
CLASS
  1
SUN
  2
AcDbSun
  3
SCENEOE
 90
     1153
 91
        4
280
     0
281
     0
  0
CLASS
  1
DICTIONARYVAR
  2
AcDbDictionaryVar
  3
ObjectDBX Classes
 90
        0
 91
        4
280
     0
281
     0
  0
CLASS
  1
CELLSTYLEMAP
  2
AcDbCellStyleMap
  3
ObjectDBX Classes
 90
     1152
 91
        4
280
     0
281
     0
  0
ENDSEC
  0
SECTION
  2
TABLES
  0
TABLE
  2
VPORT
  5
8
330
0
100
AcDbSymbolTable
 70
     1
  0
VPORT
  5
29
330
8
100
AcDbSymbolTableRecord
100
AcDbViewportTableRecord
  2
*Active
 70
     0
 10
0.0
 20
0.0
 11
1.0
 21
1.0
 12
-0.129999999999999
 22
0.7250000000000001
 13
0.0
 23
0.0
 14
0.5
 24
0.5
 15
0.5
 25
0.5
 16
0.0
 26
0.0
 36
1.0
 17
0.0
 27
0.0
 37
0.0
 40
7.089
 41
0.4336690647482018
 42
50.0
 43
0.0
 44
0.0
 50
0.0
 51
0.0
 71
     0
 72
   100
 73
     1
 74
     3
 75
     0
 76
     0
 77
     0
 78
     0
281
     0
 65
     1
110
0.0
120
0.0
130
0.0
111
1.0
121
0.0
131
0.0
112
0.0
122
1.0
132
0.0
 79
     0
146
0.0
348
2F
 60
     3
 61
     5
292
     1
282
     1
141
0.0
142
0.0
 63
   250
361
6D
  0
ENDTAB
  0
TABLE
  2
LTYPE
  5
5
330
0
100
AcDbSymbolTable
 70
     3
  0
LTYPE
  5
14
330
5
100
AcDbSymbolTableRecord
100
AcDbLinetypeTableRecord
  2
ByBlock
 70
     0
  3

 72
    65
 73
     0
 40
0.0
  0
LTYPE
  5
15
330
5
100
AcDbSymbolTableRecord
100
AcDbLinetypeTableRecord
  2
ByLayer
 70
     0
  3

 72
    65
 73
     0
 40
0.0
  0
LTYPE
  5
16
330
5
100
AcDbSymbolTableRecord
100
AcDbLinetypeTableRecord
  2
Continuous
 70
     0
  3
Solid line
 72
    65
 73
     0
 40
0.0
  0
LTYPE
  5
95
330
5
100
AcDbSymbolTableRecord
100
AcDbLinetypeTableRecord
  2
Dashed
 70
     0
  3

 72
    65
 73
     2
 40
2.0
 49
1.0
 74
     0
 49
-1.0
 74
     0
  0
LTYPE
  5
130
330
5
100
AcDbSymbolTableRecord
100
AcDbLinetypeTableRecord
  2
Center
 70
     0
  3

 72
    65
 73
     4
 40
1.5
 49
0.45
 74
     0
 49
-0.5
 74
     0
 49
0.05
 74
     0
 49
-0.5
 74
     0
  0
ENDTAB
  0
TABLE
  2
LAYER
  5
2
330
0
100
AcDbSymbolTable
 70
     7
  0
LAYER
  5
10
330
2
100
AcDbSymbolTableRecord
100
AcDbLayerTableRecord
  2
0
 70
     0
 62
     7
  6
Continuous
370
    -3
390
F
347
46
348
0
  0
LAYER
  5
72
330
2
100
AcDbSymbolTableRecord
100
AcDbLayerTableRecord
  2
AM_6
 70
     0
 62
    -2
  6
Continuous
370
    35
390
F
347
46
348
0
  0
LAYER
  5
96
330
2
100
AcDbSymbolTableRecord
100
AcDbLayerTableRecord
  2
AM_9
 70
     0
 62
     6
  6
Dashed
370
    25
390
F
347
46
348
0
  0
LAYER
  5
12D
330
2
100
AcDbSymbolTableRecord
100
AcDbLayerTableRecord
  2
AM_5
 70
     0
 62
     3
  6
Continuous
370
    25
390
F
347
46
348
0
  0
LAYER
  5
131
330
2
100
AcDbSymbolTableRecord
100
AcDbLayerTableRecord
  2
AM_7
 70
     0
 62
     7
  6
Center
370
    25
390
F
347
46
348
0
  0
LAYER
  5
134
330
2
100
AcDbSymbolTableRecord
100
AcDbLayerTableRecord
  2
AM_4
 70
     0
 62
     7
  6
Continuous
370
    50
390
F
347
46
348
0
  0
LAYER
  5
1A9
330
2
100
AcDbSymbolTableRecord
100
AcDbLayerTableRecord
  2
ConnectionPoints
 70
     0
 62
     7
  6
Continuous
370
    50
390
F
347
46
348
0
  0
ENDTAB
  0
TABLE
  2
STYLE
  5
3
330
0
100
AcDbSymbolTable
 70
     1
  0
STYLE
  5
11
330
3
100
AcDbSymbolTableRecord
100
AcDbTextStyleTableRecord
  2
Standard
 70
     0
 40
0.0
 41
1.0
 50
0.0
 71
     0
 42
0.2
  3
txt
  4

  0
ENDTAB
  0
TABLE
  2
VIEW
  5
6
330
0
100
AcDbSymbolTable
 70
     0
  0
ENDTAB
  0
TABLE
  2
UCS
  5
7
330
0
100
AcDbSymbolTable
 70
     0
  0
ENDTAB
  0
TABLE
  2
APPID
  5
9
330
0
100
AcDbSymbolTable
 70
     1
  0
APPID
  5
12
330
9
100
AcDbSymbolTableRecord
100
AcDbRegAppTableRecord
  2
ACAD
 70
     0
  0
ENDTAB
  0
TABLE
  2
DIMSTYLE
  5
A
330
0
100
AcDbSymbolTable
 70
     1
100
AcDbDimStyleTable
  0
DIMSTYLE
105
27
330
A
100
AcDbSymbolTableRecord
100
AcDbDimStyleTableRecord
  2
Standard
 70
     0
178
     0
340
11
  0
ENDTAB
  0
TABLE
  2
BLOCK_RECORD
  5
1
330
0
100
AcDbSymbolTable
 70
     5
  0
BLOCK_RECORD
  5
1F
330
1
100
AcDbSymbolTableRecord
100
AcDbBlockTableRecord
  2
*Model_Space
340
22
 70
     0
280
     1
281
     0
  0
BLOCK_RECORD
  5
1B
330
1
100
AcDbSymbolTableRecord
100
AcDbBlockTableRecord
  2
*Paper_Space
340
1E
 70
     0
280
     1
281
     0
  0
BLOCK_RECORD
  5
23
330
1
100
AcDbSymbolTableRecord
100
AcDbBlockTableRecord
  2
*Paper_Space0
340
26
 70
     0
280
     1
281
     0
  0
BLOCK_RECORD
  5
6E
330
1
100
AcDbSymbolTableRecord
100
AcDbBlockTableRecord
  2
1_131335_2
340
0
102
{BLKREFS
331
6F
102
}
 70
     0
280
     1
281
     0
  0
BLOCK_RECORD
  5
89
330
1
100
AcDbSymbolTableRecord
100
AcDbBlockTableRecord
  2
2_405015E_Inch_0_in_131335_2
340
0
102
{BLKREFS
331
8A
102
}
 70
     0
280
     1
281
     0
  0
BLOCK_RECORD
  5
D9
330
1
100
AcDbSymbolTableRecord
100
AcDbBlockTableRecord
  2
3_131931_0_in_131335_2
340
0
102
{BLKREFS
331
DA
102
}
 70
     0
280
     1
281
     0
  0
BLOCK_RECORD
  5
143
330
1
100
AcDbSymbolTableRecord
100
AcDbBlockTableRecord
  2
4_131335H_0_in_131335_2
340
0
102
{BLKREFS
331
144
102
}
 70
     0
280
     1
281
     0
  0
ENDTAB
  0
ENDSEC
  0
SECTION
  2
BLOCKS
  0
BLOCK
  5
20
330
1F
100
AcDbEntity
  8
0
100
AcDbBlockBegin
  2
*Model_Space
 70
     0
 10
0.0
 20
0.0
 30
0.0
  3
*Model_Space
  1

  0
ENDBLK
  5
21
330
1F
100
AcDbEntity
  8
0
100
AcDbBlockEnd
  0
BLOCK
  5
1C
330
1B
100
AcDbEntity
 67
     1
  8
0
100
AcDbBlockBegin
  2
*Paper_Space
 70
     0
 10
0.0
 20
0.0
 30
0.0
  3
*Paper_Space
  1

  0
ENDBLK
  5
1D
330
1B
100
AcDbEntity
 67
     1
  8
0
100
AcDbBlockEnd
  0
BLOCK
  5
24
330
23
100
AcDbEntity
  8
0
100
AcDbBlockBegin
  2
*Paper_Space0
 70
     0
 10
0.0
 20
0.0
 30
0.0
  3
*Paper_Space0
  1

  0
ENDBLK
  5
25
330
23
100
AcDbEntity
  8
0
100
AcDbBlockEnd
  0
BLOCK
  5
70
330
6E
100
AcDbEntity
  8
0
100
AcDbBlockBegin
  2
1_131335_2
 70
     2
 10
0.0
 20
0.0
 30
0.0
  3
1_131335_2
  1

  0
ATTDEF
  5
73
330
6E
100
AcDbEntity
  8
AM_6
100
AcDbText
 10
6.377
 20
4.2
 30
0.0
 40
0.5
  1
Eccentric Collar Screw Conveyor Hanger Bearing Inch Bore
100
AcDbAttributeDefinition
  3

  2
NN
 70
     8
280
     0
  0
ATTDEF
  5
74
330
6E
100
AcDbEntity
  8
AM_6
100
AcDbText
 10
6.377
 20
3.7
 30
0.0
 40
0.5
  1
SXR Screw Conveyor Hanger Bearings -(Normal Duty)
100
AcDbAttributeDefinition
  3

  2
NT
 70
     8
280
     0
  0
ATTDEF
  5
75
330
6E
100
AcDbEntity
  8
AM_6
100
AcDbText
 10
6.377
 20
3.2
 30
0.0
 40
0.5
  1
131335
100
AcDbAttributeDefinition
  3

  2
NB
 70
     8
280
     0
  0
ATTDEF
  5
76
330
6E
100
AcDbEntity
  8
AM_6
100
AcDbText
 10
6.377
 20
2.7
 30
0.0
 40
0.5
  1
$PN.
100
AcDbAttributeDefinition
  3

  2
NBSYN
 70
     8
280
     0
  0
ATTDEF
  5
77
330
6E
100
AcDbEntity
  8
AM_6
100
AcDbText
 10
6.377
 20
2.2
 30
0.0
 40
0.5
  1
131335
100
AcDbAttributeDefinition
  3

  2
LINA
 70
     8
280
     0
  0
ATTDEF
  5
78
330
6E
100
AcDbEntity
  8
AM_6
100
AcDbText
 10
6.377
 20
1.7
 30
0.0
 40
0.5
  1
212
100
AcDbAttributeDefinition
  3

  2
SERIES
 70
     8
280
     0
  0
ATTDEF
  5
79
330
6E
100
AcDbEntity
  8
AM_6
100
AcDbText
 10
6.377
 20
1.2
 30
0.0
 40
0.5
  1
2-7/16
100
AcDbAttributeDefinition
  3

  2
SS
 70
     8
280
     0
  0
ATTDEF
  5
7A
330
6E
100
AcDbEntity
  8
AM_6
100
AcDbText
 10
6.377
 20
0.7000000000000002
 30
0.0
 40
0.5
  1
131335
100
AcDbAttributeDefinition
  3

  2
PN
 70
     8
280
     0
  0
ATTDEF
  5
7B
330
6E
100
AcDbEntity
  8
AM_6
100
AcDbText
 10
6.377
 20
0.2000000000000002
 30
0.0
 40
0.5
  1
SCHB-SXR-207
100
AcDbAttributeDefinition
  3

  2
DESCRIPTION
 70
     8
280
     0
  0
ATTDEF
  5
7C
330
6E
100
AcDbEntity
  8
AM_6
100
AcDbText
 10
6.377
 20
-0.2999999999999998
 30
0.0
 40
0.5
  1
9.2
100
AcDbAttributeDefinition
  3

  2
W
 70
     8
280
     0
  0
ATTDEF
  5
7D
330
6E
100
AcDbEntity
  8
AM_6
100
AcDbText
 10
6.377
 20
-0.7999999999999998
 30
0.0
 40
0.5
  1
2.74
100
AcDbAttributeDefinition
  3

  2
A
 70
     8
280
     0
  0
ATTDEF
  5
7E
330
6E
100
AcDbEntity
  8
AM_6
100
AcDbText
 10
6.377
 20
-1.3
 30
0.0
 40
0.5
  1
5.50
100
AcDbAttributeDefinition
  3

  2
B
 70
     8
280
     0
  0
ATTDEF
  5
7F
330
6E
100
AcDbEntity
  8
AM_6
100
AcDbText
 10
6.377
 20
-1.8
 30
0.0
 40
0.5
  1
1.16
100
AcDbAttributeDefinition
  3

  2
C
 70
     8
280
     0
  0
ATTDEF
  5
80
330
6E
100
AcDbEntity
  8
AM_6
100
AcDbText
 10
6.377
 20
-2.3
 30
0.0
 40
0.5
  1
1.78
100
AcDbAttributeDefinition
  3

  2
D
 70
     8
280
     0
  0
ATTDEF
  5
81
330
6E
100
AcDbEntity
  8
AM_6
100
AcDbText
 10
6.377
 20
-2.8
 30
0.0
 40
0.5
  1
11-1/2
100
AcDbAttributeDefinition
  3

  2
F
 70
     8
280
     0
  0
ATTDEF
  5
82
330
6E
100
AcDbEntity
  8
AM_6
100
AcDbText
 10
6.377
 20
-3.3
 30
0.0
 40
0.5
  1
1.13
100
AcDbAttributeDefinition
  3

  2
G
 70
     8
280
     0
  0
ATTDEF
  5
83
330
6E
100
AcDbEntity
  8
AM_6
100
AcDbText
 10
6.377
 20
-3.8
 30
0.0
 40
0.5
  1
1.44
100
AcDbAttributeDefinition
  3

  2
H
 70
     8
280
     0
  0
ATTDEF
  5
84
330
6E
100
AcDbEntity
  8
AM_6
100
AcDbText
 10
6.377
 20
-4.3
 30
0.0
 40
0.5
  1
6.75
100
AcDbAttributeDefinition
  3

  2
J
 70
     8
280
     0
  0
ATTDEF
  5
85
330
6E
100
AcDbEntity
  8
AM_6
100
AcDbText
 10
6.377
 20
-4.8
 30
0.0
 40
0.5
  1
1.50
100
AcDbAttributeDefinition
  3

  2
K
 70
     8
280
     0
  0
ATTDEF
  5
86
330
6E
100
AcDbEntity
  8
AM_6
100
AcDbText
 10
6.377
 20
-5.3
 30
0.0
 40
0.5
  1
3.31
100
AcDbAttributeDefinition
  3

  2
L
 70
     8
280
     0
  0
ATTDEF
  5
87
330
6E
100
AcDbEntity
  8
AM_6
100
AcDbText
 10
6.377
 20
-5.8
 30
0.0
 40
0.5
  1
4.00
100
AcDbAttributeDefinition
  3

  2
M
 70
     8
280
     0
  0
ATTDEF
  5
88
330
6E
100
AcDbEntity
  8
AM_6
100
AcDbText
 10
6.377
 20
-6.3
 30
0.0
 40
0.5
  1
baldor
100
AcDbAttributeDefinition
  3

  2
COMPANY
 70
     8
280
     0
  0
INSERT
  5
8A
330
6E
100
AcDbEntity
  8
0
100
AcDbBlockReference
  2
2_405015E_Inch_0_in_131335_2
 10
0.0
 20
0.0
 30
0.0
  0
INSERT
  5
DA
330
6E
100
AcDbEntity
  8
0
100
AcDbBlockReference
  2
3_131931_0_in_131335_2
 10
0.0
 20
0.0
 30
0.0
  0
INSERT
  5
144
330
6E
100
AcDbEntity
  8
0
100
AcDbBlockReference
  2
4_131335H_0_in_131335_2
 10
0.0
 20
0.0
 30
0.0
  0
ENDBLK
  5
71
330
6E
100
AcDbEntity
  8
0
100
AcDbBlockEnd
  0
BLOCK
  5
8B
330
89
100
AcDbEntity
  8
0
100
AcDbBlockBegin
  2
2_405015E_Inch_0_in_131335_2
 70
     2
 10
0.0
 20
0.0
 30
0.0
  3
2_405015E_Inch_0_in_131335_2
  1

  0
ATTDEF
  5
8D
330
89
100
AcDbEntity
  8
AM_6
100
AcDbText
 10
5.21875
 20
2.529800305358217
 30
0.0
 40
0.5
  1
405015E -Inch
100
AcDbAttributeDefinition
  3

  2
NN
 70
     8
280
     0
  0
ATTDEF
  5
8E
330
89
100
AcDbEntity
  8
AM_6
100
AcDbText
 10
5.21875
 20
2.029800305358217
 30
0.0
 40
0.5
  1
Grease Fitting
100
AcDbAttributeDefinition
  3

  2
NT
 70
     8
280
     0
  0
ATTDEF
  5
8F
330
89
100
AcDbEntity
  8
AM_6
100
AcDbText
 10
5.21875
 20
1.529800305358217
 30
0.0
 40
0.5
  1
405015E-Inch
100
AcDbAttributeDefinition
  3

  2
NB
 70
     8
280
     0
  0
ATTDEF
  5
90
330
89
100
AcDbEntity
  8
AM_6
100
AcDbText
 10
5.21875
 20
1.029800305358217
 30
0.0
 40
0.5
  1
$MN.-Inch
100
AcDbAttributeDefinition
  3

  2
NBSYN
 70
     8
280
     0
  0
ATTDEF
  5
91
330
89
100
AcDbEntity
  8
AM_6
100
AcDbText
 10
5.21875
 20
0.5298003053582168
 30
0.0
 40
0.5
  1
405015E
100
AcDbAttributeDefinition
  3

  2
LINA
 70
     8
280
     0
  0
ATTDEF
  5
92
330
89
100
AcDbEntity
  8
AM_6
100
AcDbText
 10
5.21875
 20
0.0298003053582168
 30
0.0
 40
0.5
  1
405015E
100
AcDbAttributeDefinition
  3

  2
MN
 70
     8
280
     0
  0
ATTDEF
  5
93
330
89
100
AcDbEntity
  8
AM_6
100
AcDbText
 10
5.21875
 20
-0.4701996946417832
 30
0.0
 40
0.5
  1
1/8 x 27PTF
100
AcDbAttributeDefinition
  3

  2
T
 70
     8
280
     0
  0
ATTDEF
  5
94
330
89
100
AcDbEntity
  8
AM_6
100
AcDbText
 10
5.21875
 20
-0.9701996946417832
 30
0.0
 40
0.5
  1
baldor
100
AcDbAttributeDefinition
  3

  2
COMPANY
 70
     8
280
     0
  0
LWPOLYLINE
  5
97
330
89
100
AcDbEntity
  8
AM_9
100
AcDbPolyline
 90
        3
 70
     0
 43
0.0
 10
0.1093749999999998
 20
2.128785229488497
 10
0.0546874999999998
 20
2.104766775320694
 10
-0.0000000000000001
 20
2.077721311484451
  0
LWPOLYLINE
  5
98
330
89
100
AcDbEntity
  8
AM_9
100
AcDbPolyline
 90
        3
 70
     0
 43
0.0
 10
-0.0000000000000001
 20
2.077721311484451
 10
-0.0544416102741497
 20
2.104651440078313
 10
-0.1093750000000001
 20
2.128785229488497
  0
LWPOLYLINE
  5
99
330
89
100
AcDbEntity
  8
AM_9
100
AcDbPolyline
 90
        3
 70
     0
 43
0.0
 10
-0.0000000000000001
 20
2.019834155834918
 10
0.0544416102741494
 20
2.037355415890099
 10
0.1093749999999998
 20
2.058074551369842
  0
LWPOLYLINE
  5
9A
330
89
100
AcDbEntity
  8
AM_9
100
AcDbPolyline
 90
        3
 70
     0
 43
0.0
 10
-0.0997161483197961
 20
2.054185176986757
 10
-0.0546875000000002
 20
2.037440848768159
 10
-0.0000000000000001
 20
2.019834155834918
  0
LINE
  5
9B
330
89
100
AcDbEntity
  8
AM_9
100
AcDbLine
 10
-0.1093750000000001
 20
2.058074551369842
 30
0.0
 11
-0.0997161483197961
 21
2.054185176986757
 31
0.0
  0
ELLIPSE
  5
9C
330
89
100
AcDbEntity
  8
AM_9
100
AcDbEllipse
 10
-0.0000000000000005
 20
2.457196064623253
 30
0.0
 11
0.102677901933188
 21
1.530019967752516E-9
 31
0.0
210
0.0
220
0.0
230
1.0
 40
0.7071067811865429
 41
2.725678582133805
 42
7.853981623437767
  0
LINE
  5
9D
330
89
100
AcDbEntity
  8
AM_9
100
AcDbLine
 10
-0.0939243440009288
 20
2.486530081987027
 30
0.0
 11
-0.1234908992236336
 21
2.439195629477137
 31
0.0
  0
LINE
  5
9E
330
89
100
AcDbEntity
  8
AM_9
100
AcDbLine
 10
0.1234908992236333
 20
2.439195629477137
 30
0.0
 11
0.0939243440009285
 21
2.486530081987027
 31
0.0
  0
ELLIPSE
  5
9F
330
89
100
AcDbEntity
  8
AM_9
100
AcDbEllipse
 10
0.0000000000000002
 20
2.457196064623253
 30
0.0
 11
0.102677901933188
 21
0.0
 31
0.0
210
0.0
220
0.0
230
1.0
 40
0.7071067811865429
 41
1.570796326794897
 42
2.72567860148725
  0
ELLIPSE
  5
A0
330
89
100
AcDbEntity
  8
AM_9
100
AcDbEllipse
 10
0.0000000000000005
 20
2.400627522128328
 30
0.0
 11
0.1349999999999993
 21
0.0
 31
0.0
210
0.0
220
0.0
230
1.0
 40
0.7071067811865449
 41
3.665191429188081
 42
7.413836661673871
  0
ELLIPSE
  5
A1
330
89
100
AcDbEntity
  8
AM_9
100
AcDbEllipse
 10
-0.0000000000000003
 20
2.40062752212833
 30
0.0
 11
0.1349999999999998
 21
0.0
 31
0.0
210
0.0
220
0.0
230
1.0
 40
0.7071067811865426
 41
1.570796326794897
 42
2.725678601487253
  0
LWPOLYLINE
  5
A2
330
89
100
AcDbEntity
  8
AM_9
100
AcDbPolyline
 90
        3
 70
     0
 43
0.0
 10
-0.1093750000000001
 20
2.128785229488497
 10
-0.1640625000000001
 20
2.14941893209018
 10
-0.2187500000000001
 20
2.167025625023421
  0
LINE
  5
A3
330
89
100
AcDbEntity
  8
AM_9
100
AcDbLine
 10
-0.0000000000000001
 20
2.077721311484451
 30
0.0
 11
-0.0000000000000001
 21
2.019834155834918
 31
0.0
  0
LWPOLYLINE
  5
A4
330
89
100
AcDbEntity
  8
AM_9
100
AcDbPolyline
 90
        3
 70
     0
 43
0.0
 10
0.2187499999999999
 20
2.167025625023421
 10
0.1643083897258502
 20
2.14950436496824
 10
0.1093749999999998
 20
2.128785229488497
  0
ELLIPSE
  5
A5
330
89
100
AcDbEntity
  8
AM_9
100
AcDbEllipse
 10
-0.0000000000000013
 20
2.400627522128323
 30
0.0
 11
0.1350000000000079
 21
0.0
 31
0.0
210
0.0
220
0.0
230
1.0
 40
0.7071067811865459
 41
1.13065135449429
 42
1.570796326794897
  0
LINE
  5
A6
330
89
100
AcDbEntity
  8
AM_9
100
AcDbLine
 10
0.0909326673973659
 20
2.321078009244842
 30
0.0
 11
0.1169134295108991
 21
2.352897814398237
 31
0.0
  0
LINE
  5
A7
330
89
100
AcDbEntity
  8
AM_9
100
AcDbLine
 10
-0.1169134295108994
 20
2.352897814398237
 30
0.0
 11
-0.0909326673973662
 21
2.321078009244842
 31
0.0
  0
ELLIPSE
  5
A8
330
89
100
AcDbEntity
  8
AM_9
100
AcDbEllipse
 10
-0.0000000000000008
 20
2.400627522128328
 30
0.0
 11
0.1349999999999994
 21
0.0
 31
0.0
210
0.0
220
0.0
230
1.0
 40
0.7071067811865448
 41
2.725678601487235
 42
3.665191429188086
  0
ELLIPSE
  5
A9
330
89
100
AcDbEntity
  8
AM_9
100
AcDbEllipse
 10
-0.0000000000000001
 20
2.358201115257135
 30
0.0
 11
0.1049999999999996
 21
0.0
 31
0.0
210
0.0
220
0.0
230
1.0
 40
0.7071067811865477
 41
3.665191429188088
 42
6.283185307179586
  0
ELLIPSE
  5
AA
330
89
100
AcDbEntity
  8
AM_9
100
AcDbEllipse
 10
0.000000000000001
 20
2.358201115257139
 30
0.0
 11
0.1050000000000013
 21
1.564621925354023E-9
 31
0.0
210
0.0
220
0.0
230
1.0
 40
0.7071067811865577
 41
3.141592638688632
 42
3.665191410748877
  0
ELLIPSE
  5
AB
330
89
100
AcDbEntity
  8
AM_9
100
AcDbEllipse
 10
-0.0000000000000002
 20
2.358201115257136
 30
0.0
 11
0.105
 21
0.0
 31
0.0
210
0.0
220
0.0
230
1.0
 40
0.7071067811865492
 41
0.0
 42
3.141592653589793
  0
LINE
  5
AC
330
89
100
AcDbEntity
  8
AM_9
100
AcDbLine
 10
0.1049999999999999
 20
2.336987911821539
 30
0.0
 11
0.1049999999999999
 21
2.358201115257136
 31
0.0
  0
LINE
  5
AD
330
89
100
AcDbEntity
  8
AM_9
100
AcDbLine
 10
-0.1050000000000002
 20
2.358201115257136
 30
0.0
 11
-0.1050000000000002
 21
2.336987911821539
 31
0.0
  0
ELLIPSE
  5
AE
330
89
100
AcDbEntity
  8
AM_9
100
AcDbEllipse
 10
-0.0000000000000021
 20
2.336987911821544
 30
0.0
 11
0.104999999999998
 21
1.564621925353975E-9
 31
0.0
210
0.0
220
0.0
230
1.0
 40
0.7071067811865415
 41
2.698681590378093
 42
3.141592638688632
  0
ELLIPSE
  5
AF
330
89
100
AcDbEntity
  8
AM_9
100
AcDbEllipse
 10
-0.0000000000000007
 20
2.33698791182154
 30
0.0
 11
0.1050000000000009
 21
0.0
 31
0.0
210
0.0
220
0.0
230
1.0
 40
0.7071067811865351
 41
3.141592653589793
 42
7.853981633974483
  0
LINE
  5
B0
330
89
100
AcDbEntity
  8
AM_9
100
AcDbLine
 10
-0.0948683298050516
 20
2.368807716974934
 30
0.0
 11
-0.1073548910028991
 21
2.350193850545868
 31
0.0
  0
LINE
  5
B1
330
89
100
AcDbEntity
  8
AM_9
100
AcDbLine
 10
0.1073548910028988
 20
2.350193850545868
 30
0.0
 11
0.0948683298050513
 21
2.368807716974934
 31
0.0
  0
ELLIPSE
  5
B2
330
89
100
AcDbEntity
  8
AM_9
100
AcDbEllipse
 10
0.0000000000000004
 20
2.33698791182154
 30
0.0
 11
0.1050000000000006
 21
1.564621925354013E-9
 31
0.0
210
0.0
220
0.0
230
1.0
 40
0.7071067811865369
 41
1.570796316258189
 42
2.698681590378051
  0
ELLIPSE
  5
B3
330
89
100
AcDbEntity
  8
AM_9
100
AcDbEllipse
 10
0.0
 20
2.314185925445936
 30
0.0
 11
0.1188200907348977
 21
1.770557325108315E-9
 31
0.0
210
0.0
220
0.0
230
1.0
 40
0.7071067811865361
 41
1.733730584908558
 42
2.698681590378056
  0
LWPOLYLINE
  5
B4
330
89
100
AcDbEntity
  8
AM_9
100
AcDbPolyline
 90
        3
 70
     0
 43
0.0
 10
0.1185735529323322
 20
2.061878674280976
 10
0.1640624999999998
 20
2.082093005537644
 10
0.2187499999999999
 20
2.109138469373888
  0
LINE
  5
B5
330
89
100
AcDbEntity
  8
AM_9
100
AcDbLine
 10
0.1093749999999998
 20
2.058074551369842
 30
0.0
 11
0.1185735529323322
 21
2.061878674280976
 31
0.0
  0
LWPOLYLINE
  5
B6
330
89
100
AcDbEntity
  8
AM_9
100
AcDbPolyline
 90
        3
 70
     0
 43
0.0
 10
-0.2187500000000001
 20
2.109138469373888
 10
-0.1643083897258505
 20
2.082208340780026
 10
-0.1093750000000001
 20
2.058074551369842
  0
ELLIPSE
  5
B7
330
89
100
AcDbEntity
  8
AM_9
100
AcDbEllipse
 10
-0.0000000000000028
 20
2.314185925445881
 30
0.0
 11
0.1188200907349253
 21
0.0
 31
0.0
210
0.0
220
0.0
230
1.0
 40
0.7071067811868278
 41
2.698681609515728
 42
7.853981633974483
  0
LINE
  5
B8
330
89
100
AcDbEntity
  8
AM_9
100
AcDbLine
 10
-0.0192743186691524
 20
2.397091638765612
 30
0.0
 11
-0.0279874918769159
 21
2.39607879857462
 31
0.0
  0
LINE
  5
B9
330
89
100
AcDbEntity
  8
AM_9
100
AcDbLine
 10
0.0279874918769156
 20
2.39607879857462
 30
0.0
 11
0.0192743186691521
 21
2.397091638765612
 31
0.0
  0
ELLIPSE
  5
BA
330
89
100
AcDbEntity
  8
AM_9
100
AcDbEllipse
 10
0.0000000000000025
 20
2.314185925445881
 30
0.0
 11
0.1188200907349259
 21
0.0
 31
0.0
210
0.0
220
0.0
230
1.0
 40
0.7071067811868278
 41
1.570796326794897
 42
1.733730595722508
  0
ELLIPSE
  5
BB
330
89
100
AcDbEntity
  8
AM_9
100
AcDbEllipse
 10
-0.0000000000000016
 20
2.26274169979695
 30
0.0
 11
0.2187500000000013
 21
3.259629011154195E-9
 31
0.0
210
0.0
220
0.0
230
1.0
 40
0.7071067811865509
 41
3.141592638688632
 42
7.330382845205293
  0
ELLIPSE
  5
BC
330
89
100
AcDbEntity
  8
AM_9
100
AcDbEllipse
 10
-0.0000000000000889
 20
2.262741699797058
 30
0.0
 11
0.2187499999998256
 21
0.0
 31
0.0
210
0.0
220
0.0
230
1.0
 40
0.7071067811865482
 41
1.097330395810004
 42
3.141592653589793
  0
ELLIPSE
  5
BD
330
89
100
AcDbEntity
  8
AM_9
100
AcDbEllipse
 10
-0.0000000000000001
 20
2.262741699796952
 30
0.0
 11
-0.21375
 21
3.185123231361761E-9
 31
0.0
210
0.0
220
0.0
230
1.0
 40
0.7071067811865476
 41
0.0
 42
6.283185307179586
  0
ELLIPSE
  5
BE
330
89
100
AcDbEntity
  8
AM_9
100
AcDbEllipse
 10
-0.000000000000042
 20
2.262741699796893
 30
0.0
 11
0.2187500000000927
 21
0.0
 31
0.0
210
0.0
220
0.0
230
1.0
 40
0.707106781186548
 41
1.04719755119662
 42
1.09733039581068
  0
ELLIPSE
  5
BF
330
89
100
AcDbEntity
  8
AM_9
100
AcDbEllipse
 10
-0.0000000000000003
 20
2.192031021678298
 30
0.0
 11
0.2187499999999997
 21
3.259629011154171E-9
 31
0.0
210
0.0
220
0.0
230
1.0
 40
0.707106781186544
 41
2.094395089222306
 42
3.141592638688632
  0
ELLIPSE
  5
C0
330
89
100
AcDbEntity
  8
AM_9
100
AcDbEllipse
 10
-0.000000000000001
 20
2.192031021678296
 30
0.0
 11
0.2187499999999991
 21
0.0
 31
0.0
210
0.0
220
0.0
230
1.0
 40
0.707106781186544
 41
3.141592653589793
 42
4.188790204786391
  0
ELLIPSE
  5
C1
330
89
100
AcDbEntity
  8
AM_9
100
AcDbEllipse
 10
-0.0000000000004089
 20
2.192031021678475
 30
0.0
 11
0.2187499999991456
 21
0.0
 31
0.0
210
0.0
220
0.0
230
1.0
 40
0.7071067811893921
 41
4.188790204786843
 42
4.238857260551665
  0
ELLIPSE
  5
C2
330
89
100
AcDbEntity
  8
AM_9
100
AcDbEllipse
 10
-0.0000000000000001
 20
2.192031021678297
 30
0.0
 11
0.2187499999999997
 21
0.0
 31
0.0
210
0.0
220
0.0
230
1.0
 40
0.707106781186548
 41
4.238857260551111
 42
5.285505714123549
  0
ELLIPSE
  5
C3
330
89
100
AcDbEntity
  8
AM_9
100
AcDbEllipse
 10
-0.0000000000000014
 20
2.192031021678297
 30
0.0
 11
0.2187500000000012
 21
0.0
 31
0.0
210
0.0
220
0.0
230
1.0
 40
0.7071067811865471
 41
5.285505714123549
 42
7.330382858376177
  0
LINE
  5
C4
330
89
100
AcDbEntity
  8
AM_9
100
AcDbLine
 10
0.2187499999999999
 20
2.345634252101361
 30
0.0
 11
0.2187499999999999
 21
2.109138469373888
 31
0.0
  0
LWPOLYLINE
  5
C5
330
89
100
AcDbEntity
  8
AM_9
100
AcDbPolyline
 90
        3
 70
     0
 43
0.0
 10
0.1093749999999998
 20
2.396698170105407
 10
0.1640624999999998
 20
2.372679715937605
 10
0.2187499999999999
 20
2.345634252101361
  0
LINE
  5
C6
330
89
100
AcDbEntity
  8
AM_9
100
AcDbLine
 10
0.0997027620434578
 20
2.400592860185126
 30
0.0
 11
0.1093749999999998
 21
2.396698170105407
 31
0.0
  0
LWPOLYLINE
  5
C7
330
89
100
AcDbEntity
  8
AM_9
100
AcDbPolyline
 90
        3
 70
     0
 43
0.0
 10
-0.0000000000000001
 20
2.434938565640331
 10
0.0544416102741494
 20
2.41741730558515
 10
0.0997027620434578
 20
2.400592860185126
  0
LWPOLYLINE
  5
C8
330
89
100
AcDbEntity
  8
AM_9
100
AcDbPolyline
 90
        3
 70
     0
 43
0.0
 10
0.2187499999999999
 20
2.287747096451828
 10
0.1643083897258503
 20
2.305268356507009
 10
0.1093749999999998
 20
2.325987491986752
  0
ELLIPSE
  5
C9
330
89
100
AcDbEntity
  8
AM_9
100
AcDbEllipse
 10
-0.0000000000000001
 20
2.192031021678295
 30
0.0
 11
0.2187500000000002
 21
0.0
 31
0.0
210
0.0
220
0.0
230
1.0
 40
0.7071067811865545
 41
1.047197551196598
 42
2.094395102393195
  0
LWPOLYLINE
  5
CA
330
89
100
AcDbEntity
  8
AM_9
100
AcDbPolyline
 90
        3
 70
     0
 43
0.0
 10
0.1093749999999998
 20
2.325987491986752
 10
0.0546874999999999
 20
2.350005946154554
 10
-0.0000000000000001
 20
2.377051409990798
  0
LINE
  5
CB
330
89
100
AcDbEntity
  8
AM_9
100
AcDbLine
 10
-0.0000000000000001
 20
2.434938565640331
 30
0.0
 11
-0.0000000000000001
 21
2.377051409990798
 31
0.0
  0
LWPOLYLINE
  5
CC
330
89
100
AcDbEntity
  8
AM_9
100
AcDbPolyline
 90
        3
 70
     0
 43
0.0
 10
-0.1093750000000001
 20
2.396698170105407
 10
-0.0546875000000001
 20
2.41733187270709
 10
-0.0000000000000001
 20
2.434938565640331
  0
LINE
  5
CD
330
89
100
AcDbEntity
  8
AM_9
100
AcDbLine
 10
-0.1185837952588483
 20
2.392889757045306
 30
0.0
 11
-0.1093750000000001
 21
2.396698170105407
 31
0.0
  0
LWPOLYLINE
  5
CE
330
89
100
AcDbEntity
  8
AM_9
100
AcDbPolyline
 90
        3
 70
     0
 43
0.0
 10
-0.2187500000000001
 20
2.345634252101361
 10
-0.1643083897258505
 20
2.372564380695223
 10
-0.1185837952588483
 20
2.392889757045306
  0
LINE
  5
CF
330
89
100
AcDbEntity
  8
AM_9
100
AcDbLine
 10
-0.2187500000000001
 20
2.345634252101361
 30
0.0
 11
-0.2187500000000001
 21
2.109138469373888
 31
0.0
  0
LWPOLYLINE
  5
D0
330
89
100
AcDbEntity
  8
AM_9
100
AcDbPolyline
 90
        3
 70
     0
 43
0.0
 10
-0.1093750000000001
 20
2.325987491986752
 10
-0.1640625000000001
 20
2.305353789385069
 10
-0.2187500000000001
 20
2.287747096451828
  0
LWPOLYLINE
  5
D1
330
89
100
AcDbEntity
  8
AM_9
100
AcDbPolyline
 90
        3
 70
     0
 43
0.0
 10
-0.0000000000000001
 20
2.377051409990798
 10
-0.0544416102741497
 20
2.350121281396936
 10
-0.1093750000000001
 20
2.325987491986752
  0
ELLIPSE
  5
D2
330
89
100
AcDbEntity
  8
AM_9
100
AcDbEllipse
 10
-0.0000000000000004
 20
2.192031021678297
 30
0.0
 11
0.2057518972230699
 21
0.0
 31
0.0
210
0.0
220
0.0
230
1.0
 40
0.7071067811865452
 41
3.172849304556559
 42
7.853981633974483
  0
LINE
  5
D3
330
89
100
AcDbEntity
  8
AM_9
100
AcDbLine
 10
0.1985206121313387
 20
2.026219886112289
 30
0.0
 11
0.2056513978434624
 21
2.187484276912947
 31
0.0
  0
LINE
  5
D4
330
89
100
AcDbEntity
  8
AM_9
100
AcDbLine
 10
-0.2056513978434627
 20
2.187484276912947
 30
0.0
 11
-0.198520612131339
 21
2.026219886112289
 31
0.0
  0
ELLIPSE
  5
D5
330
89
100
AcDbEntity
  8
AM_9
100
AcDbEllipse
 10
0.0000000000000001
 20
2.192031021678297
 30
0.0
 11
0.2057518972230699
 21
0.0
 31
0.0
210
0.0
220
0.0
230
1.0
 40
0.7071067811865452
 41
1.570796326794897
 42
3.172849304556558
  0
ELLIPSE
  5
D6
330
89
100
AcDbEntity
  8
AM_9
100
AcDbEllipse
 10
-0.0000000000000001
 20
2.004647724663862
 30
0.0
 11
-0.161902872472269
 21
1.982738345459263E-17
 31
0.0
210
0.0
220
0.0
230
1.0
 40
0.7071067811865478
 41
0.0
 42
6.283185307179586
  0
ELLIPSE
  5
D7
330
89
100
AcDbEntity
  8
AM_9
100
AcDbEllipse
 10
0.0000000000000074
 20
2.2756946222044
 30
0.0
 11
0.172534053282918
 21
0.0
 31
0.0
210
0.0
220
0.0
230
1.0
 40
0.7071067811865476
 41
0.0
 42
6.283185307179586
  0
ELLIPSE
  5
D8
330
89
100
AcDbEntity
  8
AM_9
100
AcDbEllipse
 10
-0.0000000000000002
 20
2.030608976405316
 30
0.0
 11
0.1986176267812153
 21
0.0
 31
0.0
210
0.0
220
0.0
230
1.0
 40
0.7071067811865257
 41
0.0
 42
6.283185307179586
  0
ENDBLK
  5
8C
330
89
100
AcDbEntity
  8
0
100
AcDbBlockEnd
  0
BLOCK
  5
DB
330
D9
100
AcDbEntity
  8
0
100
AcDbBlockBegin
  2
3_131931_0_in_131335_2
 70
     2
 10
0.0
 20
0.0
 30
0.0
  3
3_131931_0_in_131335_2
  1

  0
ATTDEF
  5
DD
330
D9
100
AcDbEntity
  8
AM_6
100
AcDbText
 10
6.377
 20
2.165146763475032
 30
0.0
 40
0.5
  1
Eccentric Collar Insert Inch Bore
100
AcDbAttributeDefinition
  3

  2
NN
 70
     8
280
     0
  0
ATTDEF
  5
DE
330
D9
100
AcDbEntity
  8
AM_6
100
AcDbText
 10
6.377
 20
1.665146763475032
 30
0.0
 40
0.5
  1
SXR Normal Duty Bearing Inserts
100
AcDbAttributeDefinition
  3

  2
NT
 70
     8
280
     0
  0
ATTDEF
  5
DF
330
D9
100
AcDbEntity
  8
AM_6
100
AcDbText
 10
6.377
 20
1.165146763475032
 30
0.0
 40
0.5
  1
131931
100
AcDbAttributeDefinition
  3

  2
NB
 70
     8
280
     0
  0
ATTDEF
  5
E0
330
D9
100
AcDbEntity
  8
AM_6
100
AcDbText
 10
6.377
 20
0.6651467634750317
 30
0.0
 40
0.5
  1
$PN.
100
AcDbAttributeDefinition
  3

  2
NBSYN
 70
     8
280
     0
  0
ATTDEF
  5
E1
330
D9
100
AcDbEntity
  8
AM_6
100
AcDbText
 10
6.377
 20
0.1651467634750317
 30
0.0
 40
0.5
  1
131931
100
AcDbAttributeDefinition
  3

  2
LINA
 70
     8
280
     0
  0
ATTDEF
  5
E2
330
D9
100
AcDbEntity
  8
AM_6
100
AcDbText
 10
6.377
 20
-0.3348532365249683
 30
0.0
 40
0.5
  1
212
100
AcDbAttributeDefinition
  3

  2
SERIES
 70
     8
280
     0
  0
ATTDEF
  5
E3
330
D9
100
AcDbEntity
  8
AM_6
100
AcDbText
 10
6.377
 20
-0.8348532365249683
 30
0.0
 40
0.5
  1
2-7/16
100
AcDbAttributeDefinition
  3

  2
SS
 70
     8
280
     0
  0
ATTDEF
  5
E4
330
D9
100
AcDbEntity
  8
AM_6
100
AcDbText
 10
6.377
 20
-1.334853236524968
 30
0.0
 40
0.5
  1
131931
100
AcDbAttributeDefinition
  3

  2
PN
 70
     8
280
     0
  0
ATTDEF
  5
E5
330
D9
100
AcDbEntity
  8
AM_6
100
AcDbText
 10
6.377
 20
-1.834853236524968
 30
0.0
 40
0.5
  1
INS-SXR-207
100
AcDbAttributeDefinition
  3

  2
DESCRIPTION
 70
     8
280
     0
  0
ATTDEF
  5
E6
330
D9
100
AcDbEntity
  8
AM_6
100
AcDbText
 10
6.377
 20
-2.334853236524968
 30
0.0
 40
0.5
  1
3.5
100
AcDbAttributeDefinition
  3

  2
WEIGHT
 70
     8
280
     0
  0
ATTDEF
  5
E7
330
D9
100
AcDbEntity
  8
AM_6
100
AcDbText
 10
6.377
 20
-2.834853236524968
 30
0.0
 40
0.5
  1
2.74
100
AcDbAttributeDefinition
  3

  2
A
 70
     8
280
     0
  0
ATTDEF
  5
E8
330
D9
100
AcDbEntity
  8
AM_6
100
AcDbText
 10
6.377
 20
-3.334853236524968
 30
0.0
 40
0.5
  1
1.02
100
AcDbAttributeDefinition
  3

  2
C
 70
     8
280
     0
  0
ATTDEF
  5
E9
330
D9
100
AcDbEntity
  8
AM_6
100
AcDbText
 10
6.377
 20
-3.834853236524968
 30
0.0
 40
0.5
  1
4.3307
100
AcDbAttributeDefinition
  3

  2
D
 70
     8
280
     0
  0
ATTDEF
  5
EA
330
D9
100
AcDbEntity
  8
AM_6
100
AcDbText
 10
6.377
 20
-4.334853236524968
 30
0.0
 40
0.5
  1
0.25
100
AcDbAttributeDefinition
  3

  2
J
 70
     8
280
     0
  0
ATTDEF
  5
EB
330
D9
100
AcDbEntity
  8
AM_6
100
AcDbText
 10
6.377
 20
-4.834853236524968
 30
0.0
 40
0.5
  1
3.31
100
AcDbAttributeDefinition
  3

  2
L
 70
     8
280
     0
  0
ATTDEF
  5
EC
330
D9
100
AcDbEntity
  8
AM_6
100
AcDbText
 10
6.377
 20
-5.334853236524968
 30
0.0
 40
0.5
  1
7/16-20
100
AcDbAttributeDefinition
  3

  2
N
 70
     8
280
     0
  0
ATTDEF
  5
ED
330
D9
100
AcDbEntity
  8
AM_6
100
AcDbText
 10
6.377
 20
-5.834853236524968
 30
0.0
 40
0.5
  1
0.90
100
AcDbAttributeDefinition
  3

  2
W
 70
     8
280
     0
  0
ATTDEF
  5
EE
330
D9
100
AcDbEntity
  8
AM_6
100
AcDbText
 10
6.377
 20
-6.334853236524968
 30
0.0
 40
0.5
  1
1.84
100
AcDbAttributeDefinition
  3

  2
Y
 70
     8
280
     0
  0
ATTDEF
  5
EF
330
D9
100
AcDbEntity
  8
AM_6
100
AcDbText
 10
6.377
 20
-6.834853236524968
 30
0.0
 40
0.5
  1
2.97
100
AcDbAttributeDefinition
  3

  2
Z
 70
     8
280
     0
  0
ATTDEF
  5
F0
330
D9
100
AcDbEntity
  8
AM_6
100
AcDbText
 10
6.377
 20
-7.334853236524968
 30
0.0
 40
0.5
  1
baldor
100
AcDbAttributeDefinition
  3

  2
COMPANY
 70
     8
280
     0
  0
LINE
  5
F1
330
D9
100
AcDbEntity
  8
AM_9
100
AcDbLine
 10
-0.9700250000000004
 20
1.65082963641735
 30
0.0
 11
-0.9658546364173498
 21
1.655
 31
0.0
  0
LINE
  5
F2
330
D9
100
AcDbEntity
  8
AM_9
100
AcDbLine
 10
-1.377895363582651
 20
1.655
 30
0.0
 11
-1.373725
 21
1.65082963641735
 31
0.0
  0
LINE
  5
F3
330
D9
100
AcDbEntity
  8
AM_9
100
AcDbLine
 10
-1.007689400832966
 20
1.65082963641735
 30
0.0
 11
-0.9700250000000004
 21
1.65082963641735
 31
0.0
  0
LINE
  5
F4
330
D9
100
AcDbEntity
  8
AM_9
100
AcDbLine
 10
-0.9700250000000004
 20
1.21875
 30
0.0
 11
-0.9700250000000004
 21
1.65082963641735
 31
0.0
  0
LINE
  5
F5
330
D9
100
AcDbEntity
  8
AM_9
100
AcDbLine
 10
-1.373725
 20
1.65082963641735
 30
0.0
 11
-1.373725
 21
1.21875
 31
0.0
  0
LINE
  5
F6
330
D9
100
AcDbEntity
  8
AM_9
100
AcDbLine
 10
-1.373725
 20
1.65082963641735
 30
0.0
 11
-1.336060599167035
 21
1.65082963641735
 31
0.0
  0
LINE
  5
F7
330
D9
100
AcDbEntity
  8
AM_9
100
AcDbLine
 10
-0.8293250216637943
 20
-1.21875
 30
0.0
 11
1.2196
 21
-1.21875
 31
0.0
  0
LINE
  5
F8
330
D9
100
AcDbEntity
  8
AM_9
100
AcDbLine
 10
1.2196
 20
1.21875
 30
0.0
 11
-0.8293250216637943
 21
1.21875
 31
0.0
  0
LWPOLYLINE
  5
F9
330
D9
100
AcDbEntity
  8
AM_9
100
AcDbPolyline
 90
       20
 70
     0
 43
0.0
 10
-1.373725
 20
1.21875
 10
-1.370984282970323
 20
1.218299079276085
 10
-1.362525881875287
 20
1.21694531461353
 10
-1.349078313645316
 20
1.214911171389448
 10
-1.33027021479984
 20
1.212310679682187
 10
-1.307448793131402
 20
1.209540571202155
 10
-1.280093265865528
 20
1.206780565416489
 10
-1.250280587328469
 20
1.204473152928002
 10
-1.217279247366573
 20
1.20277582519725
 10
-1.184213245885479
 20
1.201981851906064
 10
-1.149812912234246
 20
1.202120990465013
 10
-1.117339561286727
 20
1.203155124693258
 10
-1.085498392512321
 20
1.205018281322354
 10
-1.056783057157979
 20
1.207416371972465
 10
-1.030519822655213
 20
1.210202225316982
 10
-1.008607918901111
 20
1.212956833432481
 10
-0.990762832937039
 20
1.215487456561458
 10
-0.978483367428706
 20
1.21737769962678
 10
-0.971443609262375
 20
1.218515852335545
 10
-0.9700250000007462
 20
1.218749999999876
  0
LINE
  5
FA
330
D9
100
AcDbEntity
  8
AM_9
100
AcDbLine
 10
-1.4796
 20
-1.21875
 30
0.0
 11
-0.8581749783362056
 21
-1.21875
 31
0.0
  0
LINE
  5
FB
330
D9
100
AcDbEntity
  8
AM_9
100
AcDbLine
 10
-0.8581749783362056
 20
1.21875
 30
0.0
 11
-0.9700250000000004
 21
1.21875
 31
0.0
  0
LINE
  5
FC
330
D9
100
AcDbEntity
  8
AM_9
100
AcDbLine
 10
-1.373725
 20
1.21875
 30
0.0
 11
-1.4796
 21
1.21875
 31
0.0
  0
LINE
  5
FD
330
D9
100
AcDbEntity
  8
AM_9
100
AcDbLine
 10
-0.8581749783362056
 20
-1.21875
 30
0.0
 11
-0.8437500000000004
 21
-1.233174978336206
 31
0.0
  0
LINE
  5
FE
330
D9
100
AcDbEntity
  8
AM_9
100
AcDbLine
 10
-0.8437500000000004
 20
1.233174978336206
 30
0.0
 11
-0.8581749783362056
 21
1.21875
 31
0.0
  0
LINE
  5
FF
330
D9
100
AcDbEntity
  8
AM_9
100
AcDbLine
 10
-0.8581749783362056
 20
1.21875
 30
0.0
 11
-0.8581749783362056
 21
-1.21875
 31
0.0
  0
LINE
  5
100
330
D9
100
AcDbEntity
  8
AM_9
100
AcDbLine
 10
-0.8293250216637943
 20
1.21875
 30
0.0
 11
-0.8437500000000004
 21
1.233174978336206
 31
0.0
  0
LINE
  5
101
330
D9
100
AcDbEntity
  8
AM_9
100
AcDbLine
 10
-0.8437500000000004
 20
-1.233174978336206
 30
0.0
 11
-0.8293250216637943
 21
-1.21875
 31
0.0
  0
LINE
  5
102
330
D9
100
AcDbEntity
  8
AM_9
100
AcDbLine
 10
-0.8293250216637943
 20
1.21875
 30
0.0
 11
-0.8293250216637943
 21
-1.21875
 31
0.0
  0
LINE
  5
103
330
D9
100
AcDbEntity
  8
AM_9
100
AcDbLine
 10
-0.8437500000000004
 20
1.233174978336206
 30
0.0
 11
-0.8437500000000004
 21
-1.233174978336206
 31
0.0
  0
LINE
  5
104
330
D9
100
AcDbEntity
  8
AM_9
100
AcDbLine
 10
-1.4796
 20
1.21875
 30
0.0
 11
-1.5
 21
1.23915
 31
0.0
  0
LINE
  5
105
330
D9
100
AcDbEntity
  8
AM_9
100
AcDbLine
 10
-1.5
 20
-1.23915
 30
0.0
 11
-1.4796
 21
-1.21875
 31
0.0
  0
LINE
  5
106
330
D9
100
AcDbEntity
  8
AM_9
100
AcDbLine
 10
-1.4796
 20
1.21875
 30
0.0
 11
-1.4796
 21
-1.21875
 31
0.0
  0
LINE
  5
107
330
D9
100
AcDbEntity
  8
AM_9
100
AcDbLine
 10
1.2196
 20
-1.21875
 30
0.0
 11
1.24
 21
-1.23915
 31
0.0
  0
LINE
  5
108
330
D9
100
AcDbEntity
  8
AM_9
100
AcDbLine
 10
1.24
 20
1.23915
 30
0.0
 11
1.2196
 21
1.21875
 31
0.0
  0
LINE
  5
109
330
D9
100
AcDbEntity
  8
AM_9
100
AcDbLine
 10
-0.7562500000000003
 20
-1.414285714285714
 30
0.0
 11
-0.7125
 21
-1.414285714285714
 31
0.0
  0
LINE
  5
10A
330
D9
100
AcDbEntity
  8
AM_9
100
AcDbLine
 10
-0.7125
 20
1.414285714285714
 30
0.0
 11
-0.7562500000000003
 21
1.414285714285714
 31
0.0
  0
LINE
  5
10B
330
D9
100
AcDbEntity
  8
AM_9
100
AcDbLine
 10
-0.7125
 20
-1.4646
 30
0.0
 11
-0.6921000000000002
 21
-1.485
 31
0.0
  0
LINE
  5
10C
330
D9
100
AcDbEntity
  8
AM_9
100
AcDbLine
 10
-0.6921000000000002
 20
1.485
 30
0.0
 11
-0.7125
 21
1.4646
 31
0.0
  0
LINE
  5
10D
330
D9
100
AcDbEntity
  8
AM_9
100
AcDbLine
 10
-0.7125
 20
1.4646
 30
0.0
 11
-0.7125
 21
-1.4646
 31
0.0
  0
LINE
  5
10E
330
D9
100
AcDbEntity
  8
AM_9
100
AcDbLine
 10
-0.6921000000000002
 20
-1.485
 30
0.0
 11
-0.17
 21
-1.485
 31
0.0
  0
LINE
  5
10F
330
D9
100
AcDbEntity
  8
AM_9
100
AcDbLine
 10
-0.17
 20
1.485
 30
0.0
 11
-0.6921000000000002
 21
1.485
 31
0.0
  0
LINE
  5
110
330
D9
100
AcDbEntity
  8
AM_9
100
AcDbLine
 10
-0.6921000000000002
 20
1.485
 30
0.0
 11
-0.6921000000000002
 21
-1.485
 31
0.0
  0
LINE
  5
111
330
D9
100
AcDbEntity
  8
AM_9
100
AcDbLine
 10
0.8500000000000001
 20
-1.485
 30
0.0
 11
1.16
 21
-1.485
 31
0.0
  0
LINE
  5
112
330
D9
100
AcDbEntity
  8
AM_9
100
AcDbLine
 10
1.16
 20
1.485
 30
0.0
 11
0.8500000000000001
 21
1.485
 31
0.0
  0
LINE
  5
113
330
D9
100
AcDbEntity
  8
AM_9
100
AcDbLine
 10
-0.7562500000000003
 20
1.6003125
 30
0.0
 11
-0.7562500000000003
 21
-1.6003125
 31
0.0
  0
ARC
  5
114
330
D9
100
AcDbEntity
  8
AM_9
100
AcDbCircle
 10
-0.8109375000000006
 20
-1.6003125
 30
0.0
 40
0.0546875000000004
100
AcDbArc
 50
270.0
 51
0.0
  0
ARC
  5
115
330
D9
100
AcDbEntity
  8
AM_9
100
AcDbCircle
 10
-0.8109375000000006
 20
1.6003125
 30
0.0
 40
0.0546875000000003
100
AcDbArc
 50
0.0
 51
90.0
  0
LWPOLYLINE
  5
116
330
D9
100
AcDbEntity
  8
AM_9
100
AcDbPolyline
 90
        7
 70
     0
 43
0.0
 10
-1.007689400832966
 20
1.65082963641735
 10
-1.029767992299949
 20
1.648781348093119
 10
-1.055860245043083
 20
1.646736469769135
 10
-1.085291007270125
 20
1.644928606471081
 10
-1.117187865408436
 20
1.643554763368059
 10
-1.150561347645707
 20
1.642787919191796
 10
-1.159964653203951
 20
1.6426878686655
  0
LINE
  5
117
330
D9
100
AcDbEntity
  8
AM_9
100
AcDbLine
 10
-0.89
 20
-1.655
 30
0.0
 11
-0.8109375000000006
 21
-1.655
 31
0.0
  0
LINE
  5
118
330
D9
100
AcDbEntity
  8
AM_9
100
AcDbLine
 10
-0.8109375000000006
 20
1.655
 30
0.0
 11
-0.9658546364173498
 21
1.655
 31
0.0
  0
LINE
  5
119
330
D9
100
AcDbEntity
  8
AM_9
100
AcDbLine
 10
-0.9658546364174632
 20
1.654999999999988
 30
0.0
 11
-1.007689400832966
 21
1.650829636417349
 31
0.0
  0
LINE
  5
11A
330
D9
100
AcDbEntity
  8
AM_9
100
AcDbLine
 10
-0.8109375000000006
 20
1.655
 30
0.0
 11
-0.8109375000000006
 21
-1.655
 31
0.0
  0
LINE
  5
11B
330
D9
100
AcDbEntity
  8
AM_9
100
AcDbLine
 10
0.0400000000000001
 20
-2.062238095238095
 30
0.0
 11
0.14
 21
-2.062238095238095
 31
0.0
  0
LINE
  5
11C
330
D9
100
AcDbEntity
  8
AM_9
100
AcDbLine
 10
0.14
 20
2.062238095238095
 30
0.0
 11
0.0400000000000001
 21
2.062238095238095
 31
0.0
  0
LINE
  5
11D
330
D9
100
AcDbEntity
  8
AM_9
100
AcDbLine
 10
0.8500000000000001
 20
2.072091711894047
 30
0.0
 11
0.8500000000000001
 21
-2.072091711894047
 31
0.0
  0
ARC
  5
11E
330
D9
100
AcDbEntity
  8
AM_9
100
AcDbCircle
 10
0.8091999999999999
 20
-2.072091711894046
 30
0.0
 40
0.0408000000000001
100
AcDbArc
 50
282.7587776488098
 51
0.0
  0
ARC
  5
11F
330
D9
100
AcDbEntity
  8
AM_9
100
AcDbCircle
 10
0.8091999999999999
 20
2.072091711894046
 30
0.0
 40
0.0408000000000002
100
AcDbArc
 50
0.0
 51
77.2412223511903
  0
LINE
  5
120
330
D9
100
AcDbEntity
  8
AM_9
100
AcDbLine
 10
-0.17
 20
2.072091711894046
 30
0.0
 11
-0.17
 21
-2.072091711894046
 31
0.0
  0
ARC
  5
121
330
D9
100
AcDbEntity
  8
AM_9
100
AcDbCircle
 10
-0.1291999999999992
 20
-2.072091711894046
 30
0.0
 40
0.0408000000000008
100
AcDbArc
 50
180.0
 51
257.2412274165243
  0
ARC
  5
122
330
D9
100
AcDbEntity
  8
AM_9
100
AcDbCircle
 10
-0.1291999999999992
 20
2.072091711894046
 30
0.0
 40
0.0408000000000009
100
AcDbArc
 50
102.7587725834757
 51
180.0
  0
ARC
  5
123
330
D9
100
AcDbEntity
  8
AM_9
100
AcDbCircle
 10
0.3399999999999509
 20
0.0000000000002576
 30
0.0
 40
2.165349999999738
100
AcDbArc
 50
97.9637027408641
 51
102.7587725834743
  0
ARC
  5
124
330
D9
100
AcDbEntity
  8
AM_9
100
AcDbCircle
 10
0.3400000000394021
 20
0.0000000002156826
 30
0.0
 40
2.165350000218869
100
AcDbArc
 50
257.2412274167684
 51
262.036297258893
  0
LINE
  5
125
330
D9
100
AcDbEntity
  8
AM_9
100
AcDbLine
 10
-0.1382105481160721
 20
2.111884299428008
 30
0.0
 11
-0.1382105481160721
 21
-2.111884299427813
 31
0.0
  0
LINE
  5
126
330
D9
100
AcDbEntity
  8
AM_9
100
AcDbLine
 10
0.0400000000000001
 20
2.144467444961569
 30
0.0
 11
0.0400000000000001
 21
-2.144467444961375
 31
0.0
  0
ARC
  5
127
330
D9
100
AcDbEntity
  8
AM_9
100
AcDbCircle
 10
0.3399999999999999
 20
-0.0000000000000142
 30
0.0
 40
2.165350000000014
100
AcDbArc
 50
77.24122732108387
 51
95.2996106519413
  0
ARC
  5
128
330
D9
100
AcDbEntity
  8
AM_9
100
AcDbCircle
 10
0.3400000000000331
 20
-0.0000000000004845
 30
0.0
 40
2.165349999999531
100
AcDbArc
 50
264.7003893480567
 51
282.7587726789181
  0
LINE
  5
129
330
D9
100
AcDbEntity
  8
AM_9
100
AcDbLine
 10
0.1400000000000003
 20
2.156093834344878
 30
0.0
 11
0.1400000000000003
 21
-2.156093834344889
 31
0.0
  0
LINE
  5
12A
330
D9
100
AcDbEntity
  8
AM_9
100
AcDbLine
 10
0.8182105516340064
 20
2.111884298631414
 30
0.0
 11
0.8182105516340064
 21
-2.111884298631425
 31
0.0
  0
ELLIPSE
  5
12B
330
D9
100
AcDbEntity
  8
AM_9
100
AcDbEllipse
 10
0.5905221263964278
 20
0.0
 30
0.0
 11
-2.677637664932902E-17
 21
-0.1457638053571679
 31
0.0
210
0.0
220
0.0
230
1.0
 40
0.9932540082250938
 41
2.873811129110396
 42
6.550966831659069
  0
ARC
  5
12C
330
D9
100
AcDbEntity
  8
AM_9
100
AcDbCircle
 10
0.5900000000000011
 20
0.0
 30
0.0
 40
0.1458333333333325
100
AcDbArc
 50
285.4419984056283
 51
74.55800159437649
  0
LINE
  5
12E
330
D9
100
AcDbEntity
  8
AM_5
100
AcDbLine
 10
-0.9531250000000003
 20
1.21875
 30
0.0
 11
-0.9531250000000003
 21
1.655
 31
0.0
  0
LINE
  5
12F
330
D9
100
AcDbEntity
  8
AM_5
100
AcDbLine
 10
-1.390625
 20
1.21875
 30
0.0
 11
-1.390625
 21
1.655
 31
0.0
  0
LINE
  5
132
330
D9
100
AcDbEntity
  8
AM_7
100
AcDbLine
 10
-1.637
 20
0.0
 30
0.0
 11
1.377
 21
0.0
 31
0.0
  0
LINE
  5
133
330
D9
100
AcDbEntity
  8
AM_7
100
AcDbLine
 10
-1.171875
 20
1.692530724196808
 30
0.0
 11
-1.171875
 21
1.146906793048721
 31
0.0
  0
LINE
  5
135
330
D9
100
AcDbEntity
  8
AM_4
100
AcDbLine
 10
1.24
 20
1.4646
 30
0.0
 11
1.2196
 21
1.485
 31
0.0
  0
LINE
  5
136
330
D9
100
AcDbEntity
  8
AM_4
100
AcDbLine
 10
1.2196
 20
-1.485
 30
0.0
 11
1.24
 21
-1.4646
 31
0.0
  0
LINE
  5
137
330
D9
100
AcDbEntity
  8
AM_4
100
AcDbLine
 10
1.24
 20
1.4646
 30
0.0
 11
1.24
 21
-1.4646
 31
0.0
  0
LINE
  5
138
330
D9
100
AcDbEntity
  8
AM_4
100
AcDbLine
 10
1.16
 20
-1.485
 30
0.0
 11
1.2196
 21
-1.485
 31
0.0
  0
LINE
  5
139
330
D9
100
AcDbEntity
  8
AM_4
100
AcDbLine
 10
1.2196
 20
1.485
 30
0.0
 11
1.16
 21
1.485
 31
0.0
  0
LINE
  5
13A
330
D9
100
AcDbEntity
  8
AM_4
100
AcDbLine
 10
1.2196
 20
1.485
 30
0.0
 11
1.2196
 21
-1.485
 31
0.0
  0
LINE
  5
13B
330
D9
100
AcDbEntity
  8
AM_4
100
AcDbLine
 10
-1.5
 20
1.6003125
 30
0.0
 11
-1.5
 21
-1.6003125
 31
0.0
  0
ARC
  5
13C
330
D9
100
AcDbEntity
  8
AM_4
100
AcDbCircle
 10
-1.445312499999999
 20
-1.600312499999999
 30
0.0
 40
0.0546875000000013
100
AcDbArc
 50
180.0
 51
270.0
  0
ARC
  5
13D
330
D9
100
AcDbEntity
  8
AM_4
100
AcDbCircle
 10
-1.445312499999999
 20
1.600312499999999
 30
0.0
 40
0.0546875000000013
100
AcDbArc
 50
90.0
 51
180.0
  0
LWPOLYLINE
  5
13E
330
D9
100
AcDbEntity
  8
AM_4
100
AcDbPolyline
 90
        8
 70
     0
 43
0.0
 10
-1.159964653203951
 20
1.6426878686655
 10
-1.18454267497213
 20
1.642693534256832
 10
-1.217954150286017
 20
1.643295362230288
 10
-1.250070075032715
 20
1.644504803051476
 10
-1.280004486895156
 20
1.646202407499795
 10
-1.306918770475076
 20
1.648186396450391
 10
-1.322372103885859
 20
1.649524593658752
 10
-1.336060599167035
 20
1.65082963641735
  0
LINE
  5
13F
330
D9
100
AcDbEntity
  8
AM_4
100
AcDbLine
 10
-1.336060599167035
 20
1.65082963641735
 30
0.0
 11
-1.377895363582537
 21
1.654999999999988
 31
0.0
  0
LINE
  5
140
330
D9
100
AcDbEntity
  8
AM_4
100
AcDbLine
 10
-1.4453125
 20
-1.655
 30
0.0
 11
-0.89
 21
-1.655
 31
0.0
  0
LINE
  5
141
330
D9
100
AcDbEntity
  8
AM_4
100
AcDbLine
 10
-1.377895363582651
 20
1.655
 30
0.0
 11
-1.4453125
 21
1.655
 31
0.0
  0
LINE
  5
142
330
D9
100
AcDbEntity
  8
AM_4
100
AcDbLine
 10
-1.4453125
 20
1.655
 30
0.0
 11
-1.4453125
 21
-1.655
 31
0.0
  0
ENDBLK
  5
DC
330
D9
100
AcDbEntity
  8
0
100
AcDbBlockEnd
  0
BLOCK
  5
145
330
143
100
AcDbEntity
  8
0
100
AcDbBlockBegin
  2
4_131335H_0_in_131335_2
 70
     2
 10
0.0
 20
0.0
 30
0.0
  3
4_131335H_0_in_131335_2
  1

  0
ATTDEF
  5
147
330
143
100
AcDbEntity
  8
AM_6
100
AcDbText
 10
6.16
 20
4.2
 30
0.0
 40
0.5
  1
SCHB-SXR -I-Housing
100
AcDbAttributeDefinition
  3

  2
NN
 70
     8
280
     0
  0
ATTDEF
  5
148
330
143
100
AcDbEntity
  8
AM_6
100
AcDbText
 10
6.16
 20
3.7
 30
0.0
 40
0.5
  1
SXR Screw Conveyor Hanger Bearings -(Normal Duty)
100
AcDbAttributeDefinition
  3

  2
NT
 70
     8
280
     0
  0
ATTDEF
  5
149
330
143
100
AcDbEntity
  8
AM_6
100
AcDbText
 10
6.16
 20
3.2
 30
0.0
 40
0.5
  1
131335H
100
AcDbAttributeDefinition
  3

  2
NB
 70
     8
280
     0
  0
ATTDEF
  5
14A
330
143
100
AcDbEntity
  8
AM_6
100
AcDbText
 10
6.16
 20
2.7
 30
0.0
 40
0.5
  1
$PN.H
100
AcDbAttributeDefinition
  3

  2
NBSYN
 70
     8
280
     0
  0
ATTDEF
  5
14B
330
143
100
AcDbEntity
  8
AM_6
100
AcDbText
 10
6.16
 20
2.2
 30
0.0
 40
0.5
  1
131335
100
AcDbAttributeDefinition
  3

  2
LINA
 70
     8
280
     0
  0
ATTDEF
  5
14C
330
143
100
AcDbEntity
  8
AM_6
100
AcDbText
 10
6.16
 20
1.7
 30
0.0
 40
0.5
  1
212
100
AcDbAttributeDefinition
  3

  2
SERIES
 70
     8
280
     0
  0
ATTDEF
  5
14D
330
143
100
AcDbEntity
  8
AM_6
100
AcDbText
 10
6.16
 20
1.2
 30
0.0
 40
0.5
  1
2-7/16
100
AcDbAttributeDefinition
  3

  2
SS
 70
     8
280
     0
  0
ATTDEF
  5
14E
330
143
100
AcDbEntity
  8
AM_6
100
AcDbText
 10
6.16
 20
0.7000000000000002
 30
0.0
 40
0.5
  1
131335
100
AcDbAttributeDefinition
  3

  2
PN
 70
     8
280
     0
  0
ATTDEF
  5
14F
330
143
100
AcDbEntity
  8
AM_6
100
AcDbText
 10
6.16
 20
0.2000000000000002
 30
0.0
 40
0.5
  1
SCHB-SXR-207
100
AcDbAttributeDefinition
  3

  2
DESCRIPTION
 70
     8
280
     0
  0
ATTDEF
  5
150
330
143
100
AcDbEntity
  8
AM_6
100
AcDbText
 10
6.16
 20
-0.2999999999999998
 30
0.0
 40
0.5
  1
9.2
100
AcDbAttributeDefinition
  3

  2
W
 70
     8
280
     0
  0
ATTDEF
  5
151
330
143
100
AcDbEntity
  8
AM_6
100
AcDbText
 10
6.16
 20
-0.7999999999999998
 30
0.0
 40
0.5
  1
2.74
100
AcDbAttributeDefinition
  3

  2
A
 70
     8
280
     0
  0
ATTDEF
  5
152
330
143
100
AcDbEntity
  8
AM_6
100
AcDbText
 10
6.16
 20
-1.3
 30
0.0
 40
0.5
  1
5.50
100
AcDbAttributeDefinition
  3

  2
B
 70
     8
280
     0
  0
ATTDEF
  5
153
330
143
100
AcDbEntity
  8
AM_6
100
AcDbText
 10
6.16
 20
-1.8
 30
0.0
 40
0.5
  1
1.16
100
AcDbAttributeDefinition
  3

  2
C
 70
     8
280
     0
  0
ATTDEF
  5
154
330
143
100
AcDbEntity
  8
AM_6
100
AcDbText
 10
6.16
 20
-2.3
 30
0.0
 40
0.5
  1
1.78
100
AcDbAttributeDefinition
  3

  2
D
 70
     8
280
     0
  0
ATTDEF
  5
155
330
143
100
AcDbEntity
  8
AM_6
100
AcDbText
 10
6.16
 20
-2.8
 30
0.0
 40
0.5
  1
11-1/2
100
AcDbAttributeDefinition
  3

  2
F
 70
     8
280
     0
  0
ATTDEF
  5
156
330
143
100
AcDbEntity
  8
AM_6
100
AcDbText
 10
6.16
 20
-3.3
 30
0.0
 40
0.5
  1
1.13
100
AcDbAttributeDefinition
  3

  2
G
 70
     8
280
     0
  0
ATTDEF
  5
157
330
143
100
AcDbEntity
  8
AM_6
100
AcDbText
 10
6.16
 20
-3.8
 30
0.0
 40
0.5
  1
1.44
100
AcDbAttributeDefinition
  3

  2
H
 70
     8
280
     0
  0
ATTDEF
  5
158
330
143
100
AcDbEntity
  8
AM_6
100
AcDbText
 10
6.16
 20
-4.3
 30
0.0
 40
0.5
  1
6.75
100
AcDbAttributeDefinition
  3

  2
J
 70
     8
280
     0
  0
ATTDEF
  5
159
330
143
100
AcDbEntity
  8
AM_6
100
AcDbText
 10
6.16
 20
-4.8
 30
0.0
 40
0.5
  1
1.50
100
AcDbAttributeDefinition
  3

  2
K
 70
     8
280
     0
  0
ATTDEF
  5
15A
330
143
100
AcDbEntity
  8
AM_6
100
AcDbText
 10
6.16
 20
-5.3
 30
0.0
 40
0.5
  1
3.31
100
AcDbAttributeDefinition
  3

  2
L
 70
     8
280
     0
  0
ATTDEF
  5
15B
330
143
100
AcDbEntity
  8
AM_6
100
AcDbText
 10
6.16
 20
-5.8
 30
0.0
 40
0.5
  1
4.00
100
AcDbAttributeDefinition
  3

  2
M
 70
     8
280
     0
  0
ATTDEF
  5
15C
330
143
100
AcDbEntity
  8
AM_6
100
AcDbText
 10
6.16
 20
-6.3
 30
0.0
 40
0.5
  1
6955
100
AcDbAttributeDefinition
  3

  2
CAPS
 70
     8
280
     0
  0
ATTDEF
  5
15D
330
143
100
AcDbEntity
  8
AM_6
100
AcDbText
 10
6.16
 20
-6.8
 30
0.0
 40
0.5
  1
11791
100
AcDbAttributeDefinition
  3

  2
CAPD
 70
     8
280
     0
  0
ATTDEF
  5
15E
330
143
100
AcDbEntity
  8
AM_6
100
AcDbText
 10
6.16
 20
-7.3
 30
0.0
 40
0.5
  1
baldor
100
AcDbAttributeDefinition
  3

  2
COMPANY
 70
     8
280
     0
  0
ELLIPSE
  5
15F
330
143
100
AcDbEntity
  8
AM_9
100
AcDbEllipse
 10
-0.0000000000000001
 20
2.192031021678297
 30
0.0
 11
-0.2057362423417483
 21
3.065708935746319E-9
 31
0.0
210
0.0
220
0.0
230
1.0
 40
0.7071067811865476
 41
0.0
 42
6.283185307179586
  0
LINE
  5
160
330
143
100
AcDbEntity
  8
AM_9
100
AcDbLine
 10
0.1618581488615641
 20
2.001069204416576
 30
0.0
 11
0.1689905477206472
 21
2.162370076913949
 31
0.0
  0
LINE
  5
161
330
143
100
AcDbEntity
  8
AM_9
100
AcDbLine
 10
-0.1689905477206474
 20
2.162370076913949
 30
0.0
 11
-0.1618581488615644
 21
2.001069204416576
 31
0.0
  0
ELLIPSE
  5
162
330
143
100
AcDbEntity
  8
AM_9
100
AcDbEllipse
 10
0.0000000000011871
 20
2.004647724665699
 30
0.0
 11
0.1619372470051203
 21
0.0
 31
0.0
210
0.0
220
0.0
230
1.0
 40
0.7071067811867225
 41
3.141592653589793
 42
3.17284930457235
  0
ELLIPSE
  5
163
330
143
100
AcDbEntity
  8
AM_9
100
AcDbEllipse
 10
0.0000000000000004
 20
2.004647724663862
 30
0.0
 11
0.1619372470039322
 21
0.0
 31
0.0
210
0.0
220
0.0
230
1.0
 40
0.7071067811865479
 41
4.71238898038469
 42
6.251928656212828
  0
LWPOLYLINE
  5
164
330
143
100
AcDbEntity
  8
AM_9
100
AcDbPolyline
 90
       15
 70
     0
 43
0.0
 10
0.2725526841476387
 20
2.417728031013863
 10
0.2318066265702
 20
2.439417794755569
 10
0.1882311263921175
 20
2.457435570364824
 10
0.1531196669204771
 20
2.468672951531098
 10
0.1171330550917038
 20
2.477505438807792
 10
0.0796118352205904
 20
2.484048074389514
 10
0.0416352041499147
 20
2.488065236027835
 10
0.0005573472714908
 20
2.489562693711545
 10
-0.0405241309102105
 20
2.488144355760868
 10
-0.0824567601647186
 20
2.483642588060925
 10
-0.1238130329345385
 20
2.476060818801875
 10
-0.1624254674177865
 20
2.465956519108629
 10
-0.1999497087644265
 20
2.453059044403869
 10
-0.2371660750654119
 20
2.43685101207564
 10
-0.2725526841476389
 20
2.417728031013863
  0
ELLIPSE
  5
165
330
143
100
AcDbEntity
  8
AM_9
100
AcDbEllipse
 10
-0.0000000000000001
 20
2.192031021678297
 30
0.0
 11
-0.3999999999999996
 21
4.898587196589408E-17
 31
0.0
210
0.0
220
0.0
230
1.0
 40
0.7071067811865475
 41
0.0
 42
6.283185307179586
  0
LWPOLYLINE
  5
166
330
143
100
AcDbEntity
  8
AM_9
100
AcDbPolyline
 90
       13
 70
     0
 43
0.0
 10
-0.3868341172061044
 20
2.365441386653446
 10
-0.3946850817394659
 20
2.357930959282408
 10
-0.4137613695999882
 20
2.337865456054478
 10
-0.431084442018617
 20
2.316867563750873
 10
-0.4465712467492327
 20
2.295045943919559
 10
-0.4601546785403473
 20
2.272515268102903
 10
-0.4717845316466887
 20
2.249392802476835
 10
-0.4814269931816522
 20
2.225795183817653
 10
-0.4890629067567684
 20
2.201835859199891
 10
-0.4946852692134401
 20
2.177623409011237
 10
-0.4982964636958165
 20
2.15326072560871
 10
-0.4999056258023354
 20
2.128844875511526
 10
-0.4999994870808716
 20
2.120765590189577
  0
LWPOLYLINE
  5
167
330
143
100
AcDbEntity
  8
AM_9
100
AcDbPolyline
 90
       30
 70
     0
 43
0.0
 10
0.386738013251176
 20
2.365530921450076
 10
0.3843669295500808
 20
2.367722279197386
 10
0.3632812174427716
 20
2.385838097716947
 10
0.3406914861304885
 20
2.402889545130163
 10
0.3166969094918872
 20
2.418798820758715
 10
0.2914059009411328
 20
2.433495583185171
 10
0.264933514976845
 20
2.446918067087314
 10
0.2373989871687243
 20
2.45901341353106
 10
0.208923723636441
 20
2.469737363537551
 10
0.1796329020567903
 20
2.479052665766497
 10
0.1496480581983728
 20
2.486930548032163
 10
0.1190892147892622
 20
2.493348381943882
 10
0.0880757174193249
 20
2.498288563415978
 10
0.0567262632379679
 20
2.501737927671534
 10
0.0251589817353621
 20
2.503687311047129
 10
-0.0065084748160495
 20
2.504131237614048
 10
-0.0381588470346515
 20
2.503067706302762
 10
-0.0696736623406018
 20
2.500498221274068
 10
-0.1009357273683318
 20
2.496427709811284
 10
-0.1318288227666001
 20
2.490864335963353
 10
-0.16223690177472
 20
2.483819571335421
 10
-0.1920438823733767
 20
2.475308377356137
 10
-0.2211333890914245
 20
2.465349545912567
 10
-0.2493884675403885
 20
2.453966247994686
 10
-0.2766913280819567
 20
2.441186840085593
 10
-0.3029203292498115
 20
2.427047629592714
 10
-0.3279534314526275
 20
2.411593270774969
 10
-0.3516702751105391
 20
2.394877356208802
 10
-0.3739522991006299
 20
2.376964432875678
 10
-0.3868341172061044
 20
2.365441386653446
  0
LWPOLYLINE
  5
168
330
143
100
AcDbEntity
  8
AM_9
100
AcDbPolyline
 90
       11
 70
     0
 43
0.0
 10
0.4976830652465571
 20
2.158557211816615
 10
0.4959149408735049
 20
2.170715919242039
 10
0.4909481689097941
 20
2.194645719043643
 10
0.4840610865070128
 20
2.218246692821592
 10
0.475276271528679
 20
2.241442955892122
 10
0.464617427638301
 20
2.264158621716309
 10
0.4521109845981977
 20
2.286316284225026
 10
0.437788359541013
 20
2.307835885721453
 10
0.4216885979854351
 20
2.328634246969364
 10
0.4038609589254181
 20
2.348625471700756
 10
0.386738013251176
 20
2.365530921450076
  0
LWPOLYLINE
  5
169
330
143
100
AcDbEntity
  8
AM_9
100
AcDbPolyline
 90
        4
 70
     0
 43
0.0
 10
0.4999991175093205
 20
2.120592680252661
 10
0.4999987369002903
 20
2.12219089439789
 10
0.4989391335447604
 20
2.146534819604033
 10
0.4976830652465571
 20
2.158557211816615
  0
LWPOLYLINE
  5
16A
330
143
100
AcDbEntity
  8
AM_9
100
AcDbPolyline
 90
        5
 70
     0
 43
0.0
 10
0.2725526841476391
 20
2.417728031013863
 10
0.3080498118591913
 20
2.39437892379157
 10
0.3412024944969332
 20
2.368269043417834
 10
0.3717584201278543
 20
2.339597101847878
 10
0.3866666666666665
 20
2.32360824228024
  0
LWPOLYLINE
  5
16B
330
143
100
AcDbEntity
  8
AM_9
100
AcDbPolyline
 90
        5
 70
     0
 43
0.0
 10
-0.3866666666666672
 20
2.32360824228024
 10
-0.3575669280855416
 20
2.353537824260711
 10
-0.3257458892768709
 20
2.381017458517699
 10
-0.2914457275600575
 20
2.405838008441853
 10
-0.2725526841476392
 20
2.417728031013863
  0
ELLIPSE
  5
16C
330
143
100
AcDbEntity
  8
AM_9
100
AcDbEllipse
 10
-0.0000000000001788
 20
2.121320343559635
 30
0.0
 11
0.5000000000001785
 21
0.0
 31
0.0
210
0.0
220
0.0
230
1.0
 40
0.7071067811865477
 41
0.0
 42
0.1086173839795994
  0
ELLIPSE
  5
16D
330
143
100
AcDbEntity
  8
AM_9
100
AcDbEllipse
 10
-0.0000000000000018
 20
2.121320343559641
 30
0.0
 11
0.5000000000000014
 21
0.0
 31
0.0
210
0.0
220
0.0
230
1.0
 40
0.707106781186548
 41
0.1086173839796212
 42
0.6867142763495897
  0
ELLIPSE
  5
16E
330
143
100
AcDbEntity
  8
AM_9
100
AcDbEllipse
 10
-0.0000000000000043
 20
2.121320343559644
 30
0.0
 11
0.500000000000006
 21
0.0
 31
0.0
210
0.0
220
0.0
230
1.0
 40
0.7071067811865412
 41
0.6867142763495844
 42
0.9942815344946188
  0
LWPOLYLINE
  5
16F
330
143
100
AcDbEntity
  8
AM_9
100
AcDbPolyline
 90
       22
 70
     0
 43
0.0
 10
0.3866666666666663
 20
1.739642610587666
 10
0.3575669280855407
 20
1.709713028607196
 10
0.3257458892768699
 20
1.682233394350207
 10
0.2914457275600565
 20
1.657412844426053
 10
0.2549274878767693
 20
1.635440278206714
 10
0.2164690960813141
 20
1.616482920188517
 10
0.1763632437570663
 20
1.600685047312747
 10
0.134915160656789
 20
1.588166890931005
 10
0.0924402917199123
 20
1.579023721772025
 10
0.0492618963460728
 20
1.573325124873903
 10
0.0057085881958934
 20
1.571114469999941
 10
-0.0378881657573966
 20
1.57240858156856
 10
-0.0811965678917728
 20
1.577197610609317
 10
-0.1238870151166644
 20
1.585445109719517
 10
-0.1656346073514932
 20
1.597088310450955
 10
-0.2061216202114669
 20
1.612038601015708
 10
-0.2450399230819941
 20
1.630182200675345
 10
-0.2820933241787165
 20
1.651381025681053
 10
-0.3169998247458326
 20
1.675473740174337
 10
-0.3494937652369054
 20
1.702276984050325
 10
-0.3793278471444201
 20
1.731586768438878
 10
-0.3866666666666664
 20
1.739642610587666
  0
LINE
  5
170
330
143
100
AcDbEntity
  8
AM_9
100
AcDbLine
 10
0.4999999999999997
 20
1.944495896115362
 30
0.0
 11
0.4999999999999997
 21
2.121320343559643
 31
0.0
  0
LINE
  5
171
330
143
100
AcDbEntity
  8
AM_9
100
AcDbLine
 10
-0.5
 20
2.121320343559643
 30
0.0
 11
-0.5
 21
1.944520573807077
 31
0.0
  0
ELLIPSE
  5
172
330
143
100
AcDbEntity
  8
AM_9
100
AcDbEllipse
 10
-0.0000000000000001
 20
2.121320343559643
 30
0.0
 11
0.4999999999999999
 21
0.0
 31
0.0
210
0.0
220
0.0
230
1.0
 40
0.7071067811865476
 41
2.454878377240203
 42
6.283185307179586
  0
ELLIPSE
  5
173
330
143
100
AcDbEntity
  8
AM_9
100
AcDbEllipse
 10
0.0000000000000092
 20
2.12132034355965
 30
0.0
 11
0.5000000000000129
 21
0.0
 31
0.0
210
0.0
220
0.0
230
1.0
 40
0.7071067811865261
 41
2.147311119095181
 42
2.454878377240216
  0
LWPOLYLINE
  5
174
330
143
100
AcDbEntity
  8
AM_9
100
AcDbPolyline
 90
        8
 70
     0
 43
0.0
 10
0.4999999997716974
 20
1.944554332388979
 10
0.4976668897630258
 20
1.910417914882819
 10
0.4892772627784781
 20
1.870484168214398
 10
0.4749404755296559
 20
1.830875083739106
 10
0.4547585122839815
 20
1.792082800449706
 10
0.4289923021476804
 20
1.754481624306027
 10
0.3981209293483777
 20
1.718852022935158
 10
0.3866666666666665
 20
1.707428376792565
  0
LWPOLYLINE
  5
175
330
143
100
AcDbEntity
  8
AM_9
100
AcDbPolyline
 90
        7
 70
     0
 43
0.0
 10
-0.4999999999451911
 20
1.944538413328544
 10
-0.4970809864534315
 20
1.982317117746915
 10
-0.4880527831377587
 20
2.019722489862707
 10
-0.4730546121581637
 20
2.055579667288324
 10
-0.4523772241092561
 20
2.089294089808298
 10
-0.4227099188953819
 20
2.124167938007986
 10
-0.3866666666666667
 20
2.155733828218017
  0
ELLIPSE
  5
176
330
143
100
AcDbEntity
  8
AM_9
100
AcDbEllipse
 10
-0.0000000000000006
 20
2.004647724663862
 30
0.0
 11
0.1619372470039322
 21
0.0
 31
0.0
210
0.0
220
0.0
230
1.0
 40
0.7071067811865479
 41
3.172849304556548
 42
4.71238898038469
  0
LINE
  5
177
330
143
100
AcDbEntity
  8
AM_9
100
AcDbLine
 10
0.161937247003933
 20
1.531106142364379
 30
0.0
 11
0.1619372470039329
 21
2.004647724663863
 31
0.0
  0
LINE
  5
178
330
143
100
AcDbEntity
  8
AM_9
100
AcDbLine
 10
-0.1619372470039332
 20
2.004647724663863
 30
0.0
 11
-0.1619372470039332
 21
1.531129229500815
 31
0.0
  0
ELLIPSE
  5
179
330
143
100
AcDbEntity
  8
AM_9
100
AcDbEllipse
 10
-0.0000000000000002
 20
2.004647724663863
 30
0.0
 11
0.1619372470039329
 21
2.413053020893527E-9
 31
0.0
210
0.0
220
0.0
230
1.0
 40
0.7071067811865462
 41
6.25192863514969
 42
9.424777939695955
  0
LWPOLYLINE
  5
17A
330
143
100
AcDbEntity
  8
AM_9
100
AcDbPolyline
 90
       20
 70
     0
 43
0.0
 10
0.1619372462827555
 20
1.531122861870621
 10
0.1608732747843353
 20
1.544182194602465
 10
0.1554837867649545
 20
1.562761100495447
 10
0.1457375631114489
 20
1.580240748919584
 10
0.1318374296835217
 20
1.596162351060475
 10
0.1142391952978873
 20
1.610138781463778
 10
0.0933354648708675
 20
1.621832391127495
 10
0.0697963778150764
 20
1.630968426103337
 10
0.0442524356751549
 20
1.637304495252097
 10
0.0174543338546052
 20
1.640735645605434
 10
-0.00977981467475
 20
1.641149606331723
 10
-0.0367377619540183
 20
1.638588214822024
 10
-0.0626150356965724
 20
1.633077414478
 10
-0.0867325087985763
 20
1.624775493306102
 10
-0.108421519959264
 20
1.613808932203197
 10
-0.1270617146445946
 20
1.600476518365357
 10
-0.1421077346078973
 20
1.585029354152697
 10
-0.1531441473941639
 20
1.567900463508191
 10
-0.1597914040262832
 20
1.549527550665716
 10
-0.1619372468689029
 20
1.531128992450107
  0
LWPOLYLINE
  5
17B
330
143
100
AcDbEntity
  8
AM_9
100
AcDbPolyline
 90
       11
 70
     0
 43
0.0
 10
-0.1619372468689029
 20
1.531128992450107
 10
-0.1619339679393002
 20
1.530404799610785
 10
-0.1594571935807369
 20
1.51110556073596
 10
-0.1525071255737776
 20
1.492144572226022
 10
-0.1412220848863958
 20
1.474095273509508
 10
-0.1259804036820535
 20
1.457495841961144
 10
-0.1071105193508005
 20
1.442858313935884
 10
-0.085223156807998
 20
1.430667623467755
 10
-0.0608685144203392
 20
1.42135623901882
 10
-0.0347894962317497
 20
1.41521080718592
 10
-0.0000000000000001
 20
1.412338998395994
  0
LINE
  5
17C
330
143
100
AcDbEntity
  8
AM_9
100
AcDbLine
 10
0.60565
 20
2.88935
 30
0.0
 11
0.60565
 21
3.980649999999999
 31
0.0
  0
LINE
  5
17D
330
143
100
AcDbEntity
  8
AM_9
100
AcDbLine
 10
-0.60565
 20
3.980649999999999
 30
0.0
 11
-0.60565
 21
2.88935
 31
0.0
  0
LINE
  5
17E
330
143
100
AcDbEntity
  8
AM_9
100
AcDbLine
 10
-0.60565
 20
3.980649999999999
 30
0.0
 11
0.60565
 21
3.980649999999999
 31
0.0
  0
LINE
  5
17F
330
143
100
AcDbEntity
  8
AM_9
100
AcDbLine
 10
0.60565
 20
3.980649999999999
 30
0.0
 11
0.625
 21
4.0
 31
0.0
  0
LINE
  5
180
330
143
100
AcDbEntity
  8
AM_9
100
AcDbLine
 10
-0.625
 20
4.0
 30
0.0
 11
-0.60565
 21
3.980649999999999
 31
0.0
  0
LINE
  5
181
330
143
100
AcDbEntity
  8
AM_9
100
AcDbLine
 10
-0.60565
 20
2.88935
 30
0.0
 11
0.60565
 21
2.88935
 31
0.0
  0
LINE
  5
182
330
143
100
AcDbEntity
  8
AM_9
100
AcDbLine
 10
-0.625
 20
2.87
 30
0.0
 11
0.625
 21
2.87
 31
0.0
  0
LINE
  5
183
330
143
100
AcDbEntity
  8
AM_9
100
AcDbLine
 10
-0.60565
 20
2.88935
 30
0.0
 11
-0.625
 21
2.87
 31
0.0
  0
LINE
  5
184
330
143
100
AcDbEntity
  8
AM_9
100
AcDbLine
 10
0.625
 20
2.87
 30
0.0
 11
0.60565
 21
2.88935
 31
0.0
  0
LINE
  5
185
330
143
100
AcDbEntity
  8
AM_9
100
AcDbLine
 10
-0.1449999999999995
 20
-0.8125
 30
0.0
 11
1.16
 21
-0.8125
 31
0.0
  0
LINE
  5
186
330
143
100
AcDbEntity
  8
AM_9
100
AcDbLine
 10
-0.1449999999999995
 20
0.8124999999999998
 30
0.0
 11
1.16
 21
0.8124999999999998
 31
0.0
  0
LWPOLYLINE
  5
187
330
143
100
AcDbEntity
  8
AM_9
100
AcDbPolyline
 90
       11
 70
     0
 43
0.0
 10
-0.0000000000000001
 20
1.412338998395994
 10
0.0271416292665473
 20
1.414092786477919
 10
0.0535171665532001
 20
1.419241718368675
 10
0.0783604363195889
 20
1.427657053852831
 10
0.1009995999901381
 20
1.439008978957957
 10
0.1207947766226324
 20
1.452986952380299
 10
0.1371893078247931
 20
1.469085492977111
 10
0.1496805264991734
 20
1.486839646071189
 10
0.1579467679695741
 20
1.505661716274859
 10
0.1616857795259672
 20
1.52495285645235
 10
0.1619372462827555
 20
1.531122861870621
  0
LINE
  5
188
330
143
100
AcDbEntity
  8
AM_9
100
AcDbLine
 10
-0.89
 20
-2.16535
 30
0.0
 11
1.16
 21
-2.16535
 31
0.0
  0
LINE
  5
189
330
143
100
AcDbEntity
  8
AM_9
100
AcDbLine
 10
1.16
 20
2.16535
 30
0.0
 11
-1.16
 21
2.16535
 31
0.0
  0
LINE
  5
18A
330
143
100
AcDbEntity
  8
AM_9
100
AcDbLine
 10
-0.1449999999999995
 20
-0.8125
 30
0.0
 11
-0.1449999999999995
 21
0.8124999999999998
 31
0.0
  0
LWPOLYLINE
  5
18B
330
143
100
AcDbEntity
  8
AM_9
100
AcDbPolyline
 90
        8
 70
     0
 43
0.0
 10
-0.386666666666667
 20
1.707428376792566
 10
-0.421656255360249
 20
1.745230330310637
 10
-0.449202960386933
 20
1.783129445861916
 10
-0.4711457280225011
 20
1.822653897381175
 10
-0.4870505317928148
 20
1.862956624916678
 10
-0.4965883268926675
 20
1.903123717027406
 10
-0.4999546664587508
 20
1.943172713041324
 10
-0.4999999999451911
 20
1.944538413328544
  0
LWPOLYLINE
  5
18C
330
143
100
AcDbEntity
  8
AM_9
100
AcDbPolyline
 90
        8
 70
     0
 43
0.0
 10
0.3866666666666666
 20
2.155733828218017
 10
0.4193770071187417
 20
2.127454389326353
 10
0.4470471934186906
 20
2.096374164290326
 10
0.4691607569902311
 20
2.062943304464931
 10
0.4855557994085839
 20
2.026950643574179
 10
0.495886559685934
 20
1.989037695052759
 10
0.4999427311587685
 20
1.949887246641646
 10
0.4999999997716974
 20
1.944554332388979
  0
LINE
  5
18D
330
143
100
AcDbEntity
  8
AM_9
100
AcDbLine
 10
1.16
 20
2.634
 30
0.0
 11
1.158918089668185
 21
2.634605817331716
 31
0.0
  0
LINE
  5
18E
330
143
100
AcDbEntity
  8
AM_5
100
AcDbLine
 10
0.625
 20
2.87
 30
0.0
 11
0.625
 21
4.0
 31
0.0
  0
LINE
  5
18F
330
143
100
AcDbEntity
  8
AM_5
100
AcDbLine
 10
-0.625
 20
2.87
 30
0.0
 11
-0.625
 21
4.0
 31
0.0
  0
ELLIPSE
  5
190
330
143
100
AcDbEntity
  8
AM_9
100
AcDbEllipse
 10
0.0000000000000004
 20
2.166106287298609
 30
0.0
 11
0.1690731313810728
 21
0.0
 31
0.0
210
0.0
220
0.0
230
1.0
 40
0.7071067811865479
 41
0.0
 42
6.283185307179586
  0
LINE
  5
191
330
143
100
AcDbEntity
  8
AM_7
100
AcDbLine
 10
0.0
 20
4.2
 30
0.0
 11
0.0
 21
-0.2
 31
0.0
  0
LINE
  5
192
330
143
100
AcDbEntity
  8
AM_4
100
AcDbLine
 10
0.9666666666666666
 20
4.0
 30
0.0
 11
-0.9666666666666666
 21
4.0
 31
0.0
  0
LINE
  5
193
330
143
100
AcDbEntity
  8
AM_4
100
AcDbLine
 10
-0.9666666666666666
 20
4.0
 30
0.0
 11
-1.16
 21
3.806666666666667
 31
0.0
  0
LINE
  5
194
330
143
100
AcDbEntity
  8
AM_4
100
AcDbLine
 10
1.16
 20
3.806666666666667
 30
0.0
 11
0.9666666666666666
 21
4.0
 31
0.0
  0
LINE
  5
195
330
143
100
AcDbEntity
  8
AM_4
100
AcDbLine
 10
1.16
 20
3.806666666666667
 30
0.0
 11
-1.16
 21
3.806666666666667
 31
0.0
  0
LINE
  5
196
330
143
100
AcDbEntity
  8
AM_4
100
AcDbLine
 10
-1.16
 20
3.806666666666667
 30
0.0
 11
-1.16
 21
1.606279030172414
 31
0.0
  0
LINE
  5
197
330
143
100
AcDbEntity
  8
AM_4
100
AcDbLine
 10
1.16
 20
-2.634
 30
0.0
 11
1.16
 21
3.806666666666667
 31
0.0
  0
LINE
  5
198
330
143
100
AcDbEntity
  8
AM_4
100
AcDbLine
 10
-1.019001697822994
 20
1.332844662515568
 30
0.0
 11
-1.16
 21
1.606279030172414
 31
0.0
  0
LWPOLYLINE
  5
199
330
143
100
AcDbEntity
  8
AM_4
100
AcDbPolyline
 90
        8
 70
     0
 43
0.0
 10
-1.16
 20
2.634
 10
-1.158168251872214
 20
2.635026129677488
 10
-1.152655542032814
 20
2.638127241854139
 10
-1.140284919678179
 20
2.645156597552008
 10
-1.121945772757739
 20
2.655755280580685
 10
-1.097349505421513
 20
2.670299576257173
 10
-1.06691120267056
 20
2.68881253026381
 10
-1.044
 20
2.703115979753736
  0
LINE
  5
19A
330
143
100
AcDbEntity
  8
AM_4
100
AcDbLine
 10
-0.3866666666666666
 20
1.297984770313609
 30
0.0
 11
-0.3866666666666666
 21
3.768
 31
0.0
  0
LINE
  5
19B
330
143
100
AcDbEntity
  8
AM_4
100
AcDbLine
 10
0.3866666666666669
 20
1.297984770313609
 30
0.0
 11
0.3866666666666667
 21
3.768
 31
0.0
  0
LINE
  5
19C
330
143
100
AcDbEntity
  8
AM_4
100
AcDbLine
 10
0.3622098839071072
 20
3.768
 30
0.0
 11
0.3866666666666667
 21
3.768
 31
0.0
  0
LWPOLYLINE
  5
19D
330
143
100
AcDbEntity
  8
AM_4
100
AcDbPolyline
 90
        9
 70
     0
 43
0.0
 10
0.3622098839071068
 20
3.768
 10
0.2647859374367673
 20
3.716867952820512
 10
0.1653468101004136
 20
3.681790258214232
 10
0.0646492937000621
 20
3.663033878617606
 10
-0.0365402428616576
 20
3.660741561404774
 10
-0.1374516861115983
 20
3.674930752493867
 10
-0.2373170390346325
 20
3.705493463573027
 10
-0.335376265994667
 20
3.752197093956672
 10
-0.3622098839071062
 20
3.767999999999999
  0
LINE
  5
19E
330
143
100
AcDbEntity
  8
AM_4
100
AcDbLine
 10
-0.3866666666666666
 20
3.768
 30
0.0
 11
-0.3622098839071066
 21
3.768
 31
0.0
  0
LWPOLYLINE
  5
19F
330
143
100
AcDbEntity
  8
AM_4
100
AcDbPolyline
 90
       13
 70
     0
 43
0.0
 10
0.3866666666666666
 20
2.523174807878184
 10
0.4393608536889196
 20
2.531786041494341
 10
0.4908961217945241
 20
2.541235723500066
 10
0.541659801902849
 20
2.551528403109915
 10
0.5910274751687097
 20
2.562462385363792
 10
0.6684899040097615
 20
2.581430939170224
 10
0.7415809342672087
 20
2.601315490683248
 10
0.8115971485617843
 20
2.622134953842121
 10
0.8762661916651917
 20
2.642866330077141
 10
0.92385454860964
 20
2.659023585441489
 10
0.9676060992412838
 20
2.674539504903402
 10
1.007982434001197
 20
2.689410055190366
 10
1.044
 20
2.703115979753736
  0
LINE
  5
1A0
330
143
100
AcDbEntity
  8
AM_4
100
AcDbLine
 10
-0.3866666666666666
 20
1.297984770313609
 30
0.0
 11
0.3866666666666669
 21
1.297984770313609
 31
0.0
  0
LWPOLYLINE
  5
1A1
330
143
100
AcDbEntity
  8
AM_4
100
AcDbPolyline
 90
       13
 70
     0
 43
0.0
 10
-1.044
 20
2.703115979753736
 10
-0.9974827473114045
 20
2.685491893292681
 10
-0.9440188245761064
 20
2.666096686385183
 10
-0.9035048703321589
 20
2.652021924003746
 10
-0.860001335320827
 20
2.637518127271481
 10
-0.8137078740248277
 20
2.622788688447852
 10
-0.74147980093602
 20
2.601287632492005
 10
-0.6639476773255463
 20
2.580257064368972
 10
-0.6079211523916433
 20
2.566413921930992
 10
-0.5496990528337434
 20
2.553249263777822
 10
-0.4895375793938674
 20
2.540973640484845
 10
-0.4386655243820896
 20
2.53166544235528
 10
-0.3866666666666664
 20
2.523174807878184
  0
LINE
  5
1A2
330
143
100
AcDbEntity
  8
AM_4
100
AcDbLine
 10
-1.044
 20
2.703115979753736
 30
0.0
 11
-1.043999999999999
 21
1.381323224616858
 31
0.0
  0
LWPOLYLINE
  5
1A3
330
143
100
AcDbEntity
  8
AM_4
100
AcDbPolyline
 90
        9
 70
     0
 43
0.0
 10
-0.8899999999999999
 20
0.8012033352016258
 10
-0.8919382497495355
 20
0.8681178681023138
 10
-0.8976716016409482
 20
0.9343338042062498
 10
-0.9070779596384475
 20
0.9995192691448832
 10
-0.9205192971243417
 20
1.065517351815212
 10
-0.9376204243005889
 20
1.130141177487167
 10
-0.9582140707957976
 20
1.193126139835034
 10
-0.9863690180872142
 20
1.264117079127257
 10
-1.019001697822993
 20
1.332844662515568
  0
LINE
  5
1A4
330
143
100
AcDbEntity
  8
AM_4
100
AcDbLine
 10
-0.89
 20
-2.75
 30
0.0
 11
1.044
 21
-2.75
 31
0.0
  0
LINE
  5
1A5
330
143
100
AcDbEntity
  8
AM_4
100
AcDbLine
 10
-0.89
 20
-2.75
 30
0.0
 11
-0.8899999999999999
 21
0.8012033352016257
 31
0.0
  0
LWPOLYLINE
  5
1A6
330
143
100
AcDbEntity
  8
AM_4
100
AcDbPolyline
 90
        9
 70
     0
 43
0.0
 10
1.044
 20
2.703115979753736
 10
1.07468997592187
 20
2.684027859653984
 10
1.101193546700173
 20
2.66800184074661
 10
1.123385907022009
 20
2.65491535264466
 10
1.140582737316557
 20
2.644986228805553
 10
1.148996944997309
 20
2.640196042074663
 10
1.155068276981176
 20
2.636767597503307
 10
1.158762132266879
 20
2.634693207701854
 10
1.16
 20
2.634
  0
LINE
  5
1A7
330
143
100
AcDbEntity
  8
AM_4
100
AcDbLine
 10
1.044
 20
2.703115979753736
 30
0.0
 11
1.044
 21
-2.75
 31
0.0
  0
LINE
  5
1A8
330
143
100
AcDbEntity
  8
AM_4
100
AcDbLine
 10
1.044
 20
-2.75
 30
0.0
 11
1.16
 21
-2.634
 31
0.0
  0
ENDBLK
  5
146
330
143
100
AcDbEntity
  8
0
100
AcDbBlockEnd
  0
ENDSEC
  0
SECTION
  2
ENTITIES
  0
INSERT
  5
6F
330
1F
100
AcDbEntity
  8
0
100
AcDbBlockReference
  2
1_131335_2
 10
0.0
 20
0.0
 30
0.0
  0
POINT
  5
1AA
330
1F
100
AcDbEntity
  8
ConnectionPoints
100
AcDbPoint
 10
0.3400000000000001
 20
0.0
 30
0.0
  0
POINT
  5
1AB
330
1F
100
AcDbEntity
  8
ConnectionPoints
100
AcDbPoint
 10
-1.5
 20
0.0
 30
0.0000000000000001
  0
POINT
  5
1AC
330
1F
100
AcDbEntity
  8
ConnectionPoints
100
AcDbPoint
 10
-0.0000000000000001
 20
2.192031021678297
 30
-2.192031021678297
  0
POINT
  5
1AD
330
1F
100
AcDbEntity
  8
ConnectionPoints
100
AcDbPoint
 10
-1.5
 20
0.0
 30
0.0000000000000001
  0
POINT
  5
1AE
330
1F
100
AcDbEntity
  8
ConnectionPoints
100
AcDbPoint
 10
-1.5
 20
0.0
 30
0.0000000000000001
  0
ENDSEC
  0
SECTION
  2
OBJECTS
  0
DICTIONARY
  5
C
330
0
100
AcDbDictionary
281
     1
  3
ACAD_DETAILVIEWSTYLE
350
1B6
  3
ACAD_GROUP
350
D
  3
ACAD_LAYOUT
350
1A
  3
ACAD_MATERIAL
350
43
  3
ACAD_MLEADERSTYLE
350
6B
  3
ACAD_MLINESTYLE
350
17
  3
ACAD_PLOTSETTINGS
350
19
  3
ACAD_PLOTSTYLENAME
350
E
  3
ACAD_SCALELIST
350
47
  3
ACAD_SECTIONVIEWSTYLE
350
1B7
  3
ACAD_TABLESTYLE
350
69
  3
ACAD_VISUALSTYLE
350
2A
  3
ACDB_RECOMPOSE_DATA
350
1B3
  3
AcDbVariableDictionary
350
1AF
  0
SUN
  5
6D
330
29
100
AcDbSun
 90
        1
290
     0
 63
     7
421
 16777215
 40
1.0
291
     1
 91
  2455826
 92
 54000000
292
     0
 70
     2
 71
   256
280
     1
  0
DICTIONARY
  5
1B6
102
{ACAD_REACTORS
330
C
102
}
330
C
100
AcDbDictionary
281
     1
  0
DICTIONARY
  5
D
102
{ACAD_REACTORS
330
C
102
}
330
C
100
AcDbDictionary
281
     1
  0
DICTIONARY
  5
1A
102
{ACAD_REACTORS
330
C
102
}
330
C
100
AcDbDictionary
281
     1
  3
Layout1
350
1E
  3
Layout2
350
26
  3
Model
350
22
  0
DICTIONARY
  5
43
102
{ACAD_REACTORS
330
C
102
}
330
C
100
AcDbDictionary
281
     1
  3
ByBlock
350
45
  3
ByLayer
350
44
  3
Global
350
46
  0
DICTIONARY
  5
6B
102
{ACAD_REACTORS
330
C
102
}
330
C
100
AcDbDictionary
281
     1
  3
Standard
350
6C
  0
DICTIONARY
  5
17
102
{ACAD_REACTORS
330
C
102
}
330
C
100
AcDbDictionary
281
     1
  3
Standard
350
18
  0
DICTIONARY
  5
19
102
{ACAD_REACTORS
330
C
102
}
330
C
100
AcDbDictionary
281
     1
  0
ACDBDICTIONARYWDFLT
  5
E
102
{ACAD_REACTORS
330
C
102
}
330
C
100
AcDbDictionary
281
     1
  3
Normal
350
F
100
AcDbDictionaryWithDefault
340
F
  0
DICTIONARY
  5
47
102
{ACAD_REACTORS
330
C
102
}
330
C
100
AcDbDictionary
281
     1
  3
A0
350
48
  3
A1
350
49
  3
A2
350
4A
  3
A3
350
4B
  3
A4
350
4C
  3
A5
350
4D
  3
A6
350
4E
  3
A7
350
4F
  3
A8
350
50
  3
A9
350
51
  3
B0
350
52
  3
B1
350
53
  3
B2
350
54
  3
B3
350
55
  3
B4
350
56
  3
B5
350
57
  3
B6
350
58
  3
B7
350
59
  3
B8
350
5A
  3
B9
350
5B
  3
C0
350
5C
  3
C1
350
5D
  3
C2
350
5E
  3
C3
350
5F
  3
C4
350
60
  3
C5
350
61
  3
C6
350
62
  3
C7
350
63
  3
C8
350
64
  3
C9
350
65
  3
D0
350
66
  3
D1
350
67
  3
D2
350
68
  0
DICTIONARY
  5
1B7
102
{ACAD_REACTORS
330
C
102
}
330
C
100
AcDbDictionary
281
     1
  0
DICTIONARY
  5
69
102
{ACAD_REACTORS
330
C
102
}
330
C
100
AcDbDictionary
281
     1
  3
Standard
350
6A
  0
DICTIONARY
  5
2A
102
{ACAD_REACTORS
330
C
102
}
330
C
100
AcDbDictionary
281
     1
  3
2dWireframe
350
2F
  3
Basic
350
32
  3
Brighten
350
36
  3
ColorChange
350
3A
  3
Conceptual
350
34
  3
Dim
350
35
  3
EdgeColorOff
350
3D
  3
Facepattern
350
39
  3
Flat
350
2B
  3
FlatWithEdges
350
2C
  3
Gouraud
350
2D
  3
GouraudWithEdges
350
2E
  3
Hidden
350
31
  3
JitterOff
350
3B
  3
Linepattern
350
38
  3
OverhangOff
350
3C
  3
Realistic
350
33
  3
Shaded
350
42
  3
Shaded with edges
350
41
  3
Shades of Gray
350
3E
  3
Sketchy
350
3F
  3
Thicken
350
37
  3
Wireframe
350
30
  3
X-Ray
350
40
  0
XRECORD
  5
1B3
102
{ACAD_REACTORS
330
C
102
}
330
C
100
AcDbXrecord
280
     1
 90
        1
330
6A
  0
DICTIONARY
  5
1AF
102
{ACAD_REACTORS
330
C
102
}
330
C
100
AcDbDictionary
281
     1
  3
CANNOSCALE
350
1B0
  3
CMLEADERSTYLE
350
1B5
  3
CTABLESTYLE
350
1B4
  0
LAYOUT
  5
1E
102
{ACAD_REACTORS
330
1A
102
}
330
1A
100
AcDbPlotSettings
  1

  2
none_device
  4

  6

 40
0.0
 41
0.0
 42
0.0
 43
0.0
 44
0.0
 45
0.0
 46
0.0
 47
0.0
 48
0.0
 49
0.0
140
0.0
141
0.0
142
1.0
143
1.0
 70
   688
 72
     0
 73
     0
 74
     5
  7

 75
    16
 76
     0
 77
     2
 78
   300
147
1.0
148
0.0
149
0.0
100
AcDbLayout
  1
Layout1
 70
     1
 71
     1
 10
0.0
 20
0.0
 11
12.0
 21
9.0
 12
0.0
 22
0.0
 32
0.0
 14
1.000000000000000E+20
 24
1.000000000000000E+20
 34
1.000000000000000E+20
 15
-1.000000000000000E+20
 25
-1.000000000000000E+20
 35
-1.000000000000000E+20
146
0.0
 13
0.0
 23
0.0
 33
0.0
 16
1.0
 26
0.0
 36
0.0
 17
0.0
 27
1.0
 37
0.0
 76
     0
330
1B
  0
LAYOUT
  5
26
102
{ACAD_REACTORS
330
1A
102
}
330
1A
100
AcDbPlotSettings
  1

  2
none_device
  4

  6

 40
0.0
 41
0.0
 42
0.0
 43
0.0
 44
0.0
 45
0.0
 46
0.0
 47
0.0
 48
0.0
 49
0.0
140
0.0
141
0.0
142
1.0
143
1.0
 70
   688
 72
     0
 73
     0
 74
     5
  7

 75
    16
 76
     0
 77
     2
 78
   300
147
1.0
148
0.0
149
0.0
100
AcDbLayout
  1
Layout2
 70
     1
 71
     2
 10
0.0
 20
0.0
 11
0.0
 21
0.0
 12
0.0
 22
0.0
 32
0.0
 14
0.0
 24
0.0
 34
0.0
 15
0.0
 25
0.0
 35
0.0
146
0.0
 13
0.0
 23
0.0
 33
0.0
 16
1.0
 26
0.0
 36
0.0
 17
0.0
 27
1.0
 37
0.0
 76
     0
330
23
  0
LAYOUT
  5
22
102
{ACAD_REACTORS
330
1A
102
}
330
1A
100
AcDbPlotSettings
  1

  2
none_device
  4
Letter_(8.50_x_11.00_Inches)
  6

 40
6.35
 41
6.35
 42
6.35000508
 43
6.35000508
 44
215.9
 45
279.4
 46
0.0
 47
0.0
 48
0.0
 49
0.0
140
0.0
141
0.0
142
1.0
143
1.0
 70
  1712
 72
     0
 73
     0
 74
     0
  7

 75
     0
 76
     0
 77
     2
 78
   300
147
1.0
148
0.0
149
0.0
100
AcDbLayout
  1
Model
 70
     1
 71
     0
 10
0.0
 20
0.0
 11
12.0
 21
9.0
 12
0.0
 22
0.0
 32
0.0
 14
1.000000000000000E+20
 24
1.000000000000000E+20
 34
1.000000000000000E+20
 15
-1.000000000000000E+20
 25
-1.000000000000000E+20
 35
-1.000000000000000E+20
146
0.0
 13
0.0
 23
0.0
 33
0.0
 16
1.0
 26
0.0
 36
0.0
 17
0.0
 27
1.0
 37
0.0
 76
     0
330
1F
331
29
  0
MATERIAL
  5
45
102
{ACAD_REACTORS
330
43
102
}
330
43
100
AcDbMaterial
  1
ByBlock
 72
     1
 94
      127
  0
MATERIAL
  5
44
102
{ACAD_REACTORS
330
43
102
}
330
43
100
AcDbMaterial
  1
ByLayer
 72
     1
 94
      127
  0
MATERIAL
  5
46
102
{ACAD_REACTORS
330
43
102
}
330
43
100
AcDbMaterial
  1
Global
 72
     1
 94
      127
  0
MLEADERSTYLE
  5
6C
102
{ACAD_REACTORS
330
6B
102
}
330
6B
100
AcDbMLeaderStyle
179
     2
170
     2
171
     1
172
     0
 90
        2
 40
0.0
 41
0.0
173
     1
 91
-1056964608
340
14
 92
       -2
290
     1
 42
0.09
291
     1
 43
0.36
  3
Standard
341
0
 44
0.18
300

342
11
174
     1
178
     6
175
     1
176
     0
 93
-1056964608
 45
0.18
292
     0
297
     0
 46
0.18
343
0
 94
-1056964608
 47
1.0
 49
1.0
140
1.0
293
     1
141
0.0
294
     1
177
     0
142
1.0
295
     0
296
     0
143
0.125
271
     0
272
     9
273
     9
298
     0
  0
MLINESTYLE
  5
18
102
{ACAD_REACTORS
330
17
102
}
330
17
100
AcDbMlineStyle
  2
Standard
 70
     0
  3

 62
   256
 51
90.0
 52
90.0
 71
     2
 49
0.5
 62
   256
  6
BYLAYER
 49
-0.5
 62
   256
  6
BYLAYER
  0
ACDBPLACEHOLDER
  5
F
102
{ACAD_REACTORS
330
E
102
}
330
E
  0
SCALE
  5
48
102
{ACAD_REACTORS
330
47
102
}
330
47
100
AcDbScale
 70
     0
300
1:1
140
1.0
141
1.0
290
     1
  0
SCALE
  5
49
102
{ACAD_REACTORS
330
47
102
}
330
47
100
AcDbScale
 70
     0
300
1:2
140
1.0
141
2.0
290
     0
  0
SCALE
  5
4A
102
{ACAD_REACTORS
330
47
102
}
330
47
100
AcDbScale
 70
     0
300
1:4
140
1.0
141
4.0
290
     0
  0
SCALE
  5
4B
102
{ACAD_REACTORS
330
47
102
}
330
47
100
AcDbScale
 70
     0
300
1:5
140
1.0
141
5.0
290
     0
  0
SCALE
  5
4C
102
{ACAD_REACTORS
330
47
102
}
330
47
100
AcDbScale
 70
     0
300
1:8
140
1.0
141
8.0
290
     0
  0
SCALE
  5
4D
102
{ACAD_REACTORS
330
47
102
}
330
47
100
AcDbScale
 70
     0
300
1:10
140
1.0
141
10.0
290
     0
  0
SCALE
  5
4E
102
{ACAD_REACTORS
330
47
102
}
330
47
100
AcDbScale
 70
     0
300
1:16
140
1.0
141
16.0
290
     0
  0
SCALE
  5
4F
102
{ACAD_REACTORS
330
47
102
}
330
47
100
AcDbScale
 70
     0
300
1:20
140
1.0
141
20.0
290
     0
  0
SCALE
  5
50
102
{ACAD_REACTORS
330
47
102
}
330
47
100
AcDbScale
 70
     0
300
1:30
140
1.0
141
30.0
290
     0
  0
SCALE
  5
51
102
{ACAD_REACTORS
330
47
102
}
330
47
100
AcDbScale
 70
     0
300
1:40
140
1.0
141
40.0
290
     0
  0
SCALE
  5
52
102
{ACAD_REACTORS
330
47
102
}
330
47
100
AcDbScale
 70
     0
300
1:50
140
1.0
141
50.0
290
     0
  0
SCALE
  5
53
102
{ACAD_REACTORS
330
47
102
}
330
47
100
AcDbScale
 70
     0
300
1:100
140
1.0
141
100.0
290
     0
  0
SCALE
  5
54
102
{ACAD_REACTORS
330
47
102
}
330
47
100
AcDbScale
 70
     0
300
2:1
140
2.0
141
1.0
290
     0
  0
SCALE
  5
55
102
{ACAD_REACTORS
330
47
102
}
330
47
100
AcDbScale
 70
     0
300
4:1
140
4.0
141
1.0
290
     0
  0
SCALE
  5
56
102
{ACAD_REACTORS
330
47
102
}
330
47
100
AcDbScale
 70
     0
300
8:1
140
8.0
141
1.0
290
     0
  0
SCALE
  5
57
102
{ACAD_REACTORS
330
47
102
}
330
47
100
AcDbScale
 70
     0
300
10:1
140
10.0
141
1.0
290
     0
  0
SCALE
  5
58
102
{ACAD_REACTORS
330
47
102
}
330
47
100
AcDbScale
 70
     0
300
100:1
140
100.0
141
1.0
290
     0
  0
SCALE
  5
59
102
{ACAD_REACTORS
330
47
102
}
330
47
100
AcDbScale
 70
     0
300
1/128" = 1'-0"
140
0.0078125
141
12.0
290
     0
  0
SCALE
  5
5A
102
{ACAD_REACTORS
330
47
102
}
330
47
100
AcDbScale
 70
     0
300
1/64" = 1'-0"
140
0.015625
141
12.0
290
     0
  0
SCALE
  5
5B
102
{ACAD_REACTORS
330
47
102
}
330
47
100
AcDbScale
 70
     0
300
1/32" = 1'-0"
140
0.03125
141
12.0
290
     0
  0
SCALE
  5
5C
102
{ACAD_REACTORS
330
47
102
}
330
47
100
AcDbScale
 70
     0
300
1/16" = 1'-0"
140
0.0625
141
12.0
290
     0
  0
SCALE
  5
5D
102
{ACAD_REACTORS
330
47
102
}
330
47
100
AcDbScale
 70
     0
300
3/32" = 1'-0"
140
0.09375
141
12.0
290
     0
  0
SCALE
  5
5E
102
{ACAD_REACTORS
330
47
102
}
330
47
100
AcDbScale
 70
     0
300
1/8" = 1'-0"
140
0.125
141
12.0
290
     0
  0
SCALE
  5
5F
102
{ACAD_REACTORS
330
47
102
}
330
47
100
AcDbScale
 70
     0
300
3/16" = 1'-0"
140
0.1875
141
12.0
290
     0
  0
SCALE
  5
60
102
{ACAD_REACTORS
330
47
102
}
330
47
100
AcDbScale
 70
     0
300
1/4" = 1'-0"
140
0.25
141
12.0
290
     0
  0
SCALE
  5
61
102
{ACAD_REACTORS
330
47
102
}
330
47
100
AcDbScale
 70
     0
300
3/8" = 1'-0"
140
0.375
141
12.0
290
     0
  0
SCALE
  5
62
102
{ACAD_REACTORS
330
47
102
}
330
47
100
AcDbScale
 70
     0
300
1/2" = 1'-0"
140
0.5
141
12.0
290
     0
  0
SCALE
  5
63
102
{ACAD_REACTORS
330
47
102
}
330
47
100
AcDbScale
 70
     0
300
3/4" = 1'-0"
140
0.75
141
12.0
290
     0
  0
SCALE
  5
64
102
{ACAD_REACTORS
330
47
102
}
330
47
100
AcDbScale
 70
     0
300
1" = 1'-0"
140
1.0
141
12.0
290
     0
  0
SCALE
  5
65
102
{ACAD_REACTORS
330
47
102
}
330
47
100
AcDbScale
 70
     0
300
1-1/2" = 1'-0"
140
1.5
141
12.0
290
     0
  0
SCALE
  5
66
102
{ACAD_REACTORS
330
47
102
}
330
47
100
AcDbScale
 70
     0
300
3" = 1'-0"
140
3.0
141
12.0
290
     0
  0
SCALE
  5
67
102
{ACAD_REACTORS
330
47
102
}
330
47
100
AcDbScale
 70
     0
300
6" = 1'-0"
140
6.0
141
12.0
290
     0
  0
SCALE
  5
68
102
{ACAD_REACTORS
330
47
102
}
330
47
100
AcDbScale
 70
     0
300
1'-0" = 1'-0"
140
12.0
141
12.0
290
     0
  0
TABLESTYLE
  5
6A
102
{ACAD_REACTORS
330
69
102
}
102
{ACAD_XDICTIONARY
360
1B1
102
}
330
69
100
AcDbTableStyle
  3
Standard
 70
     0
 71
     0
 40
0.06
 41
0.06
280
     0
281
     0
  7
Standard
140
0.18
170
     2
 62
     0
 63
   257
283
     0
 90
        4
 91
        0
  1

274
    -2
284
     1
 64
     0
275
    -2
285
     1
 65
     0
276
    -2
286
     1
 66
     0
277
    -2
287
     1
 67
     0
278
    -2
288
     1
 68
     0
279
    -2
289
     1
 69
     0
  7
Standard
140
0.25
170
     5
 62
     0
 63
   257
283
     0
 90
        4
 91
        0
  1

274
    -2
284
     1
 64
     0
275
    -2
285
     1
 65
     0
276
    -2
286
     1
 66
     0
277
    -2
287
     1
 67
     0
278
    -2
288
     1
 68
     0
279
    -2
289
     1
 69
     0
  7
Standard
140
0.18
170
     5
 62
     0
 63
   257
283
     0
 90
        4
 91
        0
  1

274
    -2
284
     1
 64
     0
275
    -2
285
     1
 65
     0
276
    -2
286
     1
 66
     0
277
    -2
287
     1
 67
     0
278
    -2
288
     1
 68
     0
279
    -2
289
     1
 69
     0
  0
VISUALSTYLE
  5
2F
102
{ACAD_REACTORS
330
2A
102
}
330
2A
100
AcDbVisualStyle
  2
2dWireframe
 70
     4
177
     3
291
     0
 70
    58
 90
        0
176
     1
 90
        2
176
     1
 90
        0
176
     1
 90
        0
176
     1
 40
0.6
176
     1
 40
30.0
176
     1
 62
     7
420
 16777215
176
     1
 90
        1
176
     1
 90
        4
176
     1
 62
     7
176
     1
 62
   257
176
     1
 90
        1
176
     1
 90
        1
176
     1
 40
1.0
176
     1
 90
        0
176
     1
 62
   257
176
     1
 40
1.0
176
     1
 90
        1
176
     1
 90
        6
176
     1
 90
        2
176
     1
 62
     7
176
     1
 90
        5
176
     1
 90
        0
176
     1
 90
        0
176
     1
290
     0
176
     1
 90
        1
176
     1
 40
0.0
176
     1
 90
        0
176
     1
290
     1
176
     1
290
     1
176
     1
290
     0
176
     1
290
     0
176
     1
290
     0
176
     1
290
     0
176
     1
290
     0
176
     1
290
     0
176
     1
290
     0
176
     1
 90
       50
176
     1
 40
0.0
176
     1
 40
1.0
176
     1
 90
        0
176
     1
 62
    18
420
        0
176
     1
 90
       50
176
     1
 90
        3
176
     1
 62
     5
420
      255
176
     1
290
     0
176
     1
 90
       50
176
     1
 90
       50
176
     1
 90
       50
176
     1
290
     0
176
     1
 90
       50
176
     1
 62
   256
176
     0
 40
1.0
176
     0
 90
        2
176
     1
  1
strokes_ogs.tif
176
     1
290
     0
176
     1
 40
1.0
176
     1
 40
1.0
176
     1
  0
VISUALSTYLE
  5
32
102
{ACAD_REACTORS
330
2A
102
}
330
2A
100
AcDbVisualStyle
  2
Basic
 70
     7
177
     3
291
     1
 70
    58
 90
        1
176
     1
 90
        0
176
     1
 90
        1
176
     1
 90
        0
176
     1
 40
0.6
176
     1
 40
30.0
176
     1
 62
     7
420
 16777215
176
     1
 90
        0
176
     1
 90
        4
176
     1
 62
     7
176
     1
 62
   257
176
     1
 90
        1
176
     1
 90
        1
176
     1
 40
1.0
176
     1
 90
        8
176
     1
 62
     7
176
     1
 40
1.0
176
     1
 90
        1
176
     1
 90
        6
176
     1
 90
        2
176
     1
 62
     7
176
     1
 90
        5
176
     1
 90
        0
176
     1
 90
        0
176
     1
290
     0
176
     1
 90
        1
176
     1
 40
0.0
176
     1
 90
        0
176
     1
290
     0
176
     1
290
     1
176
     1
290
     1
176
     1
290
     0
176
     1
290
     0
176
     1
290
     0
176
     1
290
     0
176
     1
290
     0
176
     1
290
     0
176
     1
 90
       50
176
     1
 40
0.0
176
     1
 40
1.0
176
     1
 90
        0
176
     1
 62
    18
420
        0
176
     1
 90
       50
176
     1
 90
        3
176
     1
 62
     5
420
      255
176
     1
290
     0
176
     1
 90
       50
176
     1
 90
       50
176
     1
 90
       50
176
     1
290
     0
176
     1
 90
       50
176
     1
 62
   256
176
     0
 40
1.0
176
     0
 90
        2
176
     1
  1
strokes_ogs.tif
176
     1
290
     0
176
     1
 40
1.0
176
     1
 40
1.0
176
     1
  0
VISUALSTYLE
  5
36
102
{ACAD_REACTORS
330
2A
102
}
330
2A
100
AcDbVisualStyle
  2
Brighten
 70
    12
177
     3
291
     1
 70
    58
 90
        2
176
     1
 90
        2
176
     1
 90
        0
176
     1
 90
        0
176
     1
 40
0.6
176
     1
 40
30.0
176
     1
 62
     7
420
 16777215
176
     1
 90
        1
176
     1
 90
        4
176
     1
 62
     7
176
     1
 62
   257
176
     1
 90
        1
176
     1
 90
        1
176
     1
 40
1.0
176
     1
 90
        8
176
     1
 62
     7
176
     1
 40
1.0
176
     1
 90
        1
176
     1
 90
        6
176
     1
 90
        2
176
     1
 62
     7
176
     1
 90
        5
176
     1
 90
        0
176
     1
 90
        0
176
     1
290
     0
176
     1
 90
        1
176
     1
 40
50.0
176
     1
 90
        0
176
     1
290
     0
176
     1
290
     1
176
     1
290
     1
176
     1
290
     0
176
     1
290
     0
176
     1
290
     0
176
     1
290
     0
176
     1
290
     0
176
     1
290
     0
176
     1
 90
       50
176
     1
 40
0.0
176
     1
 40
1.0
176
     1
 90
        0
176
     1
 62
    18
420
        0
176
     1
 90
       50
176
     1
 90
        3
176
     1
 62
     5
420
      255
176
     1
290
     0
176
     1
 90
       50
176
     1
 90
       50
176
     1
 90
       50
176
     1
290
     0
176
     1
 90
       50
176
     1
 62
   256
176
     0
 40
1.0
176
     0
 90
        2
176
     1
  1
strokes_ogs.tif
176
     1
290
     0
176
     1
 40
1.0
176
     1
 40
1.0
176
     1
  0
VISUALSTYLE
  5
3A
102
{ACAD_REACTORS
330
2A
102
}
330
2A
100
AcDbVisualStyle
  2
ColorChange
 70
    16
177
     3
291
     1
 70
    58
 90
        2
176
     1
 90
        2
176
     1
 90
        3
176
     1
 90
        0
176
     1
 40
0.6
176
     1
 40
30.0
176
     1
 62
     8
420
  8421504
176
     1
 90
        1
176
     1
 90
        4
176
     1
 62
     7
176
     1
 62
   257
176
     1
 90
        1
176
     1
 90
        1
176
     1
 40
1.0
176
     1
 90
        8
176
     1
 62
     8
420
  8421504
176
     1
 40
1.0
176
     1
 90
        1
176
     1
 90
        6
176
     1
 90
        2
176
     1
 62
     7
176
     1
 90
        5
176
     1
 90
        0
176
     1
 90
        0
176
     1
290
     0
176
     1
 90
        1
176
     1
 40
0.0
176
     1
 90
        0
176
     1
290
     0
176
     1
290
     1
176
     1
290
     1
176
     1
290
     0
176
     1
290
     0
176
     1
290
     0
176
     1
290
     0
176
     1
290
     0
176
     1
290
     0
176
     1
 90
       50
176
     1
 40
0.0
176
     1
 40
1.0
176
     1
 90
        0
176
     1
 62
    18
420
        0
176
     1
 90
       50
176
     1
 90
        3
176
     1
 62
     5
420
      255
176
     1
290
     0
176
     1
 90
       50
176
     1
 90
       50
176
     1
 90
       50
176
     1
290
     0
176
     1
 90
       50
176
     1
 62
   256
176
     0
 40
1.0
176
     0
 90
        2
176
     1
  1
strokes_ogs.tif
176
     1
290
     0
176
     1
 40
1.0
176
     1
 40
1.0
176
     1
  0
VISUALSTYLE
  5
34
102
{ACAD_REACTORS
330
2A
102
}
330
2A
100
AcDbVisualStyle
  2
Conceptual
 70
     9
177
     3
291
     0
 70
    58
 90
        3
176
     1
 90
        2
176
     1
 90
        0
176
     1
 90
        0
176
     1
 40
0.6
176
     1
 40
30.0
176
     1
 62
     7
420
 16777215
176
     1
 90
        2
176
     1
 90
        2
176
     1
 62
     7
176
     1
 62
   257
176
     1
 90
        1
176
     1
 90
        1
176
     1
 40
179.0
176
     1
 90
        8
176
     1
 62
     7
176
     1
 40
1.0
176
     1
 90
        1
176
     1
 90
        6
176
     1
 90
        2
176
     1
 62
     7
176
     1
 90
        3
176
     1
 90
        0
176
     1
 90
        0
176
     1
290
     0
176
     1
 90
        1
176
     1
 40
0.0
176
     1
 90
        0
176
     1
290
     0
176
     1
290
     1
176
     1
290
     1
176
     1
290
     0
176
     1
290
     0
176
     1
290
     0
176
     1
290
     0
176
     1
290
     0
176
     1
290
     0
176
     1
 90
       50
176
     1
 40
0.0
176
     1
 40
1.0
176
     1
 90
        0
176
     1
 62
    18
420
        0
176
     1
 90
       50
176
     1
 90
        3
176
     1
 62
     5
420
      255
176
     1
290
     0
176
     1
 90
       50
176
     1
 90
       50
176
     1
 90
       50
176
     1
290
     0
176
     1
 90
       50
176
     1
 62
   256
176
     0
 40
1.0
176
     0
 90
        2
176
     1
  1
strokes_ogs.tif
176
     1
290
     0
176
     1
 40
1.0
176
     1
 40
1.0
176
     1
  0
VISUALSTYLE
  5
35
102
{ACAD_REACTORS
330
2A
102
}
330
2A
100
AcDbVisualStyle
  2
Dim
 70
    11
177
     3
291
     1
 70
    58
 90
        2
176
     1
 90
        2
176
     1
 90
        0
176
     1
 90
        0
176
     1
 40
0.6
176
     1
 40
30.0
176
     1
 62
     7
420
 16777215
176
     1
 90
        1
176
     1
 90
        4
176
     1
 62
     7
176
     1
 62
   257
176
     1
 90
        1
176
     1
 90
        1
176
     1
 40
1.0
176
     1
 90
        8
176
     1
 62
     7
176
     1
 40
1.0
176
     1
 90
        1
176
     1
 90
        6
176
     1
 90
        2
176
     1
 62
     7
176
     1
 90
        5
176
     1
 90
        0
176
     1
 90
        0
176
     1
290
     0
176
     1
 90
        1
176
     1
 40
-50.0
176
     1
 90
        0
176
     1
290
     0
176
     1
290
     1
176
     1
290
     1
176
     1
290
     0
176
     1
290
     0
176
     1
290
     0
176
     1
290
     0
176
     1
290
     0
176
     1
290
     0
176
     1
 90
       50
176
     1
 40
0.0
176
     1
 40
1.0
176
     1
 90
        0
176
     1
 62
    18
420
        0
176
     1
 90
       50
176
     1
 90
        3
176
     1
 62
     5
420
      255
176
     1
290
     0
176
     1
 90
       50
176
     1
 90
       50
176
     1
 90
       50
176
     1
290
     0
176
     1
 90
       50
176
     1
 62
   256
176
     0
 40
1.0
176
     0
 90
        2
176
     1
  1
strokes_ogs.tif
176
     1
290
     0
176
     1
 40
1.0
176
     1
 40
1.0
176
     1
  0
VISUALSTYLE
  5
3D
102
{ACAD_REACTORS
330
2A
102
}
330
2A
100
AcDbVisualStyle
  2
EdgeColorOff
 70
    22
177
     3
291
     1
 70
    58
 90
        2
176
     0
 90
        2
176
     0
 90
        0
176
     0
 90
        0
176
     0
 40
0.6
176
     0
 40
30.0
176
     0
 62
     7
420
 16777215
176
     0
 90
        1
176
     0
 90
        4
176
     0
 62
     7
176
     0
 62
   257
176
     0
 90
        1
176
     0
 90
        1
176
     0
 40
1.0
176
     0
 90
        8
176
     2
 62
     7
176
     0
 40
1.0
176
     0
 90
        1
176
     0
 90
        6
176
     0
 90
        2
176
     0
 62
     7
176
     0
 90
        5
176
     0
 90
        0
176
     0
 90
        0
176
     0
290
     0
176
     0
 90
        1
176
     0
 40
0.0
176
     0
 90
        0
176
     0
290
     0
176
     0
290
     1
176
     0
290
     1
176
     0
290
     0
176
     0
290
     0
176
     0
290
     0
176
     0
290
     0
176
     0
290
     0
176
     0
290
     0
176
     0
 90
       50
176
     0
 40
0.0
176
     0
 40
1.0
176
     0
 90
        0
176
     0
 62
    18
420
        0
176
     0
 90
       50
176
     0
 90
        3
176
     0
 62
     5
420
      255
176
     0
290
     0
176
     0
 90
       50
176
     0
 90
       50
176
     0
 90
       50
176
     0
290
     0
176
     0
 90
       50
176
     0
 62
   256
176
     0
 40
1.0
176
     0
 90
        2
176
     0
  1
strokes_ogs.tif
176
     0
290
     0
176
     0
 40
1.0
176
     0
 40
1.0
176
     0
  0
VISUALSTYLE
  5
39
102
{ACAD_REACTORS
330
2A
102
}
330
2A
100
AcDbVisualStyle
  2
Facepattern
 70
    15
177
     3
291
     1
 70
    58
 90
        2
176
     1
 90
        2
176
     1
 90
        0
176
     1
 90
        0
176
     1
 40
0.6
176
     1
 40
30.0
176
     1
 62
     7
420
 16777215
176
     1
 90
        1
176
     1
 90
        4
176
     1
 62
     7
176
     1
 62
   257
176
     1
 90
        1
176
     1
 90
        1
176
     1
 40
1.0
176
     1
 90
        8
176
     1
 62
     7
176
     1
 40
1.0
176
     1
 90
        1
176
     1
 90
        6
176
     1
 90
        2
176
     1
 62
     7
176
     1
 90
        5
176
     1
 90
        0
176
     1
 90
        0
176
     1
290
     0
176
     1
 90
        1
176
     1
 40
0.0
176
     1
 90
        0
176
     1
290
     0
176
     1
290
     1
176
     1
290
     1
176
     1
290
     0
176
     1
290
     0
176
     1
290
     0
176
     1
290
     0
176
     1
290
     0
176
     1
290
     0
176
     1
 90
       50
176
     1
 40
0.0
176
     1
 40
1.0
176
     1
 90
        0
176
     1
 62
    18
420
        0
176
     1
 90
       50
176
     1
 90
        3
176
     1
 62
     5
420
      255
176
     1
290
     0
176
     1
 90
       50
176
     1
 90
       50
176
     1
 90
       50
176
     1
290
     0
176
     1
 90
       50
176
     1
 62
   256
176
     0
 40
1.0
176
     0
 90
        2
176
     1
  1
strokes_ogs.tif
176
     1
290
     0
176
     1
 40
1.0
176
     1
 40
1.0
176
     1
  0
VISUALSTYLE
  5
2B
102
{ACAD_REACTORS
330
2A
102
}
330
2A
100
AcDbVisualStyle
  2
Flat
 70
     0
177
     3
291
     1
 70
    58
 90
        2
176
     1
 90
        1
176
     1
 90
        1
176
     1
 90
        2
176
     1
 40
0.6
176
     1
 40
30.0
176
     1
 62
     7
420
 16777215
176
     1
 90
        0
176
     1
 90
        0
176
     1
 62
     7
176
     1
 62
   257
176
     1
 90
        1
176
     1
 90
        1
176
     1
 40
1.0
176
     1
 90
        8
176
     1
 62
     7
176
     1
 40
1.0
176
     1
 90
        1
176
     1
 90
        6
176
     1
 90
        2
176
     1
 62
     7
176
     1
 90
        5
176
     1
 90
        0
176
     1
 90
        0
176
     1
290
     0
176
     1
 90
       13
176
     1
 40
0.0
176
     1
 90
        0
176
     1
290
     0
176
     1
290
     1
176
     1
290
     1
176
     1
290
     0
176
     1
290
     0
176
     1
290
     0
176
     1
290
     0
176
     1
290
     0
176
     1
290
     0
176
     1
 90
       50
176
     1
 40
0.0
176
     1
 40
1.0
176
     1
 90
        0
176
     1
 62
    18
420
        0
176
     1
 90
       50
176
     1
 90
        3
176
     1
 62
     5
420
      255
176
     1
290
     0
176
     1
 90
       50
176
     1
 90
       50
176
     1
 90
       50
176
     1
290
     0
176
     1
 90
       50
176
     1
 62
   256
176
     0
 40
1.0
176
     0
 90
        2
176
     1
  1
strokes_ogs.tif
176
     1
290
     0
176
     1
 40
1.0
176
     1
 40
1.0
176
     1
  0
VISUALSTYLE
  5
2C
102
{ACAD_REACTORS
330
2A
102
}
330
2A
100
AcDbVisualStyle
  2
FlatWithEdges
 70
     1
177
     3
291
     1
 70
    58
 90
        2
176
     1
 90
        1
176
     1
 90
        1
176
     1
 90
        2
176
     1
 40
0.6
176
     1
 40
30.0
176
     1
 62
     7
420
 16777215
176
     1
 90
        1
176
     1
 90
        0
176
     1
 62
     7
176
     1
 62
   257
176
     1
 90
        1
176
     1
 90
        1
176
     1
 40
1.0
176
     1
 90
        0
176
     1
 62
   257
176
     1
 40
1.0
176
     1
 90
        1
176
     1
 90
        6
176
     1
 90
        2
176
     1
 62
     7
176
     1
 90
        5
176
     1
 90
        0
176
     1
 90
        0
176
     1
290
     0
176
     1
 90
       13
176
     1
 40
0.0
176
     1
 90
        0
176
     1
290
     0
176
     1
290
     1
176
     1
290
     1
176
     1
290
     0
176
     1
290
     0
176
     1
290
     0
176
     1
290
     0
176
     1
290
     0
176
     1
290
     0
176
     1
 90
       50
176
     1
 40
0.0
176
     1
 40
1.0
176
     1
 90
        0
176
     1
 62
    18
420
        0
176
     1
 90
       50
176
     1
 90
        3
176
     1
 62
     5
420
      255
176
     1
290
     0
176
     1
 90
       50
176
     1
 90
       50
176
     1
 90
       50
176
     1
290
     0
176
     1
 90
       50
176
     1
 62
   256
176
     0
 40
1.0
176
     0
 90
        2
176
     1
  1
strokes_ogs.tif
176
     1
290
     0
176
     1
 40
1.0
176
     1
 40
1.0
176
     1
  0
VISUALSTYLE
  5
2D
102
{ACAD_REACTORS
330
2A
102
}
330
2A
100
AcDbVisualStyle
  2
Gouraud
 70
     2
177
     3
291
     1
 70
    58
 90
        2
176
     1
 90
        2
176
     1
 90
        1
176
     1
 90
        2
176
     1
 40
0.6
176
     1
 40
30.0
176
     1
 62
     7
420
 16777215
176
     1
 90
        0
176
     1
 90
        0
176
     1
 62
     7
176
     1
 62
   257
176
     1
 90
        1
176
     1
 90
        1
176
     1
 40
1.0
176
     1
 90
        0
176
     1
 62
     7
176
     1
 40
1.0
176
     1
 90
        1
176
     1
 90
        6
176
     1
 90
        2
176
     1
 62
     7
176
     1
 90
        5
176
     1
 90
        0
176
     1
 90
        0
176
     1
290
     0
176
     1
 90
       13
176
     1
 40
0.0
176
     1
 90
        0
176
     1
290
     0
176
     1
290
     1
176
     1
290
     1
176
     1
290
     0
176
     1
290
     0
176
     1
290
     0
176
     1
290
     0
176
     1
290
     0
176
     1
290
     0
176
     1
 90
       50
176
     1
 40
0.0
176
     1
 40
1.0
176
     1
 90
        0
176
     1
 62
    18
420
        0
176
     1
 90
       50
176
     1
 90
        3
176
     1
 62
     5
420
      255
176
     1
290
     0
176
     1
 90
       50
176
     1
 90
       50
176
     1
 90
       50
176
     1
290
     0
176
     1
 90
       50
176
     1
 62
   256
176
     0
 40
1.0
176
     0
 90
        2
176
     1
  1
strokes_ogs.tif
176
     1
290
     0
176
     1
 40
1.0
176
     1
 40
1.0
176
     1
  0
VISUALSTYLE
  5
2E
102
{ACAD_REACTORS
330
2A
102
}
330
2A
100
AcDbVisualStyle
  2
GouraudWithEdges
 70
     3
177
     3
291
     1
 70
    58
 90
        2
176
     1
 90
        2
176
     1
 90
        1
176
     1
 90
        2
176
     1
 40
0.6
176
     1
 40
30.0
176
     1
 62
     7
420
 16777215
176
     1
 90
        1
176
     1
 90
        0
176
     1
 62
     7
176
     1
 62
   257
176
     1
 90
        1
176
     1
 90
        1
176
     1
 40
1.0
176
     1
 90
        0
176
     1
 62
   257
176
     1
 40
1.0
176
     1
 90
        1
176
     1
 90
        6
176
     1
 90
        2
176
     1
 62
     7
176
     1
 90
        5
176
     1
 90
        0
176
     1
 90
        0
176
     1
290
     0
176
     1
 90
       13
176
     1
 40
0.0
176
     1
 90
        0
176
     1
290
     0
176
     1
290
     1
176
     1
290
     1
176
     1
290
     0
176
     1
290
     0
176
     1
290
     0
176
     1
290
     0
176
     1
290
     0
176
     1
290
     0
176
     1
 90
       50
176
     1
 40
0.0
176
     1
 40
1.0
176
     1
 90
        0
176
     1
 62
    18
420
        0
176
     1
 90
       50
176
     1
 90
        3
176
     1
 62
     5
420
      255
176
     1
290
     0
176
     1
 90
       50
176
     1
 90
       50
176
     1
 90
       50
176
     1
290
     0
176
     1
 90
       50
176
     1
 62
   256
176
     0
 40
1.0
176
     0
 90
        2
176
     1
  1
strokes_ogs.tif
176
     1
290
     0
176
     1
 40
1.0
176
     1
 40
1.0
176
     1
  0
VISUALSTYLE
  5
31
102
{ACAD_REACTORS
330
2A
102
}
330
2A
100
AcDbVisualStyle
  2
Hidden
 70
     6
177
     3
291
     0
 70
    58
 90
        1
176
     1
 90
        2
176
     1
 90
        2
176
     1
 90
        0
176
     1
 40
0.6
176
     1
 40
30.0
176
     1
 62
     7
420
 16777215
176
     1
 90
        2
176
     1
 90
        2
176
     1
 62
     7
176
     1
 62
   257
176
     1
 90
        2
176
     1
 90
        1
176
     1
 40
40.0
176
     1
 90
        0
176
     1
 62
   257
176
     1
 40
1.0
176
     1
 90
        1
176
     1
 90
        6
176
     1
 90
        2
176
     1
 62
     7
176
     1
 90
        3
176
     1
 90
        0
176
     1
 90
        0
176
     1
290
     0
176
     1
 90
        1
176
     1
 40
0.0
176
     1
 90
        0
176
     1
290
     0
176
     1
290
     1
176
     1
290
     1
176
     1
290
     0
176
     1
290
     0
176
     1
290
     0
176
     1
290
     0
176
     1
290
     0
176
     1
290
     0
176
     1
 90
       50
176
     1
 40
0.0
176
     1
 40
1.0
176
     1
 90
        0
176
     1
 62
    18
420
        0
176
     1
 90
       50
176
     1
 90
        3
176
     1
 62
     5
420
      255
176
     1
290
     0
176
     1
 90
       50
176
     1
 90
       50
176
     1
 90
       50
176
     1
290
     0
176
     1
 90
       50
176
     1
 62
   256
176
     0
 40
1.0
176
     0
 90
        2
176
     1
  1
strokes_ogs.tif
176
     1
290
     0
176
     1
 40
1.0
176
     1
 40
1.0
176
     1
  0
VISUALSTYLE
  5
3B
102
{ACAD_REACTORS
330
2A
102
}
330
2A
100
AcDbVisualStyle
  2
JitterOff
 70
    20
177
     3
291
     1
 70
    58
 90
        2
176
     0
 90
        2
176
     0
 90
        0
176
     0
 90
        0
176
     0
 40
0.6
176
     0
 40
30.0
176
     0
 62
     7
420
 16777215
176
     0
 90
        1
176
     0
 90
        4
176
     0
 62
     7
176
     0
 62
   257
176
     0
 90
        1
176
     0
 90
        1
176
     0
 40
1.0
176
     0
 90
       10
176
     2
 62
     7
176
     0
 40
1.0
176
     0
 90
        1
176
     0
 90
        6
176
     0
 90
        2
176
     0
 62
     7
176
     0
 90
        5
176
     0
 90
        0
176
     0
 90
        0
176
     0
290
     0
176
     0
 90
        1
176
     0
 40
0.0
176
     0
 90
        0
176
     0
290
     0
176
     0
290
     1
176
     0
290
     1
176
     0
290
     0
176
     0
290
     0
176
     0
290
     0
176
     0
290
     0
176
     0
290
     0
176
     0
290
     0
176
     0
 90
       50
176
     0
 40
0.0
176
     0
 40
1.0
176
     0
 90
        0
176
     0
 62
    18
420
        0
176
     0
 90
       50
176
     0
 90
        3
176
     0
 62
     5
420
      255
176
     0
290
     0
176
     0
 90
       50
176
     0
 90
       50
176
     0
 90
       50
176
     0
290
     0
176
     0
 90
       50
176
     0
 62
   256
176
     0
 40
1.0
176
     0
 90
        2
176
     0
  1
strokes_ogs.tif
176
     0
290
     0
176
     0
 40
1.0
176
     0
 40
1.0
176
     0
  0
VISUALSTYLE
  5
38
102
{ACAD_REACTORS
330
2A
102
}
330
2A
100
AcDbVisualStyle
  2
Linepattern
 70
    14
177
     3
291
     1
 70
    58
 90
        2
176
     1
 90
        2
176
     1
 90
        0
176
     1
 90
        0
176
     1
 40
0.6
176
     1
 40
30.0
176
     1
 62
     7
420
 16777215
176
     1
 90
        1
176
     1
 90
        4
176
     1
 62
     7
176
     1
 62
   257
176
     1
 90
        7
176
     1
 90
        7
176
     1
 40
1.0
176
     1
 90
        8
176
     1
 62
     7
176
     1
 40
1.0
176
     1
 90
        1
176
     1
 90
        6
176
     1
 90
        2
176
     1
 62
     7
176
     1
 90
        5
176
     1
 90
        0
176
     1
 90
        0
176
     1
290
     0
176
     1
 90
        1
176
     1
 40
0.0
176
     1
 90
        0
176
     1
290
     0
176
     1
290
     1
176
     1
290
     1
176
     1
290
     0
176
     1
290
     0
176
     1
290
     0
176
     1
290
     0
176
     1
290
     0
176
     1
290
     0
176
     1
 90
       50
176
     1
 40
0.0
176
     1
 40
1.0
176
     1
 90
        0
176
     1
 62
    18
420
        0
176
     1
 90
       50
176
     1
 90
        3
176
     1
 62
     5
420
      255
176
     1
290
     0
176
     1
 90
       50
176
     1
 90
       50
176
     1
 90
       50
176
     1
290
     0
176
     1
 90
       50
176
     1
 62
   256
176
     0
 40
1.0
176
     0
 90
        2
176
     1
  1
strokes_ogs.tif
176
     1
290
     0
176
     1
 40
1.0
176
     1
 40
1.0
176
     1
  0
VISUALSTYLE
  5
3C
102
{ACAD_REACTORS
330
2A
102
}
330
2A
100
AcDbVisualStyle
  2
OverhangOff
 70
    21
177
     3
291
     1
 70
    58
 90
        2
176
     0
 90
        2
176
     0
 90
        0
176
     0
 90
        0
176
     0
 40
0.6
176
     0
 40
30.0
176
     0
 62
     7
420
 16777215
176
     0
 90
        1
176
     0
 90
        4
176
     0
 62
     7
176
     0
 62
   257
176
     0
 90
        1
176
     0
 90
        1
176
     0
 40
1.0
176
     0
 90
        9
176
     2
 62
     7
176
     0
 40
1.0
176
     0
 90
        1
176
     0
 90
        6
176
     0
 90
        2
176
     0
 62
     7
176
     0
 90
        5
176
     0
 90
        0
176
     0
 90
        0
176
     0
290
     0
176
     0
 90
        1
176
     0
 40
0.0
176
     0
 90
        0
176
     0
290
     0
176
     0
290
     1
176
     0
290
     1
176
     0
290
     0
176
     0
290
     0
176
     0
290
     0
176
     0
290
     0
176
     0
290
     0
176
     0
290
     0
176
     0
 90
       50
176
     0
 40
0.0
176
     0
 40
1.0
176
     0
 90
        0
176
     0
 62
    18
420
        0
176
     0
 90
       50
176
     0
 90
        3
176
     0
 62
     5
420
      255
176
     0
290
     0
176
     0
 90
       50
176
     0
 90
       50
176
     0
 90
       50
176
     0
290
     0
176
     0
 90
       50
176
     0
 62
   256
176
     0
 40
1.0
176
     0
 90
        2
176
     0
  1
strokes_ogs.tif
176
     0
290
     0
176
     0
 40
1.0
176
     0
 40
1.0
176
     0
  0
VISUALSTYLE
  5
33
102
{ACAD_REACTORS
330
2A
102
}
330
2A
100
AcDbVisualStyle
  2
Realistic
 70
     8
177
     3
291
     0
 70
    58
 90
        2
176
     1
 90
        3
176
     1
 90
        0
176
     1
 90
        2
176
     1
 40
0.6
176
     1
 40
30.0
176
     1
 62
     7
420
 16777215
176
     1
 90
        0
176
     1
 90
        0
176
     1
 62
     7
176
     1
 62
   257
176
     1
 90
        1
176
     1
 90
        1
176
     1
 40
1.0
176
     1
 90
        8
176
     1
 62
   257
176
     1
 40
1.0
176
     1
 90
        1
176
     1
 90
        6
176
     1
 90
        2
176
     1
 62
     7
176
     1
 90
        3
176
     1
 90
        0
176
     1
 90
        0
176
     1
290
     0
176
     1
 90
       13
176
     1
 40
0.0
176
     1
 90
        0
176
     1
290
     0
176
     1
290
     1
176
     1
290
     1
176
     1
290
     0
176
     1
290
     0
176
     1
290
     0
176
     1
290
     0
176
     1
290
     0
176
     1
290
     0
176
     1
 90
       50
176
     1
 40
0.0
176
     1
 40
1.0
176
     1
 90
        0
176
     1
 62
    18
420
        0
176
     1
 90
       50
176
     1
 90
        3
176
     1
 62
     5
420
      255
176
     1
290
     0
176
     1
 90
       50
176
     1
 90
       50
176
     1
 90
       50
176
     1
290
     0
176
     1
 90
       50
176
     1
 62
   256
176
     0
 40
1.0
176
     0
 90
        2
176
     1
  1
strokes_ogs.tif
176
     1
290
     0
176
     1
 40
1.0
176
     1
 40
1.0
176
     1
  0
VISUALSTYLE
  5
42
102
{ACAD_REACTORS
330
2A
102
}
330
2A
100
AcDbVisualStyle
  2
Shaded
 70
    27
177
     3
291
     0
 70
    58
 90
        2
176
     1
 90
        2
176
     1
 90
        1
176
     1
 90
        2
176
     1
 40
0.6
176
     1
 40
30.0
176
     1
 62
     7
420
 16777215
176
     1
 90
        0
176
     1
 90
        4
176
     1
 62
     7
176
     1
 62
   257
176
     1
 90
        1
176
     1
 90
        1
176
     1
 40
1.0
176
     1
 90
        8
176
     1
 62
   257
176
     1
 40
1.0
176
     1
 90
        1
176
     1
 90
        6
176
     1
 90
        2
176
     1
 62
     8
420
  7895160
176
     1
 90
        3
176
     1
 90
        0
176
     1
 90
        0
176
     1
290
     0
176
     1
 90
        5
176
     1
 40
0.0
176
     1
 90
        0
176
     1
290
     0
176
     1
290
     1
176
     1
290
     1
176
     1
290
     0
176
     1
290
     0
176
     1
290
     0
176
     1
290
     0
176
     1
290
     0
176
     1
290
     0
176
     1
 90
       50
176
     1
 40
0.0
176
     1
 40
1.0
176
     1
 90
        0
176
     1
 62
    18
420
        0
176
     1
 90
       50
176
     1
 90
        3
176
     1
 62
     5
420
      255
176
     1
290
     0
176
     1
 90
       50
176
     1
 90
       50
176
     1
 90
       50
176
     1
290
     0
176
     1
 90
       50
176
     1
 62
   256
176
     0
 40
1.0
176
     0
 90
        2
176
     1
  1
strokes_ogs.tif
176
     1
290
     0
176
     1
 40
1.0
176
     1
 40
1.0
176
     1
  0
VISUALSTYLE
  5
41
102
{ACAD_REACTORS
330
2A
102
}
330
2A
100
AcDbVisualStyle
  2
Shaded with edges
 70
    26
177
     3
291
     0
 70
    58
 90
        2
176
     1
 90
        2
176
     1
 90
        1
176
     1
 90
        2
176
     1
 40
0.6
176
     1
 40
30.0
176
     1
 62
     7
420
 16777215
176
     1
 90
        1
176
     1
 90
       10
176
     1
 62
     7
176
     1
 62
   257
176
     1
 90
        2
176
     1
 90
        1
176
     1
 40
1.0
176
     1
 90
        8
176
     1
 62
   257
176
     1
 40
1.0
176
     1
 90
        1
176
     1
 90
        6
176
     1
 90
        2
176
     1
 62
     7
176
     1
 90
        3
176
     1
 90
        0
176
     1
 90
        0
176
     1
290
     0
176
     1
 90
        5
176
     1
 40
0.0
176
     1
 90
        0
176
     1
290
     0
176
     1
290
     1
176
     1
290
     1
176
     1
290
     0
176
     1
290
     0
176
     1
290
     0
176
     1
290
     0
176
     1
290
     0
176
     1
290
     0
176
     1
 90
       50
176
     1
 40
0.0
176
     1
 40
1.0
176
     1
 90
        0
176
     1
 62
    18
420
        0
176
     1
 90
       50
176
     1
 90
        3
176
     1
 62
     5
420
      255
176
     1
290
     0
176
     1
 90
       50
176
     1
 90
       50
176
     1
 90
       50
176
     1
290
     0
176
     1
 90
       50
176
     1
 62
   256
176
     0
 40
1.0
176
     0
 90
        2
176
     1
  1
strokes_ogs.tif
176
     1
290
     0
176
     1
 40
1.0
176
     1
 40
1.0
176
     1
  0
VISUALSTYLE
  5
3E
102
{ACAD_REACTORS
330
2A
102
}
330
2A
100
AcDbVisualStyle
  2
Shades of Gray
 70
    23
177
     3
291
     0
 70
    58
 90
        2
176
     1
 90
        2
176
     1
 90
        3
176
     1
 90
        0
176
     1
 40
0.6
176
     1
 40
30.0
176
     1
 62
     7
420
 16777215
176
     1
 90
        2
176
     1
 90
        2
176
     1
 62
     7
176
     1
 62
     7
176
     1
 90
        1
176
     1
 90
        1
176
     1
 40
40.0
176
     1
 90
        8
176
     1
 62
     7
176
     1
 40
1.0
176
     1
 90
        1
176
     1
 90
        6
176
     1
 90
        2
176
     1
 62
     7
176
     1
 90
        3
176
     1
 90
        0
176
     1
 90
        0
176
     1
290
     0
176
     1
 90
        1
176
     1
 40
0.0
176
     1
 90
        0
176
     1
290
     0
176
     1
290
     1
176
     1
290
     1
176
     1
290
     0
176
     1
290
     0
176
     1
290
     0
176
     1
290
     0
176
     1
290
     0
176
     1
290
     0
176
     1
 90
       50
176
     1
 40
0.0
176
     1
 40
1.0
176
     1
 90
        0
176
     1
 62
    18
420
        0
176
     1
 90
       50
176
     1
 90
        3
176
     1
 62
     5
420
      255
176
     1
290
     0
176
     1
 90
       50
176
     1
 90
       50
176
     1
 90
       50
176
     1
290
     0
176
     1
 90
       50
176
     1
 62
   256
176
     0
 40
1.0
176
     0
 90
        2
176
     1
  1
strokes_ogs.tif
176
     1
290
     0
176
     1
 40
1.0
176
     1
 40
1.0
176
     1
  0
VISUALSTYLE
  5
3F
102
{ACAD_REACTORS
330
2A
102
}
330
2A
100
AcDbVisualStyle
  2
Sketchy
 70
    24
177
     3
291
     0
 70
    58
 90
        1
176
     1
 90
        2
176
     1
 90
        2
176
     1
 90
        0
176
     1
 40
0.6
176
     1
 40
30.0
176
     1
 62
     7
420
 16777215
176
     1
 90
        2
176
     1
 90
        2
176
     1
 62
     7
176
     1
 62
     7
176
     1
 90
        1
176
     1
 90
        1
176
     1
 40
40.0
176
     1
 90
       11
176
     1
 62
     7
176
     1
 40
1.0
176
     1
 90
        1
176
     1
 90
        6
176
     1
 90
        2
176
     1
 62
     7
176
     1
 90
        6
176
     1
 90
        0
176
     1
 90
        0
176
     1
290
     0
176
     1
 90
        1
176
     1
 40
0.0
176
     1
 90
        0
176
     1
290
     0
176
     1
290
     1
176
     1
290
     1
176
     1
290
     0
176
     1
290
     0
176
     1
290
     0
176
     1
290
     0
176
     1
290
     0
176
     1
290
     0
176
     1
 90
       50
176
     1
 40
0.0
176
     1
 40
1.0
176
     1
 90
        0
176
     1
 62
    18
420
        0
176
     1
 90
       50
176
     1
 90
        3
176
     1
 62
     5
420
      255
176
     1
290
     0
176
     1
 90
       50
176
     1
 90
       50
176
     1
 90
       50
176
     1
290
     0
176
     1
 90
       50
176
     1
 62
   256
176
     0
 40
1.0
176
     0
 90
        2
176
     1
  1
strokes_ogs.tif
176
     1
290
     0
176
     1
 40
1.0
176
     1
 40
1.0
176
     1
  0
VISUALSTYLE
  5
37
102
{ACAD_REACTORS
330
2A
102
}
330
2A
100
AcDbVisualStyle
  2
Thicken
 70
    13
177
     3
291
     1
 70
    58
 90
        2
176
     1
 90
        2
176
     1
 90
        0
176
     1
 90
        0
176
     1
 40
0.6
176
     1
 40
30.0
176
     1
 62
     7
420
 16777215
176
     1
 90
        1
176
     1
 90
        4
176
     1
 62
     7
176
     1
 62
   257
176
     1
 90
        1
176
     1
 90
        1
176
     1
 40
1.0
176
     1
 90
       12
176
     1
 62
     7
176
     1
 40
1.0
176
     1
 90
        1
176
     1
 90
        6
176
     1
 90
        2
176
     1
 62
     7
176
     1
 90
        5
176
     1
 90
        0
176
     1
 90
        0
176
     1
290
     0
176
     1
 90
        1
176
     1
 40
0.0
176
     1
 90
        0
176
     1
290
     0
176
     1
290
     1
176
     1
290
     1
176
     1
290
     0
176
     1
290
     0
176
     1
290
     0
176
     1
290
     0
176
     1
290
     0
176
     1
290
     0
176
     1
 90
       50
176
     1
 40
0.0
176
     1
 40
1.0
176
     1
 90
        0
176
     1
 62
    18
420
        0
176
     1
 90
       50
176
     1
 90
        3
176
     1
 62
     5
420
      255
176
     1
290
     0
176
     1
 90
       50
176
     1
 90
       50
176
     1
 90
       50
176
     1
290
     0
176
     1
 90
       50
176
     1
 62
   256
176
     0
 40
1.0
176
     0
 90
        2
176
     1
  1
strokes_ogs.tif
176
     1
290
     0
176
     1
 40
1.0
176
     1
 40
1.0
176
     1
  0
VISUALSTYLE
  5
30
102
{ACAD_REACTORS
330
2A
102
}
330
2A
100
AcDbVisualStyle
  2
Wireframe
 70
     5
177
     3
291
     0
 70
    58
 90
        0
176
     1
 90
        2
176
     1
 90
        0
176
     1
 90
        0
176
     1
 40
0.6
176
     1
 40
30.0
176
     1
 62
     7
420
 16777215
176
     1
 90
        1
176
     1
 90
        4
176
     1
 62
     7
176
     1
 62
   257
176
     1
 90
        1
176
     1
 90
        1
176
     1
 40
1.0
176
     1
 90
        0
176
     1
 62
   257
176
     1
 40
1.0
176
     1
 90
        1
176
     1
 90
        6
176
     1
 90
        2
176
     1
 62
     7
176
     1
 90
        3
176
     1
 90
        0
176
     1
 90
        0
176
     1
290
     0
176
     1
 90
        1
176
     1
 40
0.0
176
     1
 90
        0
176
     1
290
     0
176
     1
290
     1
176
     1
290
     1
176
     1
290
     0
176
     1
290
     0
176
     1
290
     0
176
     1
290
     0
176
     1
290
     0
176
     1
290
     0
176
     1
 90
       50
176
     1
 40
0.0
176
     1
 40
1.0
176
     1
 90
        0
176
     1
 62
    18
420
        0
176
     1
 90
       50
176
     1
 90
        3
176
     1
 62
     5
420
      255
176
     1
290
     0
176
     1
 90
       50
176
     1
 90
       50
176
     1
 90
       50
176
     1
290
     0
176
     1
 90
       50
176
     1
 62
   256
176
     0
 40
1.0
176
     0
 90
        2
176
     1
  1
strokes_ogs.tif
176
     1
290
     0
176
     1
 40
1.0
176
     1
 40
1.0
176
     1
  0
VISUALSTYLE
  5
40
102
{ACAD_REACTORS
330
2A
102
}
330
2A
100
AcDbVisualStyle
  2
X-Ray
 70
    25
177
     3
291
     0
 70
    58
 90
        2
176
     1
 90
        2
176
     1
 90
        1
176
     1
 90
        1
176
     1
 40
0.5
176
     1
 40
30.0
176
     1
 62
     7
420
 16777215
176
     1
 90
        1
176
     1
 90
        0
176
     1
 62
     7
176
     1
 62
   257
176
     1
 90
        1
176
     1
 90
        1
176
     1
 40
1.0
176
     1
 90
        8
176
     1
 62
     7
176
     1
 40
1.0
176
     1
 90
        1
176
     1
 90
        6
176
     1
 90
        2
176
     1
 62
     7
176
     1
 90
        3
176
     1
 90
        0
176
     1
 90
        0
176
     1
290
     0
176
     1
 90
       13
176
     1
 40
0.0
176
     1
 90
        0
176
     1
290
     0
176
     1
290
     1
176
     1
290
     1
176
     1
290
     0
176
     1
290
     0
176
     1
290
     0
176
     1
290
     0
176
     1
290
     0
176
     1
290
     0
176
     1
 90
       50
176
     1
 40
0.0
176
     1
 40
1.0
176
     1
 90
        0
176
     1
 62
    18
420
        0
176
     1
 90
       50
176
     1
 90
        3
176
     1
 62
     5
420
      255
176
     1
290
     0
176
     1
 90
       50
176
     1
 90
       50
176
     1
 90
       50
176
     1
290
     0
176
     1
 90
       50
176
     1
 62
   256
176
     0
 40
1.0
176
     0
 90
        2
176
     1
  1
strokes_ogs.tif
176
     1
290
     0
176
     1
 40
1.0
176
     1
 40
1.0
176
     1
  0
DICTIONARYVAR
  5
1B0
102
{ACAD_REACTORS
330
1AF
102
}
330
1AF
100
DictionaryVariables
280
     0
  1
1:1
  0
DICTIONARYVAR
  5
1B5
102
{ACAD_REACTORS
330
1AF
102
}
330
1AF
100
DictionaryVariables
280
     0
  1
Standard
  0
DICTIONARYVAR
  5
1B4
102
{ACAD_REACTORS
330
1AF
102
}
330
1AF
100
DictionaryVariables
280
     0
  1
Standard
  0
DICTIONARY
  5
1B1
330
6A
100
AcDbDictionary
280
     1
281
     1
  3
ACAD_ROUNDTRIP_2008_TABLESTYLE_CELLSTYLEMAP
360
1B2
  0
CELLSTYLEMAP
  5
1B2
102
{ACAD_REACTORS
330
1B1
102
}
330
1B1
100
AcDbCellStyleMap
 90
        3
300
CELLSTYLE
  1
TABLEFORMAT_BEGIN
 90
        5
170
     1
 91
        0
 92
    32768
 62
   257
 93
        1
300
CONTENTFORMAT
  1
CONTENTFORMAT_BEGIN
 90
        0
 91
        0
 92
        4
 93
        0
300

 40
0.0
140
1.0
 94
        5
 62
     0
340
11
144
0.25
309
CONTENTFORMAT_END
171
     1
301
MARGIN
  1
CELLMARGIN_BEGIN
 40
0.06
 40
0.06
 40
0.06
 40
0.06
 40
0.06
 40
0.06
309
CELLMARGIN_END
 94
        6
 95
        1
302
GRIDFORMAT
  1
GRIDFORMAT_BEGIN
 90
        0
 91
        1
 62
     0
 92
       -2
340
14
 93
        0
 40
0.045
309
GRIDFORMAT_END
 95
        2
302
GRIDFORMAT
  1
GRIDFORMAT_BEGIN
 90
        0
 91
        1
 62
     0
 92
       -2
340
14
 93
        0
 40
0.045
309
GRIDFORMAT_END
 95
        4
302
GRIDFORMAT
  1
GRIDFORMAT_BEGIN
 90
        0
 91
        1
 62
     0
 92
       -2
340
14
 93
        0
 40
0.045
309
GRIDFORMAT_END
 95
        8
302
GRIDFORMAT
  1
GRIDFORMAT_BEGIN
 90
        0
 91
        1
 62
     0
 92
       -2
340
14
 93
        0
 40
0.045
309
GRIDFORMAT_END
 95
       16
302
GRIDFORMAT
  1
GRIDFORMAT_BEGIN
 90
        0
 91
        1
 62
     0
 92
       -2
340
14
 93
        0
 40
0.045
309
GRIDFORMAT_END
 95
       32
302
GRIDFORMAT
  1
GRIDFORMAT_BEGIN
 90
        0
 91
        1
 62
     0
 92
       -2
340
14
 93
        0
 40
0.045
309
GRIDFORMAT_END
309
TABLEFORMAT_END
  1
CELLSTYLE_BEGIN
 90
        1
 91
        1
300
_TITLE
309
CELLSTYLE_END
300
CELLSTYLE
  1
TABLEFORMAT_BEGIN
 90
        5
170
     1
 91
        0
 92
        0
 62
   257
 93
        1
300
CONTENTFORMAT
  1
CONTENTFORMAT_BEGIN
 90
        0
 91
        0
 92
        4
 93
        0
300

 40
0.0
140
1.0
 94
        5
 62
     0
340
11
144
0.18
309
CONTENTFORMAT_END
171
     1
301
MARGIN
  1
CELLMARGIN_BEGIN
 40
0.06
 40
0.06
 40
0.06
 40
0.06
 40
0.06
 40
0.06
309
CELLMARGIN_END
 94
        6
 95
        1
302
GRIDFORMAT
  1
GRIDFORMAT_BEGIN
 90
        0
 91
        1
 62
     0
 92
       -2
340
14
 93
        0
 40
0.045
309
GRIDFORMAT_END
 95
        2
302
GRIDFORMAT
  1
GRIDFORMAT_BEGIN
 90
        0
 91
        1
 62
     0
 92
       -2
340
14
 93
        0
 40
0.045
309
GRIDFORMAT_END
 95
        4
302
GRIDFORMAT
  1
GRIDFORMAT_BEGIN
 90
        0
 91
        1
 62
     0
 92
       -2
340
14
 93
        0
 40
0.045
309
GRIDFORMAT_END
 95
        8
302
GRIDFORMAT
  1
GRIDFORMAT_BEGIN
 90
        0
 91
        1
 62
     0
 92
       -2
340
14
 93
        0
 40
0.045
309
GRIDFORMAT_END
 95
       16
302
GRIDFORMAT
  1
GRIDFORMAT_BEGIN
 90
        0
 91
        1
 62
     0
 92
       -2
340
14
 93
        0
 40
0.045
309
GRIDFORMAT_END
 95
       32
302
GRIDFORMAT
  1
GRIDFORMAT_BEGIN
 90
        0
 91
        1
 62
     0
 92
       -2
340
14
 93
        0
 40
0.045
309
GRIDFORMAT_END
309
TABLEFORMAT_END
  1
CELLSTYLE_BEGIN
 90
        2
 91
        1
300
_HEADER
309
CELLSTYLE_END
300
CELLSTYLE
  1
TABLEFORMAT_BEGIN
 90
        5
170
     1
 91
        0
 92
        0
 62
   257
 93
        1
300
CONTENTFORMAT
  1
CONTENTFORMAT_BEGIN
 90
        0
 91
        0
 92
        4
 93
        0
300

 40
0.0
140
1.0
 94
        2
 62
     0
340
11
144
0.18
309
CONTENTFORMAT_END
171
     1
301
MARGIN
  1
CELLMARGIN_BEGIN
 40
0.06
 40
0.06
 40
0.06
 40
0.06
 40
0.06
 40
0.06
309
CELLMARGIN_END
 94
        6
 95
        1
302
GRIDFORMAT
  1
GRIDFORMAT_BEGIN
 90
        0
 91
        1
 62
     0
 92
       -2
340
14
 93
        0
 40
0.045
309
GRIDFORMAT_END
 95
        2
302
GRIDFORMAT
  1
GRIDFORMAT_BEGIN
 90
        0
 91
        1
 62
     0
 92
       -2
340
14
 93
        0
 40
0.045
309
GRIDFORMAT_END
 95
        4
302
GRIDFORMAT
  1
GRIDFORMAT_BEGIN
 90
        0
 91
        1
 62
     0
 92
       -2
340
14
 93
        0
 40
0.045
309
GRIDFORMAT_END
 95
        8
302
GRIDFORMAT
  1
GRIDFORMAT_BEGIN
 90
        0
 91
        1
 62
     0
 92
       -2
340
14
 93
        0
 40
0.045
309
GRIDFORMAT_END
 95
       16
302
GRIDFORMAT
  1
GRIDFORMAT_BEGIN
 90
        0
 91
        1
 62
     0
 92
       -2
340
14
 93
        0
 40
0.045
309
GRIDFORMAT_END
 95
       32
302
GRIDFORMAT
  1
GRIDFORMAT_BEGIN
 90
        0
 91
        1
 62
     0
 92
       -2
340
14
 93
        0
 40
0.045
309
GRIDFORMAT_END
309
TABLEFORMAT_END
  1
CELLSTYLE_BEGIN
 90
        3
 91
        2
300
_DATA
309
CELLSTYLE_END
  0
ENDSEC
  0
EOF