0
SECTION
  2
HEADER
  9
$ACADVER
  1
AC1027
  9
$ACADMAINTVER
 70
     8
  9
$DWGCODEPAGE
  3
ANSI_1252
  9
$REQUIREDVERSIONS
160
                 0
  9
$COMMENTS
  1
File was created by Cadenas
  9
$CUSTOMPROPERTYTAG
  1
NN
  9
$CUSTOMPROPERTY
  1
Eccentric Collar Hanger Bearing Inch Bore
  9
$CUSTOMPROPERTYTAG
  1
NT
  9
$CUSTOMPROPERTY
  1
SXR Hanger Bearings -(Normal Duty)
  9
$CUSTOMPROPERTYTAG
  1
NB
  9
$CUSTOMPROPERTY
  1
131266
  9
$CUSTOMPROPERTYTAG
  1
NBSYN
  9
$CUSTOMPROPERTY
  1
$PN.
  9
$CUSTOMPROPERTYTAG
  1
LINA
  9
$CUSTOMPROPERTY
  1
131266
  9
$CUSTOMPROPERTYTAG
  1
SERIES
  9
$CUSTOMPROPERTY
  1
207
  9
$CUSTOMPROPERTYTAG
  1
SS
  9
$CUSTOMPROPERTY
  1
1-7/16
  9
$CUSTOMPROPERTYTAG
  1
PN
  9
$CUSTOMPROPERTY
  1
131266
  9
$CUSTOMPROPERTYTAG
  1
DESCRIPTION
  9
$CUSTOMPROPERTY
  1
HNG-SXR-107
  9
$CUSTOMPROPERTYTAG
  1
W
  9
$CUSTOMPROPERTY
  1
2.6
  9
$CUSTOMPROPERTYTAG
  1
A
  9
$CUSTOMPROPERTY
  1
1.95
  9
$CUSTOMPROPERTYTAG
  1
B
  9
$CUSTOMPROPERTY
  1
4.25
  9
$CUSTOMPROPERTYTAG
  1
C
  9
$CUSTOMPROPERTY
  1
1.68
  9
$CUSTOMPROPERTYTAG
  1
F
  9
$CUSTOMPROPERTY
  1
3.50
  9
$CUSTOMPROPERTYTAG
  1
L
  9
$CUSTOMPROPERTY
  1
2.13
  9
$CUSTOMPROPERTYTAG
  1
M
  9
$CUSTOMPROPERTY
  1
1/2
  9
$CUSTOMPROPERTYTAG
  1
R
  9
$CUSTOMPROPERTY
  1
0.67
  9
$CUSTOMPROPERTYTAG
  1
S
  9
$CUSTOMPROPERTY
  1
1.28
  9
$CUSTOMPROPERTYTAG
  1
COMPANY
  9
$CUSTOMPROPERTY
  1
baldor
  9
$INSBASE
 10
0.0
 20
0.0
 30
0.0
  9
$EXTMIN
 10
1.000000000000000E+20
 20
1.000000000000000E+20
 30
1.000000000000000E+20
  9
$EXTMAX
 10
-1.000000000000000E+20
 20
-1.000000000000000E+20
 30
-1.000000000000000E+20
  9
$LIMMIN
 10
0.0
 20
0.0
  9
$LIMMAX
 10
12.0
 20
9.0
  9
$ORTHOMODE
 70
     0
  9
$REGENMODE
 70
     1
  9
$FILLMODE
 70
     1
  9
$QTEXTMODE
 70
     0
  9
$MIRRTEXT
 70
     1
  9
$LTSCALE
 40
1.0
  9
$ATTMODE
 70
     1
  9
$TEXTSIZE
 40
0.2
  9
$TRACEWID
 40
0.05
  9
$TEXTSTYLE
  7
Standard
  9
$CLAYER
  8
0
  9
$CELTYPE
  6
ByLayer
  9
$CECOLOR
 62
   256
  9
$CELTSCALE
 40
1.0
  9
$DISPSILH
 70
     0
  9
$DIMSCALE
 40
1.0
  9
$DIMASZ
 40
0.18
  9
$DIMEXO
 40
0.0625
  9
$DIMDLI
 40
0.38
  9
$DIMRND
 40
0.0
  9
$DIMDLE
 40
0.0
  9
$DIMEXE
 40
0.18
  9
$DIMTP
 40
0.0
  9
$DIMTM
 40
0.0
  9
$DIMTXT
 40
0.18
  9
$DIMCEN
 40
0.09
  9
$DIMTSZ
 40
0.0
  9
$DIMTOL
 70
     0
  9
$DIMLIM
 70
     0
  9
$DIMTIH
 70
     1
  9
$DIMTOH
 70
     1
  9
$DIMSE1
 70
     0
  9
$DIMSE2
 70
     0
  9
$DIMTAD
 70
     0
  9
$DIMZIN
 70
     0
  9
$DIMBLK
  1

  9
$DIMASO
 70
     1
  9
$DIMSHO
 70
     1
  9
$DIMPOST
  1

  9
$DIMAPOST
  1

  9
$DIMALT
 70
     0
  9
$DIMALTD
 70
     2
  9
$DIMALTF
 40
25.4
  9
$DIMLFAC
 40
1.0
  9
$DIMTOFL
 70
     0
  9
$DIMTVP
 40
0.0
  9
$DIMTIX
 70
     0
  9
$DIMSOXD
 70
     0
  9
$DIMSAH
 70
     0
  9
$DIMBLK1
  1

  9
$DIMBLK2
  1

  9
$DIMSTYLE
  2
Standard
  9
$DIMCLRD
 70
     0
  9
$DIMCLRE
 70
     0
  9
$DIMCLRT
 70
     0
  9
$DIMTFAC
 40
1.0
  9
$DIMGAP
 40
0.09
  9
$DIMJUST
 70
     0
  9
$DIMSD1
 70
     0
  9
$DIMSD2
 70
     0
  9
$DIMTOLJ
 70
     1
  9
$DIMTZIN
 70
     0
  9
$DIMALTZ
 70
     0
  9
$DIMALTTZ
 70
     0
  9
$DIMUPT
 70
     0
  9
$DIMDEC
 70
     4
  9
$DIMTDEC
 70
     4
  9
$DIMALTU
 70
     2
  9
$DIMALTTD
 70
     2
  9
$DIMTXSTY
  7
Standard
  9
$DIMAUNIT
 70
     0
  9
$DIMADEC
 70
     0
  9
$DIMALTRND
 40
0.0
  9
$DIMAZIN
 70
     0
  9
$DIMDSEP
 70
    46
  9
$DIMATFIT
 70
     3
  9
$DIMFRAC
 70
     0
  9
$DIMLDRBLK
  1

  9
$DIMLUNIT
 70
     2
  9
$DIMLWD
 70
    -2
  9
$DIMLWE
 70
    -2
  9
$DIMTMOVE
 70
     0
  9
$DIMFXL
 40
1.0
  9
$DIMFXLON
 70
     0
  9
$DIMJOGANG
 40
0.7853981633974483
  9
$DIMTFILL
 70
     0
  9
$DIMTFILLCLR
 70
     0
  9
$DIMARCSYM
 70
     0
  9
$DIMLTYPE
  6

  9
$DIMLTEX1
  6

  9
$DIMLTEX2
  6

  9
$DIMTXTDIRECTION
 70
     0
  9
$LUNITS
 70
     2
  9
$LUPREC
 70
     4
  9
$SKETCHINC
 40
0.1
  9
$FILLETRAD
 40
0.5
  9
$AUNITS
 70
     0
  9
$AUPREC
 70
     0
  9
$MENU
  1
.
  9
$ELEVATION
 40
0.0
  9
$PELEVATION
 40
0.0
  9
$THICKNESS
 40
0.0
  9
$LIMCHECK
 70
     0
  9
$CHAMFERA
 40
0.0
  9
$CHAMFERB
 40
0.0
  9
$CHAMFERC
 40
0.0
  9
$CHAMFERD
 40
0.0
  9
$SKPOLY
 70
     0
  9
$TDCREATE
 40
2458168.980495
  9
$TDUCREATE
 40
2458168.938828333
  9
$TDUPDATE
 40
2458168.980495
  9
$TDUUPDATE
 40
2458168.938828333
  9
$TDINDWG
 40
0.0000000116
  9
$TDUSRTIMER
 40
0.0000000116
  9
$USRTIMER
 70
     1
  9
$ANGBASE
 50
0.0
  9
$ANGDIR
 70
     0
  9
$PDMODE
 70
     0
  9
$PDSIZE
 40
0.0
  9
$PLINEWID
 40
0.0
  9
$SPLFRAME
 70
     0
  9
$SPLINETYPE
 70
     6
  9
$SPLINESEGS
 70
     8
  9
$HANDSEED
  5
1DA
  9
$SURFTAB1
 70
     6
  9
$SURFTAB2
 70
     6
  9
$SURFTYPE
 70
     6
  9
$SURFU
 70
     6
  9
$SURFV
 70
     6
  9
$UCSBASE
  2

  9
$UCSNAME
  2

  9
$UCSORG
 10
0.0
 20
0.0
 30
0.0
  9
$UCSXDIR
 10
1.0
 20
0.0
 30
0.0
  9
$UCSYDIR
 10
0.0
 20
1.0
 30
0.0
  9
$UCSORTHOREF
  2

  9
$UCSORTHOVIEW
 70
     0
  9
$UCSORGTOP
 10
0.0
 20
0.0
 30
0.0
  9
$UCSORGBOTTOM
 10
0.0
 20
0.0
 30
0.0
  9
$UCSORGLEFT
 10
0.0
 20
0.0
 30
0.0
  9
$UCSORGRIGHT
 10
0.0
 20
0.0
 30
0.0
  9
$UCSORGFRONT
 10
0.0
 20
0.0
 30
0.0
  9
$UCSORGBACK
 10
0.0
 20
0.0
 30
0.0
  9
$PUCSBASE
  2

  9
$PUCSNAME
  2

  9
$PUCSORG
 10
0.0
 20
0.0
 30
0.0
  9
$PUCSXDIR
 10
1.0
 20
0.0
 30
0.0
  9
$PUCSYDIR
 10
0.0
 20
1.0
 30
0.0
  9
$PUCSORTHOREF
  2

  9
$PUCSORTHOVIEW
 70
     0
  9
$PUCSORGTOP
 10
0.0
 20
0.0
 30
0.0
  9
$PUCSORGBOTTOM
 10
0.0
 20
0.0
 30
0.0
  9
$PUCSORGLEFT
 10
0.0
 20
0.0
 30
0.0
  9
$PUCSORGRIGHT
 10
0.0
 20
0.0
 30
0.0
  9
$PUCSORGFRONT
 10
0.0
 20
0.0
 30
0.0
  9
$PUCSORGBACK
 10
0.0
 20
0.0
 30
0.0
  9
$USERI1
 70
     0
  9
$USERI2
 70
     0
  9
$USERI3
 70
     0
  9
$USERI4
 70
     0
  9
$USERI5
 70
     0
  9
$USERR1
 40
0.0
  9
$USERR2
 40
0.0
  9
$USERR3
 40
0.0
  9
$USERR4
 40
0.0
  9
$USERR5
 40
0.0
  9
$WORLDVIEW
 70
     1
  9
$SHADEDGE
 70
     3
  9
$SHADEDIF
 70
    70
  9
$TILEMODE
 70
     1
  9
$MAXACTVP
 70
    64
  9
$PINSBASE
 10
0.0
 20
0.0
 30
0.0
  9
$PLIMCHECK
 70
     0
  9
$PEXTMIN
 10
1.000000000000000E+20
 20
1.000000000000000E+20
 30
1.000000000000000E+20
  9
$PEXTMAX
 10
-1.000000000000000E+20
 20
-1.000000000000000E+20
 30
-1.000000000000000E+20
  9
$PLIMMIN
 10
0.0
 20
0.0
  9
$PLIMMAX
 10
12.0
 20
9.0
  9
$UNITMODE
 70
     0
  9
$VISRETAIN
 70
     1
  9
$PLINEGEN
 70
     0
  9
$PSLTSCALE
 70
     1
  9
$TREEDEPTH
 70
  3020
  9
$CMLSTYLE
  2
Standard
  9
$CMLJUST
 70
     0
  9
$CMLSCALE
 40
1.0
  9
$PROXYGRAPHICS
 70
     1
  9
$MEASUREMENT
 70
     0
  9
$CELWEIGHT
370
    -1
  9
$ENDCAPS
280
     0
  9
$JOINSTYLE
280
     0
  9
$LWDISPLAY
290
     0
  9
$INSUNITS
 70
     1
  9
$HYPERLINKBASE
  1

  9
$STYLESHEET
  1

  9
$XEDIT
290
     1
  9
$CEPSNTYPE
380
     0
  9
$PSTYLEMODE
290
     1
  9
$FINGERPRINTGUID
  2
{A7212B30-3D36-49F1-92DF-1DBE6B6F6514}
  9
$VERSIONGUID
  2
{FAEB1C32-E019-11D5-929B-00C0DF256EC4}
  9
$EXTNAMES
290
     1
  9
$PSVPSCALE
 40
0.0
  9
$OLESTARTUP
290
     0
  9
$SORTENTS
280
   127
  9
$INDEXCTL
280
     0
  9
$HIDETEXT
280
     1
  9
$XCLIPFRAME
280
     2
  9
$HALOGAP
280
     0
  9
$OBSCOLOR
 70
   257
  9
$OBSLTYPE
280
     0
  9
$INTERSECTIONDISPLAY
280
     0
  9
$INTERSECTIONCOLOR
 70
   257
  9
$DIMASSOC
280
     2
  9
$PROJECTNAME
  1

  9
$CAMERADISPLAY
290
     0
  9
$LENSLENGTH
 40
50.0
  9
$CAMERAHEIGHT
 40
0.0
  9
$STEPSPERSEC
 40
2.0
  9
$STEPSIZE
 40
6.0
  9
$3DDWFPREC
 40
2.0
  9
$PSOLWIDTH
 40
0.25
  9
$PSOLHEIGHT
 40
4.0
  9
$LOFTANG1
 40
1.570796326794897
  9
$LOFTANG2
 40
1.570796326794897
  9
$LOFTMAG1
 40
0.0
  9
$LOFTMAG2
 40
0.0
  9
$LOFTPARAM
 70
     7
  9
$LOFTNORMALS
280
     1
  9
$LATITUDE
 40
37.795
  9
$LONGITUDE
 40
-122.394
  9
$NORTHDIRECTION
 40
0.0
  9
$TIMEZONE
 70
 -8000
  9
$LIGHTGLYPHDISPLAY
280
     1
  9
$TILEMODELIGHTSYNCH
280
     1
  9
$CMATERIAL
347
44
  9
$SOLIDHIST
280
     0
  9
$SHOWHIST
280
     1
  9
$DWFFRAME
280
     2
  9
$DGNFRAME
280
     2
  9
$REALWORLDSCALE
290
     1
  9
$INTERFERECOLOR
 62
   256
  9
$CSHADOW
280
     0
  9
$SHADOWPLANELOCATION
 40
0.0
  0
ENDSEC
  0
SECTION
  2
CLASSES
  0
CLASS
  1
ACDBDICTIONARYWDFLT
  2
AcDbDictionaryWithDefault
  3
ObjectDBX Classes
 90
        0
 91
        4
280
     0
281
     0
  0
CLASS
  1
VISUALSTYLE
  2
AcDbVisualStyle
  3
ObjectDBX Classes
 90
     4095
 91
        4
280
     0
281
     0
  0
CLASS
  1
MATERIAL
  2
AcDbMaterial
  3
ObjectDBX Classes
 90
     1153
 91
        4
280
     0
281
     0
  0
CLASS
  1
SCALE
  2
AcDbScale
  3
ObjectDBX Classes
 90
     1153
 91
        4
280
     0
281
     0
  0
CLASS
  1
TABLESTYLE
  2
AcDbTableStyle
  3
ObjectDBX Classes
 90
     4095
 91
        4
280
     0
281
     0
  0
CLASS
  1
MLEADERSTYLE
  2
AcDbMLeaderStyle
  3
ACDB_MLEADERSTYLE_CLASS
 90
     4095
 91
        4
280
     0
281
     0
  0
CLASS
  1
SUN
  2
AcDbSun
  3
SCENEOE
 90
     1153
 91
        4
280
     0
281
     0
  0
CLASS
  1
DICTIONARYVAR
  2
AcDbDictionaryVar
  3
ObjectDBX Classes
 90
        0
 91
        4
280
     0
281
     0
  0
CLASS
  1
CELLSTYLEMAP
  2
AcDbCellStyleMap
  3
ObjectDBX Classes
 90
     1152
 91
        4
280
     0
281
     0
  0
ENDSEC
  0
SECTION
  2
TABLES
  0
TABLE
  2
VPORT
  5
8
330
0
100
AcDbSymbolTable
 70
     1
  0
VPORT
  5
29
330
8
100
AcDbSymbolTableRecord
100
AcDbViewportTableRecord
  2
*Active
 70
     0
 10
0.0
 20
0.0
 11
1.0
 21
1.0
 12
-0.3049999999999997
 22
0.0
 13
0.0
 23
0.0
 14
0.5
 24
0.5
 15
0.5
 25
0.5
 16
0.0
 26
0.0
 36
1.0
 17
0.0
 27
0.0
 37
0.0
 40
4.341374999999999
 41
0.5039647577092511
 42
50.0
 43
0.0
 44
0.0
 50
0.0
 51
0.0
 71
     0
 72
   100
 73
     1
 74
     3
 75
     0
 76
     0
 77
     0
 78
     0
281
     0
 65
     1
110
0.0
120
0.0
130
0.0
111
1.0
121
0.0
131
0.0
112
0.0
122
1.0
132
0.0
 79
     0
146
0.0
348
2F
 60
     3
 61
     5
292
     1
282
     1
141
0.0
142
0.0
 63
   250
361
6D
  0
ENDTAB
  0
TABLE
  2
LTYPE
  5
5
330
0
100
AcDbSymbolTable
 70
     3
  0
LTYPE
  5
14
330
5
100
AcDbSymbolTableRecord
100
AcDbLinetypeTableRecord
  2
ByBlock
 70
     0
  3

 72
    65
 73
     0
 40
0.0
  0
LTYPE
  5
15
330
5
100
AcDbSymbolTableRecord
100
AcDbLinetypeTableRecord
  2
ByLayer
 70
     0
  3

 72
    65
 73
     0
 40
0.0
  0
LTYPE
  5
16
330
5
100
AcDbSymbolTableRecord
100
AcDbLinetypeTableRecord
  2
Continuous
 70
     0
  3
Solid line
 72
    65
 73
     0
 40
0.0
  0
LTYPE
  5
9E
330
5
100
AcDbSymbolTableRecord
100
AcDbLinetypeTableRecord
  2
Dashed
 70
     0
  3

 72
    65
 73
     2
 40
2.0
 49
1.0
 74
     0
 49
-1.0
 74
     0
  0
LTYPE
  5
D1
330
5
100
AcDbSymbolTableRecord
100
AcDbLinetypeTableRecord
  2
Center
 70
     0
  3

 72
    65
 73
     4
 40
1.5
 49
0.45
 74
     0
 49
-0.5
 74
     0
 49
0.05
 74
     0
 49
-0.5
 74
     0
  0
ENDTAB
  0
TABLE
  2
LAYER
  5
2
330
0
100
AcDbSymbolTable
 70
     7
  0
LAYER
  5
10
330
2
100
AcDbSymbolTableRecord
100
AcDbLayerTableRecord
  2
0
 70
     0
 62
     7
  6
Continuous
370
    -3
390
F
347
46
348
0
  0
LAYER
  5
72
330
2
100
AcDbSymbolTableRecord
100
AcDbLayerTableRecord
  2
AM_6
 70
     0
 62
    -2
  6
Continuous
370
    35
390
F
347
46
348
0
  0
LAYER
  5
9F
330
2
100
AcDbSymbolTableRecord
100
AcDbLayerTableRecord
  2
AM_9
 70
     0
 62
     6
  6
Dashed
370
    25
390
F
347
46
348
0
  0
LAYER
  5
CE
330
2
100
AcDbSymbolTableRecord
100
AcDbLayerTableRecord
  2
AM_5
 70
     0
 62
     3
  6
Continuous
370
    25
390
F
347
46
348
0
  0
LAYER
  5
D2
330
2
100
AcDbSymbolTableRecord
100
AcDbLayerTableRecord
  2
AM_7
 70
     0
 62
     7
  6
Center
370
    25
390
F
347
46
348
0
  0
LAYER
  5
D5
330
2
100
AcDbSymbolTableRecord
100
AcDbLayerTableRecord
  2
AM_4
 70
     0
 62
     7
  6
Continuous
370
    50
390
F
347
46
348
0
  0
LAYER
  5
1CD
330
2
100
AcDbSymbolTableRecord
100
AcDbLayerTableRecord
  2
ConnectionPoints
 70
     0
 62
     7
  6
Continuous
370
    50
390
F
347
46
348
0
  0
ENDTAB
  0
TABLE
  2
STYLE
  5
3
330
0
100
AcDbSymbolTable
 70
     1
  0
STYLE
  5
11
330
3
100
AcDbSymbolTableRecord
100
AcDbTextStyleTableRecord
  2
Standard
 70
     0
 40
0.0
 41
1.0
 50
0.0
 71
     0
 42
0.2
  3
txt
  4

  0
ENDTAB
  0
TABLE
  2
VIEW
  5
6
330
0
100
AcDbSymbolTable
 70
     0
  0
ENDTAB
  0
TABLE
  2
UCS
  5
7
330
0
100
AcDbSymbolTable
 70
     0
  0
ENDTAB
  0
TABLE
  2
APPID
  5
9
330
0
100
AcDbSymbolTable
 70
     1
  0
APPID
  5
12
330
9
100
AcDbSymbolTableRecord
100
AcDbRegAppTableRecord
  2
ACAD
 70
     0
  0
ENDTAB
  0
TABLE
  2
DIMSTYLE
  5
A
330
0
100
AcDbSymbolTable
 70
     1
100
AcDbDimStyleTable
  0
DIMSTYLE
105
27
330
A
100
AcDbSymbolTableRecord
100
AcDbDimStyleTableRecord
  2
Standard
 70
     0
178
     0
340
11
  0
ENDTAB
  0
TABLE
  2
BLOCK_RECORD
  5
1
330
0
100
AcDbSymbolTable
 70
     5
  0
BLOCK_RECORD
  5
1F
330
1
100
AcDbSymbolTableRecord
100
AcDbBlockTableRecord
  2
*Model_Space
340
22
 70
     0
280
     1
281
     0
  0
BLOCK_RECORD
  5
1B
330
1
100
AcDbSymbolTableRecord
100
AcDbBlockTableRecord
  2
*Paper_Space
340
1E
 70
     0
280
     1
281
     0
  0
BLOCK_RECORD
  5
23
330
1
100
AcDbSymbolTableRecord
100
AcDbBlockTableRecord
  2
*Paper_Space0
340
26
 70
     0
280
     1
281
     0
  0
BLOCK_RECORD
  5
6E
330
1
100
AcDbSymbolTableRecord
100
AcDbBlockTableRecord
  2
1_131266_2
340
0
102
{BLKREFS
331
6F
102
}
 70
     0
280
     1
281
     0
  0
BLOCK_RECORD
  5
86
330
1
100
AcDbSymbolTableRecord
100
AcDbBlockTableRecord
  2
2_131915_0_in_131266_2
340
0
102
{BLKREFS
331
87
102
}
 70
     0
280
     1
281
     0
  0
BLOCK_RECORD
  5
F2
330
1
100
AcDbSymbolTableRecord
100
AcDbBlockTableRecord
  2
3_405020c_Inch_0_in_131266_2
340
0
102
{BLKREFS
331
F3
102
}
 70
     0
280
     1
281
     0
  0
BLOCK_RECORD
  5
150
330
1
100
AcDbSymbolTableRecord
100
AcDbBlockTableRecord
  2
4_131266H_0_in_131266_2
340
0
102
{BLKREFS
331
151
102
}
 70
     0
280
     1
281
     0
  0
ENDTAB
  0
ENDSEC
  0
SECTION
  2
BLOCKS
  0
BLOCK
  5
20
330
1F
100
AcDbEntity
  8
0
100
AcDbBlockBegin
  2
*Model_Space
 70
     0
 10
0.0
 20
0.0
 30
0.0
  3
*Model_Space
  1

  0
ENDBLK
  5
21
330
1F
100
AcDbEntity
  8
0
100
AcDbBlockEnd
  0
BLOCK
  5
1C
330
1B
100
AcDbEntity
 67
     1
  8
0
100
AcDbBlockBegin
  2
*Paper_Space
 70
     0
 10
0.0
 20
0.0
 30
0.0
  3
*Paper_Space
  1

  0
ENDBLK
  5
1D
330
1B
100
AcDbEntity
 67
     1
  8
0
100
AcDbBlockEnd
  0
BLOCK
  5
24
330
23
100
AcDbEntity
  8
0
100
AcDbBlockBegin
  2
*Paper_Space0
 70
     0
 10
0.0
 20
0.0
 30
0.0
  3
*Paper_Space0
  1

  0
ENDBLK
  5
25
330
23
100
AcDbEntity
  8
0
100
AcDbBlockEnd
  0
BLOCK
  5
70
330
6E
100
AcDbEntity
  8
0
100
AcDbBlockBegin
  2
1_131266_2
 70
     2
 10
0.0
 20
0.0
 30
0.0
  3
1_131266_2
  1

  0
ATTDEF
  5
73
330
6E
100
AcDbEntity
  8
AM_6
100
AcDbText
 10
5.7675
 20
2.128125
 30
0.0
 40
0.5
  1
Eccentric Collar Hanger Bearing Inch Bore
100
AcDbAttributeDefinition
  3

  2
NN
 70
     8
280
     0
  0
ATTDEF
  5
74
330
6E
100
AcDbEntity
  8
AM_6
100
AcDbText
 10
5.7675
 20
1.628125
 30
0.0
 40
0.5
  1
SXR Hanger Bearings -(Normal Duty)
100
AcDbAttributeDefinition
  3

  2
NT
 70
     8
280
     0
  0
ATTDEF
  5
75
330
6E
100
AcDbEntity
  8
AM_6
100
AcDbText
 10
5.7675
 20
1.128125
 30
0.0
 40
0.5
  1
131266
100
AcDbAttributeDefinition
  3

  2
NB
 70
     8
280
     0
  0
ATTDEF
  5
76
330
6E
100
AcDbEntity
  8
AM_6
100
AcDbText
 10
5.7675
 20
0.6281249999999998
 30
0.0
 40
0.5
  1
$PN.
100
AcDbAttributeDefinition
  3

  2
NBSYN
 70
     8
280
     0
  0
ATTDEF
  5
77
330
6E
100
AcDbEntity
  8
AM_6
100
AcDbText
 10
5.7675
 20
0.1281249999999998
 30
0.0
 40
0.5
  1
131266
100
AcDbAttributeDefinition
  3

  2
LINA
 70
     8
280
     0
  0
ATTDEF
  5
78
330
6E
100
AcDbEntity
  8
AM_6
100
AcDbText
 10
5.7675
 20
-0.3718750000000002
 30
0.0
 40
0.5
  1
207
100
AcDbAttributeDefinition
  3

  2
SERIES
 70
     8
280
     0
  0
ATTDEF
  5
79
330
6E
100
AcDbEntity
  8
AM_6
100
AcDbText
 10
5.7675
 20
-0.8718750000000002
 30
0.0
 40
0.5
  1
1-7/16
100
AcDbAttributeDefinition
  3

  2
SS
 70
     8
280
     0
  0
ATTDEF
  5
7A
330
6E
100
AcDbEntity
  8
AM_6
100
AcDbText
 10
5.7675
 20
-1.371875
 30
0.0
 40
0.5
  1
131266
100
AcDbAttributeDefinition
  3

  2
PN
 70
     8
280
     0
  0
ATTDEF
  5
7B
330
6E
100
AcDbEntity
  8
AM_6
100
AcDbText
 10
5.7675
 20
-1.871875
 30
0.0
 40
0.5
  1
HNG-SXR-107
100
AcDbAttributeDefinition
  3

  2
DESCRIPTION
 70
     8
280
     0
  0
ATTDEF
  5
7C
330
6E
100
AcDbEntity
  8
AM_6
100
AcDbText
 10
5.7675
 20
-2.371875
 30
0.0
 40
0.5
  1
2.6
100
AcDbAttributeDefinition
  3

  2
W
 70
     8
280
     0
  0
ATTDEF
  5
7D
330
6E
100
AcDbEntity
  8
AM_6
100
AcDbText
 10
5.7675
 20
-2.871875
 30
0.0
 40
0.5
  1
1.95
100
AcDbAttributeDefinition
  3

  2
A
 70
     8
280
     0
  0
ATTDEF
  5
7E
330
6E
100
AcDbEntity
  8
AM_6
100
AcDbText
 10
5.7675
 20
-3.371875
 30
0.0
 40
0.5
  1
4.25
100
AcDbAttributeDefinition
  3

  2
B
 70
     8
280
     0
  0
ATTDEF
  5
7F
330
6E
100
AcDbEntity
  8
AM_6
100
AcDbText
 10
5.7675
 20
-3.871875
 30
0.0
 40
0.5
  1
1.68
100
AcDbAttributeDefinition
  3

  2
C
 70
     8
280
     0
  0
ATTDEF
  5
80
330
6E
100
AcDbEntity
  8
AM_6
100
AcDbText
 10
5.7675
 20
-4.371875
 30
0.0
 40
0.5
  1
3.50
100
AcDbAttributeDefinition
  3

  2
F
 70
     8
280
     0
  0
ATTDEF
  5
81
330
6E
100
AcDbEntity
  8
AM_6
100
AcDbText
 10
5.7675
 20
-4.871875
 30
0.0
 40
0.5
  1
2.13
100
AcDbAttributeDefinition
  3

  2
L
 70
     8
280
     0
  0
ATTDEF
  5
82
330
6E
100
AcDbEntity
  8
AM_6
100
AcDbText
 10
5.7675
 20
-5.371875
 30
0.0
 40
0.5
  1
1/2
100
AcDbAttributeDefinition
  3

  2
M
 70
     8
280
     0
  0
ATTDEF
  5
83
330
6E
100
AcDbEntity
  8
AM_6
100
AcDbText
 10
5.7675
 20
-5.871875
 30
0.0
 40
0.5
  1
0.67
100
AcDbAttributeDefinition
  3

  2
R
 70
     8
280
     0
  0
ATTDEF
  5
84
330
6E
100
AcDbEntity
  8
AM_6
100
AcDbText
 10
5.7675
 20
-6.371875
 30
0.0
 40
0.5
  1
1.28
100
AcDbAttributeDefinition
  3

  2
S
 70
     8
280
     0
  0
ATTDEF
  5
85
330
6E
100
AcDbEntity
  8
AM_6
100
AcDbText
 10
5.7675
 20
-6.871875
 30
0.0
 40
0.5
  1
baldor
100
AcDbAttributeDefinition
  3

  2
COMPANY
 70
     8
280
     0
  0
INSERT
  5
87
330
6E
100
AcDbEntity
  8
0
100
AcDbBlockReference
  2
2_131915_0_in_131266_2
 10
0.0
 20
0.0
 30
0.0
  0
INSERT
  5
F3
330
6E
100
AcDbEntity
  8
0
100
AcDbBlockReference
  2
3_405020c_Inch_0_in_131266_2
 10
0.0
 20
0.0
 30
0.0
  0
INSERT
  5
151
330
6E
100
AcDbEntity
  8
0
100
AcDbBlockReference
  2
4_131266H_0_in_131266_2
 10
0.0
 20
0.0
 30
0.0
  0
ENDBLK
  5
71
330
6E
100
AcDbEntity
  8
0
100
AcDbBlockEnd
  0
BLOCK
  5
88
330
86
100
AcDbEntity
  8
0
100
AcDbBlockBegin
  2
2_131915_0_in_131266_2
 70
     2
 10
0.0
 20
0.0
 30
0.0
  3
2_131915_0_in_131266_2
  1

  0
ATTDEF
  5
8A
330
86
100
AcDbEntity
  8
AM_6
100
AcDbText
 10
5.7675
 20
1.416544648292939
 30
0.0
 40
0.5
  1
Eccentric Collar Insert Inch Bore
100
AcDbAttributeDefinition
  3

  2
NN
 70
     8
280
     0
  0
ATTDEF
  5
8B
330
86
100
AcDbEntity
  8
AM_6
100
AcDbText
 10
5.7675
 20
0.9165446482929387
 30
0.0
 40
0.5
  1
SXR Normal Duty Bearing Inserts
100
AcDbAttributeDefinition
  3

  2
NT
 70
     8
280
     0
  0
ATTDEF
  5
8C
330
86
100
AcDbEntity
  8
AM_6
100
AcDbText
 10
5.7675
 20
0.4165446482929387
 30
0.0
 40
0.5
  1
131915
100
AcDbAttributeDefinition
  3

  2
NB
 70
     8
280
     0
  0
ATTDEF
  5
8D
330
86
100
AcDbEntity
  8
AM_6
100
AcDbText
 10
5.7675
 20
-0.0834553517070613
 30
0.0
 40
0.5
  1
$PN.
100
AcDbAttributeDefinition
  3

  2
NBSYN
 70
     8
280
     0
  0
ATTDEF
  5
8E
330
86
100
AcDbEntity
  8
AM_6
100
AcDbText
 10
5.7675
 20
-0.5834553517070613
 30
0.0
 40
0.5
  1
131915
100
AcDbAttributeDefinition
  3

  2
LINA
 70
     8
280
     0
  0
ATTDEF
  5
8F
330
86
100
AcDbEntity
  8
AM_6
100
AcDbText
 10
5.7675
 20
-1.083455351707061
 30
0.0
 40
0.5
  1
207
100
AcDbAttributeDefinition
  3

  2
SERIES
 70
     8
280
     0
  0
ATTDEF
  5
90
330
86
100
AcDbEntity
  8
AM_6
100
AcDbText
 10
5.7675
 20
-1.583455351707061
 30
0.0
 40
0.5
  1
1-7/16
100
AcDbAttributeDefinition
  3

  2
SS
 70
     8
280
     0
  0
ATTDEF
  5
91
330
86
100
AcDbEntity
  8
AM_6
100
AcDbText
 10
5.7675
 20
-2.083455351707062
 30
0.0
 40
0.5
  1
131915
100
AcDbAttributeDefinition
  3

  2
PN
 70
     8
280
     0
  0
ATTDEF
  5
92
330
86
100
AcDbEntity
  8
AM_6
100
AcDbText
 10
5.7675
 20
-2.583455351707062
 30
0.0
 40
0.5
  1
INS-SXR-107
100
AcDbAttributeDefinition
  3

  2
DESCRIPTION
 70
     8
280
     0
  0
ATTDEF
  5
93
330
86
100
AcDbEntity
  8
AM_6
100
AcDbText
 10
5.7675
 20
-3.083455351707062
 30
0.0
 40
0.5
  1
1.2
100
AcDbAttributeDefinition
  3

  2
WEIGHT
 70
     8
280
     0
  0
ATTDEF
  5
94
330
86
100
AcDbEntity
  8
AM_6
100
AcDbText
 10
5.7675
 20
-3.583455351707062
 30
0.0
 40
0.5
  1
1.95
100
AcDbAttributeDefinition
  3

  2
A
 70
     8
280
     0
  0
ATTDEF
  5
95
330
86
100
AcDbEntity
  8
AM_6
100
AcDbText
 10
5.7675
 20
-4.083455351707062
 30
0.0
 40
0.5
  1
0.75
100
AcDbAttributeDefinition
  3

  2
C
 70
     8
280
     0
  0
ATTDEF
  5
96
330
86
100
AcDbEntity
  8
AM_6
100
AcDbText
 10
5.7675
 20
-4.583455351707062
 30
0.0
 40
0.5
  1
2.8346
100
AcDbAttributeDefinition
  3

  2
D
 70
     8
280
     0
  0
ATTDEF
  5
97
330
86
100
AcDbEntity
  8
AM_6
100
AcDbText
 10
5.7675
 20
-5.083455351707062
 30
0.0
 40
0.5
  1
0.20
100
AcDbAttributeDefinition
  3

  2
J
 70
     8
280
     0
  0
ATTDEF
  5
98
330
86
100
AcDbEntity
  8
AM_6
100
AcDbText
 10
5.7675
 20
-5.583455351707062
 30
0.0
 40
0.5
  1
2.13
100
AcDbAttributeDefinition
  3

  2
L
 70
     8
280
     0
  0
ATTDEF
  5
99
330
86
100
AcDbEntity
  8
AM_6
100
AcDbText
 10
5.7675
 20
-6.083455351707062
 30
0.0
 40
0.5
  1
5/16 - 24
100
AcDbAttributeDefinition
  3

  2
N
 70
     8
280
     0
  0
ATTDEF
  5
9A
330
86
100
AcDbEntity
  8
AM_6
100
AcDbText
 10
5.7675
 20
-6.583455351707062
 30
0.0
 40
0.5
  1
0.67
100
AcDbAttributeDefinition
  3

  2
W
 70
     8
280
     0
  0
ATTDEF
  5
9B
330
86
100
AcDbEntity
  8
AM_6
100
AcDbText
 10
5.7675
 20
-7.083455351707062
 30
0.0
 40
0.5
  1
1.28
100
AcDbAttributeDefinition
  3

  2
Y
 70
     8
280
     0
  0
ATTDEF
  5
9C
330
86
100
AcDbEntity
  8
AM_6
100
AcDbText
 10
5.7675
 20
-7.583455351707062
 30
0.0
 40
0.5
  1
1.84
100
AcDbAttributeDefinition
  3

  2
Z
 70
     8
280
     0
  0
ATTDEF
  5
9D
330
86
100
AcDbEntity
  8
AM_6
100
AcDbText
 10
5.7675
 20
-8.083455351707062
 30
0.0
 40
0.5
  1
baldor
100
AcDbAttributeDefinition
  3

  2
COMPANY
 70
     8
280
     0
  0
LINE
  5
A0
330
86
100
AcDbEntity
  8
AM_9
100
AcDbLine
 10
-0.9062749999999998
 20
1.05932564637252
 30
0.0
 11
-0.9006006463725202
 21
1.065
 31
0.0
  0
LINE
  5
A1
330
86
100
AcDbEntity
  8
AM_9
100
AcDbLine
 10
-1.19064935362748
 20
1.065
 30
0.0
 11
-1.184975
 21
1.05932564637252
 31
0.0
  0
LINE
  5
A2
330
86
100
AcDbEntity
  8
AM_9
100
AcDbLine
 10
-0.959809805759363
 20
1.05932564637252
 30
0.0
 11
-0.9062749999999998
 21
1.05932564637252
 31
0.0
  0
LINE
  5
A3
330
86
100
AcDbEntity
  8
AM_9
100
AcDbLine
 10
-0.906275
 20
0.7187500000000001
 30
0.0
 11
-0.9062749999999998
 21
1.05932564637252
 31
0.0
  0
LINE
  5
A4
330
86
100
AcDbEntity
  8
AM_9
100
AcDbLine
 10
-1.184975
 20
1.05932564637252
 30
0.0
 11
-1.184975
 21
0.71875
 31
0.0
  0
LINE
  5
A5
330
86
100
AcDbEntity
  8
AM_9
100
AcDbLine
 10
-1.184975
 20
1.05932564637252
 30
0.0
 11
-1.131440194240637
 21
1.05932564637252
 31
0.0
  0
LINE
  5
A6
330
86
100
AcDbEntity
  8
AM_9
100
AcDbLine
 10
-0.800643398282202
 20
-0.7187500000000001
 30
0.0
 11
0.655
 21
-0.7187500000000001
 31
0.0
  0
LINE
  5
A7
330
86
100
AcDbEntity
  8
AM_9
100
AcDbLine
 10
0.655
 20
0.7187500000000001
 30
0.0
 11
-0.800643398282202
 21
0.7187500000000001
 31
0.0
  0
LWPOLYLINE
  5
A8
330
86
100
AcDbEntity
  8
AM_9
100
AcDbPolyline
 90
       20
 70
     0
 43
0.0
 10
-1.184975
 20
0.7187500000000001
 10
-1.183093671690264
 20
0.7183876221764166
 10
-1.177288492605745
 20
0.7172993902723905
 10
-1.168064087164138
 20
0.7156636570803268
 10
-1.155169721119742
 20
0.7135707294481761
 10
-1.139472371382817
 20
0.711330070442312
 10
-1.120647093887982
 20
0.7090919930244152
 10
-1.100062796933138
 20
0.7072104451540105
 10
-1.077249072023939
 20
0.705820956001857
 10
-1.054453409469214
 20
0.705167413323784
 10
-1.03072087323542
 20
0.7052696455928149
 10
-1.008402027198618
 20
0.7060939666249616
 10
-0.9865095985215536
 20
0.7075858751359853
 10
-0.9667151534656246
 20
0.7095138503793136
 10
-0.9485900734958713
 20
0.7117576251517518
 10
-0.9333643739609185
 20
0.71399270875737
 10
-0.9209290538750844
 20
0.7160532235665084
 10
-0.9123259555265895
 20
0.7176014041635679
 10
-0.9073375162776274
 20
0.7185447572380342
 10
-0.906275000001072
 20
0.7187499999997922
  0
LINE
  5
A9
330
86
100
AcDbEntity
  8
AM_9
100
AcDbLine
 10
-1.265
 20
-0.7187500000000001
 30
0.0
 11
-0.8218566017177983
 21
-0.7187500000000001
 31
0.0
  0
LINE
  5
AA
330
86
100
AcDbEntity
  8
AM_9
100
AcDbLine
 10
-0.8218566017177983
 20
0.7187500000000001
 30
0.0
 11
-0.906275
 21
0.7187500000000001
 31
0.0
  0
LINE
  5
AB
330
86
100
AcDbEntity
  8
AM_9
100
AcDbLine
 10
-1.184975
 20
0.7187500000000001
 30
0.0
 11
-1.265
 21
0.7187500000000001
 31
0.0
  0
LINE
  5
AC
330
86
100
AcDbEntity
  8
AM_9
100
AcDbLine
 10
-0.800643398282202
 20
0.7187500000000001
 30
0.0
 11
-0.8112499999999998
 21
0.7293566017177984
 31
0.0
  0
LINE
  5
AD
330
86
100
AcDbEntity
  8
AM_9
100
AcDbLine
 10
-0.8112499999999998
 20
-0.7293566017177984
 30
0.0
 11
-0.800643398282202
 21
-0.7187500000000001
 31
0.0
  0
LINE
  5
AE
330
86
100
AcDbEntity
  8
AM_9
100
AcDbLine
 10
-0.800643398282202
 20
0.7187500000000001
 30
0.0
 11
-0.800643398282202
 21
-0.7187500000000001
 31
0.0
  0
LINE
  5
AF
330
86
100
AcDbEntity
  8
AM_9
100
AcDbLine
 10
-0.8218566017177983
 20
-0.7187500000000001
 30
0.0
 11
-0.8112499999999998
 21
-0.7293566017177984
 31
0.0
  0
LINE
  5
B0
330
86
100
AcDbEntity
  8
AM_9
100
AcDbLine
 10
-0.8112499999999998
 20
0.7293566017177984
 30
0.0
 11
-0.8218566017177983
 21
0.7187500000000001
 31
0.0
  0
LINE
  5
B1
330
86
100
AcDbEntity
  8
AM_9
100
AcDbLine
 10
-0.8112499999999998
 20
0.7293566017177984
 30
0.0
 11
-0.8112499999999998
 21
-0.7293566017177984
 31
0.0
  0
LINE
  5
B2
330
86
100
AcDbEntity
  8
AM_9
100
AcDbLine
 10
-0.8218566017177983
 20
0.7187500000000001
 30
0.0
 11
-0.8218566017177983
 21
-0.7187500000000001
 31
0.0
  0
LINE
  5
B3
330
86
100
AcDbEntity
  8
AM_9
100
AcDbLine
 10
0.655
 20
-0.71875
 30
0.0
 11
0.67
 21
-0.73375
 31
0.0
  0
LINE
  5
B4
330
86
100
AcDbEntity
  8
AM_9
100
AcDbLine
 10
0.67
 20
0.73375
 30
0.0
 11
0.655
 21
0.71875
 31
0.0
  0
LINE
  5
B5
330
86
100
AcDbEntity
  8
AM_9
100
AcDbLine
 10
-1.265
 20
0.7187500000000001
 30
0.0
 11
-1.28
 21
0.73375
 31
0.0
  0
LINE
  5
B6
330
86
100
AcDbEntity
  8
AM_9
100
AcDbLine
 10
-1.28
 20
-0.73375
 30
0.0
 11
-1.265
 21
-0.7187500000000001
 31
0.0
  0
LINE
  5
B7
330
86
100
AcDbEntity
  8
AM_9
100
AcDbLine
 10
-1.265
 20
0.7187500000000001
 30
0.0
 11
-1.265
 21
-0.7187500000000001
 31
0.0
  0
LINE
  5
B8
330
86
100
AcDbEntity
  8
AM_9
100
AcDbLine
 10
-0.3999999999999997
 20
-0.92
 30
0.0
 11
-0.3749999999999999
 21
-0.92
 31
0.0
  0
LINE
  5
B9
330
86
100
AcDbEntity
  8
AM_9
100
AcDbLine
 10
-0.3749999999999999
 20
0.92
 30
0.0
 11
-0.3999999999999997
 21
0.92
 31
0.0
  0
LINE
  5
BA
330
86
100
AcDbEntity
  8
AM_9
100
AcDbLine
 10
0.3749999999999999
 20
-0.9200000000000003
 30
0.0
 11
0.4
 21
-0.9200000000000005
 31
0.0
  0
LINE
  5
BB
330
86
100
AcDbEntity
  8
AM_9
100
AcDbLine
 10
0.4
 20
0.9200000000000003
 30
0.0
 11
0.3749999999999999
 21
0.9200000000000003
 31
0.0
  0
LINE
  5
BC
330
86
100
AcDbEntity
  8
AM_9
100
AcDbLine
 10
-0.24
 20
-1.349809523809524
 30
0.0
 11
-0.1600000000000001
 21
-1.349809523809524
 31
0.0
  0
LINE
  5
BD
330
86
100
AcDbEntity
  8
AM_9
100
AcDbLine
 10
-0.1600000000000001
 20
1.349809523809524
 30
0.0
 11
-0.24
 21
1.349809523809524
 31
0.0
  0
LINE
  5
BE
330
86
100
AcDbEntity
  8
AM_9
100
AcDbLine
 10
-0.3750000000000001
 20
1.343717340068215
 30
0.0
 11
-0.3750000000000001
 21
-1.343717340068215
 31
0.0
  0
ARC
  5
BF
330
86
100
AcDbEntity
  8
AM_9
100
AcDbCircle
 10
-0.3450000000000001
 20
-1.343717340068215
 30
0.0
 40
0.03
100
AcDbArc
 50
180.0
 51
255.6003189653797
  0
ARC
  5
C0
330
86
100
AcDbEntity
  8
AM_9
100
AcDbCircle
 10
-0.345
 20
1.343717340068215
 30
0.0
 40
0.0300000000000001
100
AcDbArc
 50
104.3996810346203
 51
180.0
  0
LINE
  5
C1
330
86
100
AcDbEntity
  8
AM_9
100
AcDbLine
 10
0.3749999999999999
 20
1.343717340068215
 30
0.0
 11
0.3749999999999999
 21
-1.343717340068215
 31
0.0
  0
ARC
  5
C2
330
86
100
AcDbEntity
  8
AM_9
100
AcDbCircle
 10
0.3450000000000001
 20
-1.343717340068215
 30
0.0
 40
0.0299999999999999
100
AcDbArc
 50
284.3996785191658
 51
0.0
  0
ARC
  5
C3
330
86
100
AcDbEntity
  8
AM_9
100
AcDbCircle
 10
0.3450000000000001
 20
1.343717340068215
 30
0.0
 40
0.0299999999999999
100
AcDbArc
 50
0.0
 51
75.6003214808341
  0
ARC
  5
C4
330
86
100
AcDbEntity
  8
AM_9
100
AcDbCircle
 10
-0.0000000000000497
 20
0.0000000000002218
 30
0.0
 40
1.417299999999773
100
AcDbArc
 50
99.74921852491356
 51
104.399681034621
  0
ARC
  5
C5
330
86
100
AcDbEntity
  8
AM_9
100
AcDbCircle
 10
0.0000000000791708
 20
0.000000000370433
 30
0.0
 40
1.417300000378176
100
AcDbArc
 50
255.6003189660001
 51
260.2507814744653
  0
LINE
  5
C6
330
86
100
AcDbEntity
  8
AM_9
100
AcDbLine
 10
-0.3524605348518704
 20
1.372774876435293
 30
0.0
 11
-0.3524605348518704
 21
-1.372774876434975
 31
0.0
  0
LINE
  5
C7
330
86
100
AcDbEntity
  8
AM_9
100
AcDbLine
 10
-0.24
 20
1.396831876068126
 30
0.0
 11
-0.24
 21
-1.396831876067807
 31
0.0
  0
ARC
  5
C8
330
86
100
AcDbEntity
  8
AM_9
100
AcDbCircle
 10
0.0000000000000029
 20
0.000000000000024
 30
0.0
 40
1.417299999999976
100
AcDbArc
 50
75.60031901862381
 51
96.48197920051824
  0
ARC
  5
C9
330
86
100
AcDbEntity
  8
AM_9
100
AcDbCircle
 10
0.0000000000006869
 20
-0.0000000000098934
 30
0.0
 40
1.417299999990226
100
AcDbArc
 50
263.5180207994092
 51
284.3996809814489
  0
LINE
  5
CA
330
86
100
AcDbEntity
  8
AM_9
100
AcDbLine
 10
-0.1600000000000001
 20
1.40823978426971
 30
0.0
 11
-0.1600000000000001
 21
-1.408239784269688
 31
0.0
  0
LINE
  5
CB
330
86
100
AcDbEntity
  8
AM_9
100
AcDbLine
 10
0.3524605335761585
 20
1.372774876762832
 30
0.0
 11
0.3524605335761585
 21
-1.372774876762811
 31
0.0
  0
ELLIPSE
  5
CC
330
86
100
AcDbEntity
  8
AM_9
100
AcDbEllipse
 10
0.2020242844861544
 20
-0.0000000000000002
 30
0.0
 11
-1.895739473094432E-17
 21
-0.1031992502880188
 31
0.0
210
0.0
220
0.0
230
1.0
 40
0.9897340950399784
 41
1.886968884331962
 42
7.537809076437203
  0
ARC
  5
CD
330
86
100
AcDbEntity
  8
AM_9
100
AcDbCircle
 10
0.2000000000000299
 20
0.0
 30
0.0
 40
0.1041666666666369
100
AcDbArc
 50
342.0586412393629
 51
17.94135876062467
  0
LINE
  5
CF
330
86
100
AcDbEntity
  8
AM_5
100
AcDbLine
 10
-0.8893749999999998
 20
0.7187500000000001
 30
0.0
 11
-0.8893749999999998
 21
1.065
 31
0.0
  0
LINE
  5
D0
330
86
100
AcDbEntity
  8
AM_5
100
AcDbLine
 10
-1.201875
 20
0.7187500000000001
 30
0.0
 11
-1.201875
 21
1.065
 31
0.0
  0
LINE
  5
D3
330
86
100
AcDbEntity
  8
AM_7
100
AcDbLine
 10
-1.3775
 20
0.0
 30
0.0
 11
0.7675
 21
0.0
 31
0.0
  0
LINE
  5
D4
330
86
100
AcDbEntity
  8
AM_7
100
AcDbLine
 10
-1.045625
 20
1.096096390690141
 30
0.0
 11
-1.045625
 21
0.658940015702493
 31
0.0
  0
LINE
  5
D6
330
86
100
AcDbEntity
  8
AM_4
100
AcDbLine
 10
-0.7487500000000001
 20
-0.8761904761904761
 30
0.0
 11
-0.7175
 21
-0.8761904761904761
 31
0.0
  0
LINE
  5
D7
330
86
100
AcDbEntity
  8
AM_4
100
AcDbLine
 10
-0.7175
 20
0.8761904761904761
 30
0.0
 11
-0.7487500000000001
 21
0.8761904761904761
 31
0.0
  0
LINE
  5
D8
330
86
100
AcDbEntity
  8
AM_4
100
AcDbLine
 10
0.67
 20
0.9049999999999999
 30
0.0
 11
0.655
 21
0.9199999999999999
 31
0.0
  0
LINE
  5
D9
330
86
100
AcDbEntity
  8
AM_4
100
AcDbLine
 10
0.655
 20
-0.9199999999999999
 30
0.0
 11
0.67
 21
-0.9049999999999999
 31
0.0
  0
LINE
  5
DA
330
86
100
AcDbEntity
  8
AM_4
100
AcDbLine
 10
0.67
 20
0.9049999999999999
 30
0.0
 11
0.67
 21
-0.9049999999999999
 31
0.0
  0
LINE
  5
DB
330
86
100
AcDbEntity
  8
AM_4
100
AcDbLine
 10
-0.7175000000000004
 20
-0.905
 30
0.0
 11
-0.7025000000000001
 21
-0.92
 31
0.0
  0
LINE
  5
DC
330
86
100
AcDbEntity
  8
AM_4
100
AcDbLine
 10
-0.7025000000000001
 20
0.92
 30
0.0
 11
-0.7175000000000004
 21
0.905
 31
0.0
  0
LINE
  5
DD
330
86
100
AcDbEntity
  8
AM_4
100
AcDbLine
 10
-0.7175000000000004
 20
0.905
 30
0.0
 11
-0.7175000000000004
 21
-0.905
 31
0.0
  0
LINE
  5
DE
330
86
100
AcDbEntity
  8
AM_4
100
AcDbLine
 10
-0.7025000000000001
 20
-0.92
 30
0.0
 11
-0.3999999999999997
 21
-0.92
 31
0.0
  0
LINE
  5
DF
330
86
100
AcDbEntity
  8
AM_4
100
AcDbLine
 10
-0.3999999999999997
 20
0.92
 30
0.0
 11
-0.7025000000000001
 21
0.92
 31
0.0
  0
LINE
  5
E0
330
86
100
AcDbEntity
  8
AM_4
100
AcDbLine
 10
-0.7025000000000001
 20
0.92
 30
0.0
 11
-0.7025000000000001
 21
-0.92
 31
0.0
  0
LINE
  5
E1
330
86
100
AcDbEntity
  8
AM_4
100
AcDbLine
 10
0.4
 20
-0.9200000000000005
 30
0.0
 11
0.655
 21
-0.9200000000000003
 31
0.0
  0
LINE
  5
E2
330
86
100
AcDbEntity
  8
AM_4
100
AcDbLine
 10
0.655
 20
0.9200000000000003
 30
0.0
 11
0.4
 21
0.9200000000000003
 31
0.0
  0
LINE
  5
E3
330
86
100
AcDbEntity
  8
AM_4
100
AcDbLine
 10
0.655
 20
0.9200000000000003
 30
0.0
 11
0.655
 21
-0.9200000000000003
 31
0.0
  0
LINE
  5
E4
330
86
100
AcDbEntity
  8
AM_4
100
AcDbLine
 10
-0.7487500000000001
 20
1.0259375
 30
0.0
 11
-0.7487500000000001
 21
-1.0259375
 31
0.0
  0
ARC
  5
E5
330
86
100
AcDbEntity
  8
AM_4
100
AcDbCircle
 10
-0.7878125000000004
 20
-1.0259375
 30
0.0
 40
0.0390625
100
AcDbArc
 50
270.0
 51
0.0
  0
ARC
  5
E6
330
86
100
AcDbEntity
  8
AM_4
100
AcDbCircle
 10
-0.7878125000000004
 20
1.0259375
 30
0.0
 40
0.0390625000000002
100
AcDbArc
 50
0.0
 51
90.0
  0
LWPOLYLINE
  5
E7
330
86
100
AcDbEntity
  8
AM_4
100
AcDbPolyline
 90
        9
 70
     0
 43
0.0
 10
-0.959809805759363
 20
1.05932564637252
 10
-0.9793936913794886
 20
1.057921610146198
 10
-1.000844940288402
 20
1.056793182816664
 10
-1.023592209810368
 20
1.056077455030058
 10
-1.046967313407408
 20
1.055844865169729
 10
-1.070177576695478
 20
1.056132914322295
 10
-1.092695979320012
 20
1.056892735614237
 10
-1.112921729566515
 20
1.057988363157618
 10
-1.131440194240637
 20
1.05932564637252
  0
LWPOLYLINE
  5
E8
330
86
100
AcDbEntity
  8
AM_4
100
AcDbPolyline
 90
        8
 70
     0
 43
0.0
 10
-1.131440194240631
 20
1.059325646372513
 10
-1.143660907552733
 20
1.060262112245195
 10
-1.154911440504006
 20
1.061232752943995
 10
-1.169562469865488
 20
1.062651867856834
 10
-1.180982597651649
 20
1.063878990650547
 10
-1.187680485187675
 20
1.064647713501732
 10
-1.190575154573991
 20
1.064991109273103
 10
-1.190649353627315
 20
1.06499999999998
  0
LINE
  5
E9
330
86
100
AcDbEntity
  8
AM_4
100
AcDbLine
 10
-1.2409375
 20
-1.065
 30
0.0
 11
-0.7878125000000004
 21
-1.065
 31
0.0
  0
LINE
  5
EA
330
86
100
AcDbEntity
  8
AM_4
100
AcDbLine
 10
-0.7878125000000004
 20
1.065
 30
0.0
 11
-0.9006006463725202
 21
1.065
 31
0.0
  0
LINE
  5
EB
330
86
100
AcDbEntity
  8
AM_4
100
AcDbLine
 10
-1.19064935362748
 20
1.065
 30
0.0
 11
-1.2409375
 21
1.065
 31
0.0
  0
LWPOLYLINE
  5
EC
330
86
100
AcDbEntity
  8
AM_4
100
AcDbPolyline
 90
        8
 70
     0
 43
0.0
 10
-0.9006006463726847
 20
1.06499999999998
 10
-0.901729092955767
 20
1.064865264121535
 10
-0.9064825828558264
 20
1.064308937036114
 10
-0.9144169158971328
 20
1.063420904138356
 10
-0.9256920051444598
 20
1.062246624822131
 10
-0.9399751902486815
 20
1.060907654503725
 10
-0.9571566014888349
 20
1.059518499038573
 10
-0.959809805759363
 20
1.05932564637252
  0
LINE
  5
ED
330
86
100
AcDbEntity
  8
AM_4
100
AcDbLine
 10
-0.7878125000000004
 20
1.065
 30
0.0
 11
-0.7878125000000004
 21
-1.065
 31
0.0
  0
LINE
  5
EE
330
86
100
AcDbEntity
  8
AM_4
100
AcDbLine
 10
-1.28
 20
1.0259375
 30
0.0
 11
-1.28
 21
-1.0259375
 31
0.0
  0
ARC
  5
EF
330
86
100
AcDbEntity
  8
AM_4
100
AcDbCircle
 10
-1.2409375
 20
-1.0259375
 30
0.0
 40
0.0390625
100
AcDbArc
 50
180.0
 51
270.0
  0
ARC
  5
F0
330
86
100
AcDbEntity
  8
AM_4
100
AcDbCircle
 10
-1.2409375
 20
1.0259375
 30
0.0
 40
0.0390625
100
AcDbArc
 50
90.0
 51
180.0
  0
LINE
  5
F1
330
86
100
AcDbEntity
  8
AM_4
100
AcDbLine
 10
-1.2409375
 20
1.065
 30
0.0
 11
-1.2409375
 21
-1.065
 31
0.0
  0
ENDBLK
  5
89
330
86
100
AcDbEntity
  8
0
100
AcDbBlockEnd
  0
BLOCK
  5
F4
330
F2
100
AcDbEntity
  8
0
100
AcDbBlockBegin
  2
3_405020c_Inch_0_in_131266_2
 70
     2
 10
0.0
 20
0.0
 30
0.0
  3
3_405020c_Inch_0_in_131266_2
  1

  0
ATTDEF
  5
F6
330
F2
100
AcDbEntity
  8
AM_6
100
AcDbText
 10
4.855501022016826
 20
1.588898105113439
 30
0.0
 40
0.5
  1
405020C -Inch
100
AcDbAttributeDefinition
  3

  2
NN
 70
     8
280
     0
  0
ATTDEF
  5
F7
330
F2
100
AcDbEntity
  8
AM_6
100
AcDbText
 10
4.855501022016826
 20
1.088898105113439
 30
0.0
 40
0.5
  1
Grease fitting
100
AcDbAttributeDefinition
  3

  2
NT
 70
     8
280
     0
  0
ATTDEF
  5
F8
330
F2
100
AcDbEntity
  8
AM_6
100
AcDbText
 10
4.855501022016826
 20
0.5888981051134385
 30
0.0
 40
0.5
  1
405020c-Inch
100
AcDbAttributeDefinition
  3

  2
NB
 70
     8
280
     0
  0
ATTDEF
  5
F9
330
F2
100
AcDbEntity
  8
AM_6
100
AcDbText
 10
4.855501022016826
 20
0.0888981051134385
 30
0.0
 40
0.5
  1
$MN.-Inch
100
AcDbAttributeDefinition
  3

  2
NBSYN
 70
     8
280
     0
  0
ATTDEF
  5
FA
330
F2
100
AcDbEntity
  8
AM_6
100
AcDbText
 10
4.855501022016826
 20
-0.4111018948865615
 30
0.0
 40
0.5
  1
405020c
100
AcDbAttributeDefinition
  3

  2
LINA
 70
     8
280
     0
  0
ATTDEF
  5
FB
330
F2
100
AcDbEntity
  8
AM_6
100
AcDbText
 10
4.855501022016826
 20
-0.9111018948865615
 30
0.0
 40
0.5
  1
405020c
100
AcDbAttributeDefinition
  3

  2
MN
 70
     8
280
     0
  0
ATTDEF
  5
FC
330
F2
100
AcDbEntity
  8
AM_6
100
AcDbText
 10
4.855501022016826
 20
-1.411101894886561
 30
0.0
 40
0.5
  1
0.230
100
AcDbAttributeDefinition
  3

  2
NDR
 70
     8
280
     0
  0
ATTDEF
  5
FD
330
F2
100
AcDbEntity
  8
AM_6
100
AcDbText
 10
4.855501022016826
 20
-1.911101894886561
 30
0.0
 40
0.5
  1
0.210
100
AcDbAttributeDefinition
  3

  2
KDR
 70
     8
280
     0
  0
ATTDEF
  5
FE
330
F2
100
AcDbEntity
  8
AM_6
100
AcDbText
 10
4.855501022016826
 20
-2.411101894886562
 30
0.0
 40
0.5
  1
0.157
100
AcDbAttributeDefinition
  3

  2
BZE
 70
     8
280
     0
  0
ATTDEF
  5
FF
330
F2
100
AcDbEntity
  8
AM_6
100
AcDbText
 10
4.855501022016826
 20
-2.911101894886562
 30
0.0
 40
0.5
  1
9/32
100
AcDbAttributeDefinition
  3

  2
WAF
 70
     8
280
     0
  0
ATTDEF
  5
100
330
F2
100
AcDbEntity
  8
AM_6
100
AcDbText
 10
4.855501022016826
 20
-3.411101894886562
 30
0.0
 40
0.5
  1
0.2813
100
AcDbAttributeDefinition
  3

  2
WAF1
 70
     8
280
     0
  0
ATTDEF
  5
101
330
F2
100
AcDbEntity
  8
AM_6
100
AcDbText
 10
4.855501022016826
 20
-3.911101894886562
 30
0.0
 40
0.5
  1
0.545
100
AcDbAttributeDefinition
  3

  2
BL
 70
     8
280
     0
  0
ATTDEF
  5
102
330
F2
100
AcDbEntity
  8
AM_6
100
AcDbText
 10
4.855501022016826
 20
-4.411101894886562
 30
0.0
 40
0.5
  1
0.200
100
AcDbAttributeDefinition
  3

  2
TL
 70
     8
280
     0
  0
ATTDEF
  5
103
330
F2
100
AcDbEntity
  8
AM_6
100
AcDbText
 10
4.855501022016826
 20
-4.911101894886562
 30
0.0
 40
0.5
  1
baldor
100
AcDbAttributeDefinition
  3

  2
COMPANY
 70
     8
280
     0
  0
LINE
  5
104
330
F2
100
AcDbEntity
  8
AM_9
100
AcDbLine
 10
-0.4187525049316062
 20
1.334705179525765
 30
0.0
 11
-0.3645819218864932
 21
1.326880855986025
 31
0.0
  0
LINE
  5
105
330
F2
100
AcDbEntity
  8
AM_9
100
AcDbLine
 10
-0.3943288887427524
 20
1.494745440857449
 30
0.0
 11
-0.3401583056976394
 21
1.486921117317709
 31
0.0
  0
LINE
  5
106
330
F2
100
AcDbEntity
  8
AM_9
100
AcDbLine
 10
-0.3404967350451276
 20
1.474120455957556
 30
0.0
 11
-0.3401583056976394
 21
1.486921117317709
 31
0.0
  0
LWPOLYLINE
  5
107
330
F2
100
AcDbEntity
  8
AM_9
100
AcDbPolyline
 90
        3
 70
     0
 43
0.0
 10
-0.3466284802142159
 20
1.406071673097639
 10
-0.3420380726533623
 20
1.446300634631525
 10
-0.3404967350451276
 20
1.474120455957556
  0
LWPOLYLINE
  5
108
330
F2
100
AcDbEntity
  8
AM_9
100
AcDbPolyline
 90
        3
 70
     0
 43
0.0
 10
-0.3943288887427524
 20
1.494745440857449
 10
-0.404620087539019
 20
1.455523755081105
 10
-0.4122823304150298
 20
1.415554623745834
  0
LINE
  5
109
330
F2
100
AcDbEntity
  8
AM_9
100
AcDbLine
 10
-0.3496305092779863
 20
1.388418302546415
 30
0.0
 11
-0.3466284802142159
 21
1.406071673097639
 31
0.0
  0
LWPOLYLINE
  5
10A
330
F2
100
AcDbEntity
  8
AM_9
100
AcDbPolyline
 90
        3
 70
     0
 43
0.0
 10
-0.3645819218864932
 20
1.326880855986025
 10
-0.3542907230902266
 20
1.366102541762369
 10
-0.3496305092779863
 20
1.388418302546415
  0
LWPOLYLINE
  5
10B
330
F2
100
AcDbEntity
  8
AM_9
100
AcDbPolyline
 90
        3
 70
     0
 43
0.0
 10
-0.4122823304150298
 20
1.415554623745834
 10
-0.4168727379758833
 20
1.375325662211949
 10
-0.4187525049316062
 20
1.334705179525765
  0
LWPOLYLINE
  5
10C
330
F2
100
AcDbEntity
  8
AM_9
100
AcDbPolyline
 90
        3
 70
     0
 43
0.0
 10
-0.4187525049316062
 20
1.334705179525765
 10
-0.4290437037278728
 20
1.318667223558839
 10
-0.4367059466038835
 20
1.302091244235538
  0
LWPOLYLINE
  5
10D
330
F2
100
AcDbEntity
  8
AM_9
100
AcDbPolyline
 90
        3
 70
     0
 43
0.0
 10
-0.3710520964030696
 20
1.292608293587343
 10
-0.3664616888422161
 20
1.309548814210535
 10
-0.3645819218864932
 20
1.326880855986025
  0
LWPOLYLINE
  5
10E
330
F2
100
AcDbEntity
  8
AM_9
100
AcDbPolyline
 90
        4
 70
     0
 43
0.0
 10
-0.4000649245426441
 20
1.540749633208782
 10
-0.3991711401400733
 20
1.524154322323481
 10
-0.3965923798385055
 20
1.505914441377955
 10
-0.3943288887427524
 20
1.494745440857449
  0
LINE
  5
10F
330
F2
100
AcDbEntity
  8
AM_9
100
AcDbLine
 10
-0.4000672016478791
 20
1.543230344240794
 30
0.0
 11
-0.4000649245426441
 21
1.540749633208782
 31
0.0
  0
LWPOLYLINE
  5
110
330
F2
100
AcDbEntity
  8
AM_9
100
AcDbPolyline
 90
        4
 70
     0
 43
0.0
 10
-0.3401583056976394
 20
1.486921117317709
 10
-0.3378948146018863
 20
1.497436246837871
 10
-0.3353213083795839
 20
1.514879201404687
 10
-0.334416672119789
 20
1.532668685584869
  0
LWPOLYLINE
  5
111
330
F2
100
AcDbEntity
  8
AM_9
100
AcDbPolyline
 90
        3
 70
     0
 43
0.0
 10
-0.3943288887427524
 20
1.587899204500224
 10
-0.3985416372805551
 20
1.565323958220028
 10
-0.4000672016478791
 20
1.543230344240794
  0
LINE
  5
112
330
F2
100
AcDbEntity
  8
AM_9
100
AcDbLine
 10
-0.334416672119789
 20
1.532668685584869
 30
0.0
 11
-0.3353363442432731
 21
1.550871788903566
 31
0.0
  0
LINE
  5
113
330
F2
100
AcDbEntity
  8
AM_9
100
AcDbLine
 10
-0.3350098020913771
 20
1.5475842974085
 30
0.0
 11
-0.3353404352289618
 21
1.550913019214182
 31
0.0
  0
LWPOLYLINE
  5
114
330
F2
100
AcDbEntity
  8
AM_9
100
AcDbPolyline
 90
        3
 70
     0
 43
0.0
 10
-0.3353363442432731
 20
1.550871788903566
 10
-0.3359321686061488
 20
1.556176022696528
 10
-0.3401583056976394
 20
1.580074880960485
  0
LWPOLYLINE
  5
115
330
F2
100
AcDbEntity
  8
AM_9
100
AcDbPolyline
 90
        3
 70
     0
 43
0.0
 10
-0.4367059466038835
 20
1.302091244235538
 10
-0.4412963541647371
 20
1.285150723612346
 10
-0.44317612112046
 20
1.267818681836856
  0
LINE
  5
116
330
F2
100
AcDbEntity
  8
AM_9
100
AcDbLine
 10
-0.3746270664229089
 20
1.284007254438737
 30
0.0
 11
-0.3710520964030696
 21
1.292608293587343
 31
0.0
  0
LWPOLYLINE
  5
117
330
F2
100
AcDbEntity
  8
AM_9
100
AcDbPolyline
 90
        3
 70
     0
 43
0.0
 10
-0.389005538075347
 20
1.259994358297116
 10
-0.3787143392790804
 20
1.276032314264042
 10
-0.3746270664229089
 20
1.284007254438737
  0
ELLIPSE
  5
118
330
F2
100
AcDbEntity
  8
AM_9
100
AcDbEllipse
 10
-0.6985989630978545
 20
1.468279575678982
 30
0.0
 11
0.01155169148017463
 21
0.0799764809647896
 31
0.0
210
0.0
220
0.0
230
1.0
 40
0.0996005029250516
 41
0.0
 42
6.283185307179586
  0
LWPOLYLINE
  5
119
330
F2
100
AcDbEntity
  8
AM_9
100
AcDbPolyline
 90
        3
 70
     0
 43
0.0
 10
-0.3401583056976394
 20
1.580074880960485
 10
-0.3420240074183007
 20
1.562819957935114
 10
-0.3466284802142159
 20
1.545802318561802
  0
LINE
  5
11A
330
F2
100
AcDbEntity
  8
AM_9
100
AcDbLine
 10
-0.3943288887427524
 20
1.587899204500224
 30
0.0
 11
-0.3401583056976394
 21
1.580074880960485
 31
0.0
  0
LINE
  5
11B
330
F2
100
AcDbEntity
  8
AM_9
100
AcDbLine
 10
-0.4002893276071267
 20
1.579111185768093
 30
0.0
 11
-0.3943288887427524
 21
1.587899204500224
 31
0.0
  0
LINE
  5
11C
330
F2
100
AcDbEntity
  8
AM_9
100
AcDbLine
 10
-0.3999999999999999
 20
1.261582383059047
 30
0.0
 11
-0.389005538075347
 21
1.259994358297116
 31
0.0
  0
LWPOLYLINE
  5
11D
330
F2
100
AcDbEntity
  8
AM_9
100
AcDbPolyline
 90
        4
 70
     0
 43
0.0
 10
-0.3832639044974965
 20
1.305741926564276
 10
-0.3841632866780261
 20
1.288004423672806
 10
-0.3867420469795938
 20
1.270509487817278
 10
-0.389005538075347
 20
1.259994358297116
  0
ELLIPSE
  5
11E
330
F2
100
AcDbEntity
  8
AM_9
100
AcDbEllipse
 10
-0.6835986453895352
 20
1.466112950688975
 30
0.0
 11
-0.0148414631327404
 21
-0.1027527436793438
 31
0.0
210
0.0
220
0.0
230
1.0
 40
0.0996005029250517
 41
0.9671048424550994
 42
3.184094630823133
  0
ELLIPSE
  5
11F
330
F2
100
AcDbEntity
  8
AM_9
100
AcDbEllipse
 10
-0.61832901472365
 20
1.456685496175076
 30
0.0
 11
-0.01886317810413167
 21
-0.1305965110970677
 31
0.0
210
0.0
220
0.0
230
1.0
 40
0.0996005029250518
 41
0.9671048424551003
 42
3.184409096107351
  0
ELLIPSE
  5
120
330
F2
100
AcDbEntity
  8
AM_9
100
AcDbEllipse
 10
-0.5109669574594398
 20
1.441178270210245
 30
0.0
 11
-0.01420536284937284
 21
-0.09834879450084077
 31
0.0
210
0.0
220
0.0
230
1.0
 40
0.0996005029250507
 41
0.9671048424551003
 42
3.094899111671305
  0
ELLIPSE
  5
121
330
F2
100
AcDbEntity
  8
AM_9
100
AcDbEllipse
 10
-0.5782793754533387
 20
1.450900782079608
 30
0.0
 11
-0.01876170094957021
 21
-0.1298939485559816
 31
0.0
210
0.0
220
0.0
230
1.0
 40
0.0996005029250518
 41
0.9671048424551119
 42
3.094899111671296
  0
LINE
  5
122
330
F2
100
AcDbEntity
  8
AM_9
100
AcDbLine
 10
-0.1466548021871689
 20
1.489176907645652
 30
0.0
 11
-0.1552546584431185
 21
1.500801461689864
 31
0.0
  0
LINE
  5
123
330
F2
100
AcDbEntity
  8
AM_9
100
AcDbLine
 10
-0.1866652398292663
 20
1.283334801622497
 30
0.0
 11
-0.1751274369315524
 21
1.29205070023614
 31
0.0
  0
LWPOLYLINE
  5
124
330
F2
100
AcDbEntity
  8
AM_9
100
AcDbPolyline
 90
        3
 70
     0
 43
0.0
 10
-0.3466284802142159
 20
1.545802318561802
 10
-0.3542498807477891
 20
1.52929959034054
 10
-0.3645819218864932
 20
1.513188383271576
  0
LWPOLYLINE
  5
125
330
F2
100
AcDbEntity
  8
AM_9
100
AcDbPolyline
 90
        3
 70
     0
 43
0.0
 10
-0.3890055380753469
 20
1.353148121939892
 10
-0.3847927895375444
 20
1.329355908601251
 10
-0.3832639044974965
 20
1.305741926564276
  0
LINE
  5
126
330
F2
100
AcDbEntity
  8
AM_9
100
AcDbLine
 10
-0.1562309346877935
 20
1.501502241883677
 30
0.0
 11
-0.3421725500577092
 21
1.534348430688999
 31
0.0
  0
LINE
  5
127
330
F2
100
AcDbEntity
  8
AM_9
100
AcDbLine
 10
-0.3750000000000001
 20
1.304002727890253
 30
0.0
 11
-0.1877999157407435
 21
1.282938924416952
 31
0.0
  0
ELLIPSE
  5
128
330
F2
100
AcDbEntity
  8
AM_9
100
AcDbEllipse
 10
-0.4553388584070997
 20
1.433143425089163
 30
0.0
 11
-0.01562920286444807
 21
-0.1082065468532132
 31
0.0
210
0.0
220
0.0
230
1.0
 40
0.0996005029250498
 41
0.9671048424551083
 42
3.241858810879788
  0
LINE
  5
129
330
F2
100
AcDbEntity
  8
AM_9
100
AcDbLine
 10
-0.4473274612611888
 20
1.292328681245588
 30
0.0
 11
-0.4458876443137245
 21
1.290382459190075
 31
0.0
  0
LINE
  5
12A
330
F2
100
AcDbEntity
  8
AM_9
100
AcDbLine
 10
-0.4058763426430583
 20
1.567394973931519
 30
0.0
 11
-0.4071255667186808
 21
1.566451283829914
 31
0.0
  0
ELLIPSE
  5
12B
330
F2
100
AcDbEntity
  8
AM_9
100
AcDbEllipse
 10
-0.4244941385094523
 20
1.428688256722769
 30
0.0
 11
-0.0201066352316503
 21
-0.139205408370727
 31
0.0
210
0.0
220
0.0
230
1.0
 40
0.0996005029250581
 41
5.900328767230511
 42
9.868284027626203
  0
LINE
  5
12C
330
F2
100
AcDbEntity
  8
AM_9
100
AcDbLine
 10
-0.3999999999999999
 20
1.354736146701822
 30
0.0
 11
-0.3890055380753469
 21
1.353148121939892
 31
0.0
  0
LWPOLYLINE
  5
12D
330
F2
100
AcDbEntity
  8
AM_9
100
AcDbPolyline
 90
        3
 70
     0
 43
0.0
 10
-0.3710520964030696
 20
1.432338939051506
 10
-0.3786734969366429
 20
1.39254776991955
 10
-0.3890055380753469
 20
1.353148121939892
  0
LWPOLYLINE
  5
12E
330
F2
100
AcDbEntity
  8
AM_9
100
AcDbPolyline
 90
        3
 70
     0
 43
0.0
 10
-0.3645819218864932
 20
1.513188383271576
 10
-0.3664476236071545
 20
1.472749730436787
 10
-0.3710520964030696
 20
1.432338939051506
  0
LINE
  5
12F
330
F2
100
AcDbEntity
  8
AM_9
100
AcDbLine
 10
-0.3999999999999999
 20
1.518304121126659
 30
0.0
 11
-0.3645819218864932
 21
1.513188383271576
 31
0.0
  0
ELLIPSE
  5
130
330
F2
100
AcDbEntity
  8
AM_9
100
AcDbEllipse
 10
-0.1618787377062011
 20
1.390756454129988
 30
0.0
 11
-0.01430817936396101
 21
-0.09906062990918184
 31
0.0
210
0.0
220
0.0
230
1.0
 40
0.0996005029250516
 41
0.0
 42
6.283185307179586
  0
ELLIPSE
  5
131
330
F2
100
AcDbEntity
  8
AM_9
100
AcDbEllipse
 10
-0.1720494745860944
 20
1.392225501194141
 30
0.0
 11
-0.01578456775897601
 21
-0.1092821934415196
 31
0.0
210
0.0
220
0.0
230
1.0
 40
0.0996005029250525
 41
0.0
 42
6.283185307179586
  0
ELLIPSE
  5
132
330
F2
100
AcDbEntity
  8
AM_9
100
AcDbEllipse
 10
-0.3588402883086427
 20
1.419205306074573
 30
0.0
 11
-0.01663194236017933
 21
-0.1151488700905174
 31
0.0
210
0.0
220
0.0
230
1.0
 40
0.0996005029251645
 41
0.0
 42
6.283185307179586
  0
ELLIPSE
  5
133
330
F2
100
AcDbEntity
  8
AM_9
100
AcDbEllipse
 10
-0.358840288308642
 20
1.419205306074573
 30
0.0
 11
-0.02010663523165475
 21
-0.1392054083707282
 31
0.0
210
0.0
220
0.0
230
1.0
 40
0.0996005029250469
 41
0.0
 42
6.283185307179586
  0
LINE
  5
134
330
F2
100
AcDbEntity
  8
AM_4
100
AcDbLine
 10
-0.4483246247267222
 20
1.30030926538884
 30
0.0
 11
-0.4479939915891376
 21
1.296980543583158
 31
0.0
  0
LWPOLYLINE
  5
135
330
F2
100
AcDbEntity
  8
AM_4
100
AcDbPolyline
 90
        3
 70
     0
 43
0.0
 10
-0.4479993631408278
 20
1.297034697758105
 10
-0.4480131184385154
 20
1.297174064230399
 10
-0.4489177546983104
 20
1.315224877212471
  0
LWPOLYLINE
  5
136
330
F2
100
AcDbEntity
  8
AM_4
100
AcDbPolyline
 90
       33
 70
     0
 43
0.0
 10
-0.6693140326428918
 20
1.568806555336529
 10
-0.6703640511032873
 20
1.568498441795166
 10
-0.6749647195203301
 20
1.566543003898891
 10
-0.6787926850954232
 20
1.564021063439468
 10
-0.6818653499687791
 20
1.5612029322146
 10
-0.6842983006821637
 20
1.558264362429098
 10
-0.6862909149903307
 20
1.555201072490352
 10
-0.6881219323573973
 20
1.551685096583141
 10
-0.690173109362244
 20
1.546769166678207
 10
-0.6924922667122965
 20
1.539879097874282
 10
-0.6945321842620819
 20
1.5326959901095
 10
-0.6966723573366694
 20
1.524107159308342
 10
-0.6987097960785734
 20
1.514972468405177
 10
-0.7006773242264607
 20
1.505266321897231
 10
-0.7025713865126517
 20
1.49506294262297
 10
-0.7043749625558492
 20
1.484484005880985
 10
-0.7060662154831671
 20
1.473674267943146
 10
-0.707621983001139
 20
1.462790176610009
 10
-0.7090194676411467
 20
1.45199306268265
 10
-0.710236884199948
 20
1.441446673458681
 10
-0.7112551557978408
 20
1.431302101811717
 10
-0.712057247373281
 20
1.421695663118059
 10
-0.7126274158791273
 20
1.412738529024879
 10
-0.7129483056826584
 20
1.404497871016615
 10
-0.712990735449503
 20
1.396951869244575
 10
-0.7126686457099829
 20
1.389839895320726
 10
-0.7118459532202323
 20
1.383530704725646
 10
-0.7106871190702166
 20
1.378930888494363
 10
-0.7092179487227244
 20
1.375185562382791
 10
-0.7069674413798523
 20
1.371238866343913
 10
-0.7037751396700966
 20
1.367382955573809
 10
-0.69960844638537
 20
1.363988208307296
 10
-0.6991210903478864
 20
1.363675954590661
  0
LWPOLYLINE
  5
137
330
F2
100
AcDbEntity
  8
AM_4
100
AcDbPolyline
 90
        3
 70
     0
 43
0.0
 10
-0.4122823304150297
 20
1.555285269209997
 10
-0.4046609298814565
 20
1.57178799743126
 10
-0.4002893276071267
 20
1.579111185768093
  0
LWPOLYLINE
  5
138
330
F2
100
AcDbEntity
  8
AM_4
100
AcDbPolyline
 90
       10
 70
     0
 43
0.0
 10
-0.5245418049608613
 20
1.34291832409543
 10
-0.5204627832330095
 20
1.343951534830494
 10
-0.5128084638427282
 20
1.344910148032047
 10
-0.5049992752258602
 20
1.344630873802015
 10
-0.4968453263450219
 20
1.34295995852442
 10
-0.4895106764183436
 20
1.340122135604838
 10
-0.4831140815357402
 20
1.336397829825587
 10
-0.4777251060154403
 20
1.332071159957902
 10
-0.4733938487676081
 20
1.327465018123152
 10
-0.472055216064004
 20
1.325753167975895
  0
LWPOLYLINE
  5
139
330
F2
100
AcDbEntity
  8
AM_4
100
AcDbPolyline
 90
       10
 70
     0
 43
0.0
 10
-0.4411327112836737
 20
1.540763076606372
 10
-0.442967374389764
 20
1.539465936623245
 10
-0.4488257051274447
 20
1.536117845580531
 10
-0.455630207781414
 20
1.533469643295645
 10
-0.4630629415033063
 20
1.531839899929396
 10
-0.4708179049969448
 20
1.531399415667592
 10
-0.479329056325657
 20
1.532354469000553
 10
-0.4871154218710232
 20
1.53462466530337
 10
-0.4940076976653179
 20
1.537923930019748
 10
-0.496141633891323
 20
1.53923709223781
  0
LINE
  5
13A
330
F2
100
AcDbEntity
  8
AM_4
100
AcDbLine
 10
-0.44317612112046
 20
1.267818681836856
 30
0.0
 11
-0.3999999999999999
 21
1.261582383059047
 31
0.0
  0
LWPOLYLINE
  5
13B
330
F2
100
AcDbEntity
  8
AM_4
100
AcDbPolyline
 90
        3
 70
     0
 43
0.0
 10
-0.44317612112046
 20
1.267818681836856
 10
-0.445439612216213
 20
1.278987682357363
 10
-0.4479993631408278
 20
1.297034697758105
  0
LINE
  5
13C
330
F2
100
AcDbEntity
  8
AM_4
100
AcDbLine
 10
-0.6988615494463015
 20
1.363515808485956
 30
0.0
 11
-0.637727835111778
 21
1.326286751183341
 31
0.0
  0
LINE
  5
13D
330
F2
100
AcDbEntity
  8
AM_4
100
AcDbLine
 10
-0.6000355485601422
 20
1.587243896990937
 30
0.0
 11
-0.669205429032411
 21
1.568835709371603
 31
0.0
  0
ELLIPSE
  5
13E
330
F2
100
AcDbEntity
  8
AM_4
100
AcDbEllipse
 10
-0.6835986453895353
 20
1.466112950688975
 30
0.0
 11
-0.01484146313274049
 21
-0.1027527436793445
 31
0.0
210
0.0
220
0.0
230
1.0
 40
0.0996005029250552
 41
3.184094630823131
 42
6.240683329946241
  0
LWPOLYLINE
  5
13F
330
F2
100
AcDbEntity
  8
AM_4
100
AcDbPolyline
 90
        7
 70
     0
 43
0.0
 10
-0.5586034131286175
 20
1.580346334643121
 10
-0.5610858480045606
 20
1.581906829945199
 10
-0.568217019837041
 20
1.585392363683154
 10
-0.5758597440675562
 20
1.587740250671898
 10
-0.5844338394500466
 20
1.588898105113439
 10
-0.5926452758811831
 20
1.588637266616611
 10
-0.60018970985805
 20
1.587202612106558
  0
LWPOLYLINE
  5
140
330
F2
100
AcDbEntity
  8
AM_4
100
AcDbPolyline
 90
        7
 70
     0
 43
0.0
 10
-0.638037124111886
 20
1.326476610208142
 10
-0.6344940311319204
 20
1.324474965603695
 10
-0.6271472479381776
 20
1.321402080057858
 10
-0.6193669294443197
 20
1.319505605365445
 10
-0.6108964780147733
 20
1.3188549742068
 10
-0.6028540158409266
 20
1.319550855261558
 10
-0.5960939726602282
 20
1.321160510197401
  0
ELLIPSE
  5
141
330
F2
100
AcDbEntity
  8
AM_4
100
AcDbEllipse
 10
-0.61832901472365
 20
1.456685496175076
 30
0.0
 11
-0.0188631781041317
 21
-0.130596511097068
 31
0.0
210
0.0
220
0.0
230
1.0
 40
0.0996005029250576
 41
3.18440909610735
 42
6.239969179809511
  0
LINE
  5
142
330
F2
100
AcDbEntity
  8
AM_4
100
AcDbLine
 10
-0.4963198531046503
 20
1.539353829016917
 30
0.0
 11
-0.5589342454066365
 21
1.580565929983171
 31
0.0
  0
LINE
  5
143
330
F2
100
AcDbEntity
  8
AM_4
100
AcDbLine
 10
-0.5964167488474579
 20
1.321061187487901
 30
0.0
 11
-0.5246996126643472
 21
1.342870629642456
 31
0.0
  0
ELLIPSE
  5
144
330
F2
100
AcDbEntity
  8
AM_4
100
AcDbEllipse
 10
-0.5109669574594399
 20
1.441178270210245
 30
0.0
 11
-0.01420536284937293
 21
-0.09834879450084076
 31
0.0
210
0.0
220
0.0
230
1.0
 40
0.0996005029250485
 41
3.094899111671308
 42
6.329878849098069
  0
ELLIPSE
  5
145
330
F2
100
AcDbEntity
  8
AM_4
100
AcDbEllipse
 10
-0.5782793754533386
 20
1.450900782079608
 30
0.0
 11
-0.01876170094957006
 21
-0.1298939485559814
 31
0.0
210
0.0
220
0.0
230
1.0
 40
0.0996005029250612
 41
3.094899111671296
 42
6.329878849098069
  0
LWPOLYLINE
  5
146
330
F2
100
AcDbEntity
  8
AM_4
100
AcDbPolyline
 90
        3
 70
     0
 43
0.0
 10
-0.4187525049316062
 20
1.521012706811315
 10
-0.4168868032109449
 20
1.538267629836686
 10
-0.4122823304150297
 20
1.555285269209997
  0
LWPOLYLINE
  5
147
330
F2
100
AcDbEntity
  8
AM_4
100
AcDbPolyline
 90
        3
 70
     0
 43
0.0
 10
-0.4489177546983104
 20
1.315224877212471
 10
-0.4474022582119505
 20
1.338294421922201
 10
-0.44317612112046
 20
1.360972445479631
  0
ELLIPSE
  5
148
330
F2
100
AcDbEntity
  8
AM_4
100
AcDbEllipse
 10
-0.4244941385094566
 20
1.428688256722768
 30
0.0
 11
-0.02010663523165434
 21
-0.1392054083707279
 31
0.0
210
0.0
220
0.0
230
1.0
 40
0.0996005029250511
 41
3.585098720446602
 42
5.900328767230988
  0
LINE
  5
149
330
F2
100
AcDbEntity
  8
AM_4
100
AcDbLine
 10
-0.471968365947489
 20
1.325636159847454
 30
0.0
 11
-0.4473274612611888
 21
1.292328681245588
 31
0.0
  0
LINE
  5
14A
330
F2
100
AcDbEntity
  8
AM_4
100
AcDbLine
 10
-0.4071255667186808
 20
1.566451283829914
 30
0.0
 11
-0.440866953728254
 21
1.540962331482029
 31
0.0
  0
ELLIPSE
  5
14B
330
F2
100
AcDbEntity
  8
AM_4
100
AcDbEllipse
 10
-0.4553388584070998
 20
1.433143425089163
 30
0.0
 11
-0.01562920286444814
 21
-0.108206546853213
 31
0.0
210
0.0
220
0.0
230
1.0
 40
0.099600502925057
 41
3.241858810879783
 42
6.182919149889595
  0
LINE
  5
14C
330
F2
100
AcDbEntity
  8
AM_4
100
AcDbLine
 10
-0.44317612112046
 20
1.360972445479631
 30
0.0
 11
-0.3999999999999999
 21
1.354736146701822
 31
0.0
  0
LINE
  5
14D
330
F2
100
AcDbEntity
  8
AM_4
100
AcDbLine
 10
-0.4187525049316062
 20
1.521012706811315
 30
0.0
 11
-0.3999999999999999
 21
1.518304121126659
 31
0.0
  0
LWPOLYLINE
  5
14E
330
F2
100
AcDbEntity
  8
AM_4
100
AcDbPolyline
 90
        3
 70
     0
 43
0.0
 10
-0.4367059466038835
 20
1.441821889699701
 10
-0.4290845460703102
 20
1.481613058831657
 10
-0.4187525049316062
 20
1.521012706811315
  0
LWPOLYLINE
  5
14F
330
F2
100
AcDbEntity
  8
AM_4
100
AcDbPolyline
 90
        3
 70
     0
 43
0.0
 10
-0.44317612112046
 20
1.360972445479631
 10
-0.4413104193997986
 20
1.40141109831442
 10
-0.4367059466038835
 20
1.441821889699701
  0
ENDBLK
  5
F5
330
F2
100
AcDbEntity
  8
0
100
AcDbBlockEnd
  0
BLOCK
  5
152
330
150
100
AcDbEntity
  8
0
100
AcDbBlockBegin
  2
4_131266H_0_in_131266_2
 70
     2
 10
0.0
 20
0.0
 30
0.0
  3
4_131266H_0_in_131266_2
  1

  0
ATTDEF
  5
154
330
150
100
AcDbEntity
  8
AM_6
100
AcDbText
 10
5.44
 20
2.128125
 30
0.0
 40
0.5
  1
HNG-SXR -I-Housing
100
AcDbAttributeDefinition
  3

  2
NN
 70
     8
280
     0
  0
ATTDEF
  5
155
330
150
100
AcDbEntity
  8
AM_6
100
AcDbText
 10
5.44
 20
1.628125
 30
0.0
 40
0.5
  1
SXR Hanger Bearings -(Normal Duty)
100
AcDbAttributeDefinition
  3

  2
NT
 70
     8
280
     0
  0
ATTDEF
  5
156
330
150
100
AcDbEntity
  8
AM_6
100
AcDbText
 10
5.44
 20
1.128125
 30
0.0
 40
0.5
  1
131266H
100
AcDbAttributeDefinition
  3

  2
NB
 70
     8
280
     0
  0
ATTDEF
  5
157
330
150
100
AcDbEntity
  8
AM_6
100
AcDbText
 10
5.44
 20
0.6281249999999998
 30
0.0
 40
0.5
  1
$PN.H
100
AcDbAttributeDefinition
  3

  2
NBSYN
 70
     8
280
     0
  0
ATTDEF
  5
158
330
150
100
AcDbEntity
  8
AM_6
100
AcDbText
 10
5.44
 20
0.1281249999999998
 30
0.0
 40
0.5
  1
131266
100
AcDbAttributeDefinition
  3

  2
LINA
 70
     8
280
     0
  0
ATTDEF
  5
159
330
150
100
AcDbEntity
  8
AM_6
100
AcDbText
 10
5.44
 20
-0.3718750000000002
 30
0.0
 40
0.5
  1
207
100
AcDbAttributeDefinition
  3

  2
SERIES
 70
     8
280
     0
  0
ATTDEF
  5
15A
330
150
100
AcDbEntity
  8
AM_6
100
AcDbText
 10
5.44
 20
-0.8718750000000002
 30
0.0
 40
0.5
  1
1-7/16
100
AcDbAttributeDefinition
  3

  2
SS
 70
     8
280
     0
  0
ATTDEF
  5
15B
330
150
100
AcDbEntity
  8
AM_6
100
AcDbText
 10
5.44
 20
-1.371875
 30
0.0
 40
0.5
  1
131266
100
AcDbAttributeDefinition
  3

  2
PN
 70
     8
280
     0
  0
ATTDEF
  5
15C
330
150
100
AcDbEntity
  8
AM_6
100
AcDbText
 10
5.44
 20
-1.871875
 30
0.0
 40
0.5
  1
HNG-SXR-107
100
AcDbAttributeDefinition
  3

  2
DESCRIPTION
 70
     8
280
     0
  0
ATTDEF
  5
15D
330
150
100
AcDbEntity
  8
AM_6
100
AcDbText
 10
5.44
 20
-2.371875
 30
0.0
 40
0.5
  1
2.6
100
AcDbAttributeDefinition
  3

  2
W
 70
     8
280
     0
  0
ATTDEF
  5
15E
330
150
100
AcDbEntity
  8
AM_6
100
AcDbText
 10
5.44
 20
-2.871875
 30
0.0
 40
0.5
  1
1.95
100
AcDbAttributeDefinition
  3

  2
A
 70
     8
280
     0
  0
ATTDEF
  5
15F
330
150
100
AcDbEntity
  8
AM_6
100
AcDbText
 10
5.44
 20
-3.371875
 30
0.0
 40
0.5
  1
4.25
100
AcDbAttributeDefinition
  3

  2
B
 70
     8
280
     0
  0
ATTDEF
  5
160
330
150
100
AcDbEntity
  8
AM_6
100
AcDbText
 10
5.44
 20
-3.871875
 30
0.0
 40
0.5
  1
1.68
100
AcDbAttributeDefinition
  3

  2
C
 70
     8
280
     0
  0
ATTDEF
  5
161
330
150
100
AcDbEntity
  8
AM_6
100
AcDbText
 10
5.44
 20
-4.371875
 30
0.0
 40
0.5
  1
3.50
100
AcDbAttributeDefinition
  3

  2
F
 70
     8
280
     0
  0
ATTDEF
  5
162
330
150
100
AcDbEntity
  8
AM_6
100
AcDbText
 10
5.44
 20
-4.871875
 30
0.0
 40
0.5
  1
2.13
100
AcDbAttributeDefinition
  3

  2
L
 70
     8
280
     0
  0
ATTDEF
  5
163
330
150
100
AcDbEntity
  8
AM_6
100
AcDbText
 10
5.44
 20
-5.371875
 30
0.0
 40
0.5
  1
1/2
100
AcDbAttributeDefinition
  3

  2
M
 70
     8
280
     0
  0
ATTDEF
  5
164
330
150
100
AcDbEntity
  8
AM_6
100
AcDbText
 10
5.44
 20
-5.871875
 30
0.0
 40
0.5
  1
0.67
100
AcDbAttributeDefinition
  3

  2
R
 70
     8
280
     0
  0
ATTDEF
  5
165
330
150
100
AcDbEntity
  8
AM_6
100
AcDbText
 10
5.44
 20
-6.371875
 30
0.0
 40
0.5
  1
1.28
100
AcDbAttributeDefinition
  3

  2
S
 70
     8
280
     0
  0
ATTDEF
  5
166
330
150
100
AcDbEntity
  8
AM_6
100
AcDbText
 10
5.44
 20
-6.871875
 30
0.0
 40
0.5
  1
3065
100
AcDbAttributeDefinition
  3

  2
CAPS
 70
     8
280
     0
  0
ATTDEF
  5
167
330
150
100
AcDbEntity
  8
AM_6
100
AcDbText
 10
5.44
 20
-7.371875
 30
0.0
 40
0.5
  1
5759
100
AcDbAttributeDefinition
  3

  2
CAPD
 70
     8
280
     0
  0
ATTDEF
  5
168
330
150
100
AcDbEntity
  8
AM_6
100
AcDbText
 10
5.44
 20
-7.871875
 30
0.0
 40
0.5
  1
baldor
100
AcDbAttributeDefinition
  3

  2
COMPANY
 70
     8
280
     0
  0
LINE
  5
169
330
150
100
AcDbEntity
  8
AM_9
100
AcDbLine
 10
-0.2692648197709006
 20
1.179719823416892
 30
0.0
 11
-0.2768731651944363
 21
1.08225634512412
 31
0.0
  0
LINE
  5
16A
330
150
100
AcDbEntity
  8
AM_9
100
AcDbLine
 10
0.1786774187762061
 20
1.179719823416892
 30
0.0
 11
-0.2692648197709006
 21
1.179719823416892
 31
0.0
  0
LWPOLYLINE
  5
16B
330
150
100
AcDbEntity
  8
AM_9
100
AcDbPolyline
 90
       10
 70
     0
 43
0.0
 10
-0.2813956677355414
 20
1.138256345124119
 10
-0.2799862937960133
 20
1.137457419795272
 10
-0.2787374728080804
 20
1.135097700172548
 10
-0.277685416932226
 20
1.131206530522955
 10
-0.2768584476074756
 20
1.125908333784152
 10
-0.2762885400895281
 20
1.11940500630614
 10
-0.2759785567551725
 20
1.111847596054167
 10
-0.2759402040952926
 20
1.103537386210502
 10
-0.2761658786664962
 20
1.094642737108788
 10
-0.2768731651944363
 20
1.08225634512412
  0
LWPOLYLINE
  5
16C
330
150
100
AcDbEntity
  8
AM_9
100
AcDbPolyline
 90
        5
 70
     0
 43
0.0
 10
0.1786774187762061
 20
1.179719823416892
 10
0.1889522911171169
 20
1.194972601042687
 10
0.195486732194776
 20
1.211291174944047
 10
0.1989160980521486
 20
1.227383326352776
 10
0.1999999999999997
 20
1.243704355499105
  0
LWPOLYLINE
  5
16D
330
150
100
AcDbEntity
  8
AM_9
100
AcDbPolyline
 90
        5
 70
     0
 43
0.0
 10
0.1786774187762061
 20
1.179719823416892
 10
0.1880241056305725
 20
1.156246315312669
 10
0.1928310133328758
 20
1.13834090254112
 10
0.1962763391517786
 20
1.120005404851536
 10
0.1997540069227678
 20
1.082256345123459
  0
LWPOLYLINE
  5
16E
330
150
100
AcDbEntity
  8
AM_9
100
AcDbPolyline
 90
        6
 70
     0
 43
0.0
 10
0.1999999999999997
 20
1.132124392367392
 10
0.1998967579014481
 20
1.128642526711186
 10
0.1992545993760369
 20
1.116439020641696
 10
0.199075278036569
 20
1.108626621653225
 10
0.1991428578869069
 20
1.099822648694697
 10
0.1997540069227678
 20
1.082256345123459
  0
LINE
  5
16F
330
150
100
AcDbEntity
  8
AM_9
100
AcDbLine
 10
0.3499999999999998
 20
1.62803752915559
 30
0.0
 11
0.2336000000000001
 21
1.628037529155592
 31
0.0
  0
LWPOLYLINE
  5
170
330
150
100
AcDbEntity
  8
AM_9
100
AcDbPolyline
 90
       11
 70
     0
 43
0.0
 10
0.2335999999999999
 20
1.628037529155591
 10
0.2327240152444175
 20
1.627947831630966
 10
0.2316919490297074
 20
1.62761265413868
 10
0.2301878378442707
 20
1.626684817685846
 10
0.226702664962002
 20
1.622613197855236
 10
0.2222206625899928
 20
1.614002298676205
 10
0.2189635418902573
 20
1.605192317149387
 10
0.2092011133373137
 20
1.569797910079647
 10
0.203112561534076
 20
1.534116414071344
 10
0.2000217031247036
 20
1.493752543668887
 10
0.2000027367907778
 20
1.491558725574837
  0
LINE
  5
171
330
150
100
AcDbEntity
  8
AM_9
100
AcDbLine
 10
0.2336000000000003
 20
1.13825634512412
 30
0.0
 11
0.2336000000000001
 21
1.628037529155592
 31
0.0
  0
LINE
  5
172
330
150
100
AcDbEntity
  8
AM_9
100
AcDbLine
 10
0.2000027367907778
 20
1.491558725574837
 30
0.0
 11
0.1999999999999997
 21
1.132124392367392
 31
0.0
  0
LWPOLYLINE
  5
173
330
150
100
AcDbEntity
  8
AM_9
100
AcDbPolyline
 90
        9
 70
     0
 43
0.0
 10
-0.2692648197709006
 20
1.179719823416892
 10
-0.2843712110653063
 20
1.297266477604673
 10
-0.2961188854862618
 20
1.414937978779434
 10
-0.3041115897339612
 20
1.532861633677136
 10
-0.3080484169170356
 20
1.650851867746336
 10
-0.307731263576514
 20
1.76938242151892
 10
-0.303175662757815
 20
1.887884711883442
 10
-0.2945262893552182
 20
2.006496370344161
 10
-0.2821323828418864
 20
2.125
  0
LINE
  5
174
330
150
100
AcDbEntity
  8
AM_9
100
AcDbLine
 10
0.2336000000000004
 20
1.775093618838974
 30
0.0
 11
0.3499999999995011
 21
1.775093618838977
 31
0.0
  0
LINE
  5
175
330
150
100
AcDbEntity
  8
AM_9
100
AcDbLine
 10
0.3499999999999999
 20
1.976884351918937
 30
0.0
 11
0.2336000000000004
 21
1.976884351918937
 31
0.0
  0
LINE
  5
176
330
150
100
AcDbEntity
  8
AM_9
100
AcDbLine
 10
0.1999999999999998
 20
2.125
 30
0.0
 11
0.2000021312845091
 21
1.911713670463957
 31
0.0
  0
LWPOLYLINE
  5
177
330
150
100
AcDbEntity
  8
AM_9
100
AcDbPolyline
 90
        7
 70
     0
 43
0.0
 10
0.2336000000000004
 20
1.976884351918937
 10
0.2315911032611361
 20
1.976946082367442
 10
0.2208765825829039
 20
1.979453956081936
 10
0.2152097526064748
 20
1.982511320378429
 10
0.206901664879191
 20
1.990437852615603
 10
0.2016670791383071
 20
2.000648402120177
 10
0.1999999999999999
 20
2.011373440380736
  0
LINE
  5
178
330
150
100
AcDbEntity
  8
AM_9
100
AcDbLine
 10
0.2336000000000004
 20
1.775093618838974
 30
0.0
 11
0.2336000000000004
 21
1.976884351918937
 31
0.0
  0
LWPOLYLINE
  5
179
330
150
100
AcDbEntity
  8
AM_9
100
AcDbPolyline
 90
       15
 70
     0
 43
0.0
 10
0.2000021312845091
 20
1.911713670463957
 10
0.2025545279249747
 20
1.87340034108886
 10
0.2078587793174076
 20
1.840588269072104
 10
0.2128825051454154
 20
1.818539975608782
 10
0.2170541332220673
 20
1.803776153817694
 10
0.2204065391589547
 20
1.793910042548756
 10
0.2230926485798182
 20
1.787325716644006
 10
0.2252622653371635
 20
1.782936626479179
 10
0.2270374088837494
 20
1.780015294741025
 10
0.2285136397619595
 20
1.778076444456742
 10
0.2302651896377206
 20
1.776386066552698
 10
0.2314323189686878
 20
1.775641660359252
 10
0.2324949501774765
 20
1.775236323830358
 10
0.2333689307950439
 20
1.775099862623211
 10
0.2336000000000008
 20
1.775093618838974
  0
LWPOLYLINE
  5
17A
330
150
100
AcDbEntity
  8
AM_9
100
AcDbPolyline
 90
       20
 70
     0
 43
0.0
 10
0.3499999999999998
 20
1.62803752915559
 10
0.3513379413026743
 20
1.628178364616513
 10
0.352864811306044
 20
1.628685870830408
 10
0.3550130177025028
 20
1.630044668435147
 10
0.3594642463498297
 20
1.635519719026497
 10
0.3651982073641142
 20
1.64924575677231
 10
0.3681625774769406
 20
1.663314746489015
 10
0.3703942407536796
 20
1.681629226365586
 10
0.371125879065324
 20
1.699987036329617
 10
0.3700922988568516
 20
1.724836588366069
 10
0.3678441089744822
 20
1.741626805874179
 10
0.3652856319950937
 20
1.752964358553949
 10
0.362782251008861
 20
1.760618073857709
 10
0.3604779553842637
 20
1.765782133625261
 10
0.3584131038481
 20
1.769261136932655
 10
0.3565777466474186
 20
1.771595836096161
 10
0.3539341788976328
 20
1.773865183935381
 10
0.3525182064329102
 20
1.774593265393443
 10
0.3510632864824053
 20
1.775004707494153
 10
0.3499999999995011
 20
1.775093618838977
  0
LINE
  5
17B
330
150
100
AcDbEntity
  8
AM_9
100
AcDbLine
 10
0.3499999999999999
 20
1.91395822364572
 30
0.0
 11
0.3499999999999999
 21
1.976884351918937
 31
0.0
  0
LWPOLYLINE
  5
17C
330
150
100
AcDbEntity
  8
AM_9
100
AcDbPolyline
 90
        6
 70
     0
 43
0.0
 10
0.3499999999999999
 20
1.976884351918937
 10
0.363793317609517
 20
1.974891730225727
 10
0.3785085627738651
 20
1.967718534058865
 10
0.3902450365390795
 20
1.955999487090239
 10
0.3977455935182247
 20
1.94075986231725
 10
0.3999999999999999
 20
1.925493745071066
  0
LINE
  5
17D
330
150
100
AcDbEntity
  8
AM_9
100
AcDbLine
 10
-0.2917789719535154
 20
2.069000000834465
 30
0.0
 11
-0.3999999999999999
 21
1.432383396144177
 31
0.0
  0
LWPOLYLINE
  5
17E
330
150
100
AcDbEntity
  8
AM_9
100
AcDbPolyline
 90
       10
 70
     0
 43
0.0
 10
-0.2840703610836993
 20
2.125
 10
-0.2839037258735962
 20
2.124221306804805
 10
-0.2839997983080162
 20
2.121928528869439
 10
-0.2843596764521631
 20
2.118165299644374
 10
-0.2849696531914108
 20
2.113062818607473
 10
-0.2858187560632014
 20
2.106733622156043
 10
-0.2868791561413864
 20
2.099389268916536
 10
-0.2881396032504024
 20
2.091131659451048
 10
-0.2895528807599111
 20
2.082281127769023
 10
-0.2917789719535154
 20
2.069000000834465
  0
LINE
  5
17F
330
150
100
AcDbEntity
  8
AM_9
100
AcDbLine
 10
-0.1875
 20
-2.0625
 30
0.0
 11
-0.25
 21
-2.125
 31
0.0
  0
LINE
  5
180
330
150
100
AcDbEntity
  8
AM_9
100
AcDbLine
 10
0.25
 20
-2.125
 30
0.0
 11
0.1875
 21
-2.0625
 31
0.0
  0
LINE
  5
181
330
150
100
AcDbEntity
  8
AM_9
100
AcDbLine
 10
-0.1875
 20
-2.0625
 30
0.0
 11
0.1875
 21
-2.0625
 31
0.0
  0
LINE
  5
182
330
150
100
AcDbEntity
  8
AM_9
100
AcDbLine
 10
0.1875
 20
2.0625
 30
0.0
 11
-0.1875
 21
2.0625
 31
0.0
  0
LINE
  5
183
330
150
100
AcDbEntity
  8
AM_9
100
AcDbLine
 10
0.1875
 20
2.0625
 30
0.0
 11
0.25
 21
2.125
 31
0.0
  0
LINE
  5
184
330
150
100
AcDbEntity
  8
AM_9
100
AcDbLine
 10
-0.25
 20
2.125
 30
0.0
 11
-0.1875
 21
2.0625
 31
0.0
  0
LINE
  5
185
330
150
100
AcDbEntity
  8
AM_9
100
AcDbLine
 10
-0.2599999999999998
 20
-0.4791666666666667
 30
0.0
 11
0.4
 21
-0.4791666666666667
 31
0.0
  0
LINE
  5
186
330
150
100
AcDbEntity
  8
AM_9
100
AcDbLine
 10
-0.2599999999999998
 20
0.4791666666666662
 30
0.0
 11
0.4
 21
0.4791666666666662
 31
0.0
  0
LINE
  5
187
330
150
100
AcDbEntity
  8
AM_9
100
AcDbLine
 10
-0.3999999999999999
 20
-1.4173
 30
0.0
 11
0.3999999999999999
 21
-1.4173
 31
0.0
  0
LINE
  5
188
330
150
100
AcDbEntity
  8
AM_9
100
AcDbLine
 10
0.3999999999999999
 20
1.4173
 30
0.0
 11
-0.3999999999999999
 21
1.4173
 31
0.0
  0
LINE
  5
189
330
150
100
AcDbEntity
  8
AM_9
100
AcDbLine
 10
-0.2599999999999998
 20
-0.4791666666666667
 30
0.0
 11
-0.2599999999999998
 21
0.4791666666666662
 31
0.0
  0
LINE
  5
18A
330
150
100
AcDbEntity
  8
AM_7
100
AcDbLine
 10
-0.4399999999999999
 20
0.1333333333333333
 30
0.0
 11
0.4399999999999999
 21
0.1333333333333333
 31
0.0
  0
LINE
  5
18B
330
150
100
AcDbEntity
  8
AM_7
100
AcDbLine
 10
-0.4400000000000002
 20
-0.1333333333333332
 30
0.0
 11
0.4400000000000002
 21
-0.1333333333333334
 31
0.0
  0
LINE
  5
18C
330
150
100
AcDbEntity
  8
AM_7
100
AcDbLine
 10
-0.4399999999999999
 20
0.2666666666666666
 30
0.0
 11
0.4399999999999999
 21
0.2666666666666666
 31
0.0
  0
LINE
  5
18D
330
150
100
AcDbEntity
  8
AM_7
100
AcDbLine
 10
0.0
 20
2.128125
 30
0.0
 11
0.0
 21
2.059375
 31
0.0
  0
LINE
  5
18E
330
150
100
AcDbEntity
  8
AM_7
100
AcDbLine
 10
0.0
 20
-2.059375
 30
0.0
 11
0.0
 21
-2.128125
 31
0.0
  0
LINE
  5
18F
330
150
100
AcDbEntity
  8
AM_4
100
AcDbLine
 10
-0.3999999999999999
 20
2.125
 30
0.0
 11
0.3999999999999999
 21
2.125
 31
0.0
  0
LINE
  5
190
330
150
100
AcDbEntity
  8
AM_4
100
AcDbLine
 10
-0.3999999999999999
 20
2.069
 30
0.0
 11
-0.1307922107805344
 21
2.068999999999483
 31
0.0
  0
LINE
  5
191
330
150
100
AcDbEntity
  8
AM_4
100
AcDbLine
 10
0.1307922107803913
 20
2.069
 30
0.0
 11
0.3999999999999999
 21
2.069
 31
0.0
  0
LINE
  5
192
330
150
100
AcDbEntity
  8
AM_4
100
AcDbLine
 10
-0.3999999999999999
 20
-2.068999999165535
 30
0.0
 11
-0.1307922110127181
 21
-2.068999999165535
 31
0.0
  0
LINE
  5
193
330
150
100
AcDbEntity
  8
AM_4
100
AcDbLine
 10
-0.3999999999999999
 20
-2.125
 30
0.0
 11
0.3999999999999999
 21
-2.125
 31
0.0
  0
LINE
  5
194
330
150
100
AcDbEntity
  8
AM_4
100
AcDbLine
 10
0.130792211012718
 20
-2.068999999165535
 30
0.0
 11
0.3999999999999999
 21
-2.068999999165535
 31
0.0
  0
LINE
  5
195
330
150
100
AcDbEntity
  8
AM_4
100
AcDbLine
 10
-0.1669333333333328
 20
-1.913958223645719
 30
0.0
 11
-0.3499999999999999
 21
-1.91395822364572
 31
0.0
  0
LINE
  5
196
330
150
100
AcDbEntity
  8
AM_4
100
AcDbLine
 10
0.3500000000000004
 20
-1.91395822364572
 30
0.0
 11
0.1669333333333332
 21
-1.913958223645719
 31
0.0
  0
LINE
  5
197
330
150
100
AcDbEntity
  8
AM_4
100
AcDbLine
 10
-0.3500000000000003
 20
1.91395822364572
 30
0.0
 11
-0.1669333333333334
 21
1.913958223645719
 31
0.0
  0
LINE
  5
198
330
150
100
AcDbEntity
  8
AM_4
100
AcDbLine
 10
0.1669333333333327
 20
1.91395822364572
 30
0.0
 11
0.3499999999999998
 21
1.91395822364572
 31
0.0
  0
LINE
  5
199
330
150
100
AcDbEntity
  8
AM_4
100
AcDbLine
 10
0.3499999999999998
 20
1.91395822364572
 30
0.0
 11
0.3499999999999998
 21
1.13825634512412
 31
0.0
  0
LWPOLYLINE
  5
19A
330
150
100
AcDbEntity
  8
AM_4
100
AcDbPolyline
 90
        8
 70
     0
 43
0.0
 10
0.3999999999999999
 20
1.86267569388546
 10
0.3994190679418507
 20
1.870475168929341
 10
0.393882927181252
 20
1.887263956194018
 10
0.3891810207307598
 20
1.894543126202948
 10
0.3831215670791924
 20
1.901099502532158
 10
0.3686253221747997
 20
1.910269841043523
 10
0.3522922602086215
 20
1.913904341242945
 10
0.3499999999999998
 20
1.91395822364572
  0
LWPOLYLINE
  5
19B
330
150
100
AcDbEntity
  8
AM_4
100
AcDbPolyline
 90
        8
 70
     0
 43
0.0
 10
-0.4
 20
-1.862675693159567
 10
-0.3997414742270033
 20
-1.867887329638978
 10
-0.3950517120379607
 20
-1.884928494035933
 10
-0.3907137516850286
 20
-1.892453129935849
 10
-0.384982465269843
 20
-1.899323867652899
 10
-0.370920498279458
 20
-1.909256523453939
 10
-0.3608573133962799
 20
-1.912735425322409
 10
-0.3499999999999999
 20
-1.91395822364572
  0
LINE
  5
19C
330
150
100
AcDbEntity
  8
AM_4
100
AcDbLine
 10
-0.3499999999999999
 20
-1.91395822364572
 30
0.0
 11
-0.3499999999999998
 21
-1.138256345124119
 31
0.0
  0
LINE
  5
19D
330
150
100
AcDbEntity
  8
AM_4
100
AcDbLine
 10
0.3500000000000004
 20
-1.91395822364572
 30
0.0
 11
0.3500000000000005
 21
-1.13825634512412
 31
0.0
  0
LWPOLYLINE
  5
19E
330
150
100
AcDbEntity
  8
AM_4
100
AcDbPolyline
 90
        7
 70
     0
 43
0.0
 10
0.3500000000000004
 20
-1.91395822364572
 10
0.3610876222361465
 20
-1.912682328461669
 10
0.3702598975385328
 20
-1.909562535830766
 10
0.3842103096433421
 20
-1.900082716828437
 10
0.3942563208342366
 20
-1.886549269336795
 10
0.3994595656775382
 20
-1.870199963311449
 10
0.3999999999999999
 20
-1.86267569388546
  0
LINE
  5
19F
330
150
100
AcDbEntity
  8
AM_4
100
AcDbLine
 10
-0.3500000000000003
 20
1.91395822364572
 30
0.0
 11
-0.3500000000000003
 21
1.13825634512412
 31
0.0
  0
LWPOLYLINE
  5
1A0
330
150
100
AcDbEntity
  8
AM_4
100
AcDbPolyline
 90
        6
 70
     0
 43
0.0
 10
-0.3500000000000003
 20
1.91395822364572
 10
-0.3637139244552989
 20
1.911992900966827
 10
-0.3784718455273879
 20
1.904837093811274
 10
-0.3902370850528611
 20
1.89312719555227
 10
-0.3977453831865201
 20
1.87790939920924
 10
-0.3999999999999999
 20
1.862675693885459
  0
LINE
  5
1A1
330
150
100
AcDbEntity
  8
AM_4
100
AcDbLine
 10
0.1669333333333327
 20
1.91395822364572
 30
0.0
 11
0.1669333333333328
 21
1.13825634512412
 31
0.0
  0
LWPOLYLINE
  5
1A2
330
150
100
AcDbEntity
  8
AM_4
100
AcDbPolyline
 90
        6
 70
     0
 43
0.0
 10
0.1333333333333333
 20
1.948379878191067
 10
0.1352258977007562
 20
1.936993953972121
 10
0.1408914349026069
 20
1.926632736917685
 10
0.149597908460654
 20
1.918895261869125
 10
0.1562074684646099
 20
1.915759945162047
 10
0.1669333333333327
 20
1.91395822364572
  0
LWPOLYLINE
  5
1A3
330
150
100
AcDbEntity
  8
AM_4
100
AcDbPolyline
 90
        7
 70
     0
 43
0.0
 10
-0.1333333333333335
 20
-1.948379878191067
 10
-0.1337252490866275
 20
-1.943139795336597
 10
-0.1374297179572282
 20
-1.931912756047254
 10
-0.1446393411731933
 20
-1.922629711574316
 10
-0.1543741418542749
 20
-1.916454324347573
 10
-0.1653540600052757
 20
-1.913996284242601
 10
-0.1669333333333328
 20
-1.913958223645719
  0
LINE
  5
1A4
330
150
100
AcDbEntity
  8
AM_4
100
AcDbLine
 10
-0.1669333333333328
 20
-1.913958223645719
 30
0.0
 11
-0.1669333333333328
 21
-1.138256345124119
 31
0.0
  0
LWPOLYLINE
  5
1A5
330
150
100
AcDbEntity
  8
AM_4
100
AcDbPolyline
 90
        7
 70
     0
 43
0.0
 10
-0.1669333333333334
 20
1.913958223645719
 10
-0.1613385905547337
 20
1.914438975150329
 10
-0.1508190138749289
 20
1.918176864310959
 10
-0.1421242434762406
 20
1.925169322882251
 10
-0.1360829146297999
 20
1.934745968211463
 10
-0.1334122396478316
 20
1.946023219802955
 10
-0.1333333333333331
 20
1.94837987870376
  0
LINE
  5
1A6
330
150
100
AcDbEntity
  8
AM_4
100
AcDbLine
 10
-0.1669333333333334
 20
1.913958223645719
 30
0.0
 11
-0.1669333333333333
 21
1.13825634512412
 31
0.0
  0
LWPOLYLINE
  5
1A7
330
150
100
AcDbEntity
  8
AM_4
100
AcDbPolyline
 90
        6
 70
     0
 43
0.0
 10
0.1669333333333332
 20
-1.913958223645719
 10
0.1576616876761557
 20
-1.915295252482
 10
0.1477515803122821
 20
-1.920120976238152
 10
0.1398532763913144
 20
-1.928006774845972
 10
0.1348227824280159
 20
-1.938248115700484
 10
0.1333333333333333
 20
-1.948379878191067
  0
LINE
  5
1A8
330
150
100
AcDbEntity
  8
AM_4
100
AcDbLine
 10
0.1669333333333332
 20
-1.913958223645719
 30
0.0
 11
0.1669333333333334
 21
-1.138256345124119
 31
0.0
  0
LWPOLYLINE
  5
1A9
330
150
100
AcDbEntity
  8
AM_4
100
AcDbPolyline
 90
       11
 70
     0
 43
0.0
 10
0.0889767624787938
 20
-2.125
 10
0.0866900811887873
 20
-2.124572767842375
 10
0.0867106470615677
 20
-2.123520369968242
 10
0.0891658065470161
 20
-2.121435779230746
 10
0.0941143472001222
 20
-2.118033999983939
 10
0.099925839025864
 20
-2.113757378599812
 10
0.1087046461936196
 20
-2.105989654407602
 10
0.1172884678670212
 20
-2.096086252693377
 10
0.1222534789024438
 20
-2.088690545262567
 10
0.1266522451531199
 20
-2.080323833983506
 10
0.130792211012718
 20
-2.068999999165535
  0
LWPOLYLINE
  5
1AA
330
150
100
AcDbEntity
  8
AM_4
100
AcDbPolyline
 90
        3
 70
     0
 43
0.0
 10
0.130792211012718
 20
-2.068999999165535
 10
0.1333221007087881
 20
-2.051630482289741
 10
0.1333333333333332
 20
-2.050380397034286
  0
LINE
  5
1AB
330
150
100
AcDbEntity
  8
AM_4
100
AcDbLine
 10
0.1333333333333332
 20
-2.050380397034286
 30
0.0
 11
0.1333333333333333
 21
-1.138256345124119
 31
0.0
  0
LWPOLYLINE
  5
1AC
330
150
100
AcDbEntity
  8
AM_4
100
AcDbPolyline
 90
        3
 70
     0
 43
0.0
 10
-0.1333333333333333
 20
-2.050380396019481
 10
-0.1326441587867815
 20
-2.060146394246824
 10
-0.1307922110127181
 20
-2.068999999165535
  0
LWPOLYLINE
  5
1AD
330
150
100
AcDbEntity
  8
AM_4
100
AcDbPolyline
 90
       11
 70
     0
 43
0.0
 10
-0.1307922110127181
 20
-2.068999999165535
 10
-0.1277512845195173
 20
-2.077794544846256
 10
-0.12363961545773
 20
-2.086290979952379
 10
-0.1178356804817096
 20
-2.095346052267342
 10
-0.1111496098880119
 20
-2.103450309475667
 10
-0.1023935021932815
 20
-2.111758118110533
 10
-0.0935049092091694
 20
-2.118455892076254
 10
-0.0889863874057242
 20
-2.121564066352417
 10
-0.0866649984716791
 20
-2.123584648680298
 10
-0.0867434599678152
 20
-2.124610658088084
 10
-0.0889767624787977
 20
-2.125
  0
LINE
  5
1AE
330
150
100
AcDbEntity
  8
AM_4
100
AcDbLine
 10
-0.1333333333333333
 20
-2.050380396019481
 30
0.0
 11
-0.1333333333333334
 21
-1.13825634512412
 31
0.0
  0
LWPOLYLINE
  5
1AF
330
150
100
AcDbEntity
  8
AM_4
100
AcDbPolyline
 90
        9
 70
     0
 43
0.0
 10
-0.1249395682318799
 20
-1.082256345124119
 10
-0.1213459951146996
 20
-1.098822897804947
 10
-0.1205584366065878
 20
-1.106699605456325
 10
-0.1206812540067848
 20
-1.114294883967785
 10
-0.1230592081764313
 20
-1.125609285539517
 10
-0.1273049581145941
 20
-1.133942863028101
 10
-0.1298001520628606
 20
-1.136825595356941
 10
-0.1319045851095456
 20
-1.138183750480841
 10
-0.1323664602797868
 20
-1.138256345124119
  0
LINE
  5
1B0
330
150
100
AcDbEntity
  8
AM_4
100
AcDbLine
 10
-0.3999999999999997
 20
-1.138256345124119
 30
0.0
 11
-0.1323664602797868
 21
-1.138256345124119
 31
0.0
  0
LINE
  5
1B1
330
150
100
AcDbEntity
  8
AM_4
100
AcDbLine
 10
-0.3999999999999997
 20
-1.082256345124119
 30
0.0
 11
-0.1249395682318799
 21
-1.082256345124119
 31
0.0
  0
LWPOLYLINE
  5
1B2
330
150
100
AcDbEntity
  8
AM_4
100
AcDbPolyline
 90
        8
 70
     0
 43
0.0
 10
-0.1249395682318799
 20
-1.082256345124119
 10
-0.1169439345518274
 20
-1.105935832664717
 10
-0.1094258570769586
 20
-1.12104119072474
 10
-0.0996598760690665
 20
-1.134741390306418
 10
-0.0934773782559431
 20
-1.140983682096464
 10
-0.0864522926018112
 20
-1.146234632185055
 10
-0.0786100041616669
 20
-1.15007225676711
 10
-0.0666666666666666
 20
-1.152217526949076
  0
LWPOLYLINE
  5
1B3
330
150
100
AcDbEntity
  8
AM_4
100
AcDbPolyline
 90
        9
 70
     0
 43
0.0
 10
0.066666666666667
 20
-1.152217526949075
 10
0.0673397810087131
 20
-1.152210773100828
 10
0.0787218090743828
 20
-1.150031533004008
 10
0.0858015297324181
 20
-1.146626104698512
 10
0.0922155920033828
 20
-1.142063608632436
 10
0.1021121818568496
 20
-1.131796812542253
 10
0.1100712577410796
 20
-1.119902204192716
 10
0.1187236344953048
 20
-1.101579260341622
 10
0.1249395682318758
 20
-1.082256345124119
  0
LINE
  5
1B4
330
150
100
AcDbEntity
  8
AM_4
100
AcDbLine
 10
0.3999999999999999
 20
-2.125
 30
0.0
 11
0.3999999999999999
 21
2.125
 31
0.0
  0
LWPOLYLINE
  5
1B5
330
150
100
AcDbEntity
  8
AM_4
100
AcDbPolyline
 90
       10
 70
     0
 43
0.0
 10
0.132366460279787
 20
-1.138256345124119
 10
0.1305989344718178
 20
-1.137484064976939
 10
0.1282142562346703
 20
-1.135131519854059
 10
0.1257059113221013
 20
-1.131435658912764
 10
0.1232968421413557
 20
-1.126260416088286
 10
0.1206805760402703
 20
-1.114286833493269
 10
0.12053785190587
 20
-1.107181833708118
 10
0.1212771498250143
 20
-1.099295601441472
 10
0.1244075789188115
 20
-1.084293493529239
 10
0.1249395682318758
 20
-1.082256345124119
  0
LINE
  5
1B6
330
150
100
AcDbEntity
  8
AM_4
100
AcDbLine
 10
0.132366460279787
 20
-1.138256345124119
 30
0.0
 11
0.4
 21
-1.138256345124119
 31
0.0
  0
LINE
  5
1B7
330
150
100
AcDbEntity
  8
AM_4
100
AcDbLine
 10
0.1249395682318758
 20
-1.082256345124119
 30
0.0
 11
0.4
 21
-1.082256345124119
 31
0.0
  0
LINE
  5
1B8
330
150
100
AcDbEntity
  8
AM_4
100
AcDbLine
 10
-0.0666666666666667
 20
1.152217526949075
 30
0.0
 11
0.0666666666675835
 21
1.152217526949075
 31
0.0
  0
LINE
  5
1B9
330
150
100
AcDbEntity
  8
AM_4
100
AcDbLine
 10
0.0666666666666669
 20
-2.125
 30
0.0
 11
0.066666666666667
 21
-1.152217526949075
 31
0.0
  0
LINE
  5
1BA
330
150
100
AcDbEntity
  8
AM_4
100
AcDbLine
 10
0.066666666666667
 20
-1.152217526949075
 30
0.0
 11
-0.0666666666666666
 21
-1.152217526949076
 31
0.0
  0
LINE
  5
1BB
330
150
100
AcDbEntity
  8
AM_4
100
AcDbLine
 10
-0.0666666666666668
 20
-2.125
 30
0.0
 11
-0.0666666666666666
 21
-1.152217526949076
 31
0.0
  0
LINE
  5
1BC
330
150
100
AcDbEntity
  8
AM_4
100
AcDbLine
 10
-0.3999999999999997
 20
1.138256345124119
 30
0.0
 11
-0.1323664602796562
 21
1.138256345124119
 31
0.0
  0
LINE
  5
1BD
330
150
100
AcDbEntity
  8
AM_4
100
AcDbLine
 10
-0.3999999999999999
 20
-2.125
 30
0.0
 11
-0.3999999999999999
 21
2.125
 31
0.0
  0
LINE
  5
1BE
330
150
100
AcDbEntity
  8
AM_4
100
AcDbLine
 10
-0.3999999999999997
 20
1.082256345124119
 30
0.0
 11
-0.1249395682318755
 21
1.082256345124119
 31
0.0
  0
LWPOLYLINE
  5
1BF
330
150
100
AcDbEntity
  8
AM_4
100
AcDbPolyline
 90
        8
 70
     0
 43
0.0
 10
0.1249395682318759
 20
1.082256345124119
 10
0.1172605713652831
 20
1.105268342676771
 10
0.1058992194518779
 20
1.126602948096895
 10
0.0952896012817323
 20
1.139322783246548
 10
0.088830408639601
 20
1.144656440929084
 10
0.0815971182426139
 20
1.148847793468294
 10
0.0700592410621954
 20
1.1520458432761
 10
0.0666666666675835
 20
1.152217526949075
  0
LINE
  5
1C0
330
150
100
AcDbEntity
  8
AM_4
100
AcDbLine
 10
0.1333333333333334
 20
2.050380397034286
 30
0.0
 11
0.1333333333333335
 21
1.13825634512412
 31
0.0
  0
LWPOLYLINE
  5
1C1
330
150
100
AcDbEntity
  8
AM_4
100
AcDbPolyline
 90
        3
 70
     0
 43
0.0
 10
0.1333333333333334
 20
2.050380397034286
 10
0.1331090976472736
 20
2.055961034075488
 10
0.1307922107803913
 20
2.069
  0
LWPOLYLINE
  5
1C2
330
150
100
AcDbEntity
  8
AM_4
100
AcDbPolyline
 90
       11
 70
     0
 43
0.0
 10
0.1307922107803913
 20
2.069
 10
0.1277512841500439
 20
2.077794545738171
 10
0.1236396149487945
 20
2.086290980867505
 10
0.1178356797897309
 20
2.095346053213559
 10
0.1111496090213848
 20
2.103450310410681
 10
0.1023935013020757
 20
2.111758118855922
 10
0.0935049083943403
 20
2.118455892638059
 10
0.0889863869263096
 20
2.121564066696886
 10
0.0866649983771153
 20
2.123584648818587
 10
0.0867434600781389
 20
2.124610658160984
 10
0.0889767624787976
 20
2.125
  0
LINE
  5
1C3
330
150
100
AcDbEntity
  8
AM_4
100
AcDbLine
 10
0.0666666666666667
 20
2.125
 30
0.0
 11
0.0666666666675835
 21
1.152217526949075
 31
0.0
  0
LWPOLYLINE
  5
1C4
330
150
100
AcDbEntity
  8
AM_4
100
AcDbPolyline
 90
        9
 70
     0
 43
0.0
 10
0.1249395682318759
 20
1.082256345124119
 10
0.1213459951146993
 20
1.098822897804947
 10
0.1205584366065879
 20
1.106699605456325
 10
0.1206812540067848
 20
1.114294883967785
 10
0.1230592081764311
 20
1.125609285539517
 10
0.1273049581145937
 20
1.1339428630281
 10
0.1298001520628605
 20
1.136825595356941
 10
0.1319045851095454
 20
1.138183750480841
 10
0.132366460279787
 20
1.138256345124119
  0
LINE
  5
1C5
330
150
100
AcDbEntity
  8
AM_4
100
AcDbLine
 10
0.1249395682318759
 20
1.082256345124119
 30
0.0
 11
0.4
 21
1.082256345124119
 31
0.0
  0
LINE
  5
1C6
330
150
100
AcDbEntity
  8
AM_4
100
AcDbLine
 10
0.132366460279787
 20
1.138256345124119
 30
0.0
 11
0.4
 21
1.138256345124119
 31
0.0
  0
LWPOLYLINE
  5
1C7
330
150
100
AcDbEntity
  8
AM_4
100
AcDbPolyline
 90
       10
 70
     0
 43
0.0
 10
-0.1323664602796562
 20
1.138256345124119
 10
-0.1305989344717144
 20
1.137484064976864
 10
-0.1282142562346701
 20
1.135131519854059
 10
-0.125705911322101
 20
1.131435658912764
 10
-0.1232968421413554
 20
1.126260416088287
 10
-0.1206805760402701
 20
1.114286833493269
 10
-0.1205378519058696
 20
1.107181833708119
 10
-0.1212771498250138
 20
1.099295601441474
 10
-0.1244075789188109
 20
1.08429349352924
 10
-0.1249395682318755
 20
1.082256345124119
  0
LWPOLYLINE
  5
1C8
330
150
100
AcDbEntity
  8
AM_4
100
AcDbPolyline
 90
        8
 70
     0
 43
0.0
 10
-0.0666666666666667
 20
1.152217526949075
 10
-0.076167673874915
 20
1.150864400323225
 10
-0.0866262177213854
 20
1.146126203095224
 10
-0.0941721503540164
 20
1.14036268647259
 10
-0.1007385842735209
 20
1.133476743388908
 10
-0.1100239379407541
 20
1.120008239104996
 10
-0.1172222985292701
 20
1.105273341731291
 10
-0.1249395682318755
 20
1.082256345124119
  0
LINE
  5
1C9
330
150
100
AcDbEntity
  8
AM_4
100
AcDbLine
 10
-0.0666666666666668
 20
2.125
 30
0.0
 11
-0.0666666666666667
 21
1.152217526949075
 31
0.0
  0
LWPOLYLINE
  5
1CA
330
150
100
AcDbEntity
  8
AM_4
100
AcDbPolyline
 90
       11
 70
     0
 43
0.0
 10
-0.0889767624788128
 20
2.125
 10
-0.0866900811887868
 20
2.124572767842375
 10
-0.0867106470615678
 20
2.123520369968242
 10
-0.0891658065470158
 20
2.121435779230747
 10
-0.094114347200121
 20
2.11803399998394
 10
-0.0999258390258625
 20
2.113757378599814
 10
-0.1087046461936181
 20
2.105989654407603
 10
-0.1172884678670204
 20
2.096086252693378
 10
-0.1222534789290614
 20
2.088690545218168
 10
-0.1266522451991199
 20
2.080323833882401
 10
-0.1307922107805344
 20
2.068999999999483
  0
LWPOLYLINE
  5
1CB
330
150
100
AcDbEntity
  8
AM_4
100
AcDbPolyline
 90
        3
 70
     0
 43
0.0
 10
-0.1307922107805344
 20
2.068999999999483
 10
-0.1326680563999988
 20
2.059976460861565
 10
-0.1333333333333333
 20
2.050380397034286
  0
LINE
  5
1CC
330
150
100
AcDbEntity
  8
AM_4
100
AcDbLine
 10
-0.1333333333333333
 20
2.050380397034286
 30
0.0
 11
-0.1333333333333332
 21
1.138256345124119
 31
0.0
  0
ENDBLK
  5
153
330
150
100
AcDbEntity
  8
0
100
AcDbBlockEnd
  0
ENDSEC
  0
SECTION
  2
ENTITIES
  0
INSERT
  5
6F
330
1F
100
AcDbEntity
  8
0
100
AcDbBlockReference
  2
1_131266_2
 10
0.0
 20
0.0
 30
0.0
  0
POINT
  5
1CE
330
1F
100
AcDbEntity
  8
ConnectionPoints
100
AcDbPoint
 10
-0.3588402883086427
 20
1.419205306074573
 30
-0.9937382535806343
  0
POINT
  5
1CF
330
1F
100
AcDbEntity
  8
ConnectionPoints
100
AcDbPoint
 10
-0.3588402883086427
 20
1.419205306074573
 30
-0.9937382535806343
  0
POINT
  5
1D0
330
1F
100
AcDbEntity
  8
ConnectionPoints
100
AcDbPoint
 10
-1.28
 20
0.0
 30
0.0000000000000001
  0
ENDSEC
  0
SECTION
  2
OBJECTS
  0
DICTIONARY
  5
C
330
0
100
AcDbDictionary
281
     1
  3
ACAD_DETAILVIEWSTYLE
350
1D8
  3
ACAD_GROUP
350
D
  3
ACAD_LAYOUT
350
1A
  3
ACAD_MATERIAL
350
43
  3
ACAD_MLEADERSTYLE
350
6B
  3
ACAD_MLINESTYLE
350
17
  3
ACAD_PLOTSETTINGS
350
19
  3
ACAD_PLOTSTYLENAME
350
E
  3
ACAD_SCALELIST
350
47
  3
ACAD_SECTIONVIEWSTYLE
350
1D9
  3
ACAD_TABLESTYLE
350
69
  3
ACAD_VISUALSTYLE
350
2A
  3
ACDB_RECOMPOSE_DATA
350
1D5
  3
AcDbVariableDictionary
350
1D1
  0
SUN
  5
6D
330
29
100
AcDbSun
 90
        1
290
     0
 63
     7
421
 16777215
 40
1.0
291
     1
 91
  2455826
 92
 54000000
292
     0
 70
     2
 71
   256
280
     1
  0
DICTIONARY
  5
1D8
102
{ACAD_REACTORS
330
C
102
}
330
C
100
AcDbDictionary
281
     1
  0
DICTIONARY
  5
D
102
{ACAD_REACTORS
330
C
102
}
330
C
100
AcDbDictionary
281
     1
  0
DICTIONARY
  5
1A
102
{ACAD_REACTORS
330
C
102
}
330
C
100
AcDbDictionary
281
     1
  3
Layout1
350
1E
  3
Layout2
350
26
  3
Model
350
22
  0
DICTIONARY
  5
43
102
{ACAD_REACTORS
330
C
102
}
330
C
100
AcDbDictionary
281
     1
  3
ByBlock
350
45
  3
ByLayer
350
44
  3
Global
350
46
  0
DICTIONARY
  5
6B
102
{ACAD_REACTORS
330
C
102
}
330
C
100
AcDbDictionary
281
     1
  3
Standard
350
6C
  0
DICTIONARY
  5
17
102
{ACAD_REACTORS
330
C
102
}
330
C
100
AcDbDictionary
281
     1
  3
Standard
350
18
  0
DICTIONARY
  5
19
102
{ACAD_REACTORS
330
C
102
}
330
C
100
AcDbDictionary
281
     1
  0
ACDBDICTIONARYWDFLT
  5
E
102
{ACAD_REACTORS
330
C
102
}
330
C
100
AcDbDictionary
281
     1
  3
Normal
350
F
100
AcDbDictionaryWithDefault
340
F
  0
DICTIONARY
  5
47
102
{ACAD_REACTORS
330
C
102
}
330
C
100
AcDbDictionary
281
     1
  3
A0
350
48
  3
A1
350
49
  3
A2
350
4A
  3
A3
350
4B
  3
A4
350
4C
  3
A5
350
4D
  3
A6
350
4E
  3
A7
350
4F
  3
A8
350
50
  3
A9
350
51
  3
B0
350
52
  3
B1
350
53
  3
B2
350
54
  3
B3
350
55
  3
B4
350
56
  3
B5
350
57
  3
B6
350
58
  3
B7
350
59
  3
B8
350
5A
  3
B9
350
5B
  3
C0
350
5C
  3
C1
350
5D
  3
C2
350
5E
  3
C3
350
5F
  3
C4
350
60
  3
C5
350
61
  3
C6
350
62
  3
C7
350
63
  3
C8
350
64
  3
C9
350
65
  3
D0
350
66
  3
D1
350
67
  3
D2
350
68
  0
DICTIONARY
  5
1D9
102
{ACAD_REACTORS
330
C
102
}
330
C
100
AcDbDictionary
281
     1
  0
DICTIONARY
  5
69
102
{ACAD_REACTORS
330
C
102
}
330
C
100
AcDbDictionary
281
     1
  3
Standard
350
6A
  0
DICTIONARY
  5
2A
102
{ACAD_REACTORS
330
C
102
}
330
C
100
AcDbDictionary
281
     1
  3
2dWireframe
350
2F
  3
Basic
350
32
  3
Brighten
350
36
  3
ColorChange
350
3A
  3
Conceptual
350
34
  3
Dim
350
35
  3
EdgeColorOff
350
3D
  3
Facepattern
350
39
  3
Flat
350
2B
  3
FlatWithEdges
350
2C
  3
Gouraud
350
2D
  3
GouraudWithEdges
350
2E
  3
Hidden
350
31
  3
JitterOff
350
3B
  3
Linepattern
350
38
  3
OverhangOff
350
3C
  3
Realistic
350
33
  3
Shaded
350
42
  3
Shaded with edges
350
41
  3
Shades of Gray
350
3E
  3
Sketchy
350
3F
  3
Thicken
350
37
  3
Wireframe
350
30
  3
X-Ray
350
40
  0
XRECORD
  5
1D5
102
{ACAD_REACTORS
330
C
102
}
330
C
100
AcDbXrecord
280
     1
 90
        1
330
6A
  0
DICTIONARY
  5
1D1
102
{ACAD_REACTORS
330
C
102
}
330
C
100
AcDbDictionary
281
     1
  3
CANNOSCALE
350
1D2
  3
CMLEADERSTYLE
350
1D7
  3
CTABLESTYLE
350
1D6
  0
LAYOUT
  5
1E
102
{ACAD_REACTORS
330
1A
102
}
330
1A
100
AcDbPlotSettings
  1

  2
none_device
  4

  6

 40
0.0
 41
0.0
 42
0.0
 43
0.0
 44
0.0
 45
0.0
 46
0.0
 47
0.0
 48
0.0
 49
0.0
140
0.0
141
0.0
142
1.0
143
1.0
 70
   688
 72
     0
 73
     0
 74
     5
  7

 75
    16
 76
     0
 77
     2
 78
   300
147
1.0
148
0.0
149
0.0
100
AcDbLayout
  1
Layout1
 70
     1
 71
     1
 10
0.0
 20
0.0
 11
12.0
 21
9.0
 12
0.0
 22
0.0
 32
0.0
 14
1.000000000000000E+20
 24
1.000000000000000E+20
 34
1.000000000000000E+20
 15
-1.000000000000000E+20
 25
-1.000000000000000E+20
 35
-1.000000000000000E+20
146
0.0
 13
0.0
 23
0.0
 33
0.0
 16
1.0
 26
0.0
 36
0.0
 17
0.0
 27
1.0
 37
0.0
 76
     0
330
1B
  0
LAYOUT
  5
26
102
{ACAD_REACTORS
330
1A
102
}
330
1A
100
AcDbPlotSettings
  1

  2
none_device
  4

  6

 40
0.0
 41
0.0
 42
0.0
 43
0.0
 44
0.0
 45
0.0
 46
0.0
 47
0.0
 48
0.0
 49
0.0
140
0.0
141
0.0
142
1.0
143
1.0
 70
   688
 72
     0
 73
     0
 74
     5
  7

 75
    16
 76
     0
 77
     2
 78
   300
147
1.0
148
0.0
149
0.0
100
AcDbLayout
  1
Layout2
 70
     1
 71
     2
 10
0.0
 20
0.0
 11
0.0
 21
0.0
 12
0.0
 22
0.0
 32
0.0
 14
0.0
 24
0.0
 34
0.0
 15
0.0
 25
0.0
 35
0.0
146
0.0
 13
0.0
 23
0.0
 33
0.0
 16
1.0
 26
0.0
 36
0.0
 17
0.0
 27
1.0
 37
0.0
 76
     0
330
23
  0
LAYOUT
  5
22
102
{ACAD_REACTORS
330
1A
102
}
330
1A
100
AcDbPlotSettings
  1

  2
none_device
  4
Letter_(8.50_x_11.00_Inches)
  6

 40
6.35
 41
6.35
 42
6.35000508
 43
6.35000508
 44
215.9
 45
279.4
 46
0.0
 47
0.0
 48
0.0
 49
0.0
140
0.0
141
0.0
142
1.0
143
1.0
 70
  1712
 72
     0
 73
     0
 74
     0
  7

 75
     0
 76
     0
 77
     2
 78
   300
147
1.0
148
0.0
149
0.0
100
AcDbLayout
  1
Model
 70
     1
 71
     0
 10
0.0
 20
0.0
 11
12.0
 21
9.0
 12
0.0
 22
0.0
 32
0.0
 14
1.000000000000000E+20
 24
1.000000000000000E+20
 34
1.000000000000000E+20
 15
-1.000000000000000E+20
 25
-1.000000000000000E+20
 35
-1.000000000000000E+20
146
0.0
 13
0.0
 23
0.0
 33
0.0
 16
1.0
 26
0.0
 36
0.0
 17
0.0
 27
1.0
 37
0.0
 76
     0
330
1F
331
29
  0
MATERIAL
  5
45
102
{ACAD_REACTORS
330
43
102
}
330
43
100
AcDbMaterial
  1
ByBlock
 72
     1
 94
      127
  0
MATERIAL
  5
44
102
{ACAD_REACTORS
330
43
102
}
330
43
100
AcDbMaterial
  1
ByLayer
 72
     1
 94
      127
  0
MATERIAL
  5
46
102
{ACAD_REACTORS
330
43
102
}
330
43
100
AcDbMaterial
  1
Global
 72
     1
 94
      127
  0
MLEADERSTYLE
  5
6C
102
{ACAD_REACTORS
330
6B
102
}
330
6B
100
AcDbMLeaderStyle
179
     2
170
     2
171
     1
172
     0
 90
        2
 40
0.0
 41
0.0
173
     1
 91
-1056964608
340
14
 92
       -2
290
     1
 42
0.09
291
     1
 43
0.36
  3
Standard
341
0
 44
0.18
300

342
11
174
     1
178
     6
175
     1
176
     0
 93
-1056964608
 45
0.18
292
     0
297
     0
 46
0.18
343
0
 94
-1056964608
 47
1.0
 49
1.0
140
1.0
293
     1
141
0.0
294
     1
177
     0
142
1.0
295
     0
296
     0
143
0.125
271
     0
272
     9
273
     9
298
     0
  0
MLINESTYLE
  5
18
102
{ACAD_REACTORS
330
17
102
}
330
17
100
AcDbMlineStyle
  2
Standard
 70
     0
  3

 62
   256
 51
90.0
 52
90.0
 71
     2
 49
0.5
 62
   256
  6
BYLAYER
 49
-0.5
 62
   256
  6
BYLAYER
  0
ACDBPLACEHOLDER
  5
F
102
{ACAD_REACTORS
330
E
102
}
330
E
  0
SCALE
  5
48
102
{ACAD_REACTORS
330
47
102
}
330
47
100
AcDbScale
 70
     0
300
1:1
140
1.0
141
1.0
290
     1
  0
SCALE
  5
49
102
{ACAD_REACTORS
330
47
102
}
330
47
100
AcDbScale
 70
     0
300
1:2
140
1.0
141
2.0
290
     0
  0
SCALE
  5
4A
102
{ACAD_REACTORS
330
47
102
}
330
47
100
AcDbScale
 70
     0
300
1:4
140
1.0
141
4.0
290
     0
  0
SCALE
  5
4B
102
{ACAD_REACTORS
330
47
102
}
330
47
100
AcDbScale
 70
     0
300
1:5
140
1.0
141
5.0
290
     0
  0
SCALE
  5
4C
102
{ACAD_REACTORS
330
47
102
}
330
47
100
AcDbScale
 70
     0
300
1:8
140
1.0
141
8.0
290
     0
  0
SCALE
  5
4D
102
{ACAD_REACTORS
330
47
102
}
330
47
100
AcDbScale
 70
     0
300
1:10
140
1.0
141
10.0
290
     0
  0
SCALE
  5
4E
102
{ACAD_REACTORS
330
47
102
}
330
47
100
AcDbScale
 70
     0
300
1:16
140
1.0
141
16.0
290
     0
  0
SCALE
  5
4F
102
{ACAD_REACTORS
330
47
102
}
330
47
100
AcDbScale
 70
     0
300
1:20
140
1.0
141
20.0
290
     0
  0
SCALE
  5
50
102
{ACAD_REACTORS
330
47
102
}
330
47
100
AcDbScale
 70
     0
300
1:30
140
1.0
141
30.0
290
     0
  0
SCALE
  5
51
102
{ACAD_REACTORS
330
47
102
}
330
47
100
AcDbScale
 70
     0
300
1:40
140
1.0
141
40.0
290
     0
  0
SCALE
  5
52
102
{ACAD_REACTORS
330
47
102
}
330
47
100
AcDbScale
 70
     0
300
1:50
140
1.0
141
50.0
290
     0
  0
SCALE
  5
53
102
{ACAD_REACTORS
330
47
102
}
330
47
100
AcDbScale
 70
     0
300
1:100
140
1.0
141
100.0
290
     0
  0
SCALE
  5
54
102
{ACAD_REACTORS
330
47
102
}
330
47
100
AcDbScale
 70
     0
300
2:1
140
2.0
141
1.0
290
     0
  0
SCALE
  5
55
102
{ACAD_REACTORS
330
47
102
}
330
47
100
AcDbScale
 70
     0
300
4:1
140
4.0
141
1.0
290
     0
  0
SCALE
  5
56
102
{ACAD_REACTORS
330
47
102
}
330
47
100
AcDbScale
 70
     0
300
8:1
140
8.0
141
1.0
290
     0
  0
SCALE
  5
57
102
{ACAD_REACTORS
330
47
102
}
330
47
100
AcDbScale
 70
     0
300
10:1
140
10.0
141
1.0
290
     0
  0
SCALE
  5
58
102
{ACAD_REACTORS
330
47
102
}
330
47
100
AcDbScale
 70
     0
300
100:1
140
100.0
141
1.0
290
     0
  0
SCALE
  5
59
102
{ACAD_REACTORS
330
47
102
}
330
47
100
AcDbScale
 70
     0
300
1/128" = 1'-0"
140
0.0078125
141
12.0
290
     0
  0
SCALE
  5
5A
102
{ACAD_REACTORS
330
47
102
}
330
47
100
AcDbScale
 70
     0
300
1/64" = 1'-0"
140
0.015625
141
12.0
290
     0
  0
SCALE
  5
5B
102
{ACAD_REACTORS
330
47
102
}
330
47
100
AcDbScale
 70
     0
300
1/32" = 1'-0"
140
0.03125
141
12.0
290
     0
  0
SCALE
  5
5C
102
{ACAD_REACTORS
330
47
102
}
330
47
100
AcDbScale
 70
     0
300
1/16" = 1'-0"
140
0.0625
141
12.0
290
     0
  0
SCALE
  5
5D
102
{ACAD_REACTORS
330
47
102
}
330
47
100
AcDbScale
 70
     0
300
3/32" = 1'-0"
140
0.09375
141
12.0
290
     0
  0
SCALE
  5
5E
102
{ACAD_REACTORS
330
47
102
}
330
47
100
AcDbScale
 70
     0
300
1/8" = 1'-0"
140
0.125
141
12.0
290
     0
  0
SCALE
  5
5F
102
{ACAD_REACTORS
330
47
102
}
330
47
100
AcDbScale
 70
     0
300
3/16" = 1'-0"
140
0.1875
141
12.0
290
     0
  0
SCALE
  5
60
102
{ACAD_REACTORS
330
47
102
}
330
47
100
AcDbScale
 70
     0
300
1/4" = 1'-0"
140
0.25
141
12.0
290
     0
  0
SCALE
  5
61
102
{ACAD_REACTORS
330
47
102
}
330
47
100
AcDbScale
 70
     0
300
3/8" = 1'-0"
140
0.375
141
12.0
290
     0
  0
SCALE
  5
62
102
{ACAD_REACTORS
330
47
102
}
330
47
100
AcDbScale
 70
     0
300
1/2" = 1'-0"
140
0.5
141
12.0
290
     0
  0
SCALE
  5
63
102
{ACAD_REACTORS
330
47
102
}
330
47
100
AcDbScale
 70
     0
300
3/4" = 1'-0"
140
0.75
141
12.0
290
     0
  0
SCALE
  5
64
102
{ACAD_REACTORS
330
47
102
}
330
47
100
AcDbScale
 70
     0
300
1" = 1'-0"
140
1.0
141
12.0
290
     0
  0
SCALE
  5
65
102
{ACAD_REACTORS
330
47
102
}
330
47
100
AcDbScale
 70
     0
300
1-1/2" = 1'-0"
140
1.5
141
12.0
290
     0
  0
SCALE
  5
66
102
{ACAD_REACTORS
330
47
102
}
330
47
100
AcDbScale
 70
     0
300
3" = 1'-0"
140
3.0
141
12.0
290
     0
  0
SCALE
  5
67
102
{ACAD_REACTORS
330
47
102
}
330
47
100
AcDbScale
 70
     0
300
6" = 1'-0"
140
6.0
141
12.0
290
     0
  0
SCALE
  5
68
102
{ACAD_REACTORS
330
47
102
}
330
47
100
AcDbScale
 70
     0
300
1'-0" = 1'-0"
140
12.0
141
12.0
290
     0
  0
TABLESTYLE
  5
6A
102
{ACAD_REACTORS
330
69
102
}
102
{ACAD_XDICTIONARY
360
1D3
102
}
330
69
100
AcDbTableStyle
  3
Standard
 70
     0
 71
     0
 40
0.06
 41
0.06
280
     0
281
     0
  7
Standard
140
0.18
170
     2
 62
     0
 63
   257
283
     0
 90
        4
 91
        0
  1

274
    -2
284
     1
 64
     0
275
    -2
285
     1
 65
     0
276
    -2
286
     1
 66
     0
277
    -2
287
     1
 67
     0
278
    -2
288
     1
 68
     0
279
    -2
289
     1
 69
     0
  7
Standard
140
0.25
170
     5
 62
     0
 63
   257
283
     0
 90
        4
 91
        0
  1

274
    -2
284
     1
 64
     0
275
    -2
285
     1
 65
     0
276
    -2
286
     1
 66
     0
277
    -2
287
     1
 67
     0
278
    -2
288
     1
 68
     0
279
    -2
289
     1
 69
     0
  7
Standard
140
0.18
170
     5
 62
     0
 63
   257
283
     0
 90
        4
 91
        0
  1

274
    -2
284
     1
 64
     0
275
    -2
285
     1
 65
     0
276
    -2
286
     1
 66
     0
277
    -2
287
     1
 67
     0
278
    -2
288
     1
 68
     0
279
    -2
289
     1
 69
     0
  0
VISUALSTYLE
  5
2F
102
{ACAD_REACTORS
330
2A
102
}
330
2A
100
AcDbVisualStyle
  2
2dWireframe
 70
     4
177
     3
291
     0
 70
    58
 90
        0
176
     1
 90
        2
176
     1
 90
        0
176
     1
 90
        0
176
     1
 40
0.6
176
     1
 40
30.0
176
     1
 62
     7
420
 16777215
176
     1
 90
        1
176
     1
 90
        4
176
     1
 62
     7
176
     1
 62
   257
176
     1
 90
        1
176
     1
 90
        1
176
     1
 40
1.0
176
     1
 90
        0
176
     1
 62
   257
176
     1
 40
1.0
176
     1
 90
        1
176
     1
 90
        6
176
     1
 90
        2
176
     1
 62
     7
176
     1
 90
        5
176
     1
 90
        0
176
     1
 90
        0
176
     1
290
     0
176
     1
 90
        1
176
     1
 40
0.0
176
     1
 90
        0
176
     1
290
     1
176
     1
290
     1
176
     1
290
     0
176
     1
290
     0
176
     1
290
     0
176
     1
290
     0
176
     1
290
     0
176
     1
290
     0
176
     1
290
     0
176
     1
 90
       50
176
     1
 40
0.0
176
     1
 40
1.0
176
     1
 90
        0
176
     1
 62
    18
420
        0
176
     1
 90
       50
176
     1
 90
        3
176
     1
 62
     5
420
      255
176
     1
290
     0
176
     1
 90
       50
176
     1
 90
       50
176
     1
 90
       50
176
     1
290
     0
176
     1
 90
       50
176
     1
 62
   256
176
     0
 40
1.0
176
     0
 90
        2
176
     1
  1
strokes_ogs.tif
176
     1
290
     0
176
     1
 40
1.0
176
     1
 40
1.0
176
     1
  0
VISUALSTYLE
  5
32
102
{ACAD_REACTORS
330
2A
102
}
330
2A
100
AcDbVisualStyle
  2
Basic
 70
     7
177
     3
291
     1
 70
    58
 90
        1
176
     1
 90
        0
176
     1
 90
        1
176
     1
 90
        0
176
     1
 40
0.6
176
     1
 40
30.0
176
     1
 62
     7
420
 16777215
176
     1
 90
        0
176
     1
 90
        4
176
     1
 62
     7
176
     1
 62
   257
176
     1
 90
        1
176
     1
 90
        1
176
     1
 40
1.0
176
     1
 90
        8
176
     1
 62
     7
176
     1
 40
1.0
176
     1
 90
        1
176
     1
 90
        6
176
     1
 90
        2
176
     1
 62
     7
176
     1
 90
        5
176
     1
 90
        0
176
     1
 90
        0
176
     1
290
     0
176
     1
 90
        1
176
     1
 40
0.0
176
     1
 90
        0
176
     1
290
     0
176
     1
290
     1
176
     1
290
     1
176
     1
290
     0
176
     1
290
     0
176
     1
290
     0
176
     1
290
     0
176
     1
290
     0
176
     1
290
     0
176
     1
 90
       50
176
     1
 40
0.0
176
     1
 40
1.0
176
     1
 90
        0
176
     1
 62
    18
420
        0
176
     1
 90
       50
176
     1
 90
        3
176
     1
 62
     5
420
      255
176
     1
290
     0
176
     1
 90
       50
176
     1
 90
       50
176
     1
 90
       50
176
     1
290
     0
176
     1
 90
       50
176
     1
 62
   256
176
     0
 40
1.0
176
     0
 90
        2
176
     1
  1
strokes_ogs.tif
176
     1
290
     0
176
     1
 40
1.0
176
     1
 40
1.0
176
     1
  0
VISUALSTYLE
  5
36
102
{ACAD_REACTORS
330
2A
102
}
330
2A
100
AcDbVisualStyle
  2
Brighten
 70
    12
177
     3
291
     1
 70
    58
 90
        2
176
     1
 90
        2
176
     1
 90
        0
176
     1
 90
        0
176
     1
 40
0.6
176
     1
 40
30.0
176
     1
 62
     7
420
 16777215
176
     1
 90
        1
176
     1
 90
        4
176
     1
 62
     7
176
     1
 62
   257
176
     1
 90
        1
176
     1
 90
        1
176
     1
 40
1.0
176
     1
 90
        8
176
     1
 62
     7
176
     1
 40
1.0
176
     1
 90
        1
176
     1
 90
        6
176
     1
 90
        2
176
     1
 62
     7
176
     1
 90
        5
176
     1
 90
        0
176
     1
 90
        0
176
     1
290
     0
176
     1
 90
        1
176
     1
 40
50.0
176
     1
 90
        0
176
     1
290
     0
176
     1
290
     1
176
     1
290
     1
176
     1
290
     0
176
     1
290
     0
176
     1
290
     0
176
     1
290
     0
176
     1
290
     0
176
     1
290
     0
176
     1
 90
       50
176
     1
 40
0.0
176
     1
 40
1.0
176
     1
 90
        0
176
     1
 62
    18
420
        0
176
     1
 90
       50
176
     1
 90
        3
176
     1
 62
     5
420
      255
176
     1
290
     0
176
     1
 90
       50
176
     1
 90
       50
176
     1
 90
       50
176
     1
290
     0
176
     1
 90
       50
176
     1
 62
   256
176
     0
 40
1.0
176
     0
 90
        2
176
     1
  1
strokes_ogs.tif
176
     1
290
     0
176
     1
 40
1.0
176
     1
 40
1.0
176
     1
  0
VISUALSTYLE
  5
3A
102
{ACAD_REACTORS
330
2A
102
}
330
2A
100
AcDbVisualStyle
  2
ColorChange
 70
    16
177
     3
291
     1
 70
    58
 90
        2
176
     1
 90
        2
176
     1
 90
        3
176
     1
 90
        0
176
     1
 40
0.6
176
     1
 40
30.0
176
     1
 62
     8
420
  8421504
176
     1
 90
        1
176
     1
 90
        4
176
     1
 62
     7
176
     1
 62
   257
176
     1
 90
        1
176
     1
 90
        1
176
     1
 40
1.0
176
     1
 90
        8
176
     1
 62
     8
420
  8421504
176
     1
 40
1.0
176
     1
 90
        1
176
     1
 90
        6
176
     1
 90
        2
176
     1
 62
     7
176
     1
 90
        5
176
     1
 90
        0
176
     1
 90
        0
176
     1
290
     0
176
     1
 90
        1
176
     1
 40
0.0
176
     1
 90
        0
176
     1
290
     0
176
     1
290
     1
176
     1
290
     1
176
     1
290
     0
176
     1
290
     0
176
     1
290
     0
176
     1
290
     0
176
     1
290
     0
176
     1
290
     0
176
     1
 90
       50
176
     1
 40
0.0
176
     1
 40
1.0
176
     1
 90
        0
176
     1
 62
    18
420
        0
176
     1
 90
       50
176
     1
 90
        3
176
     1
 62
     5
420
      255
176
     1
290
     0
176
     1
 90
       50
176
     1
 90
       50
176
     1
 90
       50
176
     1
290
     0
176
     1
 90
       50
176
     1
 62
   256
176
     0
 40
1.0
176
     0
 90
        2
176
     1
  1
strokes_ogs.tif
176
     1
290
     0
176
     1
 40
1.0
176
     1
 40
1.0
176
     1
  0
VISUALSTYLE
  5
34
102
{ACAD_REACTORS
330
2A
102
}
330
2A
100
AcDbVisualStyle
  2
Conceptual
 70
     9
177
     3
291
     0
 70
    58
 90
        3
176
     1
 90
        2
176
     1
 90
        0
176
     1
 90
        0
176
     1
 40
0.6
176
     1
 40
30.0
176
     1
 62
     7
420
 16777215
176
     1
 90
        2
176
     1
 90
        2
176
     1
 62
     7
176
     1
 62
   257
176
     1
 90
        1
176
     1
 90
        1
176
     1
 40
179.0
176
     1
 90
        8
176
     1
 62
     7
176
     1
 40
1.0
176
     1
 90
        1
176
     1
 90
        6
176
     1
 90
        2
176
     1
 62
     7
176
     1
 90
        3
176
     1
 90
        0
176
     1
 90
        0
176
     1
290
     0
176
     1
 90
        1
176
     1
 40
0.0
176
     1
 90
        0
176
     1
290
     0
176
     1
290
     1
176
     1
290
     1
176
     1
290
     0
176
     1
290
     0
176
     1
290
     0
176
     1
290
     0
176
     1
290
     0
176
     1
290
     0
176
     1
 90
       50
176
     1
 40
0.0
176
     1
 40
1.0
176
     1
 90
        0
176
     1
 62
    18
420
        0
176
     1
 90
       50
176
     1
 90
        3
176
     1
 62
     5
420
      255
176
     1
290
     0
176
     1
 90
       50
176
     1
 90
       50
176
     1
 90
       50
176
     1
290
     0
176
     1
 90
       50
176
     1
 62
   256
176
     0
 40
1.0
176
     0
 90
        2
176
     1
  1
strokes_ogs.tif
176
     1
290
     0
176
     1
 40
1.0
176
     1
 40
1.0
176
     1
  0
VISUALSTYLE
  5
35
102
{ACAD_REACTORS
330
2A
102
}
330
2A
100
AcDbVisualStyle
  2
Dim
 70
    11
177
     3
291
     1
 70
    58
 90
        2
176
     1
 90
        2
176
     1
 90
        0
176
     1
 90
        0
176
     1
 40
0.6
176
     1
 40
30.0
176
     1
 62
     7
420
 16777215
176
     1
 90
        1
176
     1
 90
        4
176
     1
 62
     7
176
     1
 62
   257
176
     1
 90
        1
176
     1
 90
        1
176
     1
 40
1.0
176
     1
 90
        8
176
     1
 62
     7
176
     1
 40
1.0
176
     1
 90
        1
176
     1
 90
        6
176
     1
 90
        2
176
     1
 62
     7
176
     1
 90
        5
176
     1
 90
        0
176
     1
 90
        0
176
     1
290
     0
176
     1
 90
        1
176
     1
 40
-50.0
176
     1
 90
        0
176
     1
290
     0
176
     1
290
     1
176
     1
290
     1
176
     1
290
     0
176
     1
290
     0
176
     1
290
     0
176
     1
290
     0
176
     1
290
     0
176
     1
290
     0
176
     1
 90
       50
176
     1
 40
0.0
176
     1
 40
1.0
176
     1
 90
        0
176
     1
 62
    18
420
        0
176
     1
 90
       50
176
     1
 90
        3
176
     1
 62
     5
420
      255
176
     1
290
     0
176
     1
 90
       50
176
     1
 90
       50
176
     1
 90
       50
176
     1
290
     0
176
     1
 90
       50
176
     1
 62
   256
176
     0
 40
1.0
176
     0
 90
        2
176
     1
  1
strokes_ogs.tif
176
     1
290
     0
176
     1
 40
1.0
176
     1
 40
1.0
176
     1
  0
VISUALSTYLE
  5
3D
102
{ACAD_REACTORS
330
2A
102
}
330
2A
100
AcDbVisualStyle
  2
EdgeColorOff
 70
    22
177
     3
291
     1
 70
    58
 90
        2
176
     0
 90
        2
176
     0
 90
        0
176
     0
 90
        0
176
     0
 40
0.6
176
     0
 40
30.0
176
     0
 62
     7
420
 16777215
176
     0
 90
        1
176
     0
 90
        4
176
     0
 62
     7
176
     0
 62
   257
176
     0
 90
        1
176
     0
 90
        1
176
     0
 40
1.0
176
     0
 90
        8
176
     2
 62
     7
176
     0
 40
1.0
176
     0
 90
        1
176
     0
 90
        6
176
     0
 90
        2
176
     0
 62
     7
176
     0
 90
        5
176
     0
 90
        0
176
     0
 90
        0
176
     0
290
     0
176
     0
 90
        1
176
     0
 40
0.0
176
     0
 90
        0
176
     0
290
     0
176
     0
290
     1
176
     0
290
     1
176
     0
290
     0
176
     0
290
     0
176
     0
290
     0
176
     0
290
     0
176
     0
290
     0
176
     0
290
     0
176
     0
 90
       50
176
     0
 40
0.0
176
     0
 40
1.0
176
     0
 90
        0
176
     0
 62
    18
420
        0
176
     0
 90
       50
176
     0
 90
        3
176
     0
 62
     5
420
      255
176
     0
290
     0
176
     0
 90
       50
176
     0
 90
       50
176
     0
 90
       50
176
     0
290
     0
176
     0
 90
       50
176
     0
 62
   256
176
     0
 40
1.0
176
     0
 90
        2
176
     0
  1
strokes_ogs.tif
176
     0
290
     0
176
     0
 40
1.0
176
     0
 40
1.0
176
     0
  0
VISUALSTYLE
  5
39
102
{ACAD_REACTORS
330
2A
102
}
330
2A
100
AcDbVisualStyle
  2
Facepattern
 70
    15
177
     3
291
     1
 70
    58
 90
        2
176
     1
 90
        2
176
     1
 90
        0
176
     1
 90
        0
176
     1
 40
0.6
176
     1
 40
30.0
176
     1
 62
     7
420
 16777215
176
     1
 90
        1
176
     1
 90
        4
176
     1
 62
     7
176
     1
 62
   257
176
     1
 90
        1
176
     1
 90
        1
176
     1
 40
1.0
176
     1
 90
        8
176
     1
 62
     7
176
     1
 40
1.0
176
     1
 90
        1
176
     1
 90
        6
176
     1
 90
        2
176
     1
 62
     7
176
     1
 90
        5
176
     1
 90
        0
176
     1
 90
        0
176
     1
290
     0
176
     1
 90
        1
176
     1
 40
0.0
176
     1
 90
        0
176
     1
290
     0
176
     1
290
     1
176
     1
290
     1
176
     1
290
     0
176
     1
290
     0
176
     1
290
     0
176
     1
290
     0
176
     1
290
     0
176
     1
290
     0
176
     1
 90
       50
176
     1
 40
0.0
176
     1
 40
1.0
176
     1
 90
        0
176
     1
 62
    18
420
        0
176
     1
 90
       50
176
     1
 90
        3
176
     1
 62
     5
420
      255
176
     1
290
     0
176
     1
 90
       50
176
     1
 90
       50
176
     1
 90
       50
176
     1
290
     0
176
     1
 90
       50
176
     1
 62
   256
176
     0
 40
1.0
176
     0
 90
        2
176
     1
  1
strokes_ogs.tif
176
     1
290
     0
176
     1
 40
1.0
176
     1
 40
1.0
176
     1
  0
VISUALSTYLE
  5
2B
102
{ACAD_REACTORS
330
2A
102
}
330
2A
100
AcDbVisualStyle
  2
Flat
 70
     0
177
     3
291
     1
 70
    58
 90
        2
176
     1
 90
        1
176
     1
 90
        1
176
     1
 90
        2
176
     1
 40
0.6
176
     1
 40
30.0
176
     1
 62
     7
420
 16777215
176
     1
 90
        0
176
     1
 90
        0
176
     1
 62
     7
176
     1
 62
   257
176
     1
 90
        1
176
     1
 90
        1
176
     1
 40
1.0
176
     1
 90
        8
176
     1
 62
     7
176
     1
 40
1.0
176
     1
 90
        1
176
     1
 90
        6
176
     1
 90
        2
176
     1
 62
     7
176
     1
 90
        5
176
     1
 90
        0
176
     1
 90
        0
176
     1
290
     0
176
     1
 90
       13
176
     1
 40
0.0
176
     1
 90
        0
176
     1
290
     0
176
     1
290
     1
176
     1
290
     1
176
     1
290
     0
176
     1
290
     0
176
     1
290
     0
176
     1
290
     0
176
     1
290
     0
176
     1
290
     0
176
     1
 90
       50
176
     1
 40
0.0
176
     1
 40
1.0
176
     1
 90
        0
176
     1
 62
    18
420
        0
176
     1
 90
       50
176
     1
 90
        3
176
     1
 62
     5
420
      255
176
     1
290
     0
176
     1
 90
       50
176
     1
 90
       50
176
     1
 90
       50
176
     1
290
     0
176
     1
 90
       50
176
     1
 62
   256
176
     0
 40
1.0
176
     0
 90
        2
176
     1
  1
strokes_ogs.tif
176
     1
290
     0
176
     1
 40
1.0
176
     1
 40
1.0
176
     1
  0
VISUALSTYLE
  5
2C
102
{ACAD_REACTORS
330
2A
102
}
330
2A
100
AcDbVisualStyle
  2
FlatWithEdges
 70
     1
177
     3
291
     1
 70
    58
 90
        2
176
     1
 90
        1
176
     1
 90
        1
176
     1
 90
        2
176
     1
 40
0.6
176
     1
 40
30.0
176
     1
 62
     7
420
 16777215
176
     1
 90
        1
176
     1
 90
        0
176
     1
 62
     7
176
     1
 62
   257
176
     1
 90
        1
176
     1
 90
        1
176
     1
 40
1.0
176
     1
 90
        0
176
     1
 62
   257
176
     1
 40
1.0
176
     1
 90
        1
176
     1
 90
        6
176
     1
 90
        2
176
     1
 62
     7
176
     1
 90
        5
176
     1
 90
        0
176
     1
 90
        0
176
     1
290
     0
176
     1
 90
       13
176
     1
 40
0.0
176
     1
 90
        0
176
     1
290
     0
176
     1
290
     1
176
     1
290
     1
176
     1
290
     0
176
     1
290
     0
176
     1
290
     0
176
     1
290
     0
176
     1
290
     0
176
     1
290
     0
176
     1
 90
       50
176
     1
 40
0.0
176
     1
 40
1.0
176
     1
 90
        0
176
     1
 62
    18
420
        0
176
     1
 90
       50
176
     1
 90
        3
176
     1
 62
     5
420
      255
176
     1
290
     0
176
     1
 90
       50
176
     1
 90
       50
176
     1
 90
       50
176
     1
290
     0
176
     1
 90
       50
176
     1
 62
   256
176
     0
 40
1.0
176
     0
 90
        2
176
     1
  1
strokes_ogs.tif
176
     1
290
     0
176
     1
 40
1.0
176
     1
 40
1.0
176
     1
  0
VISUALSTYLE
  5
2D
102
{ACAD_REACTORS
330
2A
102
}
330
2A
100
AcDbVisualStyle
  2
Gouraud
 70
     2
177
     3
291
     1
 70
    58
 90
        2
176
     1
 90
        2
176
     1
 90
        1
176
     1
 90
        2
176
     1
 40
0.6
176
     1
 40
30.0
176
     1
 62
     7
420
 16777215
176
     1
 90
        0
176
     1
 90
        0
176
     1
 62
     7
176
     1
 62
   257
176
     1
 90
        1
176
     1
 90
        1
176
     1
 40
1.0
176
     1
 90
        0
176
     1
 62
     7
176
     1
 40
1.0
176
     1
 90
        1
176
     1
 90
        6
176
     1
 90
        2
176
     1
 62
     7
176
     1
 90
        5
176
     1
 90
        0
176
     1
 90
        0
176
     1
290
     0
176
     1
 90
       13
176
     1
 40
0.0
176
     1
 90
        0
176
     1
290
     0
176
     1
290
     1
176
     1
290
     1
176
     1
290
     0
176
     1
290
     0
176
     1
290
     0
176
     1
290
     0
176
     1
290
     0
176
     1
290
     0
176
     1
 90
       50
176
     1
 40
0.0
176
     1
 40
1.0
176
     1
 90
        0
176
     1
 62
    18
420
        0
176
     1
 90
       50
176
     1
 90
        3
176
     1
 62
     5
420
      255
176
     1
290
     0
176
     1
 90
       50
176
     1
 90
       50
176
     1
 90
       50
176
     1
290
     0
176
     1
 90
       50
176
     1
 62
   256
176
     0
 40
1.0
176
     0
 90
        2
176
     1
  1
strokes_ogs.tif
176
     1
290
     0
176
     1
 40
1.0
176
     1
 40
1.0
176
     1
  0
VISUALSTYLE
  5
2E
102
{ACAD_REACTORS
330
2A
102
}
330
2A
100
AcDbVisualStyle
  2
GouraudWithEdges
 70
     3
177
     3
291
     1
 70
    58
 90
        2
176
     1
 90
        2
176
     1
 90
        1
176
     1
 90
        2
176
     1
 40
0.6
176
     1
 40
30.0
176
     1
 62
     7
420
 16777215
176
     1
 90
        1
176
     1
 90
        0
176
     1
 62
     7
176
     1
 62
   257
176
     1
 90
        1
176
     1
 90
        1
176
     1
 40
1.0
176
     1
 90
        0
176
     1
 62
   257
176
     1
 40
1.0
176
     1
 90
        1
176
     1
 90
        6
176
     1
 90
        2
176
     1
 62
     7
176
     1
 90
        5
176
     1
 90
        0
176
     1
 90
        0
176
     1
290
     0
176
     1
 90
       13
176
     1
 40
0.0
176
     1
 90
        0
176
     1
290
     0
176
     1
290
     1
176
     1
290
     1
176
     1
290
     0
176
     1
290
     0
176
     1
290
     0
176
     1
290
     0
176
     1
290
     0
176
     1
290
     0
176
     1
 90
       50
176
     1
 40
0.0
176
     1
 40
1.0
176
     1
 90
        0
176
     1
 62
    18
420
        0
176
     1
 90
       50
176
     1
 90
        3
176
     1
 62
     5
420
      255
176
     1
290
     0
176
     1
 90
       50
176
     1
 90
       50
176
     1
 90
       50
176
     1
290
     0
176
     1
 90
       50
176
     1
 62
   256
176
     0
 40
1.0
176
     0
 90
        2
176
     1
  1
strokes_ogs.tif
176
     1
290
     0
176
     1
 40
1.0
176
     1
 40
1.0
176
     1
  0
VISUALSTYLE
  5
31
102
{ACAD_REACTORS
330
2A
102
}
330
2A
100
AcDbVisualStyle
  2
Hidden
 70
     6
177
     3
291
     0
 70
    58
 90
        1
176
     1
 90
        2
176
     1
 90
        2
176
     1
 90
        0
176
     1
 40
0.6
176
     1
 40
30.0
176
     1
 62
     7
420
 16777215
176
     1
 90
        2
176
     1
 90
        2
176
     1
 62
     7
176
     1
 62
   257
176
     1
 90
        2
176
     1
 90
        1
176
     1
 40
40.0
176
     1
 90
        0
176
     1
 62
   257
176
     1
 40
1.0
176
     1
 90
        1
176
     1
 90
        6
176
     1
 90
        2
176
     1
 62
     7
176
     1
 90
        3
176
     1
 90
        0
176
     1
 90
        0
176
     1
290
     0
176
     1
 90
        1
176
     1
 40
0.0
176
     1
 90
        0
176
     1
290
     0
176
     1
290
     1
176
     1
290
     1
176
     1
290
     0
176
     1
290
     0
176
     1
290
     0
176
     1
290
     0
176
     1
290
     0
176
     1
290
     0
176
     1
 90
       50
176
     1
 40
0.0
176
     1
 40
1.0
176
     1
 90
        0
176
     1
 62
    18
420
        0
176
     1
 90
       50
176
     1
 90
        3
176
     1
 62
     5
420
      255
176
     1
290
     0
176
     1
 90
       50
176
     1
 90
       50
176
     1
 90
       50
176
     1
290
     0
176
     1
 90
       50
176
     1
 62
   256
176
     0
 40
1.0
176
     0
 90
        2
176
     1
  1
strokes_ogs.tif
176
     1
290
     0
176
     1
 40
1.0
176
     1
 40
1.0
176
     1
  0
VISUALSTYLE
  5
3B
102
{ACAD_REACTORS
330
2A
102
}
330
2A
100
AcDbVisualStyle
  2
JitterOff
 70
    20
177
     3
291
     1
 70
    58
 90
        2
176
     0
 90
        2
176
     0
 90
        0
176
     0
 90
        0
176
     0
 40
0.6
176
     0
 40
30.0
176
     0
 62
     7
420
 16777215
176
     0
 90
        1
176
     0
 90
        4
176
     0
 62
     7
176
     0
 62
   257
176
     0
 90
        1
176
     0
 90
        1
176
     0
 40
1.0
176
     0
 90
       10
176
     2
 62
     7
176
     0
 40
1.0
176
     0
 90
        1
176
     0
 90
        6
176
     0
 90
        2
176
     0
 62
     7
176
     0
 90
        5
176
     0
 90
        0
176
     0
 90
        0
176
     0
290
     0
176
     0
 90
        1
176
     0
 40
0.0
176
     0
 90
        0
176
     0
290
     0
176
     0
290
     1
176
     0
290
     1
176
     0
290
     0
176
     0
290
     0
176
     0
290
     0
176
     0
290
     0
176
     0
290
     0
176
     0
290
     0
176
     0
 90
       50
176
     0
 40
0.0
176
     0
 40
1.0
176
     0
 90
        0
176
     0
 62
    18
420
        0
176
     0
 90
       50
176
     0
 90
        3
176
     0
 62
     5
420
      255
176
     0
290
     0
176
     0
 90
       50
176
     0
 90
       50
176
     0
 90
       50
176
     0
290
     0
176
     0
 90
       50
176
     0
 62
   256
176
     0
 40
1.0
176
     0
 90
        2
176
     0
  1
strokes_ogs.tif
176
     0
290
     0
176
     0
 40
1.0
176
     0
 40
1.0
176
     0
  0
VISUALSTYLE
  5
38
102
{ACAD_REACTORS
330
2A
102
}
330
2A
100
AcDbVisualStyle
  2
Linepattern
 70
    14
177
     3
291
     1
 70
    58
 90
        2
176
     1
 90
        2
176
     1
 90
        0
176
     1
 90
        0
176
     1
 40
0.6
176
     1
 40
30.0
176
     1
 62
     7
420
 16777215
176
     1
 90
        1
176
     1
 90
        4
176
     1
 62
     7
176
     1
 62
   257
176
     1
 90
        7
176
     1
 90
        7
176
     1
 40
1.0
176
     1
 90
        8
176
     1
 62
     7
176
     1
 40
1.0
176
     1
 90
        1
176
     1
 90
        6
176
     1
 90
        2
176
     1
 62
     7
176
     1
 90
        5
176
     1
 90
        0
176
     1
 90
        0
176
     1
290
     0
176
     1
 90
        1
176
     1
 40
0.0
176
     1
 90
        0
176
     1
290
     0
176
     1
290
     1
176
     1
290
     1
176
     1
290
     0
176
     1
290
     0
176
     1
290
     0
176
     1
290
     0
176
     1
290
     0
176
     1
290
     0
176
     1
 90
       50
176
     1
 40
0.0
176
     1
 40
1.0
176
     1
 90
        0
176
     1
 62
    18
420
        0
176
     1
 90
       50
176
     1
 90
        3
176
     1
 62
     5
420
      255
176
     1
290
     0
176
     1
 90
       50
176
     1
 90
       50
176
     1
 90
       50
176
     1
290
     0
176
     1
 90
       50
176
     1
 62
   256
176
     0
 40
1.0
176
     0
 90
        2
176
     1
  1
strokes_ogs.tif
176
     1
290
     0
176
     1
 40
1.0
176
     1
 40
1.0
176
     1
  0
VISUALSTYLE
  5
3C
102
{ACAD_REACTORS
330
2A
102
}
330
2A
100
AcDbVisualStyle
  2
OverhangOff
 70
    21
177
     3
291
     1
 70
    58
 90
        2
176
     0
 90
        2
176
     0
 90
        0
176
     0
 90
        0
176
     0
 40
0.6
176
     0
 40
30.0
176
     0
 62
     7
420
 16777215
176
     0
 90
        1
176
     0
 90
        4
176
     0
 62
     7
176
     0
 62
   257
176
     0
 90
        1
176
     0
 90
        1
176
     0
 40
1.0
176
     0
 90
        9
176
     2
 62
     7
176
     0
 40
1.0
176
     0
 90
        1
176
     0
 90
        6
176
     0
 90
        2
176
     0
 62
     7
176
     0
 90
        5
176
     0
 90
        0
176
     0
 90
        0
176
     0
290
     0
176
     0
 90
        1
176
     0
 40
0.0
176
     0
 90
        0
176
     0
290
     0
176
     0
290
     1
176
     0
290
     1
176
     0
290
     0
176
     0
290
     0
176
     0
290
     0
176
     0
290
     0
176
     0
290
     0
176
     0
290
     0
176
     0
 90
       50
176
     0
 40
0.0
176
     0
 40
1.0
176
     0
 90
        0
176
     0
 62
    18
420
        0
176
     0
 90
       50
176
     0
 90
        3
176
     0
 62
     5
420
      255
176
     0
290
     0
176
     0
 90
       50
176
     0
 90
       50
176
     0
 90
       50
176
     0
290
     0
176
     0
 90
       50
176
     0
 62
   256
176
     0
 40
1.0
176
     0
 90
        2
176
     0
  1
strokes_ogs.tif
176
     0
290
     0
176
     0
 40
1.0
176
     0
 40
1.0
176
     0
  0
VISUALSTYLE
  5
33
102
{ACAD_REACTORS
330
2A
102
}
330
2A
100
AcDbVisualStyle
  2
Realistic
 70
     8
177
     3
291
     0
 70
    58
 90
        2
176
     1
 90
        3
176
     1
 90
        0
176
     1
 90
        2
176
     1
 40
0.6
176
     1
 40
30.0
176
     1
 62
     7
420
 16777215
176
     1
 90
        0
176
     1
 90
        0
176
     1
 62
     7
176
     1
 62
   257
176
     1
 90
        1
176
     1
 90
        1
176
     1
 40
1.0
176
     1
 90
        8
176
     1
 62
   257
176
     1
 40
1.0
176
     1
 90
        1
176
     1
 90
        6
176
     1
 90
        2
176
     1
 62
     7
176
     1
 90
        3
176
     1
 90
        0
176
     1
 90
        0
176
     1
290
     0
176
     1
 90
       13
176
     1
 40
0.0
176
     1
 90
        0
176
     1
290
     0
176
     1
290
     1
176
     1
290
     1
176
     1
290
     0
176
     1
290
     0
176
     1
290
     0
176
     1
290
     0
176
     1
290
     0
176
     1
290
     0
176
     1
 90
       50
176
     1
 40
0.0
176
     1
 40
1.0
176
     1
 90
        0
176
     1
 62
    18
420
        0
176
     1
 90
       50
176
     1
 90
        3
176
     1
 62
     5
420
      255
176
     1
290
     0
176
     1
 90
       50
176
     1
 90
       50
176
     1
 90
       50
176
     1
290
     0
176
     1
 90
       50
176
     1
 62
   256
176
     0
 40
1.0
176
     0
 90
        2
176
     1
  1
strokes_ogs.tif
176
     1
290
     0
176
     1
 40
1.0
176
     1
 40
1.0
176
     1
  0
VISUALSTYLE
  5
42
102
{ACAD_REACTORS
330
2A
102
}
330
2A
100
AcDbVisualStyle
  2
Shaded
 70
    27
177
     3
291
     0
 70
    58
 90
        2
176
     1
 90
        2
176
     1
 90
        1
176
     1
 90
        2
176
     1
 40
0.6
176
     1
 40
30.0
176
     1
 62
     7
420
 16777215
176
     1
 90
        0
176
     1
 90
        4
176
     1
 62
     7
176
     1
 62
   257
176
     1
 90
        1
176
     1
 90
        1
176
     1
 40
1.0
176
     1
 90
        8
176
     1
 62
   257
176
     1
 40
1.0
176
     1
 90
        1
176
     1
 90
        6
176
     1
 90
        2
176
     1
 62
     8
420
  7895160
176
     1
 90
        3
176
     1
 90
        0
176
     1
 90
        0
176
     1
290
     0
176
     1
 90
        5
176
     1
 40
0.0
176
     1
 90
        0
176
     1
290
     0
176
     1
290
     1
176
     1
290
     1
176
     1
290
     0
176
     1
290
     0
176
     1
290
     0
176
     1
290
     0
176
     1
290
     0
176
     1
290
     0
176
     1
 90
       50
176
     1
 40
0.0
176
     1
 40
1.0
176
     1
 90
        0
176
     1
 62
    18
420
        0
176
     1
 90
       50
176
     1
 90
        3
176
     1
 62
     5
420
      255
176
     1
290
     0
176
     1
 90
       50
176
     1
 90
       50
176
     1
 90
       50
176
     1
290
     0
176
     1
 90
       50
176
     1
 62
   256
176
     0
 40
1.0
176
     0
 90
        2
176
     1
  1
strokes_ogs.tif
176
     1
290
     0
176
     1
 40
1.0
176
     1
 40
1.0
176
     1
  0
VISUALSTYLE
  5
41
102
{ACAD_REACTORS
330
2A
102
}
330
2A
100
AcDbVisualStyle
  2
Shaded with edges
 70
    26
177
     3
291
     0
 70
    58
 90
        2
176
     1
 90
        2
176
     1
 90
        1
176
     1
 90
        2
176
     1
 40
0.6
176
     1
 40
30.0
176
     1
 62
     7
420
 16777215
176
     1
 90
        1
176
     1
 90
       10
176
     1
 62
     7
176
     1
 62
   257
176
     1
 90
        2
176
     1
 90
        1
176
     1
 40
1.0
176
     1
 90
        8
176
     1
 62
   257
176
     1
 40
1.0
176
     1
 90
        1
176
     1
 90
        6
176
     1
 90
        2
176
     1
 62
     7
176
     1
 90
        3
176
     1
 90
        0
176
     1
 90
        0
176
     1
290
     0
176
     1
 90
        5
176
     1
 40
0.0
176
     1
 90
        0
176
     1
290
     0
176
     1
290
     1
176
     1
290
     1
176
     1
290
     0
176
     1
290
     0
176
     1
290
     0
176
     1
290
     0
176
     1
290
     0
176
     1
290
     0
176
     1
 90
       50
176
     1
 40
0.0
176
     1
 40
1.0
176
     1
 90
        0
176
     1
 62
    18
420
        0
176
     1
 90
       50
176
     1
 90
        3
176
     1
 62
     5
420
      255
176
     1
290
     0
176
     1
 90
       50
176
     1
 90
       50
176
     1
 90
       50
176
     1
290
     0
176
     1
 90
       50
176
     1
 62
   256
176
     0
 40
1.0
176
     0
 90
        2
176
     1
  1
strokes_ogs.tif
176
     1
290
     0
176
     1
 40
1.0
176
     1
 40
1.0
176
     1
  0
VISUALSTYLE
  5
3E
102
{ACAD_REACTORS
330
2A
102
}
330
2A
100
AcDbVisualStyle
  2
Shades of Gray
 70
    23
177
     3
291
     0
 70
    58
 90
        2
176
     1
 90
        2
176
     1
 90
        3
176
     1
 90
        0
176
     1
 40
0.6
176
     1
 40
30.0
176
     1
 62
     7
420
 16777215
176
     1
 90
        2
176
     1
 90
        2
176
     1
 62
     7
176
     1
 62
     7
176
     1
 90
        1
176
     1
 90
        1
176
     1
 40
40.0
176
     1
 90
        8
176
     1
 62
     7
176
     1
 40
1.0
176
     1
 90
        1
176
     1
 90
        6
176
     1
 90
        2
176
     1
 62
     7
176
     1
 90
        3
176
     1
 90
        0
176
     1
 90
        0
176
     1
290
     0
176
     1
 90
        1
176
     1
 40
0.0
176
     1
 90
        0
176
     1
290
     0
176
     1
290
     1
176
     1
290
     1
176
     1
290
     0
176
     1
290
     0
176
     1
290
     0
176
     1
290
     0
176
     1
290
     0
176
     1
290
     0
176
     1
 90
       50
176
     1
 40
0.0
176
     1
 40
1.0
176
     1
 90
        0
176
     1
 62
    18
420
        0
176
     1
 90
       50
176
     1
 90
        3
176
     1
 62
     5
420
      255
176
     1
290
     0
176
     1
 90
       50
176
     1
 90
       50
176
     1
 90
       50
176
     1
290
     0
176
     1
 90
       50
176
     1
 62
   256
176
     0
 40
1.0
176
     0
 90
        2
176
     1
  1
strokes_ogs.tif
176
     1
290
     0
176
     1
 40
1.0
176
     1
 40
1.0
176
     1
  0
VISUALSTYLE
  5
3F
102
{ACAD_REACTORS
330
2A
102
}
330
2A
100
AcDbVisualStyle
  2
Sketchy
 70
    24
177
     3
291
     0
 70
    58
 90
        1
176
     1
 90
        2
176
     1
 90
        2
176
     1
 90
        0
176
     1
 40
0.6
176
     1
 40
30.0
176
     1
 62
     7
420
 16777215
176
     1
 90
        2
176
     1
 90
        2
176
     1
 62
     7
176
     1
 62
     7
176
     1
 90
        1
176
     1
 90
        1
176
     1
 40
40.0
176
     1
 90
       11
176
     1
 62
     7
176
     1
 40
1.0
176
     1
 90
        1
176
     1
 90
        6
176
     1
 90
        2
176
     1
 62
     7
176
     1
 90
        6
176
     1
 90
        0
176
     1
 90
        0
176
     1
290
     0
176
     1
 90
        1
176
     1
 40
0.0
176
     1
 90
        0
176
     1
290
     0
176
     1
290
     1
176
     1
290
     1
176
     1
290
     0
176
     1
290
     0
176
     1
290
     0
176
     1
290
     0
176
     1
290
     0
176
     1
290
     0
176
     1
 90
       50
176
     1
 40
0.0
176
     1
 40
1.0
176
     1
 90
        0
176
     1
 62
    18
420
        0
176
     1
 90
       50
176
     1
 90
        3
176
     1
 62
     5
420
      255
176
     1
290
     0
176
     1
 90
       50
176
     1
 90
       50
176
     1
 90
       50
176
     1
290
     0
176
     1
 90
       50
176
     1
 62
   256
176
     0
 40
1.0
176
     0
 90
        2
176
     1
  1
strokes_ogs.tif
176
     1
290
     0
176
     1
 40
1.0
176
     1
 40
1.0
176
     1
  0
VISUALSTYLE
  5
37
102
{ACAD_REACTORS
330
2A
102
}
330
2A
100
AcDbVisualStyle
  2
Thicken
 70
    13
177
     3
291
     1
 70
    58
 90
        2
176
     1
 90
        2
176
     1
 90
        0
176
     1
 90
        0
176
     1
 40
0.6
176
     1
 40
30.0
176
     1
 62
     7
420
 16777215
176
     1
 90
        1
176
     1
 90
        4
176
     1
 62
     7
176
     1
 62
   257
176
     1
 90
        1
176
     1
 90
        1
176
     1
 40
1.0
176
     1
 90
       12
176
     1
 62
     7
176
     1
 40
1.0
176
     1
 90
        1
176
     1
 90
        6
176
     1
 90
        2
176
     1
 62
     7
176
     1
 90
        5
176
     1
 90
        0
176
     1
 90
        0
176
     1
290
     0
176
     1
 90
        1
176
     1
 40
0.0
176
     1
 90
        0
176
     1
290
     0
176
     1
290
     1
176
     1
290
     1
176
     1
290
     0
176
     1
290
     0
176
     1
290
     0
176
     1
290
     0
176
     1
290
     0
176
     1
290
     0
176
     1
 90
       50
176
     1
 40
0.0
176
     1
 40
1.0
176
     1
 90
        0
176
     1
 62
    18
420
        0
176
     1
 90
       50
176
     1
 90
        3
176
     1
 62
     5
420
      255
176
     1
290
     0
176
     1
 90
       50
176
     1
 90
       50
176
     1
 90
       50
176
     1
290
     0
176
     1
 90
       50
176
     1
 62
   256
176
     0
 40
1.0
176
     0
 90
        2
176
     1
  1
strokes_ogs.tif
176
     1
290
     0
176
     1
 40
1.0
176
     1
 40
1.0
176
     1
  0
VISUALSTYLE
  5
30
102
{ACAD_REACTORS
330
2A
102
}
330
2A
100
AcDbVisualStyle
  2
Wireframe
 70
     5
177
     3
291
     0
 70
    58
 90
        0
176
     1
 90
        2
176
     1
 90
        0
176
     1
 90
        0
176
     1
 40
0.6
176
     1
 40
30.0
176
     1
 62
     7
420
 16777215
176
     1
 90
        1
176
     1
 90
        4
176
     1
 62
     7
176
     1
 62
   257
176
     1
 90
        1
176
     1
 90
        1
176
     1
 40
1.0
176
     1
 90
        0
176
     1
 62
   257
176
     1
 40
1.0
176
     1
 90
        1
176
     1
 90
        6
176
     1
 90
        2
176
     1
 62
     7
176
     1
 90
        3
176
     1
 90
        0
176
     1
 90
        0
176
     1
290
     0
176
     1
 90
        1
176
     1
 40
0.0
176
     1
 90
        0
176
     1
290
     0
176
     1
290
     1
176
     1
290
     1
176
     1
290
     0
176
     1
290
     0
176
     1
290
     0
176
     1
290
     0
176
     1
290
     0
176
     1
290
     0
176
     1
 90
       50
176
     1
 40
0.0
176
     1
 40
1.0
176
     1
 90
        0
176
     1
 62
    18
420
        0
176
     1
 90
       50
176
     1
 90
        3
176
     1
 62
     5
420
      255
176
     1
290
     0
176
     1
 90
       50
176
     1
 90
       50
176
     1
 90
       50
176
     1
290
     0
176
     1
 90
       50
176
     1
 62
   256
176
     0
 40
1.0
176
     0
 90
        2
176
     1
  1
strokes_ogs.tif
176
     1
290
     0
176
     1
 40
1.0
176
     1
 40
1.0
176
     1
  0
VISUALSTYLE
  5
40
102
{ACAD_REACTORS
330
2A
102
}
330
2A
100
AcDbVisualStyle
  2
X-Ray
 70
    25
177
     3
291
     0
 70
    58
 90
        2
176
     1
 90
        2
176
     1
 90
        1
176
     1
 90
        1
176
     1
 40
0.5
176
     1
 40
30.0
176
     1
 62
     7
420
 16777215
176
     1
 90
        1
176
     1
 90
        0
176
     1
 62
     7
176
     1
 62
   257
176
     1
 90
        1
176
     1
 90
        1
176
     1
 40
1.0
176
     1
 90
        8
176
     1
 62
     7
176
     1
 40
1.0
176
     1
 90
        1
176
     1
 90
        6
176
     1
 90
        2
176
     1
 62
     7
176
     1
 90
        3
176
     1
 90
        0
176
     1
 90
        0
176
     1
290
     0
176
     1
 90
       13
176
     1
 40
0.0
176
     1
 90
        0
176
     1
290
     0
176
     1
290
     1
176
     1
290
     1
176
     1
290
     0
176
     1
290
     0
176
     1
290
     0
176
     1
290
     0
176
     1
290
     0
176
     1
290
     0
176
     1
 90
       50
176
     1
 40
0.0
176
     1
 40
1.0
176
     1
 90
        0
176
     1
 62
    18
420
        0
176
     1
 90
       50
176
     1
 90
        3
176
     1
 62
     5
420
      255
176
     1
290
     0
176
     1
 90
       50
176
     1
 90
       50
176
     1
 90
       50
176
     1
290
     0
176
     1
 90
       50
176
     1
 62
   256
176
     0
 40
1.0
176
     0
 90
        2
176
     1
  1
strokes_ogs.tif
176
     1
290
     0
176
     1
 40
1.0
176
     1
 40
1.0
176
     1
  0
DICTIONARYVAR
  5
1D2
102
{ACAD_REACTORS
330
1D1
102
}
330
1D1
100
DictionaryVariables
280
     0
  1
1:1
  0
DICTIONARYVAR
  5
1D7
102
{ACAD_REACTORS
330
1D1
102
}
330
1D1
100
DictionaryVariables
280
     0
  1
Standard
  0
DICTIONARYVAR
  5
1D6
102
{ACAD_REACTORS
330
1D1
102
}
330
1D1
100
DictionaryVariables
280
     0
  1
Standard
  0
DICTIONARY
  5
1D3
330
6A
100
AcDbDictionary
280
     1
281
     1
  3
ACAD_ROUNDTRIP_2008_TABLESTYLE_CELLSTYLEMAP
360
1D4
  0
CELLSTYLEMAP
  5
1D4
102
{ACAD_REACTORS
330
1D3
102
}
330
1D3
100
AcDbCellStyleMap
 90
        3
300
CELLSTYLE
  1
TABLEFORMAT_BEGIN
 90
        5
170
     1
 91
        0
 92
    32768
 62
   257
 93
        1
300
CONTENTFORMAT
  1
CONTENTFORMAT_BEGIN
 90
        0
 91
        0
 92
        4
 93
        0
300

 40
0.0
140
1.0
 94
        5
 62
     0
340
11
144
0.25
309
CONTENTFORMAT_END
171
     1
301
MARGIN
  1
CELLMARGIN_BEGIN
 40
0.06
 40
0.06
 40
0.06
 40
0.06
 40
0.06
 40
0.06
309
CELLMARGIN_END
 94
        6
 95
        1
302
GRIDFORMAT
  1
GRIDFORMAT_BEGIN
 90
        0
 91
        1
 62
     0
 92
       -2
340
14
 93
        0
 40
0.045
309
GRIDFORMAT_END
 95
        2
302
GRIDFORMAT
  1
GRIDFORMAT_BEGIN
 90
        0
 91
        1
 62
     0
 92
       -2
340
14
 93
        0
 40
0.045
309
GRIDFORMAT_END
 95
        4
302
GRIDFORMAT
  1
GRIDFORMAT_BEGIN
 90
        0
 91
        1
 62
     0
 92
       -2
340
14
 93
        0
 40
0.045
309
GRIDFORMAT_END
 95
        8
302
GRIDFORMAT
  1
GRIDFORMAT_BEGIN
 90
        0
 91
        1
 62
     0
 92
       -2
340
14
 93
        0
 40
0.045
309
GRIDFORMAT_END
 95
       16
302
GRIDFORMAT
  1
GRIDFORMAT_BEGIN
 90
        0
 91
        1
 62
     0
 92
       -2
340
14
 93
        0
 40
0.045
309
GRIDFORMAT_END
 95
       32
302
GRIDFORMAT
  1
GRIDFORMAT_BEGIN
 90
        0
 91
        1
 62
     0
 92
       -2
340
14
 93
        0
 40
0.045
309
GRIDFORMAT_END
309
TABLEFORMAT_END
  1
CELLSTYLE_BEGIN
 90
        1
 91
        1
300
_TITLE
309
CELLSTYLE_END
300
CELLSTYLE
  1
TABLEFORMAT_BEGIN
 90
        5
170
     1
 91
        0
 92
        0
 62
   257
 93
        1
300
CONTENTFORMAT
  1
CONTENTFORMAT_BEGIN
 90
        0
 91
        0
 92
        4
 93
        0
300

 40
0.0
140
1.0
 94
        5
 62
     0
340
11
144
0.18
309
CONTENTFORMAT_END
171
     1
301
MARGIN
  1
CELLMARGIN_BEGIN
 40
0.06
 40
0.06
 40
0.06
 40
0.06
 40
0.06
 40
0.06
309
CELLMARGIN_END
 94
        6
 95
        1
302
GRIDFORMAT
  1
GRIDFORMAT_BEGIN
 90
        0
 91
        1
 62
     0
 92
       -2
340
14
 93
        0
 40
0.045
309
GRIDFORMAT_END
 95
        2
302
GRIDFORMAT
  1
GRIDFORMAT_BEGIN
 90
        0
 91
        1
 62
     0
 92
       -2
340
14
 93
        0
 40
0.045
309
GRIDFORMAT_END
 95
        4
302
GRIDFORMAT
  1
GRIDFORMAT_BEGIN
 90
        0
 91
        1
 62
     0
 92
       -2
340
14
 93
        0
 40
0.045
309
GRIDFORMAT_END
 95
        8
302
GRIDFORMAT
  1
GRIDFORMAT_BEGIN
 90
        0
 91
        1
 62
     0
 92
       -2
340
14
 93
        0
 40
0.045
309
GRIDFORMAT_END
 95
       16
302
GRIDFORMAT
  1
GRIDFORMAT_BEGIN
 90
        0
 91
        1
 62
     0
 92
       -2
340
14
 93
        0
 40
0.045
309
GRIDFORMAT_END
 95
       32
302
GRIDFORMAT
  1
GRIDFORMAT_BEGIN
 90
        0
 91
        1
 62
     0
 92
       -2
340
14
 93
        0
 40
0.045
309
GRIDFORMAT_END
309
TABLEFORMAT_END
  1
CELLSTYLE_BEGIN
 90
        2
 91
        1
300
_HEADER
309
CELLSTYLE_END
300
CELLSTYLE
  1
TABLEFORMAT_BEGIN
 90
        5
170
     1
 91
        0
 92
        0
 62
   257
 93
        1
300
CONTENTFORMAT
  1
CONTENTFORMAT_BEGIN
 90
        0
 91
        0
 92
        4
 93
        0
300

 40
0.0
140
1.0
 94
        2
 62
     0
340
11
144
0.18
309
CONTENTFORMAT_END
171
     1
301
MARGIN
  1
CELLMARGIN_BEGIN
 40
0.06
 40
0.06
 40
0.06
 40
0.06
 40
0.06
 40
0.06
309
CELLMARGIN_END
 94
        6
 95
        1
302
GRIDFORMAT
  1
GRIDFORMAT_BEGIN
 90
        0
 91
        1
 62
     0
 92
       -2
340
14
 93
        0
 40
0.045
309
GRIDFORMAT_END
 95
        2
302
GRIDFORMAT
  1
GRIDFORMAT_BEGIN
 90
        0
 91
        1
 62
     0
 92
       -2
340
14
 93
        0
 40
0.045
309
GRIDFORMAT_END
 95
        4
302
GRIDFORMAT
  1
GRIDFORMAT_BEGIN
 90
        0
 91
        1
 62
     0
 92
       -2
340
14
 93
        0
 40
0.045
309
GRIDFORMAT_END
 95
        8
302
GRIDFORMAT
  1
GRIDFORMAT_BEGIN
 90
        0
 91
        1
 62
     0
 92
       -2
340
14
 93
        0
 40
0.045
309
GRIDFORMAT_END
 95
       16
302
GRIDFORMAT
  1
GRIDFORMAT_BEGIN
 90
        0
 91
        1
 62
     0
 92
       -2
340
14
 93
        0
 40
0.045
309
GRIDFORMAT_END
 95
       32
302
GRIDFORMAT
  1
GRIDFORMAT_BEGIN
 90
        0
 91
        1
 62
     0
 92
       -2
340
14
 93
        0
 40
0.045
309
GRIDFORMAT_END
309
TABLEFORMAT_END
  1
CELLSTYLE_BEGIN
 90
        3
 91
        2
300
_DATA
309
CELLSTYLE_END
  0
ENDSEC
  0
EOF