0
SECTION
  2
HEADER
  9
$ACADVER
  1
AC1027
  9
$ACADMAINTVER
 70
     8
  9
$DWGCODEPAGE
  3
ANSI_1252
  9
$REQUIREDVERSIONS
160
                 0
  9
$COMMENTS
  1
File was created by Cadenas
  9
$CUSTOMPROPERTYTAG
  1
NN
  9
$CUSTOMPROPERTY
  1
Eccentric Collar Intermediate Duty Wide Slot Take Up Inch Bore
  9
$CUSTOMPROPERTYTAG
  1
NT
  9
$CUSTOMPROPERTY
  1
Eccentric Collar Take-Up Bearings -(Intermediate Duty) -Wide Slot
  9
$CUSTOMPROPERTYTAG
  1
NB
  9
$CUSTOMPROPERTY
  1
131250
  9
$CUSTOMPROPERTYTAG
  1
NBSYN
  9
$CUSTOMPROPERTY
  1
$PN.
  9
$CUSTOMPROPERTYTAG
  1
LINA
  9
$CUSTOMPROPERTY
  1
131250
  9
$CUSTOMPROPERTYTAG
  1
SERIES
  9
$CUSTOMPROPERTY
  1
208
  9
$CUSTOMPROPERTYTAG
  1
SS
  9
$CUSTOMPROPERTY
  1
1-1/2
  9
$CUSTOMPROPERTYTAG
  1
PN
  9
$CUSTOMPROPERTY
  1
131250
  9
$CUSTOMPROPERTYTAG
  1
DESCRIPTION
  9
$CUSTOMPROPERTY
  1
WSTU-SXV-108
  9
$CUSTOMPROPERTYTAG
  1
W
  9
$CUSTOMPROPERTY
  1
4.7
  9
$CUSTOMPROPERTYTAG
  1
FS
  9
$CUSTOMPROPERTY
  1
WS400
  9
$CUSTOMPROPERTYTAG
  1
A
  9
$CUSTOMPROPERTY
  1
1.72
  9
$CUSTOMPROPERTYTAG
  1
B
  9
$CUSTOMPROPERTY
  1
5.69
  9
$CUSTOMPROPERTYTAG
  1
C
  9
$CUSTOMPROPERTY
  1
0.688
  9
$CUSTOMPROPERTYTAG
  1
D
  9
$CUSTOMPROPERTY
  1
3.25
  9
$CUSTOMPROPERTYTAG
  1
E
  9
$CUSTOMPROPERTY
  1
3.50
  9
$CUSTOMPROPERTYTAG
  1
F
  9
$CUSTOMPROPERTY
  1
1
  9
$CUSTOMPROPERTYTAG
  1
G
  9
$CUSTOMPROPERTY
  1
0.63
  9
$CUSTOMPROPERTYTAG
  1
H
  9
$CUSTOMPROPERTY
  1
0.75
  9
$CUSTOMPROPERTYTAG
  1
J
  9
$CUSTOMPROPERTY
  1
3.25
  9
$CUSTOMPROPERTYTAG
  1
K
  9
$CUSTOMPROPERTY
  1
1.94
  9
$CUSTOMPROPERTYTAG
  1
L
  9
$CUSTOMPROPERTY
  1
2.38
  9
$CUSTOMPROPERTYTAG
  1
M
  9
$CUSTOMPROPERTY
  1
3.985 / 4.015
  9
$CUSTOMPROPERTYTAG
  1
N
  9
$CUSTOMPROPERTY
  1
4.50
  9
$CUSTOMPROPERTYTAG
  1
R
  9
$CUSTOMPROPERTY
  1
0.43
  9
$CUSTOMPROPERTYTAG
  1
S
  9
$CUSTOMPROPERTY
  1
1.28
  9
$CUSTOMPROPERTYTAG
  1
T
  9
$CUSTOMPROPERTY
  1
1.94
  9
$CUSTOMPROPERTYTAG
  1
COMPANY
  9
$CUSTOMPROPERTY
  1
baldor
  9
$INSBASE
 10
0.0
 20
0.0
 30
0.0
  9
$EXTMIN
 10
1.000000000000000E+20
 20
1.000000000000000E+20
 30
1.000000000000000E+20
  9
$EXTMAX
 10
-1.000000000000000E+20
 20
-1.000000000000000E+20
 30
-1.000000000000000E+20
  9
$LIMMIN
 10
0.0
 20
0.0
  9
$LIMMAX
 10
12.0
 20
9.0
  9
$ORTHOMODE
 70
     0
  9
$REGENMODE
 70
     1
  9
$FILLMODE
 70
     1
  9
$QTEXTMODE
 70
     0
  9
$MIRRTEXT
 70
     1
  9
$LTSCALE
 40
1.0
  9
$ATTMODE
 70
     1
  9
$TEXTSIZE
 40
0.2
  9
$TRACEWID
 40
0.05
  9
$TEXTSTYLE
  7
Standard
  9
$CLAYER
  8
0
  9
$CELTYPE
  6
ByLayer
  9
$CECOLOR
 62
   256
  9
$CELTSCALE
 40
1.0
  9
$DISPSILH
 70
     0
  9
$DIMSCALE
 40
1.0
  9
$DIMASZ
 40
0.18
  9
$DIMEXO
 40
0.0625
  9
$DIMDLI
 40
0.38
  9
$DIMRND
 40
0.0
  9
$DIMDLE
 40
0.0
  9
$DIMEXE
 40
0.18
  9
$DIMTP
 40
0.0
  9
$DIMTM
 40
0.0
  9
$DIMTXT
 40
0.18
  9
$DIMCEN
 40
0.09
  9
$DIMTSZ
 40
0.0
  9
$DIMTOL
 70
     0
  9
$DIMLIM
 70
     0
  9
$DIMTIH
 70
     1
  9
$DIMTOH
 70
     1
  9
$DIMSE1
 70
     0
  9
$DIMSE2
 70
     0
  9
$DIMTAD
 70
     0
  9
$DIMZIN
 70
     0
  9
$DIMBLK
  1

  9
$DIMASO
 70
     1
  9
$DIMSHO
 70
     1
  9
$DIMPOST
  1

  9
$DIMAPOST
  1

  9
$DIMALT
 70
     0
  9
$DIMALTD
 70
     2
  9
$DIMALTF
 40
25.4
  9
$DIMLFAC
 40
1.0
  9
$DIMTOFL
 70
     0
  9
$DIMTVP
 40
0.0
  9
$DIMTIX
 70
     0
  9
$DIMSOXD
 70
     0
  9
$DIMSAH
 70
     0
  9
$DIMBLK1
  1

  9
$DIMBLK2
  1

  9
$DIMSTYLE
  2
Standard
  9
$DIMCLRD
 70
     0
  9
$DIMCLRE
 70
     0
  9
$DIMCLRT
 70
     0
  9
$DIMTFAC
 40
1.0
  9
$DIMGAP
 40
0.09
  9
$DIMJUST
 70
     0
  9
$DIMSD1
 70
     0
  9
$DIMSD2
 70
     0
  9
$DIMTOLJ
 70
     1
  9
$DIMTZIN
 70
     0
  9
$DIMALTZ
 70
     0
  9
$DIMALTTZ
 70
     0
  9
$DIMUPT
 70
     0
  9
$DIMDEC
 70
     4
  9
$DIMTDEC
 70
     4
  9
$DIMALTU
 70
     2
  9
$DIMALTTD
 70
     2
  9
$DIMTXSTY
  7
Standard
  9
$DIMAUNIT
 70
     0
  9
$DIMADEC
 70
     0
  9
$DIMALTRND
 40
0.0
  9
$DIMAZIN
 70
     0
  9
$DIMDSEP
 70
    46
  9
$DIMATFIT
 70
     3
  9
$DIMFRAC
 70
     0
  9
$DIMLDRBLK
  1

  9
$DIMLUNIT
 70
     2
  9
$DIMLWD
 70
    -2
  9
$DIMLWE
 70
    -2
  9
$DIMTMOVE
 70
     0
  9
$DIMFXL
 40
1.0
  9
$DIMFXLON
 70
     0
  9
$DIMJOGANG
 40
0.7853981633974483
  9
$DIMTFILL
 70
     0
  9
$DIMTFILLCLR
 70
     0
  9
$DIMARCSYM
 70
     0
  9
$DIMLTYPE
  6

  9
$DIMLTEX1
  6

  9
$DIMLTEX2
  6

  9
$DIMTXTDIRECTION
 70
     0
  9
$LUNITS
 70
     2
  9
$LUPREC
 70
     4
  9
$SKETCHINC
 40
0.1
  9
$FILLETRAD
 40
0.5
  9
$AUNITS
 70
     0
  9
$AUPREC
 70
     0
  9
$MENU
  1
.
  9
$ELEVATION
 40
0.0
  9
$PELEVATION
 40
0.0
  9
$THICKNESS
 40
0.0
  9
$LIMCHECK
 70
     0
  9
$CHAMFERA
 40
0.0
  9
$CHAMFERB
 40
0.0
  9
$CHAMFERC
 40
0.0
  9
$CHAMFERD
 40
0.0
  9
$SKPOLY
 70
     0
  9
$TDCREATE
 40
2458169.003382558
  9
$TDUCREATE
 40
2458168.961715891
  9
$TDUPDATE
 40
2458169.003382743
  9
$TDUUPDATE
 40
2458168.961716076
  9
$TDINDWG
 40
0.0000000116
  9
$TDUSRTIMER
 40
0.0000000116
  9
$USRTIMER
 70
     1
  9
$ANGBASE
 50
0.0
  9
$ANGDIR
 70
     0
  9
$PDMODE
 70
     0
  9
$PDSIZE
 40
0.0
  9
$PLINEWID
 40
0.0
  9
$SPLFRAME
 70
     0
  9
$SPLINETYPE
 70
     6
  9
$SPLINESEGS
 70
     8
  9
$HANDSEED
  5
1E5
  9
$SURFTAB1
 70
     6
  9
$SURFTAB2
 70
     6
  9
$SURFTYPE
 70
     6
  9
$SURFU
 70
     6
  9
$SURFV
 70
     6
  9
$UCSBASE
  2

  9
$UCSNAME
  2

  9
$UCSORG
 10
0.0
 20
0.0
 30
0.0
  9
$UCSXDIR
 10
1.0
 20
0.0
 30
0.0
  9
$UCSYDIR
 10
0.0
 20
1.0
 30
0.0
  9
$UCSORTHOREF
  2

  9
$UCSORTHOVIEW
 70
     0
  9
$UCSORGTOP
 10
0.0
 20
0.0
 30
0.0
  9
$UCSORGBOTTOM
 10
0.0
 20
0.0
 30
0.0
  9
$UCSORGLEFT
 10
0.0
 20
0.0
 30
0.0
  9
$UCSORGRIGHT
 10
0.0
 20
0.0
 30
0.0
  9
$UCSORGFRONT
 10
0.0
 20
0.0
 30
0.0
  9
$UCSORGBACK
 10
0.0
 20
0.0
 30
0.0
  9
$PUCSBASE
  2

  9
$PUCSNAME
  2

  9
$PUCSORG
 10
0.0
 20
0.0
 30
0.0
  9
$PUCSXDIR
 10
1.0
 20
0.0
 30
0.0
  9
$PUCSYDIR
 10
0.0
 20
1.0
 30
0.0
  9
$PUCSORTHOREF
  2

  9
$PUCSORTHOVIEW
 70
     0
  9
$PUCSORGTOP
 10
0.0
 20
0.0
 30
0.0
  9
$PUCSORGBOTTOM
 10
0.0
 20
0.0
 30
0.0
  9
$PUCSORGLEFT
 10
0.0
 20
0.0
 30
0.0
  9
$PUCSORGRIGHT
 10
0.0
 20
0.0
 30
0.0
  9
$PUCSORGFRONT
 10
0.0
 20
0.0
 30
0.0
  9
$PUCSORGBACK
 10
0.0
 20
0.0
 30
0.0
  9
$USERI1
 70
     0
  9
$USERI2
 70
     0
  9
$USERI3
 70
     0
  9
$USERI4
 70
     0
  9
$USERI5
 70
     0
  9
$USERR1
 40
0.0
  9
$USERR2
 40
0.0
  9
$USERR3
 40
0.0
  9
$USERR4
 40
0.0
  9
$USERR5
 40
0.0
  9
$WORLDVIEW
 70
     1
  9
$SHADEDGE
 70
     3
  9
$SHADEDIF
 70
    70
  9
$TILEMODE
 70
     1
  9
$MAXACTVP
 70
    64
  9
$PINSBASE
 10
0.0
 20
0.0
 30
0.0
  9
$PLIMCHECK
 70
     0
  9
$PEXTMIN
 10
1.000000000000000E+20
 20
1.000000000000000E+20
 30
1.000000000000000E+20
  9
$PEXTMAX
 10
-1.000000000000000E+20
 20
-1.000000000000000E+20
 30
-1.000000000000000E+20
  9
$PLIMMIN
 10
0.0
 20
0.0
  9
$PLIMMAX
 10
12.0
 20
9.0
  9
$UNITMODE
 70
     0
  9
$VISRETAIN
 70
     1
  9
$PLINEGEN
 70
     0
  9
$PSLTSCALE
 70
     1
  9
$TREEDEPTH
 70
  3020
  9
$CMLSTYLE
  2
Standard
  9
$CMLJUST
 70
     0
  9
$CMLSCALE
 40
1.0
  9
$PROXYGRAPHICS
 70
     1
  9
$MEASUREMENT
 70
     0
  9
$CELWEIGHT
370
    -1
  9
$ENDCAPS
280
     0
  9
$JOINSTYLE
280
     0
  9
$LWDISPLAY
290
     0
  9
$INSUNITS
 70
     1
  9
$HYPERLINKBASE
  1

  9
$STYLESHEET
  1

  9
$XEDIT
290
     1
  9
$CEPSNTYPE
380
     0
  9
$PSTYLEMODE
290
     1
  9
$FINGERPRINTGUID
  2
{38092F9A-1C38-44ED-97F0-DE1A69E57F30}
  9
$VERSIONGUID
  2
{FAEB1C32-E019-11D5-929B-00C0DF256EC4}
  9
$EXTNAMES
290
     1
  9
$PSVPSCALE
 40
0.0
  9
$OLESTARTUP
290
     0
  9
$SORTENTS
280
   127
  9
$INDEXCTL
280
     0
  9
$HIDETEXT
280
     1
  9
$XCLIPFRAME
280
     2
  9
$HALOGAP
280
     0
  9
$OBSCOLOR
 70
   257
  9
$OBSLTYPE
280
     0
  9
$INTERSECTIONDISPLAY
280
     0
  9
$INTERSECTIONCOLOR
 70
   257
  9
$DIMASSOC
280
     2
  9
$PROJECTNAME
  1

  9
$CAMERADISPLAY
290
     0
  9
$LENSLENGTH
 40
50.0
  9
$CAMERAHEIGHT
 40
0.0
  9
$STEPSPERSEC
 40
2.0
  9
$STEPSIZE
 40
6.0
  9
$3DDWFPREC
 40
2.0
  9
$PSOLWIDTH
 40
0.25
  9
$PSOLHEIGHT
 40
4.0
  9
$LOFTANG1
 40
1.570796326794897
  9
$LOFTANG2
 40
1.570796326794897
  9
$LOFTMAG1
 40
0.0
  9
$LOFTMAG2
 40
0.0
  9
$LOFTPARAM
 70
     7
  9
$LOFTNORMALS
280
     1
  9
$LATITUDE
 40
37.795
  9
$LONGITUDE
 40
-122.394
  9
$NORTHDIRECTION
 40
0.0
  9
$TIMEZONE
 70
 -8000
  9
$LIGHTGLYPHDISPLAY
280
     1
  9
$TILEMODELIGHTSYNCH
280
     1
  9
$CMATERIAL
347
44
  9
$SOLIDHIST
280
     0
  9
$SHOWHIST
280
     1
  9
$DWFFRAME
280
     2
  9
$DGNFRAME
280
     2
  9
$REALWORLDSCALE
290
     1
  9
$INTERFERECOLOR
 62
   256
  9
$CSHADOW
280
     0
  9
$SHADOWPLANELOCATION
 40
0.0
  0
ENDSEC
  0
SECTION
  2
CLASSES
  0
CLASS
  1
ACDBDICTIONARYWDFLT
  2
AcDbDictionaryWithDefault
  3
ObjectDBX Classes
 90
        0
 91
        4
280
     0
281
     0
  0
CLASS
  1
VISUALSTYLE
  2
AcDbVisualStyle
  3
ObjectDBX Classes
 90
     4095
 91
        4
280
     0
281
     0
  0
CLASS
  1
MATERIAL
  2
AcDbMaterial
  3
ObjectDBX Classes
 90
     1153
 91
        4
280
     0
281
     0
  0
CLASS
  1
SCALE
  2
AcDbScale
  3
ObjectDBX Classes
 90
     1153
 91
        4
280
     0
281
     0
  0
CLASS
  1
TABLESTYLE
  2
AcDbTableStyle
  3
ObjectDBX Classes
 90
     4095
 91
        4
280
     0
281
     0
  0
CLASS
  1
MLEADERSTYLE
  2
AcDbMLeaderStyle
  3
ACDB_MLEADERSTYLE_CLASS
 90
     4095
 91
        4
280
     0
281
     0
  0
CLASS
  1
SUN
  2
AcDbSun
  3
SCENEOE
 90
     1153
 91
        4
280
     0
281
     0
  0
CLASS
  1
DICTIONARYVAR
  2
AcDbDictionaryVar
  3
ObjectDBX Classes
 90
        0
 91
        4
280
     0
281
     0
  0
CLASS
  1
CELLSTYLEMAP
  2
AcDbCellStyleMap
  3
ObjectDBX Classes
 90
     1152
 91
        4
280
     0
281
     0
  0
ENDSEC
  0
SECTION
  2
TABLES
  0
TABLE
  2
VPORT
  5
8
330
0
100
AcDbSymbolTable
 70
     1
  0
VPORT
  5
29
330
8
100
AcDbSymbolTableRecord
100
AcDbViewportTableRecord
  2
*Active
 70
     0
 10
0.0
 20
0.0
 11
1.0
 21
1.0
 12
0.4933558890049916
 22
-0.1981250000000001
 13
0.0
 23
0.0
 14
0.5
 24
0.5
 15
0.5
 25
0.5
 16
0.0
 26
0.0
 36
1.0
 17
0.0
 27
0.0
 37
0.0
 40
2.382975
 41
2.600872433168548
 42
50.0
 43
0.0
 44
0.0
 50
0.0
 51
0.0
 71
     0
 72
   100
 73
     1
 74
     3
 75
     0
 76
     0
 77
     0
 78
     0
281
     0
 65
     1
110
0.0
120
0.0
130
0.0
111
1.0
121
0.0
131
0.0
112
0.0
122
1.0
132
0.0
 79
     0
146
0.0
348
2F
 60
     3
 61
     5
292
     1
282
     1
141
0.0
142
0.0
 63
   250
361
6D
  0
ENDTAB
  0
TABLE
  2
LTYPE
  5
5
330
0
100
AcDbSymbolTable
 70
     3
  0
LTYPE
  5
14
330
5
100
AcDbSymbolTableRecord
100
AcDbLinetypeTableRecord
  2
ByBlock
 70
     0
  3

 72
    65
 73
     0
 40
0.0
  0
LTYPE
  5
15
330
5
100
AcDbSymbolTableRecord
100
AcDbLinetypeTableRecord
  2
ByLayer
 70
     0
  3

 72
    65
 73
     0
 40
0.0
  0
LTYPE
  5
16
330
5
100
AcDbSymbolTableRecord
100
AcDbLinetypeTableRecord
  2
Continuous
 70
     0
  3
Solid line
 72
    65
 73
     0
 40
0.0
  0
LTYPE
  5
A7
330
5
100
AcDbSymbolTableRecord
100
AcDbLinetypeTableRecord
  2
Dashed
 70
     0
  3

 72
    65
 73
     2
 40
2.0
 49
1.0
 74
     0
 49
-1.0
 74
     0
  0
LTYPE
  5
DE
330
5
100
AcDbSymbolTableRecord
100
AcDbLinetypeTableRecord
  2
Center
 70
     0
  3

 72
    65
 73
     4
 40
1.5
 49
0.45
 74
     0
 49
-0.5
 74
     0
 49
0.05
 74
     0
 49
-0.5
 74
     0
  0
ENDTAB
  0
TABLE
  2
LAYER
  5
2
330
0
100
AcDbSymbolTable
 70
     7
  0
LAYER
  5
10
330
2
100
AcDbSymbolTableRecord
100
AcDbLayerTableRecord
  2
0
 70
     0
 62
     7
  6
Continuous
370
    -3
390
F
347
46
348
0
  0
LAYER
  5
72
330
2
100
AcDbSymbolTableRecord
100
AcDbLayerTableRecord
  2
AM_6
 70
     0
 62
    -2
  6
Continuous
370
    35
390
F
347
46
348
0
  0
LAYER
  5
A8
330
2
100
AcDbSymbolTableRecord
100
AcDbLayerTableRecord
  2
AM_9
 70
     0
 62
     6
  6
Dashed
370
    25
390
F
347
46
348
0
  0
LAYER
  5
DB
330
2
100
AcDbSymbolTableRecord
100
AcDbLayerTableRecord
  2
AM_5
 70
     0
 62
     3
  6
Continuous
370
    25
390
F
347
46
348
0
  0
LAYER
  5
DF
330
2
100
AcDbSymbolTableRecord
100
AcDbLayerTableRecord
  2
AM_7
 70
     0
 62
     7
  6
Center
370
    25
390
F
347
46
348
0
  0
LAYER
  5
E1
330
2
100
AcDbSymbolTableRecord
100
AcDbLayerTableRecord
  2
AM_4
 70
     0
 62
     7
  6
Continuous
370
    50
390
F
347
46
348
0
  0
LAYER
  5
1D8
330
2
100
AcDbSymbolTableRecord
100
AcDbLayerTableRecord
  2
ConnectionPoints
 70
     0
 62
     7
  6
Continuous
370
    50
390
F
347
46
348
0
  0
ENDTAB
  0
TABLE
  2
STYLE
  5
3
330
0
100
AcDbSymbolTable
 70
     1
  0
STYLE
  5
11
330
3
100
AcDbSymbolTableRecord
100
AcDbTextStyleTableRecord
  2
Standard
 70
     0
 40
0.0
 41
1.0
 50
0.0
 71
     0
 42
0.2
  3
txt
  4

  0
ENDTAB
  0
TABLE
  2
VIEW
  5
6
330
0
100
AcDbSymbolTable
 70
     0
  0
ENDTAB
  0
TABLE
  2
UCS
  5
7
330
0
100
AcDbSymbolTable
 70
     0
  0
ENDTAB
  0
TABLE
  2
APPID
  5
9
330
0
100
AcDbSymbolTable
 70
     1
  0
APPID
  5
12
330
9
100
AcDbSymbolTableRecord
100
AcDbRegAppTableRecord
  2
ACAD
 70
     0
  0
ENDTAB
  0
TABLE
  2
DIMSTYLE
  5
A
330
0
100
AcDbSymbolTable
 70
     1
100
AcDbDimStyleTable
  0
DIMSTYLE
105
27
330
A
100
AcDbSymbolTableRecord
100
AcDbDimStyleTableRecord
  2
Standard
 70
     0
178
     0
340
11
  0
ENDTAB
  0
TABLE
  2
BLOCK_RECORD
  5
1
330
0
100
AcDbSymbolTable
 70
     5
  0
BLOCK_RECORD
  5
1F
330
1
100
AcDbSymbolTableRecord
100
AcDbBlockTableRecord
  2
*Model_Space
340
22
 70
     0
280
     1
281
     0
  0
BLOCK_RECORD
  5
1B
330
1
100
AcDbSymbolTableRecord
100
AcDbBlockTableRecord
  2
*Paper_Space
340
1E
 70
     0
280
     1
281
     0
  0
BLOCK_RECORD
  5
23
330
1
100
AcDbSymbolTableRecord
100
AcDbBlockTableRecord
  2
*Paper_Space0
340
26
 70
     0
280
     1
281
     0
  0
BLOCK_RECORD
  5
6E
330
1
100
AcDbSymbolTableRecord
100
AcDbBlockTableRecord
  2
1_131250_4
340
0
102
{BLKREFS
331
6F
102
}
 70
     0
280
     1
281
     0
  0
BLOCK_RECORD
  5
8F
330
1
100
AcDbSymbolTableRecord
100
AcDbBlockTableRecord
  2
2_131447_0_in_131250_4
340
0
102
{BLKREFS
331
90
102
}
 70
     0
280
     1
281
     0
  0
BLOCK_RECORD
  5
F2
330
1
100
AcDbSymbolTableRecord
100
AcDbBlockTableRecord
  2
3_405016_Inch_0_in_131250_4
340
0
102
{BLKREFS
331
F3
102
}
 70
     0
280
     1
281
     0
  0
BLOCK_RECORD
  5
17C
330
1
100
AcDbSymbolTableRecord
100
AcDbBlockTableRecord
  2
4_131250H_0_in_131250_4
340
0
102
{BLKREFS
331
17D
102
}
 70
     0
280
     1
281
     0
  0
ENDTAB
  0
ENDSEC
  0
SECTION
  2
BLOCKS
  0
BLOCK
  5
20
330
1F
100
AcDbEntity
  8
0
100
AcDbBlockBegin
  2
*Model_Space
 70
     0
 10
0.0
 20
0.0
 30
0.0
  3
*Model_Space
  1

  0
ENDBLK
  5
21
330
1F
100
AcDbEntity
  8
0
100
AcDbBlockEnd
  0
BLOCK
  5
1C
330
1B
100
AcDbEntity
 67
     1
  8
0
100
AcDbBlockBegin
  2
*Paper_Space
 70
     0
 10
0.0
 20
0.0
 30
0.0
  3
*Paper_Space
  1

  0
ENDBLK
  5
1D
330
1B
100
AcDbEntity
 67
     1
  8
0
100
AcDbBlockEnd
  0
BLOCK
  5
24
330
23
100
AcDbEntity
  8
0
100
AcDbBlockBegin
  2
*Paper_Space0
 70
     0
 10
0.0
 20
0.0
 30
0.0
  3
*Paper_Space0
  1

  0
ENDBLK
  5
25
330
23
100
AcDbEntity
  8
0
100
AcDbBlockEnd
  0
BLOCK
  5
70
330
6E
100
AcDbEntity
  8
0
100
AcDbBlockBegin
  2
1_131250_4
 70
     2
 10
0.0
 20
0.0
 30
0.0
  3
1_131250_4
  1

  0
ATTDEF
  5
73
330
6E
100
AcDbEntity
  8
AM_6
100
AcDbText
 10
8.5315
 20
0.9699999999999999
 30
0.0
 40
0.5
  1
Eccentric Collar Intermediate Duty Wide Slot Take Up Inch Bore
100
AcDbAttributeDefinition
  3

  2
NN
 70
     8
280
     0
  0
ATTDEF
  5
74
330
6E
100
AcDbEntity
  8
AM_6
100
AcDbText
 10
8.5315
 20
0.4699999999999999
 30
0.0
 40
0.5
  1
Eccentric Collar Take-Up Bearings -(Intermediate Duty) -Wide Slot
100
AcDbAttributeDefinition
  3

  2
NT
 70
     8
280
     0
  0
ATTDEF
  5
75
330
6E
100
AcDbEntity
  8
AM_6
100
AcDbText
 10
8.5315
 20
-0.0300000000000001
 30
0.0
 40
0.5
  1
131250
100
AcDbAttributeDefinition
  3

  2
NB
 70
     8
280
     0
  0
ATTDEF
  5
76
330
6E
100
AcDbEntity
  8
AM_6
100
AcDbText
 10
8.5315
 20
-0.5300000000000001
 30
0.0
 40
0.5
  1
$PN.
100
AcDbAttributeDefinition
  3

  2
NBSYN
 70
     8
280
     0
  0
ATTDEF
  5
77
330
6E
100
AcDbEntity
  8
AM_6
100
AcDbText
 10
8.5315
 20
-1.03
 30
0.0
 40
0.5
  1
131250
100
AcDbAttributeDefinition
  3

  2
LINA
 70
     8
280
     0
  0
ATTDEF
  5
78
330
6E
100
AcDbEntity
  8
AM_6
100
AcDbText
 10
8.5315
 20
-1.53
 30
0.0
 40
0.5
  1
208
100
AcDbAttributeDefinition
  3

  2
SERIES
 70
     8
280
     0
  0
ATTDEF
  5
79
330
6E
100
AcDbEntity
  8
AM_6
100
AcDbText
 10
8.5315
 20
-2.03
 30
0.0
 40
0.5
  1
1-1/2
100
AcDbAttributeDefinition
  3

  2
SS
 70
     8
280
     0
  0
ATTDEF
  5
7A
330
6E
100
AcDbEntity
  8
AM_6
100
AcDbText
 10
8.5315
 20
-2.53
 30
0.0
 40
0.5
  1
131250
100
AcDbAttributeDefinition
  3

  2
PN
 70
     8
280
     0
  0
ATTDEF
  5
7B
330
6E
100
AcDbEntity
  8
AM_6
100
AcDbText
 10
8.5315
 20
-3.03
 30
0.0
 40
0.5
  1
WSTU-SXV-108
100
AcDbAttributeDefinition
  3

  2
DESCRIPTION
 70
     8
280
     0
  0
ATTDEF
  5
7C
330
6E
100
AcDbEntity
  8
AM_6
100
AcDbText
 10
8.5315
 20
-3.53
 30
0.0
 40
0.5
  1
4.7
100
AcDbAttributeDefinition
  3

  2
W
 70
     8
280
     0
  0
ATTDEF
  5
7D
330
6E
100
AcDbEntity
  8
AM_6
100
AcDbText
 10
8.5315
 20
-4.03
 30
0.0
 40
0.5
  1
WS400
100
AcDbAttributeDefinition
  3

  2
FS
 70
     8
280
     0
  0
ATTDEF
  5
7E
330
6E
100
AcDbEntity
  8
AM_6
100
AcDbText
 10
8.5315
 20
-4.53
 30
0.0
 40
0.5
  1
1.72
100
AcDbAttributeDefinition
  3

  2
A
 70
     8
280
     0
  0
ATTDEF
  5
7F
330
6E
100
AcDbEntity
  8
AM_6
100
AcDbText
 10
8.5315
 20
-5.03
 30
0.0
 40
0.5
  1
5.69
100
AcDbAttributeDefinition
  3

  2
B
 70
     8
280
     0
  0
ATTDEF
  5
80
330
6E
100
AcDbEntity
  8
AM_6
100
AcDbText
 10
8.5315
 20
-5.53
 30
0.0
 40
0.5
  1
0.688
100
AcDbAttributeDefinition
  3

  2
C
 70
     8
280
     0
  0
ATTDEF
  5
81
330
6E
100
AcDbEntity
  8
AM_6
100
AcDbText
 10
8.5315
 20
-6.03
 30
0.0
 40
0.5
  1
3.25
100
AcDbAttributeDefinition
  3

  2
D
 70
     8
280
     0
  0
ATTDEF
  5
82
330
6E
100
AcDbEntity
  8
AM_6
100
AcDbText
 10
8.5315
 20
-6.53
 30
0.0
 40
0.5
  1
3.50
100
AcDbAttributeDefinition
  3

  2
E
 70
     8
280
     0
  0
ATTDEF
  5
83
330
6E
100
AcDbEntity
  8
AM_6
100
AcDbText
 10
8.5315
 20
-7.03
 30
0.0
 40
0.5
  1
1
100
AcDbAttributeDefinition
  3

  2
F
 70
     8
280
     0
  0
ATTDEF
  5
84
330
6E
100
AcDbEntity
  8
AM_6
100
AcDbText
 10
8.5315
 20
-7.53
 30
0.0
 40
0.5
  1
0.63
100
AcDbAttributeDefinition
  3

  2
G
 70
     8
280
     0
  0
ATTDEF
  5
85
330
6E
100
AcDbEntity
  8
AM_6
100
AcDbText
 10
8.5315
 20
-8.030000000000001
 30
0.0
 40
0.5
  1
0.75
100
AcDbAttributeDefinition
  3

  2
H
 70
     8
280
     0
  0
ATTDEF
  5
86
330
6E
100
AcDbEntity
  8
AM_6
100
AcDbText
 10
8.5315
 20
-8.530000000000001
 30
0.0
 40
0.5
  1
3.25
100
AcDbAttributeDefinition
  3

  2
J
 70
     8
280
     0
  0
ATTDEF
  5
87
330
6E
100
AcDbEntity
  8
AM_6
100
AcDbText
 10
8.5315
 20
-9.030000000000001
 30
0.0
 40
0.5
  1
1.94
100
AcDbAttributeDefinition
  3

  2
K
 70
     8
280
     0
  0
ATTDEF
  5
88
330
6E
100
AcDbEntity
  8
AM_6
100
AcDbText
 10
8.5315
 20
-9.530000000000001
 30
0.0
 40
0.5
  1
2.38
100
AcDbAttributeDefinition
  3

  2
L
 70
     8
280
     0
  0
ATTDEF
  5
89
330
6E
100
AcDbEntity
  8
AM_6
100
AcDbText
 10
8.5315
 20
-10.03
 30
0.0
 40
0.5
  1
3.985 / 4.015
100
AcDbAttributeDefinition
  3

  2
M
 70
     8
280
     0
  0
ATTDEF
  5
8A
330
6E
100
AcDbEntity
  8
AM_6
100
AcDbText
 10
8.5315
 20
-10.53
 30
0.0
 40
0.5
  1
4.50
100
AcDbAttributeDefinition
  3

  2
N
 70
     8
280
     0
  0
ATTDEF
  5
8B
330
6E
100
AcDbEntity
  8
AM_6
100
AcDbText
 10
8.5315
 20
-11.03
 30
0.0
 40
0.5
  1
0.43
100
AcDbAttributeDefinition
  3

  2
R
 70
     8
280
     0
  0
ATTDEF
  5
8C
330
6E
100
AcDbEntity
  8
AM_6
100
AcDbText
 10
8.5315
 20
-11.53
 30
0.0
 40
0.5
  1
1.28
100
AcDbAttributeDefinition
  3

  2
S
 70
     8
280
     0
  0
ATTDEF
  5
8D
330
6E
100
AcDbEntity
  8
AM_6
100
AcDbText
 10
8.5315
 20
-12.03
 30
0.0
 40
0.5
  1
1.94
100
AcDbAttributeDefinition
  3

  2
T
 70
     8
280
     0
  0
ATTDEF
  5
8E
330
6E
100
AcDbEntity
  8
AM_6
100
AcDbText
 10
8.5315
 20
-12.53
 30
0.0
 40
0.5
  1
baldor
100
AcDbAttributeDefinition
  3

  2
COMPANY
 70
     8
280
     0
  0
INSERT
  5
90
330
6E
100
AcDbEntity
  8
0
100
AcDbBlockReference
  2
2_131447_0_in_131250_4
 10
0.0
 20
0.0
 30
0.0
  0
INSERT
  5
F3
330
6E
100
AcDbEntity
  8
0
100
AcDbBlockReference
  2
3_405016_Inch_0_in_131250_4
 10
0.0
 20
0.0
 30
0.0
  0
INSERT
  5
17D
330
6E
100
AcDbEntity
  8
0
100
AcDbBlockReference
  2
4_131250H_0_in_131250_4
 10
0.0
 20
0.0
 30
0.0
  0
ENDBLK
  5
71
330
6E
100
AcDbEntity
  8
0
100
AcDbBlockEnd
  0
BLOCK
  5
91
330
8F
100
AcDbEntity
  8
0
100
AcDbBlockBegin
  2
2_131447_0_in_131250_4
 70
     2
 10
0.0
 20
0.0
 30
0.0
  3
2_131447_0_in_131250_4
  1

  0
ATTDEF
  5
93
330
8F
100
AcDbEntity
  8
AM_6
100
AcDbText
 10
6.573748725155204
 20
0.445
 30
0.0
 40
0.5
  1
Eccentric Collar Intermediate Duty Insert Inch Bore
100
AcDbAttributeDefinition
  3

  2
NN
 70
     8
280
     0
  0
ATTDEF
  5
94
330
8F
100
AcDbEntity
  8
AM_6
100
AcDbText
 10
6.573748725155204
 20
-0.055
 30
0.0
 40
0.5
  1
Eccentric Collar Bearing Inserts -(Intermediate Duty)
100
AcDbAttributeDefinition
  3

  2
NT
 70
     8
280
     0
  0
ATTDEF
  5
95
330
8F
100
AcDbEntity
  8
AM_6
100
AcDbText
 10
6.573748725155204
 20
-0.5549999999999999
 30
0.0
 40
0.5
  1
131447
100
AcDbAttributeDefinition
  3

  2
NB
 70
     8
280
     0
  0
ATTDEF
  5
96
330
8F
100
AcDbEntity
  8
AM_6
100
AcDbText
 10
6.573748725155204
 20
-1.055
 30
0.0
 40
0.5
  1
$PN.
100
AcDbAttributeDefinition
  3

  2
NBSYN
 70
     8
280
     0
  0
ATTDEF
  5
97
330
8F
100
AcDbEntity
  8
AM_6
100
AcDbText
 10
6.573748725155204
 20
-1.555
 30
0.0
 40
0.5
  1
131447
100
AcDbAttributeDefinition
  3

  2
LINA
 70
     8
280
     0
  0
ATTDEF
  5
98
330
8F
100
AcDbEntity
  8
AM_6
100
AcDbText
 10
6.573748725155204
 20
-2.055
 30
0.0
 40
0.5
  1
208
100
AcDbAttributeDefinition
  3

  2
SERIES
 70
     8
280
     0
  0
ATTDEF
  5
99
330
8F
100
AcDbEntity
  8
AM_6
100
AcDbText
 10
6.573748725155204
 20
-2.555
 30
0.0
 40
0.5
  1
1-1/2
100
AcDbAttributeDefinition
  3

  2
SS
 70
     8
280
     0
  0
ATTDEF
  5
9A
330
8F
100
AcDbEntity
  8
AM_6
100
AcDbText
 10
6.573748725155204
 20
-3.055
 30
0.0
 40
0.5
  1
131447
100
AcDbAttributeDefinition
  3

  2
PN
 70
     8
280
     0
  0
ATTDEF
  5
9B
330
8F
100
AcDbEntity
  8
AM_6
100
AcDbText
 10
6.573748725155204
 20
-3.555
 30
0.0
 40
0.5
  1
INS-SXV-108
100
AcDbAttributeDefinition
  3

  2
DESCRIPTION
 70
     8
280
     0
  0
ATTDEF
  5
9C
330
8F
100
AcDbEntity
  8
AM_6
100
AcDbText
 10
6.573748725155204
 20
-4.055
 30
0.0
 40
0.5
  1
1.8
100
AcDbAttributeDefinition
  3

  2
WEIGHT
 70
     8
280
     0
  0
ATTDEF
  5
9D
330
8F
100
AcDbEntity
  8
AM_6
100
AcDbText
 10
6.573748725155204
 20
-4.555
 30
0.0
 40
0.5
  1
1.72
100
AcDbAttributeDefinition
  3

  2
A
 70
     8
280
     0
  0
ATTDEF
  5
9E
330
8F
100
AcDbEntity
  8
AM_6
100
AcDbText
 10
6.573748725155204
 20
-5.055
 30
0.0
 40
0.5
  1
0.87
100
AcDbAttributeDefinition
  3

  2
C
 70
     8
280
     0
  0
ATTDEF
  5
9F
330
8F
100
AcDbEntity
  8
AM_6
100
AcDbText
 10
6.573748725155204
 20
-5.555
 30
0.0
 40
0.5
  1
3.1496
100
AcDbAttributeDefinition
  3

  2
D
 70
     8
280
     0
  0
ATTDEF
  5
A0
330
8F
100
AcDbEntity
  8
AM_6
100
AcDbText
 10
6.573748725155204
 20
-6.055
 30
0.0
 40
0.5
  1
0.22
100
AcDbAttributeDefinition
  3

  2
J
 70
     8
280
     0
  0
ATTDEF
  5
A1
330
8F
100
AcDbEntity
  8
AM_6
100
AcDbText
 10
6.573748725155204
 20
-6.555
 30
0.0
 40
0.5
  1
2.38
100
AcDbAttributeDefinition
  3

  2
L
 70
     8
280
     0
  0
ATTDEF
  5
A2
330
8F
100
AcDbEntity
  8
AM_6
100
AcDbText
 10
6.573748725155204
 20
-7.055
 30
0.0
 40
0.5
  1
5/16 - 24
100
AcDbAttributeDefinition
  3

  2
N
 70
     8
280
     0
  0
ATTDEF
  5
A3
330
8F
100
AcDbEntity
  8
AM_6
100
AcDbText
 10
6.573748725155204
 20
-7.555
 30
0.0
 40
0.5
  1
0.43
100
AcDbAttributeDefinition
  3

  2
W
 70
     8
280
     0
  0
ATTDEF
  5
A4
330
8F
100
AcDbEntity
  8
AM_6
100
AcDbText
 10
6.573748725155204
 20
-8.055
 30
0.0
 40
0.5
  1
1.28
100
AcDbAttributeDefinition
  3

  2
Y
 70
     8
280
     0
  0
ATTDEF
  5
A5
330
8F
100
AcDbEntity
  8
AM_6
100
AcDbText
 10
6.573748725155204
 20
-8.555
 30
0.0
 40
0.5
  1
2.05
100
AcDbAttributeDefinition
  3

  2
Z
 70
     8
280
     0
  0
ATTDEF
  5
A6
330
8F
100
AcDbEntity
  8
AM_6
100
AcDbText
 10
6.573748725155204
 20
-9.055
 30
0.0
 40
0.5
  1
baldor
100
AcDbAttributeDefinition
  3

  2
COMPANY
 70
     8
280
     0
  0
ARC
  5
A9
330
8F
100
AcDbEntity
  8
AM_9
100
AcDbCircle
 10
0.0
 20
0.2299999999999981
 30
0.0
 40
0.0781249999999983
100
AcDbArc
 50
259.1123012536776
 51
274.5012116081371
  0
ARC
  5
AA
330
8F
100
AcDbEntity
  8
AM_9
100
AcDbCircle
 10
-0.0000000000000003
 20
0.2299999999998941
 30
0.0
 40
0.0781250000001057
100
AcDbArc
 50
88.60154488330058
 51
91.51450209501061
  0
ARC
  5
AB
330
8F
100
AcDbEntity
  8
AM_9
100
AcDbCircle
 10
-0.0000000000000011
 20
0.2300000000000011
 30
0.0
 40
0.0781249999999984
100
AcDbArc
 50
120.2275445187263
 51
135.7979178274108
  0
LINE
  5
AC
330
8F
100
AcDbEntity
  8
AM_9
100
AcDbLine
 10
1.19
 20
-0.9018223923426286
 30
0.0
 11
1.185547392342629
 21
-0.906275
 31
0.0
  0
LINE
  5
AD
330
8F
100
AcDbEntity
  8
AM_9
100
AcDbLine
 10
1.185547392342629
 20
-1.184975
 30
0.0
 11
1.19
 21
-1.189427607657371
 31
0.0
  0
LINE
  5
AE
330
8F
100
AcDbEntity
  8
AM_9
100
AcDbLine
 10
1.185547392342629
 20
-1.139651815273126
 30
0.0
 11
1.185547392342629
 21
-1.184975
 31
0.0
  0
LINE
  5
AF
330
8F
100
AcDbEntity
  8
AM_9
100
AcDbLine
 10
0.7500000000000002
 20
-1.184975
 30
0.0
 11
1.185547392342629
 21
-1.184975
 31
0.0
  0
LINE
  5
B0
330
8F
100
AcDbEntity
  8
AM_9
100
AcDbLine
 10
1.185547392342629
 20
-0.906275
 30
0.0
 11
0.7500000000000001
 21
-0.906275
 31
0.0
  0
LINE
  5
B1
330
8F
100
AcDbEntity
  8
AM_9
100
AcDbLine
 10
1.185547392342629
 20
-0.906275
 30
0.0
 11
1.185547392342629
 21
-0.9515981847268744
 31
0.0
  0
LINE
  5
B2
330
8F
100
AcDbEntity
  8
AM_9
100
AcDbLine
 10
0.7499999999999999
 20
-0.7962499999999999
 30
0.0
 11
0.7499999999999999
 21
0.4400000000000002
 31
0.0
  0
LINE
  5
B3
330
8F
100
AcDbEntity
  8
AM_9
100
AcDbLine
 10
-0.7499999999999999
 20
0.4400000000000002
 30
0.0
 11
-0.7499999999999999
 21
-0.7962499999999999
 31
0.0
  0
LINE
  5
B4
330
8F
100
AcDbEntity
  8
AM_9
100
AcDbLine
 10
0.7500000000000001
 20
-1.258786796564404
 30
0.0
 11
0.7500000000000001
 21
-1.184975
 31
0.0
  0
LINE
  5
B5
330
8F
100
AcDbEntity
  8
AM_9
100
AcDbLine
 10
0.7500000000000001
 20
-0.906275
 30
0.0
 11
0.7500000000000001
 21
-0.8262499999999998
 31
0.0
  0
LINE
  5
B6
330
8F
100
AcDbEntity
  8
AM_9
100
AcDbLine
 10
-0.7500000000000001
 20
-0.8262499999999998
 30
0.0
 11
-0.7500000000000001
 21
-1.258786796564404
 31
0.0
  0
LWPOLYLINE
  5
B7
330
8F
100
AcDbEntity
  8
AM_9
100
AcDbPolyline
 90
       21
 70
     0
 43
0.0
 10
0.749999999999836
 20
-0.9062750000008828
 10
0.7499763740869082
 20
-0.9064022138314067
 10
0.7494246534268924
 20
-0.9094055679647078
 10
0.7482542862076957
 20
-0.9159990021130473
 10
0.7465284895111918
 20
-0.9263639076359707
 10
0.7444997816819232
 20
-0.9398027555311209
 10
0.7422984958351134
 20
-0.956599838281125
 10
0.7402561668945209
 20
-0.975642036892051
 10
0.7385237841943705
 20
-0.9972948611550416
 10
0.7373995326787177
 20
-1.019615515291703
 10
0.7369441257427698
 20
-1.043374007602186
 10
0.7372267855145239
 20
-1.066161693504012
 10
0.738216928505938
 20
-1.089014584380828
 10
0.739746218653432
 20
-1.109990289652507
 10
0.741725470989584
 20
-1.12973859470811
 10
0.7438669126405376
 20
-1.146898916786925
 10
0.7460196360240303
 20
-1.161658270372882
 10
0.7478464701784082
 20
-1.172875797476106
 10
0.7492226300189632
 20
-1.180728559658996
 10
0.7497995058314352
 20
-1.183891848684217
 10
0.7500000000000001
 20
-1.184975
  0
LINE
  5
B8
330
8F
100
AcDbEntity
  8
AM_9
100
AcDbLine
 10
-0.7500000000000001
 20
-0.7962499999999999
 30
0.0
 11
0.7500000000000001
 21
-0.7962499999999999
 31
0.0
  0
LINE
  5
B9
330
8F
100
AcDbEntity
  8
AM_9
100
AcDbLine
 10
-0.7500000000000001
 20
-0.7962499999999999
 30
0.0
 11
-0.7650000000000001
 21
-0.8112499999999998
 31
0.0
  0
LINE
  5
BA
330
8F
100
AcDbEntity
  8
AM_9
100
AcDbLine
 10
0.7650000000000001
 20
-0.8112499999999998
 30
0.0
 11
0.7500000000000001
 21
-0.7962499999999999
 31
0.0
  0
LINE
  5
BB
330
8F
100
AcDbEntity
  8
AM_9
100
AcDbLine
 10
-0.7650000000000001
 20
-0.8112499999999998
 30
0.0
 11
0.7650000000000001
 21
-0.8112499999999998
 31
0.0
  0
LINE
  5
BC
330
8F
100
AcDbEntity
  8
AM_9
100
AcDbLine
 10
-0.7500000000000001
 20
-0.8262499999999998
 30
0.0
 11
0.7500000000000001
 21
-0.8262499999999998
 31
0.0
  0
LINE
  5
BD
330
8F
100
AcDbEntity
  8
AM_9
100
AcDbLine
 10
0.7500000000000001
 20
-0.8262499999999998
 30
0.0
 11
0.7650000000000001
 21
-0.8112499999999998
 31
0.0
  0
LINE
  5
BE
330
8F
100
AcDbEntity
  8
AM_9
100
AcDbLine
 10
-0.7650000000000001
 20
-0.8112499999999998
 30
0.0
 11
-0.7500000000000001
 21
-0.8262499999999998
 31
0.0
  0
LINE
  5
BF
330
8F
100
AcDbEntity
  8
AM_9
100
AcDbLine
 10
-0.7500000000000001
 20
-1.258786796564404
 30
0.0
 11
0.7500000000000001
 21
-1.258786796564404
 31
0.0
  0
LINE
  5
C0
330
8F
100
AcDbEntity
  8
AM_9
100
AcDbLine
 10
-0.7500000000000001
 20
-1.258786796564404
 30
0.0
 11
-0.7712132034355965
 21
-1.28
 31
0.0
  0
LINE
  5
C1
330
8F
100
AcDbEntity
  8
AM_9
100
AcDbLine
 10
0.7712132034355965
 20
-1.28
 30
0.0
 11
0.7500000000000001
 21
-1.258786796564404
 31
0.0
  0
LINE
  5
C2
330
8F
100
AcDbEntity
  8
AM_9
100
AcDbLine
 10
0.976190476190476
 20
-0.6880000000000003
 30
0.0
 11
0.976190476190476
 21
-0.6862499999999999
 31
0.0
  0
LINE
  5
C3
330
8F
100
AcDbEntity
  8
AM_9
100
AcDbLine
 10
-0.976190476190476
 20
-0.6862499999999999
 30
0.0
 11
-0.976190476190476
 21
-0.6880000000000003
 31
0.0
  0
LINE
  5
C4
330
8F
100
AcDbEntity
  8
AM_9
100
AcDbLine
 10
-1.025
 20
0.44
 30
0.0
 11
1.025
 21
0.44
 31
0.0
  0
LINE
  5
C5
330
8F
100
AcDbEntity
  8
AM_9
100
AcDbLine
 10
1.025
 20
0.44
 30
0.0
 11
1.025
 21
0.445
 31
0.0
  0
LINE
  5
C6
330
8F
100
AcDbEntity
  8
AM_9
100
AcDbLine
 10
-1.025
 20
0.445
 30
0.0
 11
-1.025
 21
0.44
 31
0.0
  0
LINE
  5
C7
330
8F
100
AcDbEntity
  8
AM_9
100
AcDbLine
 10
-1.025
 20
-0.6862500000000002
 30
0.0
 11
1.025
 21
-0.6862500000000002
 31
0.0
  0
LINE
  5
C8
330
8F
100
AcDbEntity
  8
AM_9
100
AcDbLine
 10
1.025
 20
-0.6862500000000002
 30
0.0
 11
1.025
 21
-0.4249999999999999
 31
0.0
  0
LINE
  5
C9
330
8F
100
AcDbEntity
  8
AM_9
100
AcDbLine
 10
-1.025
 20
-0.4249999999999999
 30
0.0
 11
-1.025
 21
-0.6862500000000002
 31
0.0
  0
LINE
  5
CA
330
8F
100
AcDbEntity
  8
AM_9
100
AcDbLine
 10
1.499809523809524
 20
-0.2540000000000001
 30
0.0
 11
1.499809523809524
 21
-0.166
 31
0.0
  0
LINE
  5
CB
330
8F
100
AcDbEntity
  8
AM_9
100
AcDbLine
 10
-1.499809523809524
 20
-0.166
 30
0.0
 11
-1.499809523809524
 21
-0.2540000000000001
 31
0.0
  0
LINE
  5
CC
330
8F
100
AcDbEntity
  8
AM_9
100
AcDbLine
 10
-1.490765588548381
 20
0.445
 30
0.0
 11
1.490765588548381
 21
0.445
 31
0.0
  0
ARC
  5
CD
330
8F
100
AcDbEntity
  8
AM_9
100
AcDbCircle
 10
1.490765588548381
 20
0.4150000000000001
 30
0.0
 40
0.0299999999999999
100
AcDbArc
 50
15.19885301080831
 51
90.0
  0
ARC
  5
CE
330
8F
100
AcDbEntity
  8
AM_9
100
AcDbCircle
 10
-1.490765588548381
 20
0.4150000000000001
 30
0.0
 40
0.0299999999999999
100
AcDbArc
 50
90.0
 51
164.8011469891917
  0
LINE
  5
CF
330
8F
100
AcDbEntity
  8
AM_9
100
AcDbLine
 10
-1.490765588548381
 20
-0.4249999999999999
 30
0.0
 11
1.490765588548381
 21
-0.4249999999999999
 31
0.0
  0
ARC
  5
D0
330
8F
100
AcDbEntity
  8
AM_9
100
AcDbCircle
 10
1.490765588548381
 20
-0.3949999999999996
 30
0.0
 40
0.0300000000000002
100
AcDbArc
 50
270.0
 51
344.8011469891917
  0
ARC
  5
D1
330
8F
100
AcDbEntity
  8
AM_9
100
AcDbCircle
 10
-1.490765588548381
 20
-0.3949999999999996
 30
0.0
 40
0.0300000000000003
100
AcDbArc
 50
195.1988530108082
 51
270.0
  0
LINE
  5
D2
330
8F
100
AcDbEntity
  8
AM_9
100
AcDbLine
 10
-1.519716240838027
 20
-0.4028650958052819
 30
0.0
 11
1.519716240837643
 21
-0.4028650958052819
 31
0.0
  0
LINE
  5
D3
330
8F
100
AcDbEntity
  8
AM_9
100
AcDbLine
 10
-1.55251378093761
 20
-0.2540000000000001
 30
0.0
 11
1.552513780937226
 21
-0.2540000000000001
 31
0.0
  0
ARC
  5
D4
330
8F
100
AcDbEntity
  8
AM_9
100
AcDbCircle
 10
-0.0000000000005187
 20
0.0100000000001123
 30
0.0
 40
1.57480000000053
100
AcDbArc
 50
344.8011469891929
 51
350.3493485930995
  0
ARC
  5
D5
330
8F
100
AcDbEntity
  8
AM_9
100
AcDbCircle
 10
-0.0000000001927196
 20
0.0099999999576209
 30
0.0
 40
1.574799999803282
100
AcDbArc
 50
189.6506514065526
 51
195.1988530111548
  0
LINE
  5
D6
330
8F
100
AcDbEntity
  8
AM_9
100
AcDbLine
 10
-1.564934196699658
 20
-0.1660000000000003
 30
0.0
 11
1.564934196699656
 21
-0.1660000000000003
 31
0.0
  0
LINE
  5
D7
330
8F
100
AcDbEntity
  8
AM_9
100
AcDbLine
 10
-1.519716240837645
 20
0.4228650958052823
 30
0.0
 11
1.519716240837643
 21
0.4228650958052823
 31
0.0
  0
LWPOLYLINE
  5
D8
330
8F
100
AcDbEntity
  8
AM_9
100
AcDbPolyline
 90
       38
 70
     0
 43
0.0
 10
-0.0543784470027677
 20
0.2860936727855038
 10
-0.0629583260790515
 20
0.2762575918344634
 10
-0.0699424128199777
 20
0.2648076789504817
 10
-0.074750010172043
 20
0.2527145681068221
 10
-0.0775290283520887
 20
0.2396314790027813
 10
-0.0780497758888716
 20
0.2265724485858099
 10
-0.0763054724210766
 20
0.2132372286421272
 10
-0.0724278153413914
 20
0.2007130201305543
 10
-0.0662994922759849
 20
0.1886733385216441
 10
-0.0584674131924662
 20
0.1781822692548059
 10
-0.0486734737993438
 20
0.1688901924949473
 10
-0.037846996424963
 20
0.1616544040437948
 10
-0.0255867808798188
 20
0.1561837939934045
 10
-0.0130595910193329
 20
0.1529742724318181
 10
0.0002135767694896
 20
0.1518752919367787
 10
0.0130288256880699
 20
0.1529690625385495
 10
0.0258379182141151
 20
0.1562713243889414
 10
0.0375667761801588
 20
0.1614999784494204
 10
0.0485564254906848
 20
0.1687971473821065
 10
0.057951309630784
 20
0.1776057127438781
 10
0.0659578235342906
 20
0.1881301882065445
 10
0.0719708064211949
 20
0.1996072599444721
 10
0.0760855353290494
 20
0.2122656565192848
 10
0.0779756755023281
 20
0.2251719926516595
 10
0.0776519886041666
 20
0.2385839554296594
 10
0.0751253237822773
 20
0.2514406471825828
 10
0.0703146221819144
 20
0.2640495158910465
 10
0.063633518798008
 20
0.275324286098995
 10
0.0548717934471463
 20
0.2856111671240021
 10
0.0448494750066032
 20
0.2939690567120702
 10
0.0332063760275722
 20
0.3007167039398433
 10
0.0210587783611756
 20
0.3052332604566282
 10
0.0079390515919572
 20
0.3077205705384374
 10
-0.004935556194285
 20
0.3079689419580197
 10
-0.0180398171659157
 20
0.3060136870676611
 10
-0.0302449848965176
 20
0.3020330237711107
 10
-0.0419332648027236
 20
0.2959175009233864
 10
-0.0543784470027677
 20
0.2860936727855038
  0
ARC
  5
D9
330
8F
100
AcDbEntity
  8
AM_9
100
AcDbCircle
 10
-0.0000000000000338
 20
0.0099999999999994
 30
0.0
 40
1.574800000000033
100
AcDbArc
 50
353.5832052965275
 51
15.19885301080785
  0
ARC
  5
DA
330
8F
100
AcDbEntity
  8
AM_9
100
AcDbCircle
 10
0.0000000000017544
 20
0.0099999999998671
 30
0.0
 40
1.57480000000173
100
AcDbArc
 50
164.801146989204
 51
186.4167947034606
  0
LINE
  5
DC
330
8F
100
AcDbEntity
  8
AM_5
100
AcDbLine
 10
0.7500000000000001
 20
-0.889375
 30
0.0
 11
1.19
 21
-0.889375
 31
0.0
  0
LINE
  5
DD
330
8F
100
AcDbEntity
  8
AM_5
100
AcDbLine
 10
0.7500000000000001
 20
-1.201875
 30
0.0
 11
1.19
 21
-1.201875
 31
0.0
  0
LINE
  5
E0
330
8F
100
AcDbEntity
  8
AM_7
100
AcDbLine
 10
1.227030091352556
 20
-1.045625
 30
0.0
 11
0.6862107131341665
 21
-1.045625
 31
0.0
  0
LINE
  5
E2
330
8F
100
AcDbEntity
  8
AM_4
100
AcDbLine
 10
0.976190476190476
 20
-0.7175
 30
0.0
 11
0.976190476190476
 21
-0.6880000000000003
 31
0.0
  0
LINE
  5
E3
330
8F
100
AcDbEntity
  8
AM_4
100
AcDbLine
 10
-0.976190476190476
 20
-0.6880000000000003
 30
0.0
 11
-0.976190476190476
 21
-0.7175
 31
0.0
  0
LINE
  5
E4
330
8F
100
AcDbEntity
  8
AM_4
100
AcDbLine
 10
-1.13
 20
-0.7175
 30
0.0
 11
1.13
 21
-0.7175
 31
0.0
  0
ARC
  5
E5
330
8F
100
AcDbEntity
  8
AM_4
100
AcDbCircle
 10
1.129999999999999
 20
-0.7775000000000004
 30
0.0
 40
0.0600000000000005
100
AcDbArc
 50
0.0
 51
90.0
  0
ARC
  5
E6
330
8F
100
AcDbEntity
  8
AM_4
100
AcDbCircle
 10
-1.13
 20
-0.7775000000000002
 30
0.0
 40
0.0600000000000002
100
AcDbArc
 50
90.0
 51
180.0
  0
LINE
  5
E7
330
8F
100
AcDbEntity
  8
AM_4
100
AcDbLine
 10
-1.13
 20
-1.28
 30
0.0
 11
1.13
 21
-1.28
 31
0.0
  0
ARC
  5
E8
330
8F
100
AcDbEntity
  8
AM_4
100
AcDbCircle
 10
1.129999999999999
 20
-1.219999999999999
 30
0.0
 40
0.0600000000000005
100
AcDbArc
 50
270.0
 51
0.0
  0
ARC
  5
E9
330
8F
100
AcDbEntity
  8
AM_4
100
AcDbCircle
 10
-1.129999999999999
 20
-1.219999999999999
 30
0.0
 40
0.0600000000000005
100
AcDbArc
 50
180.0
 51
270.0
  0
LINE
  5
EA
330
8F
100
AcDbEntity
  8
AM_4
100
AcDbLine
 10
-1.19
 20
-1.22
 30
0.0
 11
1.19
 21
-1.22
 31
0.0
  0
LWPOLYLINE
  5
EB
330
8F
100
AcDbEntity
  8
AM_4
100
AcDbPolyline
 90
       10
 70
     0
 43
0.0
 10
1.185547392342629
 20
-1.139651815273126
 10
1.184220709609278
 20
-1.121076249275666
 10
1.183080228563027
 20
-1.100372143457396
 10
1.182261664651119
 20
-1.07808824416918
 10
1.181849074486457
 20
-1.054880126389977
 10
1.181900352657145
 20
-1.03151052899198
 10
1.182394552346205
 20
-1.008539963691773
 10
1.18328468526593
 20
-0.9866707882596876
 10
1.184461992619156
 20
-0.9664502915424229
 10
1.185547392342629
 20
-0.9515981847268744
  0
LWPOLYLINE
  5
EC
330
8F
100
AcDbEntity
  8
AM_4
100
AcDbPolyline
 90
        7
 70
     0
 43
0.0
 10
1.185547392342627
 20
-0.9515981847268733
 10
1.18645286935686
 20
-0.9395966545558877
 10
1.187356640685945
 20
-0.9288272021874481
 10
1.188508622425087
 20
-0.9163762793627729
 10
1.189417116684638
 20
-0.9073319528031146
 10
1.189897686781973
 20
-0.902774450014905
 10
1.189999999999988
 20
-0.9018223923427374
  0
LINE
  5
ED
330
8F
100
AcDbEntity
  8
AM_4
100
AcDbLine
 10
-1.19
 20
-0.7775
 30
0.0
 11
1.19
 21
-0.7775
 31
0.0
  0
LINE
  5
EE
330
8F
100
AcDbEntity
  8
AM_4
100
AcDbLine
 10
1.19
 20
-1.22
 30
0.0
 11
1.19
 21
-1.189427607657371
 31
0.0
  0
LINE
  5
EF
330
8F
100
AcDbEntity
  8
AM_4
100
AcDbLine
 10
1.19
 20
-0.9018223923426286
 30
0.0
 11
1.19
 21
-0.7775
 31
0.0
  0
LINE
  5
F0
330
8F
100
AcDbEntity
  8
AM_4
100
AcDbLine
 10
-1.19
 20
-0.7775
 30
0.0
 11
-1.19
 21
-1.22
 31
0.0
  0
LWPOLYLINE
  5
F1
330
8F
100
AcDbEntity
  8
AM_4
100
AcDbPolyline
 90
        7
 70
     0
 43
0.0
 10
1.189999999999988
 20
-1.189427607657263
 10
1.189978254508401
 20
-1.189225774816831
 10
1.189663976573033
 20
-1.186277187847548
 10
1.188984376504937
 20
-1.179684577871184
 10
1.1880420530428
 20
-1.169978639139749
 10
1.186890935907422
 20
-1.157001689392411
 10
1.185547392342629
 20
-1.139651815273126
  0
ENDBLK
  5
92
330
8F
100
AcDbEntity
  8
0
100
AcDbBlockEnd
  0
BLOCK
  5
F4
330
F2
100
AcDbEntity
  8
0
100
AcDbBlockBegin
  2
3_405016_Inch_0_in_131250_4
 70
     2
 10
0.0
 20
0.0
 30
0.0
  3
3_405016_Inch_0_in_131250_4
  1

  0
ATTDEF
  5
F6
330
F2
100
AcDbEntity
  8
AM_6
100
AcDbText
 10
3.287076745350093
 20
0.2187499999999999
 30
0.0
 40
0.5
  1
405016 -Inch
100
AcDbAttributeDefinition
  3

  2
NN
 70
     8
280
     0
  0
ATTDEF
  5
F7
330
F2
100
AcDbEntity
  8
AM_6
100
AcDbText
 10
3.287076745350093
 20
-0.2812500000000001
 30
0.0
 40
0.5
  1
Grease Fitting
100
AcDbAttributeDefinition
  3

  2
NT
 70
     8
280
     0
  0
ATTDEF
  5
F8
330
F2
100
AcDbEntity
  8
AM_6
100
AcDbText
 10
3.287076745350093
 20
-0.7812500000000001
 30
0.0
 40
0.5
  1
405016-Inch
100
AcDbAttributeDefinition
  3

  2
NB
 70
     8
280
     0
  0
ATTDEF
  5
F9
330
F2
100
AcDbEntity
  8
AM_6
100
AcDbText
 10
3.287076745350093
 20
-1.28125
 30
0.0
 40
0.5
  1
$MN.-Inch
100
AcDbAttributeDefinition
  3

  2
NBSYN
 70
     8
280
     0
  0
ATTDEF
  5
FA
330
F2
100
AcDbEntity
  8
AM_6
100
AcDbText
 10
3.287076745350093
 20
-1.78125
 30
0.0
 40
0.5
  1
405016
100
AcDbAttributeDefinition
  3

  2
LINA
 70
     8
280
     0
  0
ATTDEF
  5
FB
330
F2
100
AcDbEntity
  8
AM_6
100
AcDbText
 10
3.287076745350093
 20
-2.28125
 30
0.0
 40
0.5
  1
405016
100
AcDbAttributeDefinition
  3

  2
MN
 70
     8
280
     0
  0
ATTDEF
  5
FC
330
F2
100
AcDbEntity
  8
AM_6
100
AcDbText
 10
3.287076745350093
 20
-2.78125
 30
0.0
 40
0.5
  1
7/16 HEX
100
AcDbAttributeDefinition
  3

  2
H
 70
     8
280
     0
  0
ATTDEF
  5
FD
330
F2
100
AcDbEntity
  8
AM_6
100
AcDbText
 10
3.287076745350093
 20
-3.28125
 30
0.0
 40
0.5
  1
0.383
100
AcDbAttributeDefinition
  3

  2
NDR
 70
     8
280
     0
  0
ATTDEF
  5
FE
330
F2
100
AcDbEntity
  8
AM_6
100
AcDbText
 10
3.287076745350093
 20
-3.78125
 30
0.0
 40
0.5
  1
0.337
100
AcDbAttributeDefinition
  3

  2
KDR
 70
     8
280
     0
  0
ATTDEF
  5
FF
330
F2
100
AcDbEntity
  8
AM_6
100
AcDbText
 10
3.287076745350093
 20
-4.28125
 30
0.0
 40
0.5
  1
0.1575
100
AcDbAttributeDefinition
  3

  2
BZE
 70
     8
280
     0
  0
ATTDEF
  5
100
330
F2
100
AcDbEntity
  8
AM_6
100
AcDbText
 10
3.287076745350093
 20
-4.78125
 30
0.0
 40
0.5
  1
0.4375
100
AcDbAttributeDefinition
  3

  2
HEX
 70
     8
280
     0
  0
ATTDEF
  5
101
330
F2
100
AcDbEntity
  8
AM_6
100
AcDbText
 10
3.287076745350093
 20
-5.28125
 30
0.0
 40
0.5
  1
0.281250
100
AcDbAttributeDefinition
  3

  2
HEX2
 70
     8
280
     0
  0
ATTDEF
  5
102
330
F2
100
AcDbEntity
  8
AM_6
100
AcDbText
 10
3.287076745350093
 20
-5.78125
 30
0.0
 40
0.5
  1
baldor
100
AcDbAttributeDefinition
  3

  2
COMPANY
 70
     8
280
     0
  0
LINE
  5
103
330
F2
100
AcDbEntity
  8
AM_9
100
AcDbLine
 10
-2.410066072480448
 20
-0.151074129835757
 30
0.0
 11
-2.421387645704325
 21
-0.1791093260592887
 31
0.0
  0
LINE
  5
104
330
F2
100
AcDbEntity
  8
AM_9
100
AcDbLine
 10
-2.258891226441951
 20
-0.2099962668917053
 30
0.0
 11
-2.270578472661496
 21
-0.2389369657326276
 31
0.0
  0
LWPOLYLINE
  5
105
330
F2
100
AcDbEntity
  8
AM_9
100
AcDbPolyline
 90
        3
 70
     0
 43
0.0
 10
-2.003310806641622
 20
-0.0000000000000001
 10
-2.024788477559244
 20
-0.0544416102741497
 10
-2.042737421176545
 20
-0.109375
  0
LWPOLYLINE
  5
106
330
F2
100
AcDbEntity
  8
AM_9
100
AcDbPolyline
 90
        3
 70
     0
 43
0.0
 10
-2.042737421176545
 20
0.1093749999999999
 10
-2.024877771192622
 20
0.0546874999999999
 10
-2.003310806641622
 20
-0.0000000000000001
  0
LWPOLYLINE
  5
107
330
F2
100
AcDbEntity
  8
AM_9
100
AcDbPolyline
 90
        3
 70
     0
 43
0.0
 10
-2.200960378019861
 20
-0.2987675689889718
 10
-2.216847662582957
 20
-0.2912216284034024
 10
-2.232057664280972
 20
-0.2813919000363599
  0
LWPOLYLINE
  5
108
330
F2
100
AcDbEntity
  8
AM_9
100
AcDbPolyline
 90
        3
 70
     0
 43
0.0
 10
-1.956134880798102
 20
-0.1093750000000001
 10
-1.942420687935717
 20
-0.0546875000000001
 10
-1.93241380964041
 20
-0.0000000000000001
  0
LWPOLYLINE
  5
109
330
F2
100
AcDbEntity
  8
AM_9
100
AcDbPolyline
 90
        3
 70
     0
 43
0.0
 10
-1.93241380964041
 20
-0.0000000000000001
 10
-1.942368017069684
 20
0.0544416102741495
 10
-1.956134880798102
 20
0.1093749999999999
  0
LINE
  5
10A
330
F2
100
AcDbEntity
  8
AM_9
100
AcDbLine
 10
-2.189934025181382
 20
-0.2672118976010216
 30
0.0
 11
-2.188904728708883
 21
-0.2689146070947222
 31
0.0
  0
LWPOLYLINE
  5
10B
330
F2
100
AcDbEntity
  8
AM_9
100
AcDbPolyline
 90
        3
 70
     0
 43
0.0
 10
-2.066458492334237
 20
0.2187499999999999
 10
-2.056504284904962
 20
0.1643083897258503
 10
-2.042737421176545
 20
0.1093749999999999
  0
LINE
  5
10C
330
F2
100
AcDbEntity
  8
AM_9
100
AcDbLine
 10
-2.003310806641622
 20
-0.0000000000000001
 30
0.0
 11
-1.93241380964041
 21
-0.0000000000000001
 31
0.0
  0
LWPOLYLINE
  5
10D
330
F2
100
AcDbEntity
  8
AM_9
100
AcDbPolyline
 90
        3
 70
     0
 43
0.0
 10
-2.042737421176545
 20
-0.109375
 10
-2.05645161403893
 20
-0.1640625
 10
-2.066458492334237
 20
-0.2187500000000001
  0
LINE
  5
10E
330
F2
100
AcDbEntity
  8
AM_9
100
AcDbLine
 10
-2.188904728708883
 20
-0.2689146070947222
 30
0.0
 11
-2.189961118118894
 21
-0.2683791326563879
 31
0.0
  0
LINE
  5
10F
330
F2
100
AcDbEntity
  8
AM_9
100
AcDbLine
 10
-2.188904728708883
 20
-0.2689146070947222
 30
0.0
 11
-2.19
 21
-0.2716267871917188
 31
0.0
  0
ELLIPSE
  5
110
330
F2
100
AcDbEntity
  8
AM_9
100
AcDbEllipse
 10
-2.443242020868952
 20
-0.4687500000000001
 30
0.0
 11
-0.09595382955731772
 21
0.03874944547499699
 31
0.0
210
0.0
220
0.0
230
1.0
 40
0.2113091308703526
 41
3.040609649696535
 42
6.384168311072832
  0
ELLIPSE
  5
111
330
F2
100
AcDbEntity
  8
AM_9
100
AcDbEllipse
 10
-2.415248358671469
 20
-0.3994303217889759
 30
0.0
 11
-0.1290248947933273
 21
0.05210467522533598
 31
0.0
210
0.0
220
0.0
230
1.0
 40
0.2113091308703459
 41
3.038271879401
 42
5.801105639492178
  0
LWPOLYLINE
  5
112
330
F2
100
AcDbEntity
  8
AM_9
100
AcDbPolyline
 90
        5
 70
     0
 43
0.0
 10
-2.421387645704325
 20
-0.1791093260592887
 10
-2.443250034202951
 20
-0.1842540823997054
 10
-2.464146121132944
 20
-0.1862220679364951
 10
-2.484063740687854
 20
-0.1844124966919381
 10
-2.502577527309116
 20
-0.1791093260592887
  0
LWPOLYLINE
  5
113
330
F2
100
AcDbEntity
  8
AM_9
100
AcDbPolyline
 90
        5
 70
     0
 43
0.0
 10
-2.270578472661496
 20
-0.2389369657326276
 10
-2.309419761348925
 20
-0.2295338871417796
 10
-2.347554808060844
 20
-0.216687117104632
 10
-2.385173602422027
 20
-0.1996402057054678
 10
-2.421387645704325
 20
-0.1791093260592887
  0
LWPOLYLINE
  5
114
330
F2
100
AcDbEntity
  8
AM_9
100
AcDbPolyline
 90
        3
 70
     0
 43
0.0
 10
-2.244079194462778
 20
-0.2711532636537956
 10
-2.257814372227351
 20
-0.2561815527589921
 10
-2.270578472661496
 20
-0.2389369657326276
  0
ELLIPSE
  5
115
330
F2
100
AcDbEntity
  8
AM_9
100
AcDbEllipse
 10
-2.353572473930156
 20
-0.2467045921760114
 30
0.0
 11
-0.1303939210191554
 21
0.05265753494272175
 31
0.0
210
0.0
220
0.0
230
1.0
 40
0.2113091308703642
 41
3.806340372002566
 42
6.919181903097288
  0
LWPOLYLINE
  5
116
330
F2
100
AcDbEntity
  8
AM_9
100
AcDbPolyline
 90
        3
 70
     0
 43
0.0
 10
-1.987821855244375
 20
-0.2000409996967266
 10
-1.974083824415403
 20
-0.1643083897258505
 10
-1.956134880798102
 20
-0.1093750000000001
  0
LINE
  5
117
330
F2
100
AcDbEntity
  8
AM_9
100
AcDbLine
 10
-1.995561495333025
 20
-0.2187500000000001
 30
0.0
 11
-1.987821855244375
 21
-0.2000409996967266
 31
0.0
  0
LINE
  5
118
330
F2
100
AcDbEntity
  8
AM_9
100
AcDbLine
 10
-1.987821977326341
 20
0.2000413016192557
 30
0.0
 11
-1.995561495333025
 21
0.2187499999999999
 31
0.0
  0
LWPOLYLINE
  5
119
330
F2
100
AcDbEntity
  8
AM_9
100
AcDbPolyline
 90
        3
 70
     0
 43
0.0
 10
-1.956134880798102
 20
0.1093749999999999
 10
-1.973994530782025
 20
0.1640624999999999
 10
-1.987821977326341
 20
0.2000413016192557
  0
LINE
  5
11A
330
F2
100
AcDbEntity
  8
AM_9
100
AcDbLine
 10
-2.421200873332338
 20
-0.1204089378707286
 30
0.0
 11
-2.42228631832205
 21
-0.1230967854582225
 31
0.0
  0
LINE
  5
11B
330
F2
100
AcDbEntity
  8
AM_9
100
AcDbLine
 10
-2.216080644906464
 20
-0.2
 30
0.0
 11
-2.21341216556176
 21
-0.193392142543456
 31
0.0
  0
ELLIPSE
  5
11C
330
F2
100
AcDbEntity
  8
AM_9
100
AcDbEllipse
 10
-2.335272566391602
 20
-0.2013892028241914
 30
0.0
 11
-0.1019970226638906
 21
0.04118989399965287
 31
0.0
210
0.0
220
0.0
230
1.0
 40
0.2113091308703512
 41
3.141592653589793
 42
6.283185307179586
  0
LWPOLYLINE
  5
11D
330
F2
100
AcDbEntity
  8
AM_9
100
AcDbPolyline
 90
        4
 70
     0
 43
0.0
 10
-2.421205602987358
 20
-0.1204206514110939
 10
-2.421344768971887
 20
-0.1208367673933812
 10
-2.420767185014761
 20
-0.1245107513506023
 10
-2.418859589516871
 20
-0.1273631646510964
  0
LWPOLYLINE
  5
11E
330
F2
100
AcDbEntity
  8
AM_9
100
AcDbPolyline
 90
        5
 70
     0
 43
0.0
 10
-2.213411221360272
 20
-0.1933898041312626
 10
-2.213504557491423
 20
-0.1936098952159724
 10
-2.216720094444061
 20
-0.1971856748420371
 10
-2.222738457686844
 20
-0.1994144431868155
 10
-2.229602428267287
 20
-0.1999999999699529
  0
LWPOLYLINE
  5
11F
330
F2
100
AcDbEntity
  8
AM_9
100
AcDbPolyline
 90
        3
 70
     0
 43
0.0
 10
-2.322899559479725
 20
-0.1745741884610188
 10
-2.295510484106294
 20
-0.1876759562813858
 10
-2.258891226441951
 20
-0.2099962668917053
  0
LWPOLYLINE
  5
120
330
F2
100
AcDbEntity
  8
AM_9
100
AcDbPolyline
 90
        3
 70
     0
 43
0.0
 10
-2.410066072480448
 20
-0.151074129835757
 10
-2.380861464980925
 20
-0.1564222384464442
 10
-2.352190966038631
 20
-0.1639312493177431
  0
LWPOLYLINE
  5
121
330
F2
100
AcDbEntity
  8
AM_9
100
AcDbPolyline
 90
        3
 70
     0
 43
0.0
 10
-2.258891226441951
 20
-0.2099962668917053
 10
-2.241917544108428
 20
-0.2163479371246913
 10
-2.225779286924245
 20
-0.2258378743019629
  0
LWPOLYLINE
  5
122
330
F2
100
AcDbEntity
  8
AM_9
100
AcDbPolyline
 90
        4
 70
     0
 43
0.0
 10
-2.446976952824943
 20
-0.141958509815605
 10
-2.443101833378894
 20
-0.1420496512545706
 10
-2.428612918264144
 20
-0.1441228263802214
 10
-2.410066072480448
 20
-0.151074129835757
  0
ELLIPSE
  5
123
330
F2
100
AcDbEntity
  8
AM_9
100
AcDbEllipse
 10
-2.335272566391605
 20
-0.2013892028241884
 30
0.0
 11
-0.1303939210191749
 21
0.05265753494273394
 31
0.0
210
0.0
220
0.0
230
1.0
 40
0.2113091308703495
 41
3.814164134970081
 42
4.694769330964217
  0
ELLIPSE
  5
124
330
F2
100
AcDbEntity
  8
AM_9
100
AcDbEllipse
 10
-2.335272566391605
 20
-0.201389202824185
 30
0.0
 11
-0.1303939210191731
 21
0.0526575349427318
 31
0.0
210
0.0
220
0.0
230
1.0
 40
0.2113091308703332
 41
-1.283653461269261
 42
-0.6725714813802801
  0
ELLIPSE
  5
125
330
F2
100
AcDbEntity
  8
AM_9
100
AcDbEllipse
 10
-2.404573377194123
 20
-0.3729962569746643
 30
0.0
 11
-0.1235034625625953
 21
0.04987493162723556
 31
0.0
210
0.0
220
0.0
230
1.0
 40
0.2113091308703499
 41
3.398390390615791
 42
5.80110563949218
  0
LINE
  5
126
330
F2
100
AcDbEntity
  8
AM_9
100
AcDbLine
 10
-2.232057664280972
 20
-0.2813919000363599
 30
0.0
 11
-2.244079194462778
 21
-0.2711532636537956
 31
0.0
  0
ELLIPSE
  5
127
330
F2
100
AcDbEntity
  8
AM_9
100
AcDbEllipse
 10
-2.353572473930141
 20
-0.2467045921760188
 30
0.0
 11
-0.1303939210191771
 21
0.05265753494273593
 31
0.0
210
0.0
220
0.0
230
1.0
 40
0.2113091308703492
 41
2.800469246484385
 42
3.607080702195125
  0
ELLIPSE
  5
128
330
F2
100
AcDbEntity
  8
AM_9
100
AcDbEllipse
 10
-2.353572473931852
 20
-0.2467045921738157
 30
0.0
 11
-0.1303939210216068
 21
0.05265753494466344
 31
0.0
210
0.0
220
0.0
230
1.0
 40
0.211309130874653
 41
-3.777589249505932
 42
-3.764628581857915
  0
LWPOLYLINE
  5
129
330
F2
100
AcDbEntity
  8
AM_9
100
AcDbPolyline
 90
       17
 70
     0
 43
0.0
 10
-2.220087330712348
 20
-0.1790373738501779
 10
-2.22805479578854
 20
-0.1733931390117467
 10
-2.238810869222722
 20
-0.1670729780242511
 10
-2.251453920745166
 20
-0.1606047421316795
 10
-2.266344343891007
 20
-0.1538031670974777
 10
-2.282246220697887
 20
-0.1472336073736393
 10
-2.299607190519606
 20
-0.1407130262602576
 10
-2.316962667649851
 20
-0.1347930597680667
 10
-2.334820379234139
 20
-0.1293028157827817
 10
-2.351650140734213
 20
-0.1247141396218192
 10
-2.367966884634918
 20
-0.1208880884981781
 10
-2.382365935494752
 20
-0.1181545989145989
 10
-2.3952982883605
 20
-0.1164278875396128
 10
-2.4056580165202
 20
-0.1158549073091554
 10
-2.413768191336897
 20
-0.1164156227038168
 10
-2.418944832527739
 20
-0.1180609686233502
 10
-2.421205602987358
 20
-0.1204206514110939
  0
LWPOLYLINE
  5
12A
330
F2
100
AcDbEntity
  8
AM_9
100
AcDbPolyline
 90
        4
 70
     0
 43
0.0
 10
-2.220087330712348
 20
-0.1790373738501784
 10
-2.21513267024028
 20
-0.1842628795203941
 10
-2.213024785773537
 20
-0.1891729979031393
 10
-2.213411221360272
 20
-0.1933898041312626
  0
LINE
  5
12B
330
F2
100
AcDbEntity
  8
AM_9
100
AcDbLine
 10
-2.137458949715468
 20
0.1999999999999999
 30
0.0
 11
-2.200148251565525
 21
0.1999999999999999
 31
0.0
  0
LINE
  5
12C
330
F2
100
AcDbEntity
  8
AM_9
100
AcDbLine
 10
-2.200150895652901
 20
-0.2
 30
0.0
 11
-2.137458949715468
 21
-0.2
 31
0.0
  0
LINE
  5
12D
330
F2
100
AcDbEntity
  8
AM_9
100
AcDbLine
 10
-1.983198174666365
 20
0.1999999999999999
 30
0.0
 11
-2.050856409337024
 21
0.1999999999999999
 31
0.0
  0
LINE
  5
12E
330
F2
100
AcDbEntity
  8
AM_9
100
AcDbLine
 10
-2.050856409337024
 20
-0.2
 30
0.0
 11
-1.983198174666365
 21
-0.2
 31
0.0
  0
ELLIPSE
  5
12F
330
F2
100
AcDbEntity
  8
AM_9
100
AcDbEllipse
 10
-1.983198174666366
 20
0.0000000000000001
 30
0.0
 11
1.224646799147354E-17
 21
0.2000000000000002
 31
0.0
210
0.0
220
0.0
230
1.0
 40
0.4999999999999989
 41
1.799069516100974
 42
7.629453787289161
  0
LINE
  5
130
330
F2
100
AcDbEntity
  8
AM_9
100
AcDbLine
 10
-2.19
 20
-0.2187500000000001
 30
0.0
 11
-1.995561495333025
 21
-0.2187500000000001
 31
0.0
  0
LINE
  5
131
330
F2
100
AcDbEntity
  8
AM_9
100
AcDbLine
 10
-2.123941968430946
 20
-0.205785624825532
 30
0.0
 11
-2.121856866718256
 21
-0.2187500000000001
 31
0.0
  0
LWPOLYLINE
  5
132
330
F2
100
AcDbEntity
  8
AM_9
100
AcDbPolyline
 90
        3
 70
     0
 43
0.0
 10
-2.145577937875947
 20
-0.109375
 10
-2.131863745013563
 20
-0.1640625
 10
-2.123941968430946
 20
-0.205785624825532
  0
LWPOLYLINE
  5
133
330
F2
100
AcDbEntity
  8
AM_9
100
AcDbPolyline
 90
        3
 70
     0
 43
0.0
 10
-2.170354437188401
 20
-0.0362064291110889
 10
-2.163526881493249
 20
-0.0544416102741496
 10
-2.145577937875947
 20
-0.109375
  0
LINE
  5
134
330
F2
100
AcDbEntity
  8
AM_9
100
AcDbLine
 10
-2.185004552410871
 20
-0.0000000000000001
 30
0.0
 11
-2.170354437188401
 21
-0.0362064291110889
 31
0.0
  0
LINE
  5
135
330
F2
100
AcDbEntity
  8
AM_9
100
AcDbLine
 10
-2.19
 20
0.2187499999999999
 30
0.0
 11
-1.995561495333025
 21
0.2187499999999999
 31
0.0
  0
LINE
  5
136
330
F2
100
AcDbEntity
  8
AM_9
100
AcDbLine
 10
-2.190000000000001
 20
-0.0000000000000001
 30
0.0
 11
-2.185004552410871
 21
-0.0000000000000001
 31
0.0
  0
LINE
  5
137
330
F2
100
AcDbEntity
  8
AM_9
100
AcDbLine
 10
-2.170361119356206
 20
0.0361890829548824
 30
0.0
 11
-2.185004552410871
 21
-0.0000000000000001
 31
0.0
  0
LWPOLYLINE
  5
138
330
F2
100
AcDbEntity
  8
AM_9
100
AcDbPolyline
 90
        3
 70
     0
 43
0.0
 10
-2.152035210422693
 20
0.0881106285446579
 10
-2.163437587859871
 20
0.0546874999999999
 10
-2.170361119356206
 20
0.0361890829548824
  0
LINE
  5
139
330
F2
100
AcDbEntity
  8
AM_9
100
AcDbLine
 10
-2.145577937875947
 20
0.1093749999999999
 30
0.0
 11
-2.152035210422693
 21
0.0881106285446579
 31
0.0
  0
LWPOLYLINE
  5
13A
330
F2
100
AcDbEntity
  8
AM_9
100
AcDbPolyline
 90
        3
 70
     0
 43
0.0
 10
-2.123945492277456
 20
0.2057645434939337
 10
-2.131811074147531
 20
0.1643083897258503
 10
-2.145577937875947
 20
0.1093749999999999
  0
LINE
  5
13B
330
F2
100
AcDbEntity
  8
AM_9
100
AcDbLine
 10
-2.121856866718256
 20
0.2187499999999999
 30
0.0
 11
-2.123945492277456
 21
0.2057645434939337
 31
0.0
  0
LINE
  5
13C
330
F2
100
AcDbEntity
  8
AM_9
100
AcDbLine
 10
-1.812653557043962
 20
0.1853871066562612
 30
0.0
 11
-1.981470446728031
 21
0.1914800577488989
 31
0.0
  0
LINE
  5
13D
330
F2
100
AcDbEntity
  8
AM_9
100
AcDbLine
 10
-1.981470446728031
 20
-0.191480057748899
 30
0.0
 11
-1.812653557043962
 21
-0.1853871066562613
 31
0.0
  0
LINE
  5
13E
330
F2
100
AcDbEntity
  8
AM_9
100
AcDbLine
 10
-1.747086819761812
 20
0.1319978794387896
 30
0.0
 11
-1.760800946820881
 21
0.1513925839218323
 31
0.0
  0
LINE
  5
13F
330
F2
100
AcDbEntity
  8
AM_9
100
AcDbLine
 10
-1.760800946820881
 20
-0.1513925839218325
 30
0.0
 11
-1.747086819761812
 21
-0.1319978794387897
 31
0.0
  0
ELLIPSE
  5
140
330
F2
100
AcDbEntity
  8
AM_9
100
AcDbEllipse
 10
-2.137458949715466
 20
-0.0000000000000005
 30
0.0
 11
1.339457436567415E-17
 21
0.2187499999999995
 31
0.0
210
0.0
220
0.0
230
1.0
 40
0.5000000000000052
 41
0.0
 42
6.283185307179586
  0
ELLIPSE
  5
141
330
F2
100
AcDbEntity
  8
AM_9
100
AcDbEllipse
 10
-2.137458949715469
 20
-0.0000000000000001
 30
0.0
 11
1.224646799147353E-17
 21
0.2
 31
0.0
210
0.0
220
0.0
230
1.0
 40
0.5000000000000004
 41
0.0
 42
6.283185307179586
  0
ELLIPSE
  5
142
330
F2
100
AcDbEntity
  8
AM_9
100
AcDbEllipse
 10
-2.050856409337023
 20
-0.0000000000000008
 30
0.0
 11
1.339457436567413E-17
 21
0.2187499999999993
 31
0.0
210
0.0
220
0.0
230
1.0
 40
0.5000000000000048
 41
0.0
 42
6.283185307179586
  0
ELLIPSE
  5
143
330
F2
100
AcDbEntity
  8
AM_9
100
AcDbEllipse
 10
-2.050856409337024
 20
-0.0000000000000003
 30
0.0
 11
1.224646799147351E-17
 21
0.1999999999999997
 31
0.0
210
0.0
220
0.0
230
1.0
 40
0.4999999999999968
 41
0.0
 42
6.283185307179586
  0
ELLIPSE
  5
144
330
F2
100
AcDbEntity
  8
AM_9
100
AcDbEllipse
 10
-1.983198174666366
 20
0.0
 30
0.0
 11
1.172668097677219E-17
 21
0.1915112338502296
 31
0.0
210
0.0
220
0.0
230
1.0
 40
0.5000000000000013
 41
0.0
 42
6.283185307179586
  0
ELLIPSE
  5
145
330
F2
100
AcDbEntity
  8
AM_9
100
AcDbEllipse
 10
-1.814326308177123
 20
0.0000000000000007
 30
0.0
 11
1.135353457964650E-17
 21
0.1854172907249873
 31
0.0
210
0.0
220
0.0
230
1.0
 40
0.5000000000000002
 41
0.0
 42
6.283185307179586
  0
ELLIPSE
  5
146
330
F2
100
AcDbEntity
  8
AM_9
100
AcDbEllipse
 10
-1.793755117588519
 20
0.0000000000000005
 30
0.0
 11
9.899048221688939E-18
 21
0.161663725877225
 31
0.0
210
0.0
220
0.0
230
1.0
 40
0.4999999999999954
 41
0.0
 42
6.283185307179586
  0
LWPOLYLINE
  5
147
330
F2
100
AcDbEntity
  8
AM_4
100
AcDbPolyline
 90
        3
 70
     0
 43
0.0
 10
-2.213757756742438
 20
-0.2360765106845277
 10
-2.20459277016588
 20
-0.2462091938631851
 10
-2.189934025181382
 20
-0.2672118976010216
  0
LWPOLYLINE
  5
148
330
F2
100
AcDbEntity
  8
AM_4
100
AcDbPolyline
 90
        3
 70
     0
 43
0.0
 10
-2.189961118118894
 20
-0.2683791326563879
 10
-2.201900616558494
 20
-0.2634308483997528
 10
-2.216114516672734
 20
-0.2602304684431305
  0
LWPOLYLINE
  5
149
330
F2
100
AcDbEntity
  8
AM_4
100
AcDbPolyline
 90
        3
 70
     0
 43
0.0
 10
-2.234414424211268
 20
-0.3055458577949631
 10
-2.21803246959229
 20
-0.3030753670497808
 10
-2.200960378019861
 20
-0.2987675689889718
  0
LINE
  5
14A
330
F2
100
AcDbEntity
  8
AM_4
100
AcDbLine
 10
-2.19
 20
-0.2716267871917188
 30
0.0
 11
-2.200960378019861
 21
-0.2987675689889718
 31
0.0
  0
LINE
  5
14B
330
F2
100
AcDbEntity
  8
AM_4
100
AcDbLine
 10
-2.348602478997606
 20
-0.5093460834378319
 30
0.0
 11
-2.287990728730342
 21
-0.4540180898723598
 31
0.0
  0
LINE
  5
14C
330
F2
100
AcDbEntity
  8
AM_4
100
AcDbLine
 10
-2.544725896030217
 20
-0.3503396289636352
 30
0.0
 11
-2.539532473739487
 21
-0.4322420068738781
 31
0.0
  0
ELLIPSE
  5
14D
330
F2
100
AcDbEntity
  8
AM_4
100
AcDbEllipse
 10
-2.443242020868952
 20
-0.4687500000000001
 30
0.0
 11
-0.09595382955731811
 21
0.03874944547499725
 31
0.0
210
0.0
220
0.0
230
1.0
 40
0.2113091308703426
 41
0.1009830038932478
 42
3.040609649696543
  0
LINE
  5
14E
330
F2
100
AcDbEntity
  8
AM_4
100
AcDbLine
 10
-2.491255954085239
 20
-0.151074129835757
 30
0.0
 11
-2.502577527309116
 21
-0.1791093260592887
 31
0.0
  0
LWPOLYLINE
  5
14F
330
F2
100
AcDbEntity
  8
AM_4
100
AcDbPolyline
 90
        9
 70
     0
 43
0.0
 10
-2.521779528858137
 20
-0.3182630735307603
 10
-2.522901310577975
 20
-0.3186507132076149
 10
-2.528733954168701
 20
-0.3213229361677604
 10
-2.533967350721859
 20
-0.3249811361020468
 10
-2.538448221325699
 20
-0.3296788038431829
 10
-2.541894366779274
 20
-0.3353085094538704
 10
-2.544143656578819
 20
-0.3420335342675169
 10
-2.544788221990018
 20
-0.3486308403771556
 10
-2.544713728184418
 20
-0.3505231682172256
  0
LWPOLYLINE
  5
150
330
F2
100
AcDbEntity
  8
AM_4
100
AcDbPolyline
 90
        9
 70
     0
 43
0.0
 10
-2.288215649866846
 20
-0.4542214595815116
 10
-2.287554530290229
 20
-0.453612392470458
 10
-2.283312729059316
 20
-0.4486562944936008
 10
-2.280179591196622
 20
-0.4428240310706492
 10
-2.278332620366061
 20
-0.4360932294875754
 10
-2.27802436409251
 20
-0.4295791940916631
 10
-2.278953951880756
 20
-0.4234849511246065
 10
-2.280888226574887
 20
-0.4177959174154551
 10
-2.282756461208074
 20
-0.4140283047141772
  0
ELLIPSE
  5
151
330
F2
100
AcDbEntity
  8
AM_4
100
AcDbEllipse
 10
-2.415248358671469
 20
-0.3994303217889759
 30
0.0
 11
-0.1290248947933272
 21
0.05210467522533585
 31
0.0
210
0.0
220
0.0
230
1.0
 40
0.2113091308703556
 41
0.1022299956949206
 42
3.038271879401002
  0
LWPOLYLINE
  5
152
330
F2
100
AcDbEntity
  8
AM_4
100
AcDbPolyline
 90
        3
 70
     0
 43
0.0
 10
-2.282150259624652
 20
-0.2987675689889718
 10
-2.268616994124262
 20
-0.3030606061861223
 10
-2.255057709499277
 20
-0.305456396233367
  0
ELLIPSE
  5
153
330
F2
100
AcDbEntity
  8
AM_4
100
AcDbEllipse
 10
-2.353572473930139
 20
-0.2467045921760195
 30
0.0
 11
-0.1303939210191762
 21
0.05265753494273489
 31
0.0
210
0.0
220
0.0
230
1.0
 40
0.2113091308703508
 41
1.711945269609643
 42
2.505596057672103
  0
LWPOLYLINE
  5
154
330
F2
100
AcDbEntity
  8
AM_4
100
AcDbPolyline
 90
        4
 70
     0
 43
0.0
 10
-2.502577527309116
 20
-0.1791093260592887
 10
-2.48770040926604
 20
-0.1988355121406939
 10
-2.471271137023366
 20
-0.2156330920108724
 10
-2.465774118412023
 20
-0.2201680623457972
  0
LWPOLYLINE
  5
155
330
F2
100
AcDbEntity
  8
AM_4
100
AcDbPolyline
 90
        3
 70
     0
 43
0.0
 10
-2.465774118412023
 20
-0.2201680623457972
 10
-2.452833596813396
 20
-0.2290462109660021
 10
-2.432958235871079
 20
-0.2389369657326275
  0
LWPOLYLINE
  5
156
330
F2
100
AcDbEntity
  8
AM_4
100
AcDbPolyline
 90
        3
 70
     0
 43
0.0
 10
-2.235870916626002
 20
-0.2602304684431209
 10
-2.245119552039896
 20
-0.2616913382589203
 10
-2.270094610313674
 20
-0.2689146070947222
  0
LINE
  5
157
330
F2
100
AcDbEntity
  8
AM_4
100
AcDbLine
 10
-2.42228631832205
 20
-0.1230967854582225
 30
0.0
 11
-2.437269589055493
 21
-0.1601993088245384
 31
0.0
  0
LINE
  5
158
330
F2
100
AcDbEntity
  8
AM_4
100
AcDbLine
 10
-2.233275543727717
 20
-0.2425790968238377
 30
0.0
 11
-2.216080644906464
 21
-0.2
 31
0.0
  0
ELLIPSE
  5
159
330
F2
100
AcDbEntity
  8
AM_4
100
AcDbEllipse
 10
-2.335272566391605
 20
-0.2013892028241881
 30
0.0
 11
-0.1019970226638876
 21
0.04118989399964963
 31
0.0
210
0.0
220
0.0
230
1.0
 40
0.2113091308703492
 41
0.0
 42
3.141592653589793
  0
LWPOLYLINE
  5
15A
330
F2
100
AcDbEntity
  8
AM_4
100
AcDbPolyline
 90
        4
 70
     0
 43
0.0
 10
-2.491255954085239
 20
-0.151074129835757
 10
-2.474640112097711
 20
-0.145877822676052
 10
-2.458585499442578
 20
-0.1427138007556462
 10
-2.446976952824943
 20
-0.141958509815605
  0
LWPOLYLINE
  5
15B
330
F2
100
AcDbEntity
  8
AM_4
100
AcDbPolyline
 90
        6
 70
     0
 43
0.0
 10
-2.421270989651533
 20
-0.2099962668917053
 10
-2.431580126008863
 20
-0.1943573015029059
 10
-2.442923952843073
 20
-0.1805491420332303
 10
-2.45563792741988
 20
-0.1688997677199809
 10
-2.469533853609572
 20
-0.1598729403210871
 10
-2.491255954085239
 20
-0.151074129835757
  0
LINE
  5
15C
330
F2
100
AcDbEntity
  8
AM_4
100
AcDbLine
 10
-2.445647099282114
 20
-0.1419585097669023
 30
0.0
 11
-2.447085575930267
 21
-0.1419585097669023
 31
0.0
  0
ELLIPSE
  5
15D
330
F2
100
AcDbEntity
  8
AM_4
100
AcDbEllipse
 10
-2.335272566391591
 20
-0.2013892028242109
 30
0.0
 11
-0.1303939210191948
 21
0.05265753494275412
 31
0.0
210
0.0
220
0.0
230
1.0
 40
0.2113091308704014
 41
5.610613825799337
 42
7.795870906981333
  0
ELLIPSE
  5
15E
330
F2
100
AcDbEntity
  8
AM_4
100
AcDbEllipse
 10
-2.353572473930137
 20
-0.2467045921760199
 30
0.0
 11
-0.1303939210191762
 21
0.05265753494273393
 31
0.0
210
0.0
220
0.0
230
1.0
 40
0.2113091308703553
 41
0.6359965959176908
 42
1.512685599801931
  0
LWPOLYLINE
  5
15F
330
F2
100
AcDbEntity
  8
AM_4
100
AcDbPolyline
 90
        3
 70
     0
 43
0.0
 10
-2.254170824164538
 20
-0.3055458577949631
 10
-2.244720625278229
 20
-0.3064767622622302
 10
-2.234414424211268
 20
-0.3055458577949631
  0
LWPOLYLINE
  5
160
330
F2
100
AcDbEntity
  8
AM_4
100
AcDbPolyline
 90
       17
 70
     0
 43
0.0
 10
-2.282312783649995
 20
-0.4148370160445652
 10
-2.28406074605218
 20
-0.4111607771045619
 10
-2.286540916082729
 20
-0.4045856375674765
 10
-2.2886233766729
 20
-0.3965440234437184
 10
-2.289891831020344
 20
-0.3872685879435986
 10
-2.290000354836663
 20
-0.3771676065833062
 10
-2.288744380144509
 20
-0.3666904028100171
 10
-2.285705339764865
 20
-0.3552100315293307
 10
-2.281144613267508
 20
-0.3445416346425634
 10
-2.275368810033989
 20
-0.3350097096822977
 10
-2.268710936624074
 20
-0.3267804902664754
 10
-2.261536418441223
 20
-0.3199481158991583
 10
-2.254265353682321
 20
-0.3145546804857426
 10
-2.247356915560208
 20
-0.3105642210807806
 10
-2.241229381329198
 20
-0.3078318648011175
 10
-2.236161704081316
 20
-0.3061176202747022
 10
-2.232569750249619
 20
-0.3052127269718624
  0
LWPOLYLINE
  5
161
330
F2
100
AcDbEntity
  8
AM_4
100
AcDbPolyline
 90
       17
 70
     0
 43
0.0
 10
-2.48113947724216
 20
-0.2049754299204723
 10
-2.479292084192957
 20
-0.2079642403468796
 10
-2.476827710769241
 20
-0.2127444082155096
 10
-2.474313990051764
 20
-0.2189938260663517
 10
-2.472110080474043
 20
-0.2267300967693137
 10
-2.470632158250461
 20
-0.2357691876114435
 10
-2.47025028246592
 20
-0.245730242008577
 10
-2.471201097079311
 20
-0.2561624691746647
 10
-2.473919489627194
 20
-0.2677540622088667
 10
-2.478210726451335
 20
-0.2786145393404907
 10
-2.483777867517299
 20
-0.2883815602876913
 10
-2.490292821944111
 20
-0.2968704278839692
 10
-2.497398712223042
 20
-0.3039768942819354
 10
-2.504686369172052
 20
-0.3096475744469152
 10
-2.511700008513563
 20
-0.3139005368520391
 10
-2.518004826772441
 20
-0.3168587201486284
 10
-2.521995058712149
 20
-0.3183346221742093
  0
ELLIPSE
  5
162
330
F2
100
AcDbEntity
  8
AM_4
100
AcDbEllipse
 10
-2.404573377194124
 20
-0.3729962569746643
 30
0.0
 11
-0.1235034625625961
 21
0.04987493162723584
 31
0.0
210
0.0
220
0.0
230
1.0
 40
0.2113091308703488
 41
6.038940796535829
 42
9.665806911429607
  0
ELLIPSE
  5
163
330
F2
100
AcDbEntity
  8
AM_4
100
AcDbEllipse
 10
-2.335272566391606
 20
-0.2013892028241855
 30
0.0
 11
-0.1303939210191843
 21
0.05265753494272244
 31
0.0
210
0.0
220
0.0
230
1.0
 40
0.2113091308703697
 41
1.711945269609626
 42
2.518556725320327
  0
LINE
  5
164
330
F2
100
AcDbEntity
  8
AM_4
100
AcDbLine
 10
-2.216114516672734
 20
-0.2602304684431305
 30
0.0
 11
-2.235870916626002
 21
-0.2602304684431209
 31
0.0
  0
ELLIPSE
  5
165
330
F2
100
AcDbEntity
  8
AM_4
100
AcDbEllipse
 10
-2.335272566391603
 20
-0.2013892028241887
 30
0.0
 11
-0.1303939210191727
 21
0.05265753494273345
 31
0.0
210
0.0
220
0.0
230
1.0
 40
0.2113091308703478
 41
2.800469246484365
 42
3.607080702195134
  0
LINE
  5
166
330
F2
100
AcDbEntity
  8
AM_4
100
AcDbLine
 10
-2.225779286924245
 20
-0.2258378743019629
 30
0.0
 11
-2.213757756742438
 21
-0.2360765106845277
 31
0.0
  0
LWPOLYLINE
  5
167
330
F2
100
AcDbEntity
  8
AM_4
100
AcDbPolyline
 90
        3
 70
     0
 43
0.0
 10
-2.270094610313674
 20
-0.2689146070947222
 10
-2.298156910282518
 20
-0.251275593729576
 10
-2.327945015120504
 20
-0.2360765106845275
  0
LINE
  5
168
330
F2
100
AcDbEntity
  8
AM_4
100
AcDbLine
 10
-2.327945015120504
 20
-0.2360765106845275
 30
0.0
 11
-2.353953824146489
 21
-0.2258378743019627
 31
0.0
  0
LWPOLYLINE
  5
169
330
F2
100
AcDbEntity
  8
AM_4
100
AcDbPolyline
 90
        3
 70
     0
 43
0.0
 10
-2.353953824146489
 20
-0.2258378743019627
 10
-2.376943858838729
 20
-0.2189176876709014
 10
-2.421270989651533
 20
-0.2099962668917053
  0
LINE
  5
16A
330
F2
100
AcDbEntity
  8
AM_4
100
AcDbLine
 10
-2.421270989651533
 20
-0.2099962668917053
 30
0.0
 11
-2.432958235871078
 21
-0.2389369657326276
 31
0.0
  0
LWPOLYLINE
  5
16B
330
F2
100
AcDbEntity
  8
AM_4
100
AcDbPolyline
 90
        3
 70
     0
 43
0.0
 10
-2.432958235871078
 20
-0.2389369657326276
 10
-2.403278414637276
 20
-0.2560939713202353
 10
-2.372253731685021
 20
-0.2711532636537956
  0
LINE
  5
16C
330
F2
100
AcDbEntity
  8
AM_4
100
AcDbLine
 10
-2.372253731685021
 20
-0.2711532636537956
 30
0.0
 11
-2.346244922659038
 21
-0.2813919000363599
 31
0.0
  0
LWPOLYLINE
  5
16D
330
F2
100
AcDbEntity
  8
AM_4
100
AcDbPolyline
 90
        3
 70
     0
 43
0.0
 10
-2.346244922659038
 20
-0.2813919000363599
 10
-2.314594371805013
 20
-0.2911775952746243
 10
-2.282150259624652
 20
-0.2987675689889718
  0
LINE
  5
16E
330
F2
100
AcDbEntity
  8
AM_4
100
AcDbLine
 10
-2.270094610313674
 20
-0.2689146070947222
 30
0.0
 11
-2.282150259624652
 21
-0.2987675689889718
 31
0.0
  0
ARC
  5
16F
330
F2
100
AcDbEntity
  8
AM_4
100
AcDbCircle
 10
-2.264656430896308
 20
0.0000000000000003
 30
0.0
 40
0.1999999999999996
100
AcDbArc
 50
90.0
 51
219.6396773723346
  0
LWPOLYLINE
  5
170
330
F2
100
AcDbEntity
  8
AM_4
100
AcDbPolyline
 90
       10
 70
     0
 43
0.0
 10
-2.418859589516871
 20
-0.1273631646510964
 10
-2.417195481205637
 20
-0.1291842652280562
 10
-2.410917933937973
 20
-0.1344729790611519
 10
-2.401760334875252
 20
-0.1405186270901959
 10
-2.390464145713241
 20
-0.1468270783017121
 10
-2.376722994572491
 20
-0.1535654953592165
 10
-2.361661504833009
 20
-0.1601799433259583
 10
-2.34486808201335
 20
-0.1668493358980661
 10
-2.327468745859354
 20
-0.1731116383367606
 10
-2.309225531080251
 20
-0.1790373738502115
  0
ELLIPSE
  5
171
330
F2
100
AcDbEntity
  8
AM_4
100
AcDbEllipse
 10
-2.264656430896308
 20
-0.0000000000000001
 30
0.0
 11
1.224646799147352E-17
 21
0.1999999999999998
 31
0.0
210
0.0
220
0.0
230
1.0
 40
0.5000000000000009
 41
0.0
 42
2.679646633022825
  0
LINE
  5
172
330
F2
100
AcDbEntity
  8
AM_4
100
AcDbLine
 10
-2.200148251565525
 20
0.1999999999999999
 30
0.0
 11
-2.264656430896308
 21
0.1999999999999999
 31
0.0
  0
LINE
  5
173
330
F2
100
AcDbEntity
  8
AM_4
100
AcDbLine
 10
-2.229750212494194
 20
-0.2
 30
0.0
 11
-2.200150895652901
 21
-0.2
 31
0.0
  0
LWPOLYLINE
  5
174
330
F2
100
AcDbEntity
  8
AM_4
100
AcDbPolyline
 90
        8
 70
     0
 43
0.0
 10
-2.229602428267287
 20
-0.1999999999699529
 10
-2.23108954550659
 20
-0.1999786710855128
 10
-2.241963145983339
 20
-0.1988321115509053
 10
-2.254361467697322
 20
-0.1961649429984259
 10
-2.268784898063314
 20
-0.1920694300574958
 10
-2.284297877924131
 20
-0.1870948030566195
 10
-2.301391281711102
 20
-0.181500594761393
 10
-2.309225531080268
 20
-0.1790373738501784
  0
LWPOLYLINE
  5
175
330
F2
100
AcDbEntity
  8
AM_4
100
AcDbPolyline
 90
        3
 70
     0
 43
0.0
 10
-2.232180478254391
 20
-0.109375
 10
-2.245894671116776
 20
-0.0546875
 10
-2.255901549412083
 20
-0.0000000000000001
  0
LWPOLYLINE
  5
176
330
F2
100
AcDbEntity
  8
AM_4
100
AcDbPolyline
 90
        3
 70
     0
 43
0.0
 10
-2.192753863719468
 20
-0.2187500000000001
 10
-2.21423153463709
 20
-0.1643083897258504
 10
-2.232180478254391
 20
-0.109375
  0
LINE
  5
177
330
F2
100
AcDbEntity
  8
AM_4
100
AcDbLine
 10
-2.192753863719468
 20
-0.2187500000000001
 30
0.0
 11
-2.19
 21
-0.2187500000000001
 31
0.0
  0
LINE
  5
178
330
F2
100
AcDbEntity
  8
AM_4
100
AcDbLine
 10
-2.192753863719468
 20
0.2187499999999999
 30
0.0
 11
-2.19
 21
0.2187499999999999
 31
0.0
  0
LWPOLYLINE
  5
179
330
F2
100
AcDbEntity
  8
AM_4
100
AcDbPolyline
 90
        3
 70
     0
 43
0.0
 10
-2.232180478254391
 20
0.1093749999999999
 10
-2.214320828270468
 20
0.1640624999999999
 10
-2.192753863719468
 20
0.2187499999999999
  0
LWPOLYLINE
  5
17A
330
F2
100
AcDbEntity
  8
AM_4
100
AcDbPolyline
 90
        3
 70
     0
 43
0.0
 10
-2.255901549412083
 20
-0.0000000000000001
 10
-2.245947341982808
 20
0.0544416102741495
 10
-2.232180478254391
 20
0.1093749999999999
  0
LINE
  5
17B
330
F2
100
AcDbEntity
  8
AM_4
100
AcDbLine
 10
-2.255901549412083
 20
-0.0000000000000001
 30
0.0
 11
-2.190000000000001
 21
-0.0000000000000001
 31
0.0
  0
ENDBLK
  5
F5
330
F2
100
AcDbEntity
  8
0
100
AcDbBlockEnd
  0
BLOCK
  5
17E
330
17C
100
AcDbEntity
  8
0
100
AcDbBlockBegin
  2
4_131250H_0_in_131250_4
 70
     2
 10
0.0
 20
0.0
 30
0.0
  3
4_131250H_0_in_131250_4
  1

  0
ATTDEF
  5
180
330
17C
100
AcDbEntity
  8
AM_6
100
AcDbText
 10
8.5315
 20
0.9699999999999999
 30
0.0
 40
0.5
  1
WSTU-SXV -I-Housing
100
AcDbAttributeDefinition
  3

  2
NN
 70
     8
280
     0
  0
ATTDEF
  5
181
330
17C
100
AcDbEntity
  8
AM_6
100
AcDbText
 10
8.5315
 20
0.4699999999999999
 30
0.0
 40
0.5
  1
Eccentric Collar Take-Up Bearings -(Intermediate Duty) -Wide Slot
100
AcDbAttributeDefinition
  3

  2
NT
 70
     8
280
     0
  0
ATTDEF
  5
182
330
17C
100
AcDbEntity
  8
AM_6
100
AcDbText
 10
8.5315
 20
-0.0300000000000001
 30
0.0
 40
0.5
  1
131250H
100
AcDbAttributeDefinition
  3

  2
NB
 70
     8
280
     0
  0
ATTDEF
  5
183
330
17C
100
AcDbEntity
  8
AM_6
100
AcDbText
 10
8.5315
 20
-0.5300000000000001
 30
0.0
 40
0.5
  1
$PN.H
100
AcDbAttributeDefinition
  3

  2
NBSYN
 70
     8
280
     0
  0
ATTDEF
  5
184
330
17C
100
AcDbEntity
  8
AM_6
100
AcDbText
 10
8.5315
 20
-1.03
 30
0.0
 40
0.5
  1
131250
100
AcDbAttributeDefinition
  3

  2
LINA
 70
     8
280
     0
  0
ATTDEF
  5
185
330
17C
100
AcDbEntity
  8
AM_6
100
AcDbText
 10
8.5315
 20
-1.53
 30
0.0
 40
0.5
  1
208
100
AcDbAttributeDefinition
  3

  2
SERIES
 70
     8
280
     0
  0
ATTDEF
  5
186
330
17C
100
AcDbEntity
  8
AM_6
100
AcDbText
 10
8.5315
 20
-2.03
 30
0.0
 40
0.5
  1
1-1/2
100
AcDbAttributeDefinition
  3

  2
SS
 70
     8
280
     0
  0
ATTDEF
  5
187
330
17C
100
AcDbEntity
  8
AM_6
100
AcDbText
 10
8.5315
 20
-2.53
 30
0.0
 40
0.5
  1
131250
100
AcDbAttributeDefinition
  3

  2
PN
 70
     8
280
     0
  0
ATTDEF
  5
188
330
17C
100
AcDbEntity
  8
AM_6
100
AcDbText
 10
8.5315
 20
-3.03
 30
0.0
 40
0.5
  1
WSTU-SXV-108
100
AcDbAttributeDefinition
  3

  2
DESCRIPTION
 70
     8
280
     0
  0
ATTDEF
  5
189
330
17C
100
AcDbEntity
  8
AM_6
100
AcDbText
 10
8.5315
 20
-3.53
 30
0.0
 40
0.5
  1
4.7
100
AcDbAttributeDefinition
  3

  2
W
 70
     8
280
     0
  0
ATTDEF
  5
18A
330
17C
100
AcDbEntity
  8
AM_6
100
AcDbText
 10
8.5315
 20
-4.03
 30
0.0
 40
0.5
  1
WS400
100
AcDbAttributeDefinition
  3

  2
FS
 70
     8
280
     0
  0
ATTDEF
  5
18B
330
17C
100
AcDbEntity
  8
AM_6
100
AcDbText
 10
8.5315
 20
-4.53
 30
0.0
 40
0.5
  1
1.72
100
AcDbAttributeDefinition
  3

  2
A
 70
     8
280
     0
  0
ATTDEF
  5
18C
330
17C
100
AcDbEntity
  8
AM_6
100
AcDbText
 10
8.5315
 20
-5.03
 30
0.0
 40
0.5
  1
5.69
100
AcDbAttributeDefinition
  3

  2
B
 70
     8
280
     0
  0
ATTDEF
  5
18D
330
17C
100
AcDbEntity
  8
AM_6
100
AcDbText
 10
8.5315
 20
-5.53
 30
0.0
 40
0.5
  1
0.688
100
AcDbAttributeDefinition
  3

  2
C
 70
     8
280
     0
  0
ATTDEF
  5
18E
330
17C
100
AcDbEntity
  8
AM_6
100
AcDbText
 10
8.5315
 20
-6.03
 30
0.0
 40
0.5
  1
3.25
100
AcDbAttributeDefinition
  3

  2
D
 70
     8
280
     0
  0
ATTDEF
  5
18F
330
17C
100
AcDbEntity
  8
AM_6
100
AcDbText
 10
8.5315
 20
-6.53
 30
0.0
 40
0.5
  1
3.50
100
AcDbAttributeDefinition
  3

  2
E
 70
     8
280
     0
  0
ATTDEF
  5
190
330
17C
100
AcDbEntity
  8
AM_6
100
AcDbText
 10
8.5315
 20
-7.03
 30
0.0
 40
0.5
  1
1
100
AcDbAttributeDefinition
  3

  2
F
 70
     8
280
     0
  0
ATTDEF
  5
191
330
17C
100
AcDbEntity
  8
AM_6
100
AcDbText
 10
8.5315
 20
-7.53
 30
0.0
 40
0.5
  1
0.63
100
AcDbAttributeDefinition
  3

  2
G
 70
     8
280
     0
  0
ATTDEF
  5
192
330
17C
100
AcDbEntity
  8
AM_6
100
AcDbText
 10
8.5315
 20
-8.030000000000001
 30
0.0
 40
0.5
  1
0.75
100
AcDbAttributeDefinition
  3

  2
H
 70
     8
280
     0
  0
ATTDEF
  5
193
330
17C
100
AcDbEntity
  8
AM_6
100
AcDbText
 10
8.5315
 20
-8.530000000000001
 30
0.0
 40
0.5
  1
3.25
100
AcDbAttributeDefinition
  3

  2
J
 70
     8
280
     0
  0
ATTDEF
  5
194
330
17C
100
AcDbEntity
  8
AM_6
100
AcDbText
 10
8.5315
 20
-9.030000000000001
 30
0.0
 40
0.5
  1
1.94
100
AcDbAttributeDefinition
  3

  2
K
 70
     8
280
     0
  0
ATTDEF
  5
195
330
17C
100
AcDbEntity
  8
AM_6
100
AcDbText
 10
8.5315
 20
-9.530000000000001
 30
0.0
 40
0.5
  1
2.38
100
AcDbAttributeDefinition
  3

  2
L
 70
     8
280
     0
  0
ATTDEF
  5
196
330
17C
100
AcDbEntity
  8
AM_6
100
AcDbText
 10
8.5315
 20
-10.03
 30
0.0
 40
0.5
  1
3.985 / 4.015
100
AcDbAttributeDefinition
  3

  2
M
 70
     8
280
     0
  0
ATTDEF
  5
197
330
17C
100
AcDbEntity
  8
AM_6
100
AcDbText
 10
8.5315
 20
-10.53
 30
0.0
 40
0.5
  1
4.50
100
AcDbAttributeDefinition
  3

  2
N
 70
     8
280
     0
  0
ATTDEF
  5
198
330
17C
100
AcDbEntity
  8
AM_6
100
AcDbText
 10
8.5315
 20
-11.03
 30
0.0
 40
0.5
  1
0.43
100
AcDbAttributeDefinition
  3

  2
R
 70
     8
280
     0
  0
ATTDEF
  5
199
330
17C
100
AcDbEntity
  8
AM_6
100
AcDbText
 10
8.5315
 20
-11.53
 30
0.0
 40
0.5
  1
1.28
100
AcDbAttributeDefinition
  3

  2
S
 70
     8
280
     0
  0
ATTDEF
  5
19A
330
17C
100
AcDbEntity
  8
AM_6
100
AcDbText
 10
8.5315
 20
-12.03
 30
0.0
 40
0.5
  1
1.94
100
AcDbAttributeDefinition
  3

  2
T
 70
     8
280
     0
  0
ATTDEF
  5
19B
330
17C
100
AcDbEntity
  8
AM_6
100
AcDbText
 10
8.5315
 20
-12.53
 30
0.0
 40
0.5
  1
4005
100
AcDbAttributeDefinition
  3

  2
CAPS
 70
     8
280
     0
  0
ATTDEF
  5
19C
330
17C
100
AcDbEntity
  8
AM_6
100
AcDbText
 10
8.5315
 20
-13.03
 30
0.0
 40
0.5
  1
7332
100
AcDbAttributeDefinition
  3

  2
CAPD
 70
     8
280
     0
  0
ATTDEF
  5
19D
330
17C
100
AcDbEntity
  8
AM_6
100
AcDbText
 10
8.5315
 20
-13.53
 30
0.0
 40
0.5
  1
baldor
100
AcDbAttributeDefinition
  3

  2
COMPANY
 70
     8
280
     0
  0
ELLIPSE
  5
19E
330
17C
100
AcDbEntity
  8
AM_9
100
AcDbEllipse
 10
-1.983198174666365
 20
-0.0000000000000001
 30
0.0
 11
2.143131898507867E-17
 21
0.3499999999999999
 31
0.0
210
0.0
220
0.0
230
1.0
 40
0.4999999999999989
 41
0.0
 42
6.283185307179586
  0
LINE
  5
19F
330
17C
100
AcDbEntity
  8
AM_9
100
AcDbLine
 10
-1.898338697941788
 20
-0.4499918978304787
 30
0.0
 11
-1.896539092355917
 21
-0.4499999914746927
 31
0.0
  0
LWPOLYLINE
  5
1A0
330
17C
100
AcDbEntity
  8
AM_9
100
AcDbPolyline
 90
       27
 70
     0
 43
0.0
 10
-2.171595634287921
 20
0.0
 10
-2.171467230262556
 20
-0.0143313180016007
 10
-2.170540636290375
 20
-0.0410361248689437
 10
-2.168719687379789
 20
-0.0676133262938551
 10
-2.166004470448146
 20
-0.0939827567066829
 10
-2.162394108028622
 20
-0.1200687304621232
 10
-2.157886382964679
 20
-0.1457970573459081
 10
-2.152477169092231
 20
-0.1710951399594367
 10
-2.146159757478068
 20
-0.1958917812273013
 10
-2.138924156039485
 20
-0.2201165355541113
 10
-2.130756528760587
 20
-0.2436983707194879
 10
-2.121639097054555
 20
-0.2665633378637716
 10
-2.111551075018914
 20
-0.2886309246309072
 10
-2.100471538230584
 20
-0.3098089230314173
 10
-2.088385375163194
 20
-0.3299872424906684
 10
-2.075304193242975
 20
-0.3490175199771051
 10
-2.06127630863199
 20
-0.366725912874486
 10
-2.046382140807202
 20
-0.3829433598856051
 10
-2.030737324435193
 20
-0.397517769854753
 10
-2.014476653236212
 20
-0.410338167158311
 10
-1.997733775850843
 20
-0.4213456074916516
 10
-1.980627982941821
 20
-0.4305267319871777
 10
-1.963262018460227
 20
-0.4378978862492893
 10
-1.945726720686058
 20
-0.4434901214370319
 10
-1.928106556023187
 20
-0.4473399373017949
 10
-1.910482729487389
 20
-0.4494852705962306
 10
-1.898338697941788
 20
-0.4499918978304787
  0
LWPOLYLINE
  5
1A1
330
17C
100
AcDbEntity
  8
AM_9
100
AcDbPolyline
 90
       28
 70
     0
 43
0.0
 10
-1.898603601563567
 20
0.4499892479794049
 10
-1.911175370118954
 20
0.4494325924562572
 10
-1.928440628559739
 20
0.4472829675239701
 10
-1.94542813165025
 20
0.4435698930842517
 10
-1.962091787112198
 20
0.4383276664510252
 10
-1.978396831452938
 20
0.4315803803822248
 10
-1.994318250452098
 20
0.4233391065100581
 10
-2.00983715843288
 20
0.4136006237844836
 10
-2.02493510466332
 20
0.4023491719010755
 10
-2.039586795981332
 20
0.389562800293442
 10
-2.05375267019631
 20
0.3752252057120244
 10
-2.067374008756711
 20
0.3593417905047374
 10
-2.080373936124288
 20
0.3419550528523705
 10
-2.092666070026355
 20
0.3231516866920298
 10
-2.104168297992922
 20
0.3030560650513772
 10
-2.114815283813384
 20
0.2818126593115
 10
-2.124555895937812
 20
0.2595868363843151
 10
-2.133372050366067
 20
0.2365092341446389
 10
-2.141261076382229
 20
0.2126887684664818
 10
-2.148226748137315
 20
0.1882211015572816
 10
-2.154275186056116
 20
0.1631927888513139
 10
-2.159412565446297
 20
0.1376849739440654
 10
-2.163644097487825
 20
0.1117760782164477
 10
-2.166973755307056
 20
0.0855435140736678
 10
-2.169404369376207
 20
0.0590646334208291
 10
-2.170937860128941
 20
0.032417134169972
 10
-2.17156419759016
 20
0.0070919062311688
 10
-2.171595634287921
 20
0.0
  0
LINE
  5
1A2
330
17C
100
AcDbEntity
  8
AM_9
100
AcDbLine
 10
-1.896624778495439
 20
0.4499999977349734
 30
0.0
 11
-1.897776511596976
 21
0.4499962813861135
 31
0.0
  0
LINE
  5
1A3
330
17C
100
AcDbEntity
  8
AM_9
100
AcDbLine
 10
2.87
 20
-0.5
 30
0.0
 11
3.5
 21
-0.5
 31
0.0
  0
LINE
  5
1A4
330
17C
100
AcDbEntity
  8
AM_9
100
AcDbLine
 10
3.5
 20
0.5
 30
0.0
 11
2.87
 21
0.5
 31
0.0
  0
LINE
  5
1A5
330
17C
100
AcDbEntity
  8
AM_9
100
AcDbLine
 10
2.188800000000001
 20
-0.5848
 30
0.0
 11
2.1888
 21
0.5848000000000001
 31
0.0
  0
LINE
  5
1A6
330
17C
100
AcDbEntity
  8
AM_9
100
AcDbLine
 10
2.120000000000001
 20
-0.5848
 30
0.0
 11
2.120000000000001
 21
0.5848000000000001
 31
0.0
  0
LINE
  5
1A7
330
17C
100
AcDbEntity
  8
AM_9
100
AcDbLine
 10
2.87
 20
-0.5848
 30
0.0
 11
2.87
 21
0.5848000000000001
 31
0.0
  0
LINE
  5
1A8
330
17C
100
AcDbEntity
  8
AM_9
100
AcDbLine
 10
2.8012
 20
-0.5848
 30
0.0
 11
2.8012
 21
0.5848000000000001
 31
0.0
  0
LWPOLYLINE
  5
1A9
330
17C
100
AcDbEntity
  8
AM_9
100
AcDbPolyline
 90
       39
 70
     0
 43
0.0
 10
-1.896595634287922
 20
0.4499999999999998
 10
-1.877860451467055
 20
0.4484793731714374
 10
-1.858724414584531
 20
0.4439403998513612
 10
-1.838761724755928
 20
0.4361410378713393
 10
-1.818706853767101
 20
0.4252438294446448
 10
-1.799312494390266
 20
0.4117651138716573
 10
-1.780177269045395
 20
0.3955422852775075
 10
-1.760956368980958
 20
0.3761087789832576
 10
-1.742389365437954
 20
0.3540343057085777
 10
-1.724932972910476
 20
0.3298568846188849
 10
-1.708478052948947
 20
0.303428893738191
 10
-1.692788282286056
 20
0.2740753217852979
 10
-1.678527873387916
 20
0.2427266006140323
 10
-1.666100145344954
 20
0.2102354871743163
 10
-1.655366343863276
 20
0.1762501665238081
 10
-1.646233207925038
 20
0.1399270620462126
 10
-1.639166122750323
 20
0.1025327018210552
 10
-1.634438671915763
 20
0.0659828187195005
 10
-1.631761038017007
 20
0.0289643292793276
 10
-1.631194413962613
 20
-0.0093798029698764
 10
-1.632848837857418
 20
-0.0476530240264279
 10
-1.636494691265991
 20
-0.083904603661002
 10
-1.642101171936962
 20
-0.1195796906871689
 10
-1.649846657589427
 20
-0.1554195491916136
 10
-1.659487891332054
 20
-0.1901438751572593
 10
-1.670656112463701
 20
-0.2228370353556849
 10
-1.683391517619324
 20
-0.2540192518945607
 10
-1.697968344313907
 20
-0.2842836496646213
 10
-1.713876333420525
 20
-0.3125381139534246
 10
-1.730780171489619
 20
-0.3383595298822998
 10
-1.748634332033647
 20
-0.3618495163159556
 10
-1.7678046356528
 20
-0.38340997205455
 10
-1.787581407443661
 20
-0.4021757602303785
 10
-1.807212097956874
 20
-0.4176069178536652
 10
-1.8270379393137
 20
-0.430143756698027
 10
-1.847472015615499
 20
-0.4399198416101606
 10
-1.867730101355583
 20
-0.4464427811566033
 10
-1.882260961524235
 20
-0.4491059942813934
 10
-1.896595634287922
 20
-0.4499999999999999
  0
LWPOLYLINE
  5
1AA
330
17C
100
AcDbEntity
  8
AM_9
100
AcDbPolyline
 90
       30
 70
     0
 43
0.0
 10
-1.896595634287922
 20
-0.4499999999999999
 10
-1.919530181732634
 20
-0.4475591751076475
 10
-1.941362369514893
 20
-0.4402953420970591
 10
-1.963020738185317
 20
-0.4274012405587151
 10
-1.983100724782028
 20
-0.4093320538132142
 10
-2.001346932685174
 20
-0.3864318029157882
 10
-2.017894697597672
 20
-0.3584721799070842
 10
-2.032536774322656
 20
-0.3260372370363528
 10
-2.045173735173824
 20
-0.2897106133937597
 10
-2.055990920577636
 20
-0.2490880183364695
 10
-2.064856617424203
 20
-0.205138290751682
 10
-2.071752867032902
 20
-0.158676404249411
 10
-2.076704741442382
 20
-0.110372080629647
 10
-2.079816575937648
 20
-0.0604673174129487
 10
-2.0810901128597
 20
-0.0099324453479423
 10
-2.080558634694265
 20
0.0397637361690335
 10
-2.078266765000806
 20
0.0891128642419368
 10
-2.074212890534602
 20
0.1371861842466262
 10
-2.068364979340424
 20
0.1833928839932077
 10
-2.060674162503252
 20
0.2274780316162543
 10
-2.051150780093854
 20
0.2686614049928223
 10
-2.039488416845883
 20
0.3072001336507582
 10
-2.025803412049901
 20
0.3420293280544427
 10
-2.010176141482241
 20
0.372519291411571
 10
-1.992348258250723
 20
0.3985815346979072
 10
-1.972525384335406
 20
0.4196686588244729
 10
-1.950954338185183
 20
0.4353608115687834
 10
-1.933636758017901
 20
0.4434542568814374
 10
-1.915455327142097
 20
0.4483537049330758
 10
-1.896595634287922
 20
0.4499999999999998
  0
LINE
  5
1AB
330
17C
100
AcDbEntity
  8
AM_9
100
AcDbLine
 10
-0.5
 20
-0.1031999999999998
 30
0.0
 11
-0.5
 21
0.5848
 31
0.0
  0
LINE
  5
1AC
330
17C
100
AcDbEntity
  8
AM_9
100
AcDbLine
 10
0.5
 20
-0.1031999999999998
 30
0.0
 11
0.5
 21
0.5848
 31
0.0
  0
LINE
  5
1AD
330
17C
100
AcDbEntity
  8
AM_9
100
AcDbLine
 10
1.5748
 20
-0.5848000000000001
 30
0.0
 11
1.5748
 21
0.5847999999999998
 31
0.0
  0
LINE
  5
1AE
330
17C
100
AcDbEntity
  8
AM_9
100
AcDbLine
 10
-1.5748
 20
0.5847999999999998
 30
0.0
 11
-1.5748
 21
-0.5848000000000001
 31
0.0
  0
LINE
  5
1AF
330
17C
100
AcDbEntity
  8
AM_9
100
AcDbLine
 10
0.5
 20
-0.1031999999999998
 30
0.0
 11
-0.5
 21
-0.1031999999999998
 31
0.0
  0
LINE
  5
1B0
330
17C
100
AcDbEntity
  8
AM_9
100
AcDbLine
 10
1.625
 20
0.5848000000000001
 30
0.0
 11
-1.625
 21
0.5848000000000001
 31
0.0
  0
LINE
  5
1B1
330
17C
100
AcDbEntity
  8
AM_9
100
AcDbLine
 10
1.625
 20
-0.5847999999999999
 30
0.0
 11
-1.625
 21
-0.5847999999999999
 31
0.0
  0
ELLIPSE
  5
1B2
330
17C
100
AcDbEntity
  8
AM_9
100
AcDbEllipse
 10
-1.896595634287921
 20
-0.0000000000000002
 30
0.0
 11
-8.266365894244628E-17
 21
-0.4499999999999997
 31
0.0
210
0.0
220
0.0
230
1.0
 40
0.499999999999999
 41
0.0
 42
6.283185307179586
  0
LINE
  5
1B3
330
17C
100
AcDbEntity
  8
AM_7
100
AcDbLine
 10
3.5315
 20
0.0
 30
0.0
 11
2.8385
 21
0.0
 31
0.0
  0
LINE
  5
1B4
330
17C
100
AcDbEntity
  8
AM_7
100
AcDbLine
 10
0.0
 20
0.7567999999999998
 30
0.0
 11
0.0
 21
-1.36625
 31
0.0
  0
LINE
  5
1B5
330
17C
100
AcDbEntity
  8
AM_4
100
AcDbLine
 10
2.87
 20
-0.5847999999999998
 30
0.0
 11
2.87
 21
-0.9699999999999999
 31
0.0
  0
LINE
  5
1B6
330
17C
100
AcDbEntity
  8
AM_4
100
AcDbLine
 10
2.87
 20
-0.9699999999999999
 30
0.0
 11
3.5
 21
-0.9699999999999999
 31
0.0
  0
LINE
  5
1B7
330
17C
100
AcDbEntity
  8
AM_4
100
AcDbLine
 10
3.5
 20
0.9699999999999999
 30
0.0
 11
2.87
 21
0.9699999999999999
 31
0.0
  0
LINE
  5
1B8
330
17C
100
AcDbEntity
  8
AM_4
100
AcDbLine
 10
2.87
 20
0.9699999999999999
 30
0.0
 11
2.87
 21
0.5847999999999999
 31
0.0
  0
LINE
  5
1B9
330
17C
100
AcDbEntity
  8
AM_4
100
AcDbLine
 10
3.5
 20
0.9699999999999999
 30
0.0
 11
3.5
 21
-0.9699999999999999
 31
0.0
  0
LINE
  5
1BA
330
17C
100
AcDbEntity
  8
AM_4
100
AcDbLine
 10
-2.19
 20
-0.5459999999999998
 30
0.0
 11
-2.1512
 21
-0.5847999999999998
 31
0.0
  0
LINE
  5
1BB
330
17C
100
AcDbEntity
  8
AM_4
100
AcDbLine
 10
-2.1512
 20
-0.5847999999999998
 30
0.0
 11
-1.625
 21
-0.5847999999999998
 31
0.0
  0
LINE
  5
1BC
330
17C
100
AcDbEntity
  8
AM_4
100
AcDbLine
 10
-2.1512
 20
0.5848000000000002
 30
0.0
 11
-2.19
 21
0.5460000000000002
 31
0.0
  0
LINE
  5
1BD
330
17C
100
AcDbEntity
  8
AM_4
100
AcDbLine
 10
-2.1512
 20
0.5848000000000002
 30
0.0
 11
-1.625
 21
0.5848000000000001
 31
0.0
  0
LINE
  5
1BE
330
17C
100
AcDbEntity
  8
AM_4
100
AcDbLine
 10
-2.19
 20
0.5460000000000002
 30
0.0
 11
-2.190000000000001
 21
-0.5459999999999998
 31
0.0
  0
LINE
  5
1BF
330
17C
100
AcDbEntity
  8
AM_4
100
AcDbLine
 10
-2.19
 20
0.5460000000000002
 30
0.0
 11
-1.625
 21
0.5460000000000002
 31
0.0
  0
LINE
  5
1C0
330
17C
100
AcDbEntity
  8
AM_4
100
AcDbLine
 10
-2.190000000000001
 20
-0.5459999999999998
 30
0.0
 11
-1.625
 21
-0.5459999999999998
 31
0.0
  0
LINE
  5
1C1
330
17C
100
AcDbEntity
  8
AM_4
100
AcDbLine
 10
3.5
 20
-0.5847999999999998
 30
0.0
 11
1.625
 21
-0.5847999999999998
 31
0.0
  0
LINE
  5
1C2
330
17C
100
AcDbEntity
  8
AM_4
100
AcDbLine
 10
3.499999999999999
 20
-0.5848000000000001
 30
0.0
 11
3.4312
 21
-0.5160000000000002
 31
0.0
  0
LINE
  5
1C3
330
17C
100
AcDbEntity
  8
AM_4
100
AcDbLine
 10
3.5
 20
0.5848000000000002
 30
0.0
 11
1.625
 21
0.5848000000000001
 31
0.0
  0
LINE
  5
1C4
330
17C
100
AcDbEntity
  8
AM_4
100
AcDbLine
 10
3.431199999999999
 20
0.5160000000000001
 30
0.0
 11
3.5
 21
0.5848000000000005
 31
0.0
  0
LINE
  5
1C5
330
17C
100
AcDbEntity
  8
AM_4
100
AcDbLine
 10
3.4312
 20
0.5159999999999998
 30
0.0
 11
1.625
 21
0.5159999999999998
 31
0.0
  0
LINE
  5
1C6
330
17C
100
AcDbEntity
  8
AM_4
100
AcDbLine
 10
3.4312
 20
-0.5160000000000002
 30
0.0
 11
1.625
 21
-0.5159999999999998
 31
0.0
  0
LINE
  5
1C7
330
17C
100
AcDbEntity
  8
AM_4
100
AcDbLine
 10
3.4312
 20
-0.5160000000000002
 30
0.0
 11
3.4312
 21
0.5159999999999998
 31
0.0
  0
LINE
  5
1C8
330
17C
100
AcDbEntity
  8
AM_4
100
AcDbLine
 10
-1.625
 20
0.6880000000000001
 30
0.0
 11
-1.625
 21
-0.6879999999999997
 31
0.0
  0
LINE
  5
1C9
330
17C
100
AcDbEntity
  8
AM_4
100
AcDbLine
 10
-1.5562
 20
-0.6191999999999999
 30
0.0
 11
-1.5562
 21
-0.3439999999999998
 31
0.0
  0
LINE
  5
1CA
330
17C
100
AcDbEntity
  8
AM_4
100
AcDbLine
 10
-1.5562
 20
0.3440000000000001
 30
0.0
 11
-1.5562
 21
0.6191999999999991
 31
0.0
  0
LINE
  5
1CB
330
17C
100
AcDbEntity
  8
AM_4
100
AcDbLine
 10
1.556199999999999
 20
-0.6191999999999999
 30
0.0
 11
-1.5562
 21
-0.6191999999999999
 31
0.0
  0
LINE
  5
1CC
330
17C
100
AcDbEntity
  8
AM_4
100
AcDbLine
 10
-1.5562
 20
-0.6191999999999999
 30
0.0
 11
-1.625
 21
-0.6879999999999998
 31
0.0
  0
LINE
  5
1CD
330
17C
100
AcDbEntity
  8
AM_4
100
AcDbLine
 10
1.625
 20
-0.6879999999999997
 30
0.0
 11
-1.625
 21
-0.6879999999999997
 31
0.0
  0
LINE
  5
1CE
330
17C
100
AcDbEntity
  8
AM_4
100
AcDbLine
 10
1.625
 20
0.6880000000000001
 30
0.0
 11
-1.625
 21
0.6880000000000001
 31
0.0
  0
LINE
  5
1CF
330
17C
100
AcDbEntity
  8
AM_4
100
AcDbLine
 10
-1.625
 20
0.6879999999999996
 30
0.0
 11
-1.5562
 21
0.6191999999999991
 31
0.0
  0
LINE
  5
1D0
330
17C
100
AcDbEntity
  8
AM_4
100
AcDbLine
 10
1.556199999999999
 20
0.6191999999999991
 30
0.0
 11
-1.5562
 21
0.6191999999999991
 31
0.0
  0
LINE
  5
1D1
330
17C
100
AcDbEntity
  8
AM_4
100
AcDbLine
 10
1.625
 20
0.3440000000000001
 30
0.0
 11
-1.625
 21
0.3440000000000001
 31
0.0
  0
LINE
  5
1D2
330
17C
100
AcDbEntity
  8
AM_4
100
AcDbLine
 10
1.625
 20
0.6880000000000001
 30
0.0
 11
1.625
 21
-0.6879999999999997
 31
0.0
  0
LINE
  5
1D3
330
17C
100
AcDbEntity
  8
AM_4
100
AcDbLine
 10
1.556199999999999
 20
0.6191999999999991
 30
0.0
 11
1.625
 21
0.6880000000000001
 31
0.0
  0
LINE
  5
1D4
330
17C
100
AcDbEntity
  8
AM_4
100
AcDbLine
 10
1.556199999999999
 20
0.3440000000000001
 30
0.0
 11
1.556199999999999
 21
0.6191999999999991
 31
0.0
  0
LINE
  5
1D5
330
17C
100
AcDbEntity
  8
AM_4
100
AcDbLine
 10
-1.625
 20
-0.3439999999999998
 30
0.0
 11
1.625
 21
-0.3439999999999998
 31
0.0
  0
LINE
  5
1D6
330
17C
100
AcDbEntity
  8
AM_4
100
AcDbLine
 10
1.556199999999999
 20
-0.6191999999999999
 30
0.0
 11
1.556199999999999
 21
-0.3439999999999998
 31
0.0
  0
LINE
  5
1D7
330
17C
100
AcDbEntity
  8
AM_4
100
AcDbLine
 10
1.625
 20
-0.6880000000000003
 30
0.0
 11
1.556199999999999
 21
-0.6192000000000001
 31
0.0
  0
ENDBLK
  5
17F
330
17C
100
AcDbEntity
  8
0
100
AcDbBlockEnd
  0
ENDSEC
  0
SECTION
  2
ENTITIES
  0
INSERT
  5
6F
330
1F
100
AcDbEntity
  8
0
100
AcDbBlockReference
  2
1_131250_4
 10
0.0
 20
0.0
 30
0.0
  0
POINT
  5
1D9
330
1F
100
AcDbEntity
  8
ConnectionPoints
100
AcDbPoint
 10
-1.983198174666365
 20
-0.0000000000000001
 30
-1.145
  0
POINT
  5
1DA
330
1F
100
AcDbEntity
  8
ConnectionPoints
100
AcDbPoint
 10
-1.983198174666365
 20
-0.0000000000000001
 30
-1.145
  0
POINT
  5
1DB
330
1F
100
AcDbEntity
  8
ConnectionPoints
100
AcDbPoint
 10
0.0
 20
-1.28
 30
0.0000000000000001
  0
ENDSEC
  0
SECTION
  2
OBJECTS
  0
DICTIONARY
  5
C
330
0
100
AcDbDictionary
281
     1
  3
ACAD_DETAILVIEWSTYLE
350
1E3
  3
ACAD_GROUP
350
D
  3
ACAD_LAYOUT
350
1A
  3
ACAD_MATERIAL
350
43
  3
ACAD_MLEADERSTYLE
350
6B
  3
ACAD_MLINESTYLE
350
17
  3
ACAD_PLOTSETTINGS
350
19
  3
ACAD_PLOTSTYLENAME
350
E
  3
ACAD_SCALELIST
350
47
  3
ACAD_SECTIONVIEWSTYLE
350
1E4
  3
ACAD_TABLESTYLE
350
69
  3
ACAD_VISUALSTYLE
350
2A
  3
ACDB_RECOMPOSE_DATA
350
1E0
  3
AcDbVariableDictionary
350
1DC
  0
SUN
  5
6D
330
29
100
AcDbSun
 90
        1
290
     0
 63
     7
421
 16777215
 40
1.0
291
     1
 91
  2455826
 92
 54000000
292
     0
 70
     2
 71
   256
280
     1
  0
DICTIONARY
  5
1E3
102
{ACAD_REACTORS
330
C
102
}
330
C
100
AcDbDictionary
281
     1
  0
DICTIONARY
  5
D
102
{ACAD_REACTORS
330
C
102
}
330
C
100
AcDbDictionary
281
     1
  0
DICTIONARY
  5
1A
102
{ACAD_REACTORS
330
C
102
}
330
C
100
AcDbDictionary
281
     1
  3
Layout1
350
1E
  3
Layout2
350
26
  3
Model
350
22
  0
DICTIONARY
  5
43
102
{ACAD_REACTORS
330
C
102
}
330
C
100
AcDbDictionary
281
     1
  3
ByBlock
350
45
  3
ByLayer
350
44
  3
Global
350
46
  0
DICTIONARY
  5
6B
102
{ACAD_REACTORS
330
C
102
}
330
C
100
AcDbDictionary
281
     1
  3
Standard
350
6C
  0
DICTIONARY
  5
17
102
{ACAD_REACTORS
330
C
102
}
330
C
100
AcDbDictionary
281
     1
  3
Standard
350
18
  0
DICTIONARY
  5
19
102
{ACAD_REACTORS
330
C
102
}
330
C
100
AcDbDictionary
281
     1
  0
ACDBDICTIONARYWDFLT
  5
E
102
{ACAD_REACTORS
330
C
102
}
330
C
100
AcDbDictionary
281
     1
  3
Normal
350
F
100
AcDbDictionaryWithDefault
340
F
  0
DICTIONARY
  5
47
102
{ACAD_REACTORS
330
C
102
}
330
C
100
AcDbDictionary
281
     1
  3
A0
350
48
  3
A1
350
49
  3
A2
350
4A
  3
A3
350
4B
  3
A4
350
4C
  3
A5
350
4D
  3
A6
350
4E
  3
A7
350
4F
  3
A8
350
50
  3
A9
350
51
  3
B0
350
52
  3
B1
350
53
  3
B2
350
54
  3
B3
350
55
  3
B4
350
56
  3
B5
350
57
  3
B6
350
58
  3
B7
350
59
  3
B8
350
5A
  3
B9
350
5B
  3
C0
350
5C
  3
C1
350
5D
  3
C2
350
5E
  3
C3
350
5F
  3
C4
350
60
  3
C5
350
61
  3
C6
350
62
  3
C7
350
63
  3
C8
350
64
  3
C9
350
65
  3
D0
350
66
  3
D1
350
67
  3
D2
350
68
  0
DICTIONARY
  5
1E4
102
{ACAD_REACTORS
330
C
102
}
330
C
100
AcDbDictionary
281
     1
  0
DICTIONARY
  5
69
102
{ACAD_REACTORS
330
C
102
}
330
C
100
AcDbDictionary
281
     1
  3
Standard
350
6A
  0
DICTIONARY
  5
2A
102
{ACAD_REACTORS
330
C
102
}
330
C
100
AcDbDictionary
281
     1
  3
2dWireframe
350
2F
  3
Basic
350
32
  3
Brighten
350
36
  3
ColorChange
350
3A
  3
Conceptual
350
34
  3
Dim
350
35
  3
EdgeColorOff
350
3D
  3
Facepattern
350
39
  3
Flat
350
2B
  3
FlatWithEdges
350
2C
  3
Gouraud
350
2D
  3
GouraudWithEdges
350
2E
  3
Hidden
350
31
  3
JitterOff
350
3B
  3
Linepattern
350
38
  3
OverhangOff
350
3C
  3
Realistic
350
33
  3
Shaded
350
42
  3
Shaded with edges
350
41
  3
Shades of Gray
350
3E
  3
Sketchy
350
3F
  3
Thicken
350
37
  3
Wireframe
350
30
  3
X-Ray
350
40
  0
XRECORD
  5
1E0
102
{ACAD_REACTORS
330
C
102
}
330
C
100
AcDbXrecord
280
     1
 90
        1
330
6A
  0
DICTIONARY
  5
1DC
102
{ACAD_REACTORS
330
C
102
}
330
C
100
AcDbDictionary
281
     1
  3
CANNOSCALE
350
1DD
  3
CMLEADERSTYLE
350
1E2
  3
CTABLESTYLE
350
1E1
  0
LAYOUT
  5
1E
102
{ACAD_REACTORS
330
1A
102
}
330
1A
100
AcDbPlotSettings
  1

  2
none_device
  4

  6

 40
0.0
 41
0.0
 42
0.0
 43
0.0
 44
0.0
 45
0.0
 46
0.0
 47
0.0
 48
0.0
 49
0.0
140
0.0
141
0.0
142
1.0
143
1.0
 70
   688
 72
     0
 73
     0
 74
     5
  7

 75
    16
 76
     0
 77
     2
 78
   300
147
1.0
148
0.0
149
0.0
100
AcDbLayout
  1
Layout1
 70
     1
 71
     1
 10
0.0
 20
0.0
 11
12.0
 21
9.0
 12
0.0
 22
0.0
 32
0.0
 14
1.000000000000000E+20
 24
1.000000000000000E+20
 34
1.000000000000000E+20
 15
-1.000000000000000E+20
 25
-1.000000000000000E+20
 35
-1.000000000000000E+20
146
0.0
 13
0.0
 23
0.0
 33
0.0
 16
1.0
 26
0.0
 36
0.0
 17
0.0
 27
1.0
 37
0.0
 76
     0
330
1B
  0
LAYOUT
  5
26
102
{ACAD_REACTORS
330
1A
102
}
330
1A
100
AcDbPlotSettings
  1

  2
none_device
  4

  6

 40
0.0
 41
0.0
 42
0.0
 43
0.0
 44
0.0
 45
0.0
 46
0.0
 47
0.0
 48
0.0
 49
0.0
140
0.0
141
0.0
142
1.0
143
1.0
 70
   688
 72
     0
 73
     0
 74
     5
  7

 75
    16
 76
     0
 77
     2
 78
   300
147
1.0
148
0.0
149
0.0
100
AcDbLayout
  1
Layout2
 70
     1
 71
     2
 10
0.0
 20
0.0
 11
0.0
 21
0.0
 12
0.0
 22
0.0
 32
0.0
 14
0.0
 24
0.0
 34
0.0
 15
0.0
 25
0.0
 35
0.0
146
0.0
 13
0.0
 23
0.0
 33
0.0
 16
1.0
 26
0.0
 36
0.0
 17
0.0
 27
1.0
 37
0.0
 76
     0
330
23
  0
LAYOUT
  5
22
102
{ACAD_REACTORS
330
1A
102
}
330
1A
100
AcDbPlotSettings
  1

  2
none_device
  4
Letter_(8.50_x_11.00_Inches)
  6

 40
6.35
 41
6.35
 42
6.35000508
 43
6.35000508
 44
215.9
 45
279.4
 46
0.0
 47
0.0
 48
0.0
 49
0.0
140
0.0
141
0.0
142
1.0
143
1.0
 70
  1712
 72
     0
 73
     0
 74
     0
  7

 75
     0
 76
     0
 77
     2
 78
   300
147
1.0
148
0.0
149
0.0
100
AcDbLayout
  1
Model
 70
     1
 71
     0
 10
0.0
 20
0.0
 11
12.0
 21
9.0
 12
0.0
 22
0.0
 32
0.0
 14
1.000000000000000E+20
 24
1.000000000000000E+20
 34
1.000000000000000E+20
 15
-1.000000000000000E+20
 25
-1.000000000000000E+20
 35
-1.000000000000000E+20
146
0.0
 13
0.0
 23
0.0
 33
0.0
 16
1.0
 26
0.0
 36
0.0
 17
0.0
 27
1.0
 37
0.0
 76
     0
330
1F
331
29
  0
MATERIAL
  5
45
102
{ACAD_REACTORS
330
43
102
}
330
43
100
AcDbMaterial
  1
ByBlock
 72
     1
 94
      127
  0
MATERIAL
  5
44
102
{ACAD_REACTORS
330
43
102
}
330
43
100
AcDbMaterial
  1
ByLayer
 72
     1
 94
      127
  0
MATERIAL
  5
46
102
{ACAD_REACTORS
330
43
102
}
330
43
100
AcDbMaterial
  1
Global
 72
     1
 94
      127
  0
MLEADERSTYLE
  5
6C
102
{ACAD_REACTORS
330
6B
102
}
330
6B
100
AcDbMLeaderStyle
179
     2
170
     2
171
     1
172
     0
 90
        2
 40
0.0
 41
0.0
173
     1
 91
-1056964608
340
14
 92
       -2
290
     1
 42
0.09
291
     1
 43
0.36
  3
Standard
341
0
 44
0.18
300

342
11
174
     1
178
     6
175
     1
176
     0
 93
-1056964608
 45
0.18
292
     0
297
     0
 46
0.18
343
0
 94
-1056964608
 47
1.0
 49
1.0
140
1.0
293
     1
141
0.0
294
     1
177
     0
142
1.0
295
     0
296
     0
143
0.125
271
     0
272
     9
273
     9
298
     0
  0
MLINESTYLE
  5
18
102
{ACAD_REACTORS
330
17
102
}
330
17
100
AcDbMlineStyle
  2
Standard
 70
     0
  3

 62
   256
 51
90.0
 52
90.0
 71
     2
 49
0.5
 62
   256
  6
BYLAYER
 49
-0.5
 62
   256
  6
BYLAYER
  0
ACDBPLACEHOLDER
  5
F
102
{ACAD_REACTORS
330
E
102
}
330
E
  0
SCALE
  5
48
102
{ACAD_REACTORS
330
47
102
}
330
47
100
AcDbScale
 70
     0
300
1:1
140
1.0
141
1.0
290
     1
  0
SCALE
  5
49
102
{ACAD_REACTORS
330
47
102
}
330
47
100
AcDbScale
 70
     0
300
1:2
140
1.0
141
2.0
290
     0
  0
SCALE
  5
4A
102
{ACAD_REACTORS
330
47
102
}
330
47
100
AcDbScale
 70
     0
300
1:4
140
1.0
141
4.0
290
     0
  0
SCALE
  5
4B
102
{ACAD_REACTORS
330
47
102
}
330
47
100
AcDbScale
 70
     0
300
1:5
140
1.0
141
5.0
290
     0
  0
SCALE
  5
4C
102
{ACAD_REACTORS
330
47
102
}
330
47
100
AcDbScale
 70
     0
300
1:8
140
1.0
141
8.0
290
     0
  0
SCALE
  5
4D
102
{ACAD_REACTORS
330
47
102
}
330
47
100
AcDbScale
 70
     0
300
1:10
140
1.0
141
10.0
290
     0
  0
SCALE
  5
4E
102
{ACAD_REACTORS
330
47
102
}
330
47
100
AcDbScale
 70
     0
300
1:16
140
1.0
141
16.0
290
     0
  0
SCALE
  5
4F
102
{ACAD_REACTORS
330
47
102
}
330
47
100
AcDbScale
 70
     0
300
1:20
140
1.0
141
20.0
290
     0
  0
SCALE
  5
50
102
{ACAD_REACTORS
330
47
102
}
330
47
100
AcDbScale
 70
     0
300
1:30
140
1.0
141
30.0
290
     0
  0
SCALE
  5
51
102
{ACAD_REACTORS
330
47
102
}
330
47
100
AcDbScale
 70
     0
300
1:40
140
1.0
141
40.0
290
     0
  0
SCALE
  5
52
102
{ACAD_REACTORS
330
47
102
}
330
47
100
AcDbScale
 70
     0
300
1:50
140
1.0
141
50.0
290
     0
  0
SCALE
  5
53
102
{ACAD_REACTORS
330
47
102
}
330
47
100
AcDbScale
 70
     0
300
1:100
140
1.0
141
100.0
290
     0
  0
SCALE
  5
54
102
{ACAD_REACTORS
330
47
102
}
330
47
100
AcDbScale
 70
     0
300
2:1
140
2.0
141
1.0
290
     0
  0
SCALE
  5
55
102
{ACAD_REACTORS
330
47
102
}
330
47
100
AcDbScale
 70
     0
300
4:1
140
4.0
141
1.0
290
     0
  0
SCALE
  5
56
102
{ACAD_REACTORS
330
47
102
}
330
47
100
AcDbScale
 70
     0
300
8:1
140
8.0
141
1.0
290
     0
  0
SCALE
  5
57
102
{ACAD_REACTORS
330
47
102
}
330
47
100
AcDbScale
 70
     0
300
10:1
140
10.0
141
1.0
290
     0
  0
SCALE
  5
58
102
{ACAD_REACTORS
330
47
102
}
330
47
100
AcDbScale
 70
     0
300
100:1
140
100.0
141
1.0
290
     0
  0
SCALE
  5
59
102
{ACAD_REACTORS
330
47
102
}
330
47
100
AcDbScale
 70
     0
300
1/128" = 1'-0"
140
0.0078125
141
12.0
290
     0
  0
SCALE
  5
5A
102
{ACAD_REACTORS
330
47
102
}
330
47
100
AcDbScale
 70
     0
300
1/64" = 1'-0"
140
0.015625
141
12.0
290
     0
  0
SCALE
  5
5B
102
{ACAD_REACTORS
330
47
102
}
330
47
100
AcDbScale
 70
     0
300
1/32" = 1'-0"
140
0.03125
141
12.0
290
     0
  0
SCALE
  5
5C
102
{ACAD_REACTORS
330
47
102
}
330
47
100
AcDbScale
 70
     0
300
1/16" = 1'-0"
140
0.0625
141
12.0
290
     0
  0
SCALE
  5
5D
102
{ACAD_REACTORS
330
47
102
}
330
47
100
AcDbScale
 70
     0
300
3/32" = 1'-0"
140
0.09375
141
12.0
290
     0
  0
SCALE
  5
5E
102
{ACAD_REACTORS
330
47
102
}
330
47
100
AcDbScale
 70
     0
300
1/8" = 1'-0"
140
0.125
141
12.0
290
     0
  0
SCALE
  5
5F
102
{ACAD_REACTORS
330
47
102
}
330
47
100
AcDbScale
 70
     0
300
3/16" = 1'-0"
140
0.1875
141
12.0
290
     0
  0
SCALE
  5
60
102
{ACAD_REACTORS
330
47
102
}
330
47
100
AcDbScale
 70
     0
300
1/4" = 1'-0"
140
0.25
141
12.0
290
     0
  0
SCALE
  5
61
102
{ACAD_REACTORS
330
47
102
}
330
47
100
AcDbScale
 70
     0
300
3/8" = 1'-0"
140
0.375
141
12.0
290
     0
  0
SCALE
  5
62
102
{ACAD_REACTORS
330
47
102
}
330
47
100
AcDbScale
 70
     0
300
1/2" = 1'-0"
140
0.5
141
12.0
290
     0
  0
SCALE
  5
63
102
{ACAD_REACTORS
330
47
102
}
330
47
100
AcDbScale
 70
     0
300
3/4" = 1'-0"
140
0.75
141
12.0
290
     0
  0
SCALE
  5
64
102
{ACAD_REACTORS
330
47
102
}
330
47
100
AcDbScale
 70
     0
300
1" = 1'-0"
140
1.0
141
12.0
290
     0
  0
SCALE
  5
65
102
{ACAD_REACTORS
330
47
102
}
330
47
100
AcDbScale
 70
     0
300
1-1/2" = 1'-0"
140
1.5
141
12.0
290
     0
  0
SCALE
  5
66
102
{ACAD_REACTORS
330
47
102
}
330
47
100
AcDbScale
 70
     0
300
3" = 1'-0"
140
3.0
141
12.0
290
     0
  0
SCALE
  5
67
102
{ACAD_REACTORS
330
47
102
}
330
47
100
AcDbScale
 70
     0
300
6" = 1'-0"
140
6.0
141
12.0
290
     0
  0
SCALE
  5
68
102
{ACAD_REACTORS
330
47
102
}
330
47
100
AcDbScale
 70
     0
300
1'-0" = 1'-0"
140
12.0
141
12.0
290
     0
  0
TABLESTYLE
  5
6A
102
{ACAD_REACTORS
330
69
102
}
102
{ACAD_XDICTIONARY
360
1DE
102
}
330
69
100
AcDbTableStyle
  3
Standard
 70
     0
 71
     0
 40
0.06
 41
0.06
280
     0
281
     0
  7
Standard
140
0.18
170
     2
 62
     0
 63
   257
283
     0
 90
        4
 91
        0
  1

274
    -2
284
     1
 64
     0
275
    -2
285
     1
 65
     0
276
    -2
286
     1
 66
     0
277
    -2
287
     1
 67
     0
278
    -2
288
     1
 68
     0
279
    -2
289
     1
 69
     0
  7
Standard
140
0.25
170
     5
 62
     0
 63
   257
283
     0
 90
        4
 91
        0
  1

274
    -2
284
     1
 64
     0
275
    -2
285
     1
 65
     0
276
    -2
286
     1
 66
     0
277
    -2
287
     1
 67
     0
278
    -2
288
     1
 68
     0
279
    -2
289
     1
 69
     0
  7
Standard
140
0.18
170
     5
 62
     0
 63
   257
283
     0
 90
        4
 91
        0
  1

274
    -2
284
     1
 64
     0
275
    -2
285
     1
 65
     0
276
    -2
286
     1
 66
     0
277
    -2
287
     1
 67
     0
278
    -2
288
     1
 68
     0
279
    -2
289
     1
 69
     0
  0
VISUALSTYLE
  5
2F
102
{ACAD_REACTORS
330
2A
102
}
330
2A
100
AcDbVisualStyle
  2
2dWireframe
 70
     4
177
     3
291
     0
 70
    58
 90
        0
176
     1
 90
        2
176
     1
 90
        0
176
     1
 90
        0
176
     1
 40
0.6
176
     1
 40
30.0
176
     1
 62
     7
420
 16777215
176
     1
 90
        1
176
     1
 90
        4
176
     1
 62
     7
176
     1
 62
   257
176
     1
 90
        1
176
     1
 90
        1
176
     1
 40
1.0
176
     1
 90
        0
176
     1
 62
   257
176
     1
 40
1.0
176
     1
 90
        1
176
     1
 90
        6
176
     1
 90
        2
176
     1
 62
     7
176
     1
 90
        5
176
     1
 90
        0
176
     1
 90
        0
176
     1
290
     0
176
     1
 90
        1
176
     1
 40
0.0
176
     1
 90
        0
176
     1
290
     1
176
     1
290
     1
176
     1
290
     0
176
     1
290
     0
176
     1
290
     0
176
     1
290
     0
176
     1
290
     0
176
     1
290
     0
176
     1
290
     0
176
     1
 90
       50
176
     1
 40
0.0
176
     1
 40
1.0
176
     1
 90
        0
176
     1
 62
    18
420
        0
176
     1
 90
       50
176
     1
 90
        3
176
     1
 62
     5
420
      255
176
     1
290
     0
176
     1
 90
       50
176
     1
 90
       50
176
     1
 90
       50
176
     1
290
     0
176
     1
 90
       50
176
     1
 62
   256
176
     0
 40
1.0
176
     0
 90
        2
176
     1
  1
strokes_ogs.tif
176
     1
290
     0
176
     1
 40
1.0
176
     1
 40
1.0
176
     1
  0
VISUALSTYLE
  5
32
102
{ACAD_REACTORS
330
2A
102
}
330
2A
100
AcDbVisualStyle
  2
Basic
 70
     7
177
     3
291
     1
 70
    58
 90
        1
176
     1
 90
        0
176
     1
 90
        1
176
     1
 90
        0
176
     1
 40
0.6
176
     1
 40
30.0
176
     1
 62
     7
420
 16777215
176
     1
 90
        0
176
     1
 90
        4
176
     1
 62
     7
176
     1
 62
   257
176
     1
 90
        1
176
     1
 90
        1
176
     1
 40
1.0
176
     1
 90
        8
176
     1
 62
     7
176
     1
 40
1.0
176
     1
 90
        1
176
     1
 90
        6
176
     1
 90
        2
176
     1
 62
     7
176
     1
 90
        5
176
     1
 90
        0
176
     1
 90
        0
176
     1
290
     0
176
     1
 90
        1
176
     1
 40
0.0
176
     1
 90
        0
176
     1
290
     0
176
     1
290
     1
176
     1
290
     1
176
     1
290
     0
176
     1
290
     0
176
     1
290
     0
176
     1
290
     0
176
     1
290
     0
176
     1
290
     0
176
     1
 90
       50
176
     1
 40
0.0
176
     1
 40
1.0
176
     1
 90
        0
176
     1
 62
    18
420
        0
176
     1
 90
       50
176
     1
 90
        3
176
     1
 62
     5
420
      255
176
     1
290
     0
176
     1
 90
       50
176
     1
 90
       50
176
     1
 90
       50
176
     1
290
     0
176
     1
 90
       50
176
     1
 62
   256
176
     0
 40
1.0
176
     0
 90
        2
176
     1
  1
strokes_ogs.tif
176
     1
290
     0
176
     1
 40
1.0
176
     1
 40
1.0
176
     1
  0
VISUALSTYLE
  5
36
102
{ACAD_REACTORS
330
2A
102
}
330
2A
100
AcDbVisualStyle
  2
Brighten
 70
    12
177
     3
291
     1
 70
    58
 90
        2
176
     1
 90
        2
176
     1
 90
        0
176
     1
 90
        0
176
     1
 40
0.6
176
     1
 40
30.0
176
     1
 62
     7
420
 16777215
176
     1
 90
        1
176
     1
 90
        4
176
     1
 62
     7
176
     1
 62
   257
176
     1
 90
        1
176
     1
 90
        1
176
     1
 40
1.0
176
     1
 90
        8
176
     1
 62
     7
176
     1
 40
1.0
176
     1
 90
        1
176
     1
 90
        6
176
     1
 90
        2
176
     1
 62
     7
176
     1
 90
        5
176
     1
 90
        0
176
     1
 90
        0
176
     1
290
     0
176
     1
 90
        1
176
     1
 40
50.0
176
     1
 90
        0
176
     1
290
     0
176
     1
290
     1
176
     1
290
     1
176
     1
290
     0
176
     1
290
     0
176
     1
290
     0
176
     1
290
     0
176
     1
290
     0
176
     1
290
     0
176
     1
 90
       50
176
     1
 40
0.0
176
     1
 40
1.0
176
     1
 90
        0
176
     1
 62
    18
420
        0
176
     1
 90
       50
176
     1
 90
        3
176
     1
 62
     5
420
      255
176
     1
290
     0
176
     1
 90
       50
176
     1
 90
       50
176
     1
 90
       50
176
     1
290
     0
176
     1
 90
       50
176
     1
 62
   256
176
     0
 40
1.0
176
     0
 90
        2
176
     1
  1
strokes_ogs.tif
176
     1
290
     0
176
     1
 40
1.0
176
     1
 40
1.0
176
     1
  0
VISUALSTYLE
  5
3A
102
{ACAD_REACTORS
330
2A
102
}
330
2A
100
AcDbVisualStyle
  2
ColorChange
 70
    16
177
     3
291
     1
 70
    58
 90
        2
176
     1
 90
        2
176
     1
 90
        3
176
     1
 90
        0
176
     1
 40
0.6
176
     1
 40
30.0
176
     1
 62
     8
420
  8421504
176
     1
 90
        1
176
     1
 90
        4
176
     1
 62
     7
176
     1
 62
   257
176
     1
 90
        1
176
     1
 90
        1
176
     1
 40
1.0
176
     1
 90
        8
176
     1
 62
     8
420
  8421504
176
     1
 40
1.0
176
     1
 90
        1
176
     1
 90
        6
176
     1
 90
        2
176
     1
 62
     7
176
     1
 90
        5
176
     1
 90
        0
176
     1
 90
        0
176
     1
290
     0
176
     1
 90
        1
176
     1
 40
0.0
176
     1
 90
        0
176
     1
290
     0
176
     1
290
     1
176
     1
290
     1
176
     1
290
     0
176
     1
290
     0
176
     1
290
     0
176
     1
290
     0
176
     1
290
     0
176
     1
290
     0
176
     1
 90
       50
176
     1
 40
0.0
176
     1
 40
1.0
176
     1
 90
        0
176
     1
 62
    18
420
        0
176
     1
 90
       50
176
     1
 90
        3
176
     1
 62
     5
420
      255
176
     1
290
     0
176
     1
 90
       50
176
     1
 90
       50
176
     1
 90
       50
176
     1
290
     0
176
     1
 90
       50
176
     1
 62
   256
176
     0
 40
1.0
176
     0
 90
        2
176
     1
  1
strokes_ogs.tif
176
     1
290
     0
176
     1
 40
1.0
176
     1
 40
1.0
176
     1
  0
VISUALSTYLE
  5
34
102
{ACAD_REACTORS
330
2A
102
}
330
2A
100
AcDbVisualStyle
  2
Conceptual
 70
     9
177
     3
291
     0
 70
    58
 90
        3
176
     1
 90
        2
176
     1
 90
        0
176
     1
 90
        0
176
     1
 40
0.6
176
     1
 40
30.0
176
     1
 62
     7
420
 16777215
176
     1
 90
        2
176
     1
 90
        2
176
     1
 62
     7
176
     1
 62
   257
176
     1
 90
        1
176
     1
 90
        1
176
     1
 40
179.0
176
     1
 90
        8
176
     1
 62
     7
176
     1
 40
1.0
176
     1
 90
        1
176
     1
 90
        6
176
     1
 90
        2
176
     1
 62
     7
176
     1
 90
        3
176
     1
 90
        0
176
     1
 90
        0
176
     1
290
     0
176
     1
 90
        1
176
     1
 40
0.0
176
     1
 90
        0
176
     1
290
     0
176
     1
290
     1
176
     1
290
     1
176
     1
290
     0
176
     1
290
     0
176
     1
290
     0
176
     1
290
     0
176
     1
290
     0
176
     1
290
     0
176
     1
 90
       50
176
     1
 40
0.0
176
     1
 40
1.0
176
     1
 90
        0
176
     1
 62
    18
420
        0
176
     1
 90
       50
176
     1
 90
        3
176
     1
 62
     5
420
      255
176
     1
290
     0
176
     1
 90
       50
176
     1
 90
       50
176
     1
 90
       50
176
     1
290
     0
176
     1
 90
       50
176
     1
 62
   256
176
     0
 40
1.0
176
     0
 90
        2
176
     1
  1
strokes_ogs.tif
176
     1
290
     0
176
     1
 40
1.0
176
     1
 40
1.0
176
     1
  0
VISUALSTYLE
  5
35
102
{ACAD_REACTORS
330
2A
102
}
330
2A
100
AcDbVisualStyle
  2
Dim
 70
    11
177
     3
291
     1
 70
    58
 90
        2
176
     1
 90
        2
176
     1
 90
        0
176
     1
 90
        0
176
     1
 40
0.6
176
     1
 40
30.0
176
     1
 62
     7
420
 16777215
176
     1
 90
        1
176
     1
 90
        4
176
     1
 62
     7
176
     1
 62
   257
176
     1
 90
        1
176
     1
 90
        1
176
     1
 40
1.0
176
     1
 90
        8
176
     1
 62
     7
176
     1
 40
1.0
176
     1
 90
        1
176
     1
 90
        6
176
     1
 90
        2
176
     1
 62
     7
176
     1
 90
        5
176
     1
 90
        0
176
     1
 90
        0
176
     1
290
     0
176
     1
 90
        1
176
     1
 40
-50.0
176
     1
 90
        0
176
     1
290
     0
176
     1
290
     1
176
     1
290
     1
176
     1
290
     0
176
     1
290
     0
176
     1
290
     0
176
     1
290
     0
176
     1
290
     0
176
     1
290
     0
176
     1
 90
       50
176
     1
 40
0.0
176
     1
 40
1.0
176
     1
 90
        0
176
     1
 62
    18
420
        0
176
     1
 90
       50
176
     1
 90
        3
176
     1
 62
     5
420
      255
176
     1
290
     0
176
     1
 90
       50
176
     1
 90
       50
176
     1
 90
       50
176
     1
290
     0
176
     1
 90
       50
176
     1
 62
   256
176
     0
 40
1.0
176
     0
 90
        2
176
     1
  1
strokes_ogs.tif
176
     1
290
     0
176
     1
 40
1.0
176
     1
 40
1.0
176
     1
  0
VISUALSTYLE
  5
3D
102
{ACAD_REACTORS
330
2A
102
}
330
2A
100
AcDbVisualStyle
  2
EdgeColorOff
 70
    22
177
     3
291
     1
 70
    58
 90
        2
176
     0
 90
        2
176
     0
 90
        0
176
     0
 90
        0
176
     0
 40
0.6
176
     0
 40
30.0
176
     0
 62
     7
420
 16777215
176
     0
 90
        1
176
     0
 90
        4
176
     0
 62
     7
176
     0
 62
   257
176
     0
 90
        1
176
     0
 90
        1
176
     0
 40
1.0
176
     0
 90
        8
176
     2
 62
     7
176
     0
 40
1.0
176
     0
 90
        1
176
     0
 90
        6
176
     0
 90
        2
176
     0
 62
     7
176
     0
 90
        5
176
     0
 90
        0
176
     0
 90
        0
176
     0
290
     0
176
     0
 90
        1
176
     0
 40
0.0
176
     0
 90
        0
176
     0
290
     0
176
     0
290
     1
176
     0
290
     1
176
     0
290
     0
176
     0
290
     0
176
     0
290
     0
176
     0
290
     0
176
     0
290
     0
176
     0
290
     0
176
     0
 90
       50
176
     0
 40
0.0
176
     0
 40
1.0
176
     0
 90
        0
176
     0
 62
    18
420
        0
176
     0
 90
       50
176
     0
 90
        3
176
     0
 62
     5
420
      255
176
     0
290
     0
176
     0
 90
       50
176
     0
 90
       50
176
     0
 90
       50
176
     0
290
     0
176
     0
 90
       50
176
     0
 62
   256
176
     0
 40
1.0
176
     0
 90
        2
176
     0
  1
strokes_ogs.tif
176
     0
290
     0
176
     0
 40
1.0
176
     0
 40
1.0
176
     0
  0
VISUALSTYLE
  5
39
102
{ACAD_REACTORS
330
2A
102
}
330
2A
100
AcDbVisualStyle
  2
Facepattern
 70
    15
177
     3
291
     1
 70
    58
 90
        2
176
     1
 90
        2
176
     1
 90
        0
176
     1
 90
        0
176
     1
 40
0.6
176
     1
 40
30.0
176
     1
 62
     7
420
 16777215
176
     1
 90
        1
176
     1
 90
        4
176
     1
 62
     7
176
     1
 62
   257
176
     1
 90
        1
176
     1
 90
        1
176
     1
 40
1.0
176
     1
 90
        8
176
     1
 62
     7
176
     1
 40
1.0
176
     1
 90
        1
176
     1
 90
        6
176
     1
 90
        2
176
     1
 62
     7
176
     1
 90
        5
176
     1
 90
        0
176
     1
 90
        0
176
     1
290
     0
176
     1
 90
        1
176
     1
 40
0.0
176
     1
 90
        0
176
     1
290
     0
176
     1
290
     1
176
     1
290
     1
176
     1
290
     0
176
     1
290
     0
176
     1
290
     0
176
     1
290
     0
176
     1
290
     0
176
     1
290
     0
176
     1
 90
       50
176
     1
 40
0.0
176
     1
 40
1.0
176
     1
 90
        0
176
     1
 62
    18
420
        0
176
     1
 90
       50
176
     1
 90
        3
176
     1
 62
     5
420
      255
176
     1
290
     0
176
     1
 90
       50
176
     1
 90
       50
176
     1
 90
       50
176
     1
290
     0
176
     1
 90
       50
176
     1
 62
   256
176
     0
 40
1.0
176
     0
 90
        2
176
     1
  1
strokes_ogs.tif
176
     1
290
     0
176
     1
 40
1.0
176
     1
 40
1.0
176
     1
  0
VISUALSTYLE
  5
2B
102
{ACAD_REACTORS
330
2A
102
}
330
2A
100
AcDbVisualStyle
  2
Flat
 70
     0
177
     3
291
     1
 70
    58
 90
        2
176
     1
 90
        1
176
     1
 90
        1
176
     1
 90
        2
176
     1
 40
0.6
176
     1
 40
30.0
176
     1
 62
     7
420
 16777215
176
     1
 90
        0
176
     1
 90
        0
176
     1
 62
     7
176
     1
 62
   257
176
     1
 90
        1
176
     1
 90
        1
176
     1
 40
1.0
176
     1
 90
        8
176
     1
 62
     7
176
     1
 40
1.0
176
     1
 90
        1
176
     1
 90
        6
176
     1
 90
        2
176
     1
 62
     7
176
     1
 90
        5
176
     1
 90
        0
176
     1
 90
        0
176
     1
290
     0
176
     1
 90
       13
176
     1
 40
0.0
176
     1
 90
        0
176
     1
290
     0
176
     1
290
     1
176
     1
290
     1
176
     1
290
     0
176
     1
290
     0
176
     1
290
     0
176
     1
290
     0
176
     1
290
     0
176
     1
290
     0
176
     1
 90
       50
176
     1
 40
0.0
176
     1
 40
1.0
176
     1
 90
        0
176
     1
 62
    18
420
        0
176
     1
 90
       50
176
     1
 90
        3
176
     1
 62
     5
420
      255
176
     1
290
     0
176
     1
 90
       50
176
     1
 90
       50
176
     1
 90
       50
176
     1
290
     0
176
     1
 90
       50
176
     1
 62
   256
176
     0
 40
1.0
176
     0
 90
        2
176
     1
  1
strokes_ogs.tif
176
     1
290
     0
176
     1
 40
1.0
176
     1
 40
1.0
176
     1
  0
VISUALSTYLE
  5
2C
102
{ACAD_REACTORS
330
2A
102
}
330
2A
100
AcDbVisualStyle
  2
FlatWithEdges
 70
     1
177
     3
291
     1
 70
    58
 90
        2
176
     1
 90
        1
176
     1
 90
        1
176
     1
 90
        2
176
     1
 40
0.6
176
     1
 40
30.0
176
     1
 62
     7
420
 16777215
176
     1
 90
        1
176
     1
 90
        0
176
     1
 62
     7
176
     1
 62
   257
176
     1
 90
        1
176
     1
 90
        1
176
     1
 40
1.0
176
     1
 90
        0
176
     1
 62
   257
176
     1
 40
1.0
176
     1
 90
        1
176
     1
 90
        6
176
     1
 90
        2
176
     1
 62
     7
176
     1
 90
        5
176
     1
 90
        0
176
     1
 90
        0
176
     1
290
     0
176
     1
 90
       13
176
     1
 40
0.0
176
     1
 90
        0
176
     1
290
     0
176
     1
290
     1
176
     1
290
     1
176
     1
290
     0
176
     1
290
     0
176
     1
290
     0
176
     1
290
     0
176
     1
290
     0
176
     1
290
     0
176
     1
 90
       50
176
     1
 40
0.0
176
     1
 40
1.0
176
     1
 90
        0
176
     1
 62
    18
420
        0
176
     1
 90
       50
176
     1
 90
        3
176
     1
 62
     5
420
      255
176
     1
290
     0
176
     1
 90
       50
176
     1
 90
       50
176
     1
 90
       50
176
     1
290
     0
176
     1
 90
       50
176
     1
 62
   256
176
     0
 40
1.0
176
     0
 90
        2
176
     1
  1
strokes_ogs.tif
176
     1
290
     0
176
     1
 40
1.0
176
     1
 40
1.0
176
     1
  0
VISUALSTYLE
  5
2D
102
{ACAD_REACTORS
330
2A
102
}
330
2A
100
AcDbVisualStyle
  2
Gouraud
 70
     2
177
     3
291
     1
 70
    58
 90
        2
176
     1
 90
        2
176
     1
 90
        1
176
     1
 90
        2
176
     1
 40
0.6
176
     1
 40
30.0
176
     1
 62
     7
420
 16777215
176
     1
 90
        0
176
     1
 90
        0
176
     1
 62
     7
176
     1
 62
   257
176
     1
 90
        1
176
     1
 90
        1
176
     1
 40
1.0
176
     1
 90
        0
176
     1
 62
     7
176
     1
 40
1.0
176
     1
 90
        1
176
     1
 90
        6
176
     1
 90
        2
176
     1
 62
     7
176
     1
 90
        5
176
     1
 90
        0
176
     1
 90
        0
176
     1
290
     0
176
     1
 90
       13
176
     1
 40
0.0
176
     1
 90
        0
176
     1
290
     0
176
     1
290
     1
176
     1
290
     1
176
     1
290
     0
176
     1
290
     0
176
     1
290
     0
176
     1
290
     0
176
     1
290
     0
176
     1
290
     0
176
     1
 90
       50
176
     1
 40
0.0
176
     1
 40
1.0
176
     1
 90
        0
176
     1
 62
    18
420
        0
176
     1
 90
       50
176
     1
 90
        3
176
     1
 62
     5
420
      255
176
     1
290
     0
176
     1
 90
       50
176
     1
 90
       50
176
     1
 90
       50
176
     1
290
     0
176
     1
 90
       50
176
     1
 62
   256
176
     0
 40
1.0
176
     0
 90
        2
176
     1
  1
strokes_ogs.tif
176
     1
290
     0
176
     1
 40
1.0
176
     1
 40
1.0
176
     1
  0
VISUALSTYLE
  5
2E
102
{ACAD_REACTORS
330
2A
102
}
330
2A
100
AcDbVisualStyle
  2
GouraudWithEdges
 70
     3
177
     3
291
     1
 70
    58
 90
        2
176
     1
 90
        2
176
     1
 90
        1
176
     1
 90
        2
176
     1
 40
0.6
176
     1
 40
30.0
176
     1
 62
     7
420
 16777215
176
     1
 90
        1
176
     1
 90
        0
176
     1
 62
     7
176
     1
 62
   257
176
     1
 90
        1
176
     1
 90
        1
176
     1
 40
1.0
176
     1
 90
        0
176
     1
 62
   257
176
     1
 40
1.0
176
     1
 90
        1
176
     1
 90
        6
176
     1
 90
        2
176
     1
 62
     7
176
     1
 90
        5
176
     1
 90
        0
176
     1
 90
        0
176
     1
290
     0
176
     1
 90
       13
176
     1
 40
0.0
176
     1
 90
        0
176
     1
290
     0
176
     1
290
     1
176
     1
290
     1
176
     1
290
     0
176
     1
290
     0
176
     1
290
     0
176
     1
290
     0
176
     1
290
     0
176
     1
290
     0
176
     1
 90
       50
176
     1
 40
0.0
176
     1
 40
1.0
176
     1
 90
        0
176
     1
 62
    18
420
        0
176
     1
 90
       50
176
     1
 90
        3
176
     1
 62
     5
420
      255
176
     1
290
     0
176
     1
 90
       50
176
     1
 90
       50
176
     1
 90
       50
176
     1
290
     0
176
     1
 90
       50
176
     1
 62
   256
176
     0
 40
1.0
176
     0
 90
        2
176
     1
  1
strokes_ogs.tif
176
     1
290
     0
176
     1
 40
1.0
176
     1
 40
1.0
176
     1
  0
VISUALSTYLE
  5
31
102
{ACAD_REACTORS
330
2A
102
}
330
2A
100
AcDbVisualStyle
  2
Hidden
 70
     6
177
     3
291
     0
 70
    58
 90
        1
176
     1
 90
        2
176
     1
 90
        2
176
     1
 90
        0
176
     1
 40
0.6
176
     1
 40
30.0
176
     1
 62
     7
420
 16777215
176
     1
 90
        2
176
     1
 90
        2
176
     1
 62
     7
176
     1
 62
   257
176
     1
 90
        2
176
     1
 90
        1
176
     1
 40
40.0
176
     1
 90
        0
176
     1
 62
   257
176
     1
 40
1.0
176
     1
 90
        1
176
     1
 90
        6
176
     1
 90
        2
176
     1
 62
     7
176
     1
 90
        3
176
     1
 90
        0
176
     1
 90
        0
176
     1
290
     0
176
     1
 90
        1
176
     1
 40
0.0
176
     1
 90
        0
176
     1
290
     0
176
     1
290
     1
176
     1
290
     1
176
     1
290
     0
176
     1
290
     0
176
     1
290
     0
176
     1
290
     0
176
     1
290
     0
176
     1
290
     0
176
     1
 90
       50
176
     1
 40
0.0
176
     1
 40
1.0
176
     1
 90
        0
176
     1
 62
    18
420
        0
176
     1
 90
       50
176
     1
 90
        3
176
     1
 62
     5
420
      255
176
     1
290
     0
176
     1
 90
       50
176
     1
 90
       50
176
     1
 90
       50
176
     1
290
     0
176
     1
 90
       50
176
     1
 62
   256
176
     0
 40
1.0
176
     0
 90
        2
176
     1
  1
strokes_ogs.tif
176
     1
290
     0
176
     1
 40
1.0
176
     1
 40
1.0
176
     1
  0
VISUALSTYLE
  5
3B
102
{ACAD_REACTORS
330
2A
102
}
330
2A
100
AcDbVisualStyle
  2
JitterOff
 70
    20
177
     3
291
     1
 70
    58
 90
        2
176
     0
 90
        2
176
     0
 90
        0
176
     0
 90
        0
176
     0
 40
0.6
176
     0
 40
30.0
176
     0
 62
     7
420
 16777215
176
     0
 90
        1
176
     0
 90
        4
176
     0
 62
     7
176
     0
 62
   257
176
     0
 90
        1
176
     0
 90
        1
176
     0
 40
1.0
176
     0
 90
       10
176
     2
 62
     7
176
     0
 40
1.0
176
     0
 90
        1
176
     0
 90
        6
176
     0
 90
        2
176
     0
 62
     7
176
     0
 90
        5
176
     0
 90
        0
176
     0
 90
        0
176
     0
290
     0
176
     0
 90
        1
176
     0
 40
0.0
176
     0
 90
        0
176
     0
290
     0
176
     0
290
     1
176
     0
290
     1
176
     0
290
     0
176
     0
290
     0
176
     0
290
     0
176
     0
290
     0
176
     0
290
     0
176
     0
290
     0
176
     0
 90
       50
176
     0
 40
0.0
176
     0
 40
1.0
176
     0
 90
        0
176
     0
 62
    18
420
        0
176
     0
 90
       50
176
     0
 90
        3
176
     0
 62
     5
420
      255
176
     0
290
     0
176
     0
 90
       50
176
     0
 90
       50
176
     0
 90
       50
176
     0
290
     0
176
     0
 90
       50
176
     0
 62
   256
176
     0
 40
1.0
176
     0
 90
        2
176
     0
  1
strokes_ogs.tif
176
     0
290
     0
176
     0
 40
1.0
176
     0
 40
1.0
176
     0
  0
VISUALSTYLE
  5
38
102
{ACAD_REACTORS
330
2A
102
}
330
2A
100
AcDbVisualStyle
  2
Linepattern
 70
    14
177
     3
291
     1
 70
    58
 90
        2
176
     1
 90
        2
176
     1
 90
        0
176
     1
 90
        0
176
     1
 40
0.6
176
     1
 40
30.0
176
     1
 62
     7
420
 16777215
176
     1
 90
        1
176
     1
 90
        4
176
     1
 62
     7
176
     1
 62
   257
176
     1
 90
        7
176
     1
 90
        7
176
     1
 40
1.0
176
     1
 90
        8
176
     1
 62
     7
176
     1
 40
1.0
176
     1
 90
        1
176
     1
 90
        6
176
     1
 90
        2
176
     1
 62
     7
176
     1
 90
        5
176
     1
 90
        0
176
     1
 90
        0
176
     1
290
     0
176
     1
 90
        1
176
     1
 40
0.0
176
     1
 90
        0
176
     1
290
     0
176
     1
290
     1
176
     1
290
     1
176
     1
290
     0
176
     1
290
     0
176
     1
290
     0
176
     1
290
     0
176
     1
290
     0
176
     1
290
     0
176
     1
 90
       50
176
     1
 40
0.0
176
     1
 40
1.0
176
     1
 90
        0
176
     1
 62
    18
420
        0
176
     1
 90
       50
176
     1
 90
        3
176
     1
 62
     5
420
      255
176
     1
290
     0
176
     1
 90
       50
176
     1
 90
       50
176
     1
 90
       50
176
     1
290
     0
176
     1
 90
       50
176
     1
 62
   256
176
     0
 40
1.0
176
     0
 90
        2
176
     1
  1
strokes_ogs.tif
176
     1
290
     0
176
     1
 40
1.0
176
     1
 40
1.0
176
     1
  0
VISUALSTYLE
  5
3C
102
{ACAD_REACTORS
330
2A
102
}
330
2A
100
AcDbVisualStyle
  2
OverhangOff
 70
    21
177
     3
291
     1
 70
    58
 90
        2
176
     0
 90
        2
176
     0
 90
        0
176
     0
 90
        0
176
     0
 40
0.6
176
     0
 40
30.0
176
     0
 62
     7
420
 16777215
176
     0
 90
        1
176
     0
 90
        4
176
     0
 62
     7
176
     0
 62
   257
176
     0
 90
        1
176
     0
 90
        1
176
     0
 40
1.0
176
     0
 90
        9
176
     2
 62
     7
176
     0
 40
1.0
176
     0
 90
        1
176
     0
 90
        6
176
     0
 90
        2
176
     0
 62
     7
176
     0
 90
        5
176
     0
 90
        0
176
     0
 90
        0
176
     0
290
     0
176
     0
 90
        1
176
     0
 40
0.0
176
     0
 90
        0
176
     0
290
     0
176
     0
290
     1
176
     0
290
     1
176
     0
290
     0
176
     0
290
     0
176
     0
290
     0
176
     0
290
     0
176
     0
290
     0
176
     0
290
     0
176
     0
 90
       50
176
     0
 40
0.0
176
     0
 40
1.0
176
     0
 90
        0
176
     0
 62
    18
420
        0
176
     0
 90
       50
176
     0
 90
        3
176
     0
 62
     5
420
      255
176
     0
290
     0
176
     0
 90
       50
176
     0
 90
       50
176
     0
 90
       50
176
     0
290
     0
176
     0
 90
       50
176
     0
 62
   256
176
     0
 40
1.0
176
     0
 90
        2
176
     0
  1
strokes_ogs.tif
176
     0
290
     0
176
     0
 40
1.0
176
     0
 40
1.0
176
     0
  0
VISUALSTYLE
  5
33
102
{ACAD_REACTORS
330
2A
102
}
330
2A
100
AcDbVisualStyle
  2
Realistic
 70
     8
177
     3
291
     0
 70
    58
 90
        2
176
     1
 90
        3
176
     1
 90
        0
176
     1
 90
        2
176
     1
 40
0.6
176
     1
 40
30.0
176
     1
 62
     7
420
 16777215
176
     1
 90
        0
176
     1
 90
        0
176
     1
 62
     7
176
     1
 62
   257
176
     1
 90
        1
176
     1
 90
        1
176
     1
 40
1.0
176
     1
 90
        8
176
     1
 62
   257
176
     1
 40
1.0
176
     1
 90
        1
176
     1
 90
        6
176
     1
 90
        2
176
     1
 62
     7
176
     1
 90
        3
176
     1
 90
        0
176
     1
 90
        0
176
     1
290
     0
176
     1
 90
       13
176
     1
 40
0.0
176
     1
 90
        0
176
     1
290
     0
176
     1
290
     1
176
     1
290
     1
176
     1
290
     0
176
     1
290
     0
176
     1
290
     0
176
     1
290
     0
176
     1
290
     0
176
     1
290
     0
176
     1
 90
       50
176
     1
 40
0.0
176
     1
 40
1.0
176
     1
 90
        0
176
     1
 62
    18
420
        0
176
     1
 90
       50
176
     1
 90
        3
176
     1
 62
     5
420
      255
176
     1
290
     0
176
     1
 90
       50
176
     1
 90
       50
176
     1
 90
       50
176
     1
290
     0
176
     1
 90
       50
176
     1
 62
   256
176
     0
 40
1.0
176
     0
 90
        2
176
     1
  1
strokes_ogs.tif
176
     1
290
     0
176
     1
 40
1.0
176
     1
 40
1.0
176
     1
  0
VISUALSTYLE
  5
42
102
{ACAD_REACTORS
330
2A
102
}
330
2A
100
AcDbVisualStyle
  2
Shaded
 70
    27
177
     3
291
     0
 70
    58
 90
        2
176
     1
 90
        2
176
     1
 90
        1
176
     1
 90
        2
176
     1
 40
0.6
176
     1
 40
30.0
176
     1
 62
     7
420
 16777215
176
     1
 90
        0
176
     1
 90
        4
176
     1
 62
     7
176
     1
 62
   257
176
     1
 90
        1
176
     1
 90
        1
176
     1
 40
1.0
176
     1
 90
        8
176
     1
 62
   257
176
     1
 40
1.0
176
     1
 90
        1
176
     1
 90
        6
176
     1
 90
        2
176
     1
 62
     8
420
  7895160
176
     1
 90
        3
176
     1
 90
        0
176
     1
 90
        0
176
     1
290
     0
176
     1
 90
        5
176
     1
 40
0.0
176
     1
 90
        0
176
     1
290
     0
176
     1
290
     1
176
     1
290
     1
176
     1
290
     0
176
     1
290
     0
176
     1
290
     0
176
     1
290
     0
176
     1
290
     0
176
     1
290
     0
176
     1
 90
       50
176
     1
 40
0.0
176
     1
 40
1.0
176
     1
 90
        0
176
     1
 62
    18
420
        0
176
     1
 90
       50
176
     1
 90
        3
176
     1
 62
     5
420
      255
176
     1
290
     0
176
     1
 90
       50
176
     1
 90
       50
176
     1
 90
       50
176
     1
290
     0
176
     1
 90
       50
176
     1
 62
   256
176
     0
 40
1.0
176
     0
 90
        2
176
     1
  1
strokes_ogs.tif
176
     1
290
     0
176
     1
 40
1.0
176
     1
 40
1.0
176
     1
  0
VISUALSTYLE
  5
41
102
{ACAD_REACTORS
330
2A
102
}
330
2A
100
AcDbVisualStyle
  2
Shaded with edges
 70
    26
177
     3
291
     0
 70
    58
 90
        2
176
     1
 90
        2
176
     1
 90
        1
176
     1
 90
        2
176
     1
 40
0.6
176
     1
 40
30.0
176
     1
 62
     7
420
 16777215
176
     1
 90
        1
176
     1
 90
       10
176
     1
 62
     7
176
     1
 62
   257
176
     1
 90
        2
176
     1
 90
        1
176
     1
 40
1.0
176
     1
 90
        8
176
     1
 62
   257
176
     1
 40
1.0
176
     1
 90
        1
176
     1
 90
        6
176
     1
 90
        2
176
     1
 62
     7
176
     1
 90
        3
176
     1
 90
        0
176
     1
 90
        0
176
     1
290
     0
176
     1
 90
        5
176
     1
 40
0.0
176
     1
 90
        0
176
     1
290
     0
176
     1
290
     1
176
     1
290
     1
176
     1
290
     0
176
     1
290
     0
176
     1
290
     0
176
     1
290
     0
176
     1
290
     0
176
     1
290
     0
176
     1
 90
       50
176
     1
 40
0.0
176
     1
 40
1.0
176
     1
 90
        0
176
     1
 62
    18
420
        0
176
     1
 90
       50
176
     1
 90
        3
176
     1
 62
     5
420
      255
176
     1
290
     0
176
     1
 90
       50
176
     1
 90
       50
176
     1
 90
       50
176
     1
290
     0
176
     1
 90
       50
176
     1
 62
   256
176
     0
 40
1.0
176
     0
 90
        2
176
     1
  1
strokes_ogs.tif
176
     1
290
     0
176
     1
 40
1.0
176
     1
 40
1.0
176
     1
  0
VISUALSTYLE
  5
3E
102
{ACAD_REACTORS
330
2A
102
}
330
2A
100
AcDbVisualStyle
  2
Shades of Gray
 70
    23
177
     3
291
     0
 70
    58
 90
        2
176
     1
 90
        2
176
     1
 90
        3
176
     1
 90
        0
176
     1
 40
0.6
176
     1
 40
30.0
176
     1
 62
     7
420
 16777215
176
     1
 90
        2
176
     1
 90
        2
176
     1
 62
     7
176
     1
 62
     7
176
     1
 90
        1
176
     1
 90
        1
176
     1
 40
40.0
176
     1
 90
        8
176
     1
 62
     7
176
     1
 40
1.0
176
     1
 90
        1
176
     1
 90
        6
176
     1
 90
        2
176
     1
 62
     7
176
     1
 90
        3
176
     1
 90
        0
176
     1
 90
        0
176
     1
290
     0
176
     1
 90
        1
176
     1
 40
0.0
176
     1
 90
        0
176
     1
290
     0
176
     1
290
     1
176
     1
290
     1
176
     1
290
     0
176
     1
290
     0
176
     1
290
     0
176
     1
290
     0
176
     1
290
     0
176
     1
290
     0
176
     1
 90
       50
176
     1
 40
0.0
176
     1
 40
1.0
176
     1
 90
        0
176
     1
 62
    18
420
        0
176
     1
 90
       50
176
     1
 90
        3
176
     1
 62
     5
420
      255
176
     1
290
     0
176
     1
 90
       50
176
     1
 90
       50
176
     1
 90
       50
176
     1
290
     0
176
     1
 90
       50
176
     1
 62
   256
176
     0
 40
1.0
176
     0
 90
        2
176
     1
  1
strokes_ogs.tif
176
     1
290
     0
176
     1
 40
1.0
176
     1
 40
1.0
176
     1
  0
VISUALSTYLE
  5
3F
102
{ACAD_REACTORS
330
2A
102
}
330
2A
100
AcDbVisualStyle
  2
Sketchy
 70
    24
177
     3
291
     0
 70
    58
 90
        1
176
     1
 90
        2
176
     1
 90
        2
176
     1
 90
        0
176
     1
 40
0.6
176
     1
 40
30.0
176
     1
 62
     7
420
 16777215
176
     1
 90
        2
176
     1
 90
        2
176
     1
 62
     7
176
     1
 62
     7
176
     1
 90
        1
176
     1
 90
        1
176
     1
 40
40.0
176
     1
 90
       11
176
     1
 62
     7
176
     1
 40
1.0
176
     1
 90
        1
176
     1
 90
        6
176
     1
 90
        2
176
     1
 62
     7
176
     1
 90
        6
176
     1
 90
        0
176
     1
 90
        0
176
     1
290
     0
176
     1
 90
        1
176
     1
 40
0.0
176
     1
 90
        0
176
     1
290
     0
176
     1
290
     1
176
     1
290
     1
176
     1
290
     0
176
     1
290
     0
176
     1
290
     0
176
     1
290
     0
176
     1
290
     0
176
     1
290
     0
176
     1
 90
       50
176
     1
 40
0.0
176
     1
 40
1.0
176
     1
 90
        0
176
     1
 62
    18
420
        0
176
     1
 90
       50
176
     1
 90
        3
176
     1
 62
     5
420
      255
176
     1
290
     0
176
     1
 90
       50
176
     1
 90
       50
176
     1
 90
       50
176
     1
290
     0
176
     1
 90
       50
176
     1
 62
   256
176
     0
 40
1.0
176
     0
 90
        2
176
     1
  1
strokes_ogs.tif
176
     1
290
     0
176
     1
 40
1.0
176
     1
 40
1.0
176
     1
  0
VISUALSTYLE
  5
37
102
{ACAD_REACTORS
330
2A
102
}
330
2A
100
AcDbVisualStyle
  2
Thicken
 70
    13
177
     3
291
     1
 70
    58
 90
        2
176
     1
 90
        2
176
     1
 90
        0
176
     1
 90
        0
176
     1
 40
0.6
176
     1
 40
30.0
176
     1
 62
     7
420
 16777215
176
     1
 90
        1
176
     1
 90
        4
176
     1
 62
     7
176
     1
 62
   257
176
     1
 90
        1
176
     1
 90
        1
176
     1
 40
1.0
176
     1
 90
       12
176
     1
 62
     7
176
     1
 40
1.0
176
     1
 90
        1
176
     1
 90
        6
176
     1
 90
        2
176
     1
 62
     7
176
     1
 90
        5
176
     1
 90
        0
176
     1
 90
        0
176
     1
290
     0
176
     1
 90
        1
176
     1
 40
0.0
176
     1
 90
        0
176
     1
290
     0
176
     1
290
     1
176
     1
290
     1
176
     1
290
     0
176
     1
290
     0
176
     1
290
     0
176
     1
290
     0
176
     1
290
     0
176
     1
290
     0
176
     1
 90
       50
176
     1
 40
0.0
176
     1
 40
1.0
176
     1
 90
        0
176
     1
 62
    18
420
        0
176
     1
 90
       50
176
     1
 90
        3
176
     1
 62
     5
420
      255
176
     1
290
     0
176
     1
 90
       50
176
     1
 90
       50
176
     1
 90
       50
176
     1
290
     0
176
     1
 90
       50
176
     1
 62
   256
176
     0
 40
1.0
176
     0
 90
        2
176
     1
  1
strokes_ogs.tif
176
     1
290
     0
176
     1
 40
1.0
176
     1
 40
1.0
176
     1
  0
VISUALSTYLE
  5
30
102
{ACAD_REACTORS
330
2A
102
}
330
2A
100
AcDbVisualStyle
  2
Wireframe
 70
     5
177
     3
291
     0
 70
    58
 90
        0
176
     1
 90
        2
176
     1
 90
        0
176
     1
 90
        0
176
     1
 40
0.6
176
     1
 40
30.0
176
     1
 62
     7
420
 16777215
176
     1
 90
        1
176
     1
 90
        4
176
     1
 62
     7
176
     1
 62
   257
176
     1
 90
        1
176
     1
 90
        1
176
     1
 40
1.0
176
     1
 90
        0
176
     1
 62
   257
176
     1
 40
1.0
176
     1
 90
        1
176
     1
 90
        6
176
     1
 90
        2
176
     1
 62
     7
176
     1
 90
        3
176
     1
 90
        0
176
     1
 90
        0
176
     1
290
     0
176
     1
 90
        1
176
     1
 40
0.0
176
     1
 90
        0
176
     1
290
     0
176
     1
290
     1
176
     1
290
     1
176
     1
290
     0
176
     1
290
     0
176
     1
290
     0
176
     1
290
     0
176
     1
290
     0
176
     1
290
     0
176
     1
 90
       50
176
     1
 40
0.0
176
     1
 40
1.0
176
     1
 90
        0
176
     1
 62
    18
420
        0
176
     1
 90
       50
176
     1
 90
        3
176
     1
 62
     5
420
      255
176
     1
290
     0
176
     1
 90
       50
176
     1
 90
       50
176
     1
 90
       50
176
     1
290
     0
176
     1
 90
       50
176
     1
 62
   256
176
     0
 40
1.0
176
     0
 90
        2
176
     1
  1
strokes_ogs.tif
176
     1
290
     0
176
     1
 40
1.0
176
     1
 40
1.0
176
     1
  0
VISUALSTYLE
  5
40
102
{ACAD_REACTORS
330
2A
102
}
330
2A
100
AcDbVisualStyle
  2
X-Ray
 70
    25
177
     3
291
     0
 70
    58
 90
        2
176
     1
 90
        2
176
     1
 90
        1
176
     1
 90
        1
176
     1
 40
0.5
176
     1
 40
30.0
176
     1
 62
     7
420
 16777215
176
     1
 90
        1
176
     1
 90
        0
176
     1
 62
     7
176
     1
 62
   257
176
     1
 90
        1
176
     1
 90
        1
176
     1
 40
1.0
176
     1
 90
        8
176
     1
 62
     7
176
     1
 40
1.0
176
     1
 90
        1
176
     1
 90
        6
176
     1
 90
        2
176
     1
 62
     7
176
     1
 90
        3
176
     1
 90
        0
176
     1
 90
        0
176
     1
290
     0
176
     1
 90
       13
176
     1
 40
0.0
176
     1
 90
        0
176
     1
290
     0
176
     1
290
     1
176
     1
290
     1
176
     1
290
     0
176
     1
290
     0
176
     1
290
     0
176
     1
290
     0
176
     1
290
     0
176
     1
290
     0
176
     1
 90
       50
176
     1
 40
0.0
176
     1
 40
1.0
176
     1
 90
        0
176
     1
 62
    18
420
        0
176
     1
 90
       50
176
     1
 90
        3
176
     1
 62
     5
420
      255
176
     1
290
     0
176
     1
 90
       50
176
     1
 90
       50
176
     1
 90
       50
176
     1
290
     0
176
     1
 90
       50
176
     1
 62
   256
176
     0
 40
1.0
176
     0
 90
        2
176
     1
  1
strokes_ogs.tif
176
     1
290
     0
176
     1
 40
1.0
176
     1
 40
1.0
176
     1
  0
DICTIONARYVAR
  5
1DD
102
{ACAD_REACTORS
330
1DC
102
}
330
1DC
100
DictionaryVariables
280
     0
  1
1:1
  0
DICTIONARYVAR
  5
1E2
102
{ACAD_REACTORS
330
1DC
102
}
330
1DC
100
DictionaryVariables
280
     0
  1
Standard
  0
DICTIONARYVAR
  5
1E1
102
{ACAD_REACTORS
330
1DC
102
}
330
1DC
100
DictionaryVariables
280
     0
  1
Standard
  0
DICTIONARY
  5
1DE
330
6A
100
AcDbDictionary
280
     1
281
     1
  3
ACAD_ROUNDTRIP_2008_TABLESTYLE_CELLSTYLEMAP
360
1DF
  0
CELLSTYLEMAP
  5
1DF
102
{ACAD_REACTORS
330
1DE
102
}
330
1DE
100
AcDbCellStyleMap
 90
        3
300
CELLSTYLE
  1
TABLEFORMAT_BEGIN
 90
        5
170
     1
 91
        0
 92
    32768
 62
   257
 93
        1
300
CONTENTFORMAT
  1
CONTENTFORMAT_BEGIN
 90
        0
 91
        0
 92
        4
 93
        0
300

 40
0.0
140
1.0
 94
        5
 62
     0
340
11
144
0.25
309
CONTENTFORMAT_END
171
     1
301
MARGIN
  1
CELLMARGIN_BEGIN
 40
0.06
 40
0.06
 40
0.06
 40
0.06
 40
0.06
 40
0.06
309
CELLMARGIN_END
 94
        6
 95
        1
302
GRIDFORMAT
  1
GRIDFORMAT_BEGIN
 90
        0
 91
        1
 62
     0
 92
       -2
340
14
 93
        0
 40
0.045
309
GRIDFORMAT_END
 95
        2
302
GRIDFORMAT
  1
GRIDFORMAT_BEGIN
 90
        0
 91
        1
 62
     0
 92
       -2
340
14
 93
        0
 40
0.045
309
GRIDFORMAT_END
 95
        4
302
GRIDFORMAT
  1
GRIDFORMAT_BEGIN
 90
        0
 91
        1
 62
     0
 92
       -2
340
14
 93
        0
 40
0.045
309
GRIDFORMAT_END
 95
        8
302
GRIDFORMAT
  1
GRIDFORMAT_BEGIN
 90
        0
 91
        1
 62
     0
 92
       -2
340
14
 93
        0
 40
0.045
309
GRIDFORMAT_END
 95
       16
302
GRIDFORMAT
  1
GRIDFORMAT_BEGIN
 90
        0
 91
        1
 62
     0
 92
       -2
340
14
 93
        0
 40
0.045
309
GRIDFORMAT_END
 95
       32
302
GRIDFORMAT
  1
GRIDFORMAT_BEGIN
 90
        0
 91
        1
 62
     0
 92
       -2
340
14
 93
        0
 40
0.045
309
GRIDFORMAT_END
309
TABLEFORMAT_END
  1
CELLSTYLE_BEGIN
 90
        1
 91
        1
300
_TITLE
309
CELLSTYLE_END
300
CELLSTYLE
  1
TABLEFORMAT_BEGIN
 90
        5
170
     1
 91
        0
 92
        0
 62
   257
 93
        1
300
CONTENTFORMAT
  1
CONTENTFORMAT_BEGIN
 90
        0
 91
        0
 92
        4
 93
        0
300

 40
0.0
140
1.0
 94
        5
 62
     0
340
11
144
0.18
309
CONTENTFORMAT_END
171
     1
301
MARGIN
  1
CELLMARGIN_BEGIN
 40
0.06
 40
0.06
 40
0.06
 40
0.06
 40
0.06
 40
0.06
309
CELLMARGIN_END
 94
        6
 95
        1
302
GRIDFORMAT
  1
GRIDFORMAT_BEGIN
 90
        0
 91
        1
 62
     0
 92
       -2
340
14
 93
        0
 40
0.045
309
GRIDFORMAT_END
 95
        2
302
GRIDFORMAT
  1
GRIDFORMAT_BEGIN
 90
        0
 91
        1
 62
     0
 92
       -2
340
14
 93
        0
 40
0.045
309
GRIDFORMAT_END
 95
        4
302
GRIDFORMAT
  1
GRIDFORMAT_BEGIN
 90
        0
 91
        1
 62
     0
 92
       -2
340
14
 93
        0
 40
0.045
309
GRIDFORMAT_END
 95
        8
302
GRIDFORMAT
  1
GRIDFORMAT_BEGIN
 90
        0
 91
        1
 62
     0
 92
       -2
340
14
 93
        0
 40
0.045
309
GRIDFORMAT_END
 95
       16
302
GRIDFORMAT
  1
GRIDFORMAT_BEGIN
 90
        0
 91
        1
 62
     0
 92
       -2
340
14
 93
        0
 40
0.045
309
GRIDFORMAT_END
 95
       32
302
GRIDFORMAT
  1
GRIDFORMAT_BEGIN
 90
        0
 91
        1
 62
     0
 92
       -2
340
14
 93
        0
 40
0.045
309
GRIDFORMAT_END
309
TABLEFORMAT_END
  1
CELLSTYLE_BEGIN
 90
        2
 91
        1
300
_HEADER
309
CELLSTYLE_END
300
CELLSTYLE
  1
TABLEFORMAT_BEGIN
 90
        5
170
     1
 91
        0
 92
        0
 62
   257
 93
        1
300
CONTENTFORMAT
  1
CONTENTFORMAT_BEGIN
 90
        0
 91
        0
 92
        4
 93
        0
300

 40
0.0
140
1.0
 94
        2
 62
     0
340
11
144
0.18
309
CONTENTFORMAT_END
171
     1
301
MARGIN
  1
CELLMARGIN_BEGIN
 40
0.06
 40
0.06
 40
0.06
 40
0.06
 40
0.06
 40
0.06
309
CELLMARGIN_END
 94
        6
 95
        1
302
GRIDFORMAT
  1
GRIDFORMAT_BEGIN
 90
        0
 91
        1
 62
     0
 92
       -2
340
14
 93
        0
 40
0.045
309
GRIDFORMAT_END
 95
        2
302
GRIDFORMAT
  1
GRIDFORMAT_BEGIN
 90
        0
 91
        1
 62
     0
 92
       -2
340
14
 93
        0
 40
0.045
309
GRIDFORMAT_END
 95
        4
302
GRIDFORMAT
  1
GRIDFORMAT_BEGIN
 90
        0
 91
        1
 62
     0
 92
       -2
340
14
 93
        0
 40
0.045
309
GRIDFORMAT_END
 95
        8
302
GRIDFORMAT
  1
GRIDFORMAT_BEGIN
 90
        0
 91
        1
 62
     0
 92
       -2
340
14
 93
        0
 40
0.045
309
GRIDFORMAT_END
 95
       16
302
GRIDFORMAT
  1
GRIDFORMAT_BEGIN
 90
        0
 91
        1
 62
     0
 92
       -2
340
14
 93
        0
 40
0.045
309
GRIDFORMAT_END
 95
       32
302
GRIDFORMAT
  1
GRIDFORMAT_BEGIN
 90
        0
 91
        1
 62
     0
 92
       -2
340
14
 93
        0
 40
0.045
309
GRIDFORMAT_END
309
TABLEFORMAT_END
  1
CELLSTYLE_BEGIN
 90
        3
 91
        2
300
_DATA
309
CELLSTYLE_END
  0
ENDSEC
  0
EOF