0
SECTION
  2
HEADER
  9
$ACADVER
  1
AC1027
  9
$ACADMAINTVER
 70
     8
  9
$DWGCODEPAGE
  3
ANSI_1252
  9
$REQUIREDVERSIONS
160
                 0
  9
$COMMENTS
  1
File was created by Cadenas
  9
$CUSTOMPROPERTYTAG
  1
NN
  9
$CUSTOMPROPERTY
  1
Eccentric Collar Intermediate Duty Wide Slot Take Up Inch Bore
  9
$CUSTOMPROPERTYTAG
  1
NT
  9
$CUSTOMPROPERTY
  1
Eccentric Collar Take-Up Bearings -(Intermediate Duty) -Wide Slot
  9
$CUSTOMPROPERTYTAG
  1
NB
  9
$CUSTOMPROPERTY
  1
131246
  9
$CUSTOMPROPERTYTAG
  1
NBSYN
  9
$CUSTOMPROPERTY
  1
$PN.
  9
$CUSTOMPROPERTYTAG
  1
LINA
  9
$CUSTOMPROPERTY
  1
131246
  9
$CUSTOMPROPERTYTAG
  1
SERIES
  9
$CUSTOMPROPERTY
  1
207
  9
$CUSTOMPROPERTYTAG
  1
SS
  9
$CUSTOMPROPERTY
  1
1-1/4
  9
$CUSTOMPROPERTYTAG
  1
PN
  9
$CUSTOMPROPERTY
  1
131246
  9
$CUSTOMPROPERTYTAG
  1
DESCRIPTION
  9
$CUSTOMPROPERTY
  1
WSTU-SXV-104
  9
$CUSTOMPROPERTYTAG
  1
W
  9
$CUSTOMPROPERTY
  1
2.8
  9
$CUSTOMPROPERTYTAG
  1
FS
  9
$CUSTOMPROPERTY
  1
WS308
  9
$CUSTOMPROPERTYTAG
  1
A
  9
$CUSTOMPROPERTY
  1
1.53
  9
$CUSTOMPROPERTYTAG
  1
B
  9
$CUSTOMPROPERTY
  1
4.87
  9
$CUSTOMPROPERTYTAG
  1
C
  9
$CUSTOMPROPERTY
  1
0.531
  9
$CUSTOMPROPERTYTAG
  1
D
  9
$CUSTOMPROPERTY
  1
2.50
  9
$CUSTOMPROPERTYTAG
  1
E
  9
$CUSTOMPROPERTY
  1
3.06
  9
$CUSTOMPROPERTYTAG
  1
F
  9
$CUSTOMPROPERTY
  1
3/4
  9
$CUSTOMPROPERTYTAG
  1
G
  9
$CUSTOMPROPERTY
  1
0.50
  9
$CUSTOMPROPERTYTAG
  1
H
  9
$CUSTOMPROPERTY
  1
0.63
  9
$CUSTOMPROPERTYTAG
  1
J
  9
$CUSTOMPROPERTY
  1
2.50
  9
$CUSTOMPROPERTYTAG
  1
K
  9
$CUSTOMPROPERTY
  1
1.44
  9
$CUSTOMPROPERTYTAG
  1
L
  9
$CUSTOMPROPERTY
  1
2.13
  9
$CUSTOMPROPERTYTAG
  1
M
  9
$CUSTOMPROPERTY
  1
3.480 / 3.510
  9
$CUSTOMPROPERTYTAG
  1
N
  9
$CUSTOMPROPERTY
  1
4.13
  9
$CUSTOMPROPERTYTAG
  1
R
  9
$CUSTOMPROPERTY
  1
0.37
  9
$CUSTOMPROPERTYTAG
  1
S
  9
$CUSTOMPROPERTY
  1
1.16
  9
$CUSTOMPROPERTYTAG
  1
T
  9
$CUSTOMPROPERTY
  1
1.63
  9
$CUSTOMPROPERTYTAG
  1
COMPANY
  9
$CUSTOMPROPERTY
  1
baldor
  9
$INSBASE
 10
0.0
 20
0.0
 30
0.0
  9
$EXTMIN
 10
1.000000000000000E+20
 20
1.000000000000000E+20
 30
1.000000000000000E+20
  9
$EXTMAX
 10
-1.000000000000000E+20
 20
-1.000000000000000E+20
 30
-1.000000000000000E+20
  9
$LIMMIN
 10
0.0
 20
0.0
  9
$LIMMAX
 10
12.0
 20
9.0
  9
$ORTHOMODE
 70
     0
  9
$REGENMODE
 70
     1
  9
$FILLMODE
 70
     1
  9
$QTEXTMODE
 70
     0
  9
$MIRRTEXT
 70
     1
  9
$LTSCALE
 40
1.0
  9
$ATTMODE
 70
     1
  9
$TEXTSIZE
 40
0.2
  9
$TRACEWID
 40
0.05
  9
$TEXTSTYLE
  7
Standard
  9
$CLAYER
  8
0
  9
$CELTYPE
  6
ByLayer
  9
$CECOLOR
 62
   256
  9
$CELTSCALE
 40
1.0
  9
$DISPSILH
 70
     0
  9
$DIMSCALE
 40
1.0
  9
$DIMASZ
 40
0.18
  9
$DIMEXO
 40
0.0625
  9
$DIMDLI
 40
0.38
  9
$DIMRND
 40
0.0
  9
$DIMDLE
 40
0.0
  9
$DIMEXE
 40
0.18
  9
$DIMTP
 40
0.0
  9
$DIMTM
 40
0.0
  9
$DIMTXT
 40
0.18
  9
$DIMCEN
 40
0.09
  9
$DIMTSZ
 40
0.0
  9
$DIMTOL
 70
     0
  9
$DIMLIM
 70
     0
  9
$DIMTIH
 70
     1
  9
$DIMTOH
 70
     1
  9
$DIMSE1
 70
     0
  9
$DIMSE2
 70
     0
  9
$DIMTAD
 70
     0
  9
$DIMZIN
 70
     0
  9
$DIMBLK
  1

  9
$DIMASO
 70
     1
  9
$DIMSHO
 70
     1
  9
$DIMPOST
  1

  9
$DIMAPOST
  1

  9
$DIMALT
 70
     0
  9
$DIMALTD
 70
     2
  9
$DIMALTF
 40
25.4
  9
$DIMLFAC
 40
1.0
  9
$DIMTOFL
 70
     0
  9
$DIMTVP
 40
0.0
  9
$DIMTIX
 70
     0
  9
$DIMSOXD
 70
     0
  9
$DIMSAH
 70
     0
  9
$DIMBLK1
  1

  9
$DIMBLK2
  1

  9
$DIMSTYLE
  2
Standard
  9
$DIMCLRD
 70
     0
  9
$DIMCLRE
 70
     0
  9
$DIMCLRT
 70
     0
  9
$DIMTFAC
 40
1.0
  9
$DIMGAP
 40
0.09
  9
$DIMJUST
 70
     0
  9
$DIMSD1
 70
     0
  9
$DIMSD2
 70
     0
  9
$DIMTOLJ
 70
     1
  9
$DIMTZIN
 70
     0
  9
$DIMALTZ
 70
     0
  9
$DIMALTTZ
 70
     0
  9
$DIMUPT
 70
     0
  9
$DIMDEC
 70
     4
  9
$DIMTDEC
 70
     4
  9
$DIMALTU
 70
     2
  9
$DIMALTTD
 70
     2
  9
$DIMTXSTY
  7
Standard
  9
$DIMAUNIT
 70
     0
  9
$DIMADEC
 70
     0
  9
$DIMALTRND
 40
0.0
  9
$DIMAZIN
 70
     0
  9
$DIMDSEP
 70
    46
  9
$DIMATFIT
 70
     3
  9
$DIMFRAC
 70
     0
  9
$DIMLDRBLK
  1

  9
$DIMLUNIT
 70
     2
  9
$DIMLWD
 70
    -2
  9
$DIMLWE
 70
    -2
  9
$DIMTMOVE
 70
     0
  9
$DIMFXL
 40
1.0
  9
$DIMFXLON
 70
     0
  9
$DIMJOGANG
 40
0.7853981633974483
  9
$DIMTFILL
 70
     0
  9
$DIMTFILLCLR
 70
     0
  9
$DIMARCSYM
 70
     0
  9
$DIMLTYPE
  6

  9
$DIMLTEX1
  6

  9
$DIMLTEX2
  6

  9
$DIMTXTDIRECTION
 70
     0
  9
$LUNITS
 70
     2
  9
$LUPREC
 70
     4
  9
$SKETCHINC
 40
0.1
  9
$FILLETRAD
 40
0.5
  9
$AUNITS
 70
     0
  9
$AUPREC
 70
     0
  9
$MENU
  1
.
  9
$ELEVATION
 40
0.0
  9
$PELEVATION
 40
0.0
  9
$THICKNESS
 40
0.0
  9
$LIMCHECK
 70
     0
  9
$CHAMFERA
 40
0.0
  9
$CHAMFERB
 40
0.0
  9
$CHAMFERC
 40
0.0
  9
$CHAMFERD
 40
0.0
  9
$SKPOLY
 70
     0
  9
$TDCREATE
 40
2458169.003403044
  9
$TDUCREATE
 40
2458168.961736377
  9
$TDUPDATE
 40
2458169.003403044
  9
$TDUUPDATE
 40
2458168.961736377
  9
$TDINDWG
 40
0.0000000116
  9
$TDUSRTIMER
 40
0.0000000116
  9
$USRTIMER
 70
     1
  9
$ANGBASE
 50
0.0
  9
$ANGDIR
 70
     0
  9
$PDMODE
 70
     0
  9
$PDSIZE
 40
0.0
  9
$PLINEWID
 40
0.0
  9
$SPLFRAME
 70
     0
  9
$SPLINETYPE
 70
     6
  9
$SPLINESEGS
 70
     8
  9
$HANDSEED
  5
1A5
  9
$SURFTAB1
 70
     6
  9
$SURFTAB2
 70
     6
  9
$SURFTYPE
 70
     6
  9
$SURFU
 70
     6
  9
$SURFV
 70
     6
  9
$UCSBASE
  2

  9
$UCSNAME
  2

  9
$UCSORG
 10
0.0
 20
0.0
 30
0.0
  9
$UCSXDIR
 10
1.0
 20
0.0
 30
0.0
  9
$UCSYDIR
 10
0.0
 20
1.0
 30
0.0
  9
$UCSORTHOREF
  2

  9
$UCSORTHOVIEW
 70
     0
  9
$UCSORGTOP
 10
0.0
 20
0.0
 30
0.0
  9
$UCSORGBOTTOM
 10
0.0
 20
0.0
 30
0.0
  9
$UCSORGLEFT
 10
0.0
 20
0.0
 30
0.0
  9
$UCSORGRIGHT
 10
0.0
 20
0.0
 30
0.0
  9
$UCSORGFRONT
 10
0.0
 20
0.0
 30
0.0
  9
$UCSORGBACK
 10
0.0
 20
0.0
 30
0.0
  9
$PUCSBASE
  2

  9
$PUCSNAME
  2

  9
$PUCSORG
 10
0.0
 20
0.0
 30
0.0
  9
$PUCSXDIR
 10
1.0
 20
0.0
 30
0.0
  9
$PUCSYDIR
 10
0.0
 20
1.0
 30
0.0
  9
$PUCSORTHOREF
  2

  9
$PUCSORTHOVIEW
 70
     0
  9
$PUCSORGTOP
 10
0.0
 20
0.0
 30
0.0
  9
$PUCSORGBOTTOM
 10
0.0
 20
0.0
 30
0.0
  9
$PUCSORGLEFT
 10
0.0
 20
0.0
 30
0.0
  9
$PUCSORGRIGHT
 10
0.0
 20
0.0
 30
0.0
  9
$PUCSORGFRONT
 10
0.0
 20
0.0
 30
0.0
  9
$PUCSORGBACK
 10
0.0
 20
0.0
 30
0.0
  9
$USERI1
 70
     0
  9
$USERI2
 70
     0
  9
$USERI3
 70
     0
  9
$USERI4
 70
     0
  9
$USERI5
 70
     0
  9
$USERR1
 40
0.0
  9
$USERR2
 40
0.0
  9
$USERR3
 40
0.0
  9
$USERR4
 40
0.0
  9
$USERR5
 40
0.0
  9
$WORLDVIEW
 70
     1
  9
$SHADEDGE
 70
     3
  9
$SHADEDIF
 70
    70
  9
$TILEMODE
 70
     1
  9
$MAXACTVP
 70
    64
  9
$PINSBASE
 10
0.0
 20
0.0
 30
0.0
  9
$PLIMCHECK
 70
     0
  9
$PEXTMIN
 10
1.000000000000000E+20
 20
1.000000000000000E+20
 30
1.000000000000000E+20
  9
$PEXTMAX
 10
-1.000000000000000E+20
 20
-1.000000000000000E+20
 30
-1.000000000000000E+20
  9
$PLIMMIN
 10
0.0
 20
0.0
  9
$PLIMMAX
 10
12.0
 20
9.0
  9
$UNITMODE
 70
     0
  9
$VISRETAIN
 70
     1
  9
$PLINEGEN
 70
     0
  9
$PSLTSCALE
 70
     1
  9
$TREEDEPTH
 70
  3020
  9
$CMLSTYLE
  2
Standard
  9
$CMLJUST
 70
     0
  9
$CMLSCALE
 40
1.0
  9
$PROXYGRAPHICS
 70
     1
  9
$MEASUREMENT
 70
     0
  9
$CELWEIGHT
370
    -1
  9
$ENDCAPS
280
     0
  9
$JOINSTYLE
280
     0
  9
$LWDISPLAY
290
     0
  9
$INSUNITS
 70
     1
  9
$HYPERLINKBASE
  1

  9
$STYLESHEET
  1

  9
$XEDIT
290
     1
  9
$CEPSNTYPE
380
     0
  9
$PSTYLEMODE
290
     1
  9
$FINGERPRINTGUID
  2
{6B64D285-06D5-40A3-A07E-3191BFFB36AB}
  9
$VERSIONGUID
  2
{FAEB1C32-E019-11D5-929B-00C0DF256EC4}
  9
$EXTNAMES
290
     1
  9
$PSVPSCALE
 40
0.0
  9
$OLESTARTUP
290
     0
  9
$SORTENTS
280
   127
  9
$INDEXCTL
280
     0
  9
$HIDETEXT
280
     1
  9
$XCLIPFRAME
280
     2
  9
$HALOGAP
280
     0
  9
$OBSCOLOR
 70
   257
  9
$OBSLTYPE
280
     0
  9
$INTERSECTIONDISPLAY
280
     0
  9
$INTERSECTIONCOLOR
 70
   257
  9
$DIMASSOC
280
     2
  9
$PROJECTNAME
  1

  9
$CAMERADISPLAY
290
     0
  9
$LENSLENGTH
 40
50.0
  9
$CAMERAHEIGHT
 40
0.0
  9
$STEPSPERSEC
 40
2.0
  9
$STEPSIZE
 40
6.0
  9
$3DDWFPREC
 40
2.0
  9
$PSOLWIDTH
 40
0.25
  9
$PSOLHEIGHT
 40
4.0
  9
$LOFTANG1
 40
1.570796326794897
  9
$LOFTANG2
 40
1.570796326794897
  9
$LOFTMAG1
 40
0.0
  9
$LOFTMAG2
 40
0.0
  9
$LOFTPARAM
 70
     7
  9
$LOFTNORMALS
280
     1
  9
$LATITUDE
 40
37.795
  9
$LONGITUDE
 40
-122.394
  9
$NORTHDIRECTION
 40
0.0
  9
$TIMEZONE
 70
 -8000
  9
$LIGHTGLYPHDISPLAY
280
     1
  9
$TILEMODELIGHTSYNCH
280
     1
  9
$CMATERIAL
347
44
  9
$SOLIDHIST
280
     0
  9
$SHOWHIST
280
     1
  9
$DWFFRAME
280
     2
  9
$DGNFRAME
280
     2
  9
$REALWORLDSCALE
290
     1
  9
$INTERFERECOLOR
 62
   256
  9
$CSHADOW
280
     0
  9
$SHADOWPLANELOCATION
 40
0.0
  0
ENDSEC
  0
SECTION
  2
CLASSES
  0
CLASS
  1
ACDBDICTIONARYWDFLT
  2
AcDbDictionaryWithDefault
  3
ObjectDBX Classes
 90
        0
 91
        4
280
     0
281
     0
  0
CLASS
  1
VISUALSTYLE
  2
AcDbVisualStyle
  3
ObjectDBX Classes
 90
     4095
 91
        4
280
     0
281
     0
  0
CLASS
  1
MATERIAL
  2
AcDbMaterial
  3
ObjectDBX Classes
 90
     1153
 91
        4
280
     0
281
     0
  0
CLASS
  1
SCALE
  2
AcDbScale
  3
ObjectDBX Classes
 90
     1153
 91
        4
280
     0
281
     0
  0
CLASS
  1
TABLESTYLE
  2
AcDbTableStyle
  3
ObjectDBX Classes
 90
     4095
 91
        4
280
     0
281
     0
  0
CLASS
  1
MLEADERSTYLE
  2
AcDbMLeaderStyle
  3
ACDB_MLEADERSTYLE_CLASS
 90
     4095
 91
        4
280
     0
281
     0
  0
CLASS
  1
SUN
  2
AcDbSun
  3
SCENEOE
 90
     1153
 91
        4
280
     0
281
     0
  0
CLASS
  1
DICTIONARYVAR
  2
AcDbDictionaryVar
  3
ObjectDBX Classes
 90
        0
 91
        4
280
     0
281
     0
  0
CLASS
  1
CELLSTYLEMAP
  2
AcDbCellStyleMap
  3
ObjectDBX Classes
 90
     1152
 91
        4
280
     0
281
     0
  0
ENDSEC
  0
SECTION
  2
TABLES
  0
TABLE
  2
VPORT
  5
8
330
0
100
AcDbSymbolTable
 70
     1
  0
VPORT
  5
29
330
8
100
AcDbSymbolTableRecord
100
AcDbViewportTableRecord
  2
*Active
 70
     0
 10
0.0
 20
0.0
 11
1.0
 21
1.0
 12
0.4346737404295116
 22
0.0
 13
0.0
 23
0.0
 14
0.5
 24
0.5
 15
0.5
 25
0.5
 16
0.0
 26
0.0
 36
1.0
 17
0.0
 27
0.0
 37
0.0
 40
4.212600000000001
 41
1.283450973157621
 42
50.0
 43
0.0
 44
0.0
 50
0.0
 51
0.0
 71
     0
 72
   100
 73
     1
 74
     3
 75
     0
 76
     0
 77
     0
 78
     0
281
     0
 65
     1
110
0.0
120
0.0
130
0.0
111
1.0
121
0.0
131
0.0
112
0.0
122
1.0
132
0.0
 79
     0
146
0.0
348
2F
 60
     3
 61
     5
292
     1
282
     1
141
0.0
142
0.0
 63
   250
361
6D
  0
ENDTAB
  0
TABLE
  2
LTYPE
  5
5
330
0
100
AcDbSymbolTable
 70
     3
  0
LTYPE
  5
14
330
5
100
AcDbSymbolTableRecord
100
AcDbLinetypeTableRecord
  2
ByBlock
 70
     0
  3

 72
    65
 73
     0
 40
0.0
  0
LTYPE
  5
15
330
5
100
AcDbSymbolTableRecord
100
AcDbLinetypeTableRecord
  2
ByLayer
 70
     0
  3

 72
    65
 73
     0
 40
0.0
  0
LTYPE
  5
16
330
5
100
AcDbSymbolTableRecord
100
AcDbLinetypeTableRecord
  2
Continuous
 70
     0
  3
Solid line
 72
    65
 73
     0
 40
0.0
  0
LTYPE
  5
A7
330
5
100
AcDbSymbolTableRecord
100
AcDbLinetypeTableRecord
  2
Dashed
 70
     0
  3

 72
    65
 73
     2
 40
2.0
 49
1.0
 74
     0
 49
-1.0
 74
     0
  0
LTYPE
  5
B8
330
5
100
AcDbSymbolTableRecord
100
AcDbLinetypeTableRecord
  2
Center
 70
     0
  3

 72
    65
 73
     4
 40
1.5
 49
0.45
 74
     0
 49
-0.5
 74
     0
 49
0.05
 74
     0
 49
-0.5
 74
     0
  0
ENDTAB
  0
TABLE
  2
LAYER
  5
2
330
0
100
AcDbSymbolTable
 70
     7
  0
LAYER
  5
10
330
2
100
AcDbSymbolTableRecord
100
AcDbLayerTableRecord
  2
0
 70
     0
 62
     7
  6
Continuous
370
    -3
390
F
347
46
348
0
  0
LAYER
  5
72
330
2
100
AcDbSymbolTableRecord
100
AcDbLayerTableRecord
  2
AM_6
 70
     0
 62
    -2
  6
Continuous
370
    35
390
F
347
46
348
0
  0
LAYER
  5
A8
330
2
100
AcDbSymbolTableRecord
100
AcDbLayerTableRecord
  2
AM_9
 70
     0
 62
     6
  6
Dashed
370
    25
390
F
347
46
348
0
  0
LAYER
  5
B5
330
2
100
AcDbSymbolTableRecord
100
AcDbLayerTableRecord
  2
AM_5
 70
     0
 62
     3
  6
Continuous
370
    25
390
F
347
46
348
0
  0
LAYER
  5
B9
330
2
100
AcDbSymbolTableRecord
100
AcDbLayerTableRecord
  2
AM_7
 70
     0
 62
     7
  6
Center
370
    25
390
F
347
46
348
0
  0
LAYER
  5
BB
330
2
100
AcDbSymbolTableRecord
100
AcDbLayerTableRecord
  2
AM_4
 70
     0
 62
     7
  6
Continuous
370
    50
390
F
347
46
348
0
  0
LAYER
  5
198
330
2
100
AcDbSymbolTableRecord
100
AcDbLayerTableRecord
  2
ConnectionPoints
 70
     0
 62
     7
  6
Continuous
370
    50
390
F
347
46
348
0
  0
ENDTAB
  0
TABLE
  2
STYLE
  5
3
330
0
100
AcDbSymbolTable
 70
     1
  0
STYLE
  5
11
330
3
100
AcDbSymbolTableRecord
100
AcDbTextStyleTableRecord
  2
Standard
 70
     0
 40
0.0
 41
1.0
 50
0.0
 71
     0
 42
0.2
  3
txt
  4

  0
ENDTAB
  0
TABLE
  2
VIEW
  5
6
330
0
100
AcDbSymbolTable
 70
     0
  0
ENDTAB
  0
TABLE
  2
UCS
  5
7
330
0
100
AcDbSymbolTable
 70
     0
  0
ENDTAB
  0
TABLE
  2
APPID
  5
9
330
0
100
AcDbSymbolTable
 70
     1
  0
APPID
  5
12
330
9
100
AcDbSymbolTableRecord
100
AcDbRegAppTableRecord
  2
ACAD
 70
     0
  0
ENDTAB
  0
TABLE
  2
DIMSTYLE
  5
A
330
0
100
AcDbSymbolTable
 70
     1
100
AcDbDimStyleTable
  0
DIMSTYLE
105
27
330
A
100
AcDbSymbolTableRecord
100
AcDbDimStyleTableRecord
  2
Standard
 70
     0
178
     0
340
11
  0
ENDTAB
  0
TABLE
  2
BLOCK_RECORD
  5
1
330
0
100
AcDbSymbolTable
 70
     5
  0
BLOCK_RECORD
  5
1F
330
1
100
AcDbSymbolTableRecord
100
AcDbBlockTableRecord
  2
*Model_Space
340
22
 70
     0
280
     1
281
     0
  0
BLOCK_RECORD
  5
1B
330
1
100
AcDbSymbolTableRecord
100
AcDbBlockTableRecord
  2
*Paper_Space
340
1E
 70
     0
280
     1
281
     0
  0
BLOCK_RECORD
  5
23
330
1
100
AcDbSymbolTableRecord
100
AcDbBlockTableRecord
  2
*Paper_Space0
340
26
 70
     0
280
     1
281
     0
  0
BLOCK_RECORD
  5
6E
330
1
100
AcDbSymbolTableRecord
100
AcDbBlockTableRecord
  2
1_131246_0
340
0
102
{BLKREFS
331
6F
102
}
 70
     0
280
     1
281
     0
  0
BLOCK_RECORD
  5
8F
330
1
100
AcDbSymbolTableRecord
100
AcDbBlockTableRecord
  2
2_131443_0_in_131246_0
340
0
102
{BLKREFS
331
90
102
}
 70
     0
280
     1
281
     0
  0
BLOCK_RECORD
  5
C4
330
1
100
AcDbSymbolTableRecord
100
AcDbBlockTableRecord
  2
3_405016_Inch_0_in_131246_0
340
0
102
{BLKREFS
331
C5
102
}
 70
     0
280
     1
281
     0
  0
BLOCK_RECORD
  5
13C
330
1
100
AcDbSymbolTableRecord
100
AcDbBlockTableRecord
  2
4_131246H_0_in_131246_0
340
0
102
{BLKREFS
331
13D
102
}
 70
     0
280
     1
281
     0
  0
ENDTAB
  0
ENDSEC
  0
SECTION
  2
BLOCKS
  0
BLOCK
  5
20
330
1F
100
AcDbEntity
  8
0
100
AcDbBlockBegin
  2
*Model_Space
 70
     0
 10
0.0
 20
0.0
 30
0.0
  3
*Model_Space
  1

  0
ENDBLK
  5
21
330
1F
100
AcDbEntity
  8
0
100
AcDbBlockEnd
  0
BLOCK
  5
1C
330
1B
100
AcDbEntity
 67
     1
  8
0
100
AcDbBlockBegin
  2
*Paper_Space
 70
     0
 10
0.0
 20
0.0
 30
0.0
  3
*Paper_Space
  1

  0
ENDBLK
  5
1D
330
1B
100
AcDbEntity
 67
     1
  8
0
100
AcDbBlockEnd
  0
BLOCK
  5
24
330
23
100
AcDbEntity
  8
0
100
AcDbBlockBegin
  2
*Paper_Space0
 70
     0
 10
0.0
 20
0.0
 30
0.0
  3
*Paper_Space0
  1

  0
ENDBLK
  5
25
330
23
100
AcDbEntity
  8
0
100
AcDbBlockEnd
  0
BLOCK
  5
70
330
6E
100
AcDbEntity
  8
0
100
AcDbBlockBegin
  2
1_131246_0
 70
     2
 10
0.0
 20
0.0
 30
0.0
  3
1_131246_0
  1

  0
ATTDEF
  5
73
330
6E
100
AcDbEntity
  8
AM_6
100
AcDbText
 10
8.085
 20
2.065
 30
0.0
 40
0.5
  1
Eccentric Collar Intermediate Duty Wide Slot Take Up Inch Bore
100
AcDbAttributeDefinition
  3

  2
NN
 70
     8
280
     0
  0
ATTDEF
  5
74
330
6E
100
AcDbEntity
  8
AM_6
100
AcDbText
 10
8.085
 20
1.565
 30
0.0
 40
0.5
  1
Eccentric Collar Take-Up Bearings -(Intermediate Duty) -Wide Slot
100
AcDbAttributeDefinition
  3

  2
NT
 70
     8
280
     0
  0
ATTDEF
  5
75
330
6E
100
AcDbEntity
  8
AM_6
100
AcDbText
 10
8.085
 20
1.065
 30
0.0
 40
0.5
  1
131246
100
AcDbAttributeDefinition
  3

  2
NB
 70
     8
280
     0
  0
ATTDEF
  5
76
330
6E
100
AcDbEntity
  8
AM_6
100
AcDbText
 10
8.085
 20
0.565
 30
0.0
 40
0.5
  1
$PN.
100
AcDbAttributeDefinition
  3

  2
NBSYN
 70
     8
280
     0
  0
ATTDEF
  5
77
330
6E
100
AcDbEntity
  8
AM_6
100
AcDbText
 10
8.085
 20
0.0649999999999999
 30
0.0
 40
0.5
  1
131246
100
AcDbAttributeDefinition
  3

  2
LINA
 70
     8
280
     0
  0
ATTDEF
  5
78
330
6E
100
AcDbEntity
  8
AM_6
100
AcDbText
 10
8.085
 20
-0.4350000000000001
 30
0.0
 40
0.5
  1
207
100
AcDbAttributeDefinition
  3

  2
SERIES
 70
     8
280
     0
  0
ATTDEF
  5
79
330
6E
100
AcDbEntity
  8
AM_6
100
AcDbText
 10
8.085
 20
-0.935
 30
0.0
 40
0.5
  1
1-1/4
100
AcDbAttributeDefinition
  3

  2
SS
 70
     8
280
     0
  0
ATTDEF
  5
7A
330
6E
100
AcDbEntity
  8
AM_6
100
AcDbText
 10
8.085
 20
-1.435
 30
0.0
 40
0.5
  1
131246
100
AcDbAttributeDefinition
  3

  2
PN
 70
     8
280
     0
  0
ATTDEF
  5
7B
330
6E
100
AcDbEntity
  8
AM_6
100
AcDbText
 10
8.085
 20
-1.935
 30
0.0
 40
0.5
  1
WSTU-SXV-104
100
AcDbAttributeDefinition
  3

  2
DESCRIPTION
 70
     8
280
     0
  0
ATTDEF
  5
7C
330
6E
100
AcDbEntity
  8
AM_6
100
AcDbText
 10
8.085
 20
-2.435
 30
0.0
 40
0.5
  1
2.8
100
AcDbAttributeDefinition
  3

  2
W
 70
     8
280
     0
  0
ATTDEF
  5
7D
330
6E
100
AcDbEntity
  8
AM_6
100
AcDbText
 10
8.085
 20
-2.935
 30
0.0
 40
0.5
  1
WS308
100
AcDbAttributeDefinition
  3

  2
FS
 70
     8
280
     0
  0
ATTDEF
  5
7E
330
6E
100
AcDbEntity
  8
AM_6
100
AcDbText
 10
8.085
 20
-3.435
 30
0.0
 40
0.5
  1
1.53
100
AcDbAttributeDefinition
  3

  2
A
 70
     8
280
     0
  0
ATTDEF
  5
7F
330
6E
100
AcDbEntity
  8
AM_6
100
AcDbText
 10
8.085
 20
-3.935
 30
0.0
 40
0.5
  1
4.87
100
AcDbAttributeDefinition
  3

  2
B
 70
     8
280
     0
  0
ATTDEF
  5
80
330
6E
100
AcDbEntity
  8
AM_6
100
AcDbText
 10
8.085
 20
-4.435
 30
0.0
 40
0.5
  1
0.531
100
AcDbAttributeDefinition
  3

  2
C
 70
     8
280
     0
  0
ATTDEF
  5
81
330
6E
100
AcDbEntity
  8
AM_6
100
AcDbText
 10
8.085
 20
-4.935
 30
0.0
 40
0.5
  1
2.50
100
AcDbAttributeDefinition
  3

  2
D
 70
     8
280
     0
  0
ATTDEF
  5
82
330
6E
100
AcDbEntity
  8
AM_6
100
AcDbText
 10
8.085
 20
-5.435
 30
0.0
 40
0.5
  1
3.06
100
AcDbAttributeDefinition
  3

  2
E
 70
     8
280
     0
  0
ATTDEF
  5
83
330
6E
100
AcDbEntity
  8
AM_6
100
AcDbText
 10
8.085
 20
-5.935
 30
0.0
 40
0.5
  1
3/4
100
AcDbAttributeDefinition
  3

  2
F
 70
     8
280
     0
  0
ATTDEF
  5
84
330
6E
100
AcDbEntity
  8
AM_6
100
AcDbText
 10
8.085
 20
-6.435
 30
0.0
 40
0.5
  1
0.50
100
AcDbAttributeDefinition
  3

  2
G
 70
     8
280
     0
  0
ATTDEF
  5
85
330
6E
100
AcDbEntity
  8
AM_6
100
AcDbText
 10
8.085
 20
-6.935
 30
0.0
 40
0.5
  1
0.63
100
AcDbAttributeDefinition
  3

  2
H
 70
     8
280
     0
  0
ATTDEF
  5
86
330
6E
100
AcDbEntity
  8
AM_6
100
AcDbText
 10
8.085
 20
-7.435
 30
0.0
 40
0.5
  1
2.50
100
AcDbAttributeDefinition
  3

  2
J
 70
     8
280
     0
  0
ATTDEF
  5
87
330
6E
100
AcDbEntity
  8
AM_6
100
AcDbText
 10
8.085
 20
-7.935
 30
0.0
 40
0.5
  1
1.44
100
AcDbAttributeDefinition
  3

  2
K
 70
     8
280
     0
  0
ATTDEF
  5
88
330
6E
100
AcDbEntity
  8
AM_6
100
AcDbText
 10
8.085
 20
-8.435
 30
0.0
 40
0.5
  1
2.13
100
AcDbAttributeDefinition
  3

  2
L
 70
     8
280
     0
  0
ATTDEF
  5
89
330
6E
100
AcDbEntity
  8
AM_6
100
AcDbText
 10
8.085
 20
-8.935
 30
0.0
 40
0.5
  1
3.480 / 3.510
100
AcDbAttributeDefinition
  3

  2
M
 70
     8
280
     0
  0
ATTDEF
  5
8A
330
6E
100
AcDbEntity
  8
AM_6
100
AcDbText
 10
8.085
 20
-9.435
 30
0.0
 40
0.5
  1
4.13
100
AcDbAttributeDefinition
  3

  2
N
 70
     8
280
     0
  0
ATTDEF
  5
8B
330
6E
100
AcDbEntity
  8
AM_6
100
AcDbText
 10
8.085
 20
-9.935
 30
0.0
 40
0.5
  1
0.37
100
AcDbAttributeDefinition
  3

  2
R
 70
     8
280
     0
  0
ATTDEF
  5
8C
330
6E
100
AcDbEntity
  8
AM_6
100
AcDbText
 10
8.085
 20
-10.435
 30
0.0
 40
0.5
  1
1.16
100
AcDbAttributeDefinition
  3

  2
S
 70
     8
280
     0
  0
ATTDEF
  5
8D
330
6E
100
AcDbEntity
  8
AM_6
100
AcDbText
 10
8.085
 20
-10.935
 30
0.0
 40
0.5
  1
1.63
100
AcDbAttributeDefinition
  3

  2
T
 70
     8
280
     0
  0
ATTDEF
  5
8E
330
6E
100
AcDbEntity
  8
AM_6
100
AcDbText
 10
8.085
 20
-11.435
 30
0.0
 40
0.5
  1
baldor
100
AcDbAttributeDefinition
  3

  2
COMPANY
 70
     8
280
     0
  0
INSERT
  5
90
330
6E
100
AcDbEntity
  8
0
100
AcDbBlockReference
  2
2_131443_0_in_131246_0
 10
0.0
 20
0.0
 30
0.0
  0
INSERT
  5
C5
330
6E
100
AcDbEntity
  8
0
100
AcDbBlockReference
  2
3_405016_Inch_0_in_131246_0
 10
0.0
 20
0.0
 30
0.0
  0
INSERT
  5
13D
330
6E
100
AcDbEntity
  8
0
100
AcDbBlockReference
  2
4_131246H_0_in_131246_0
 10
0.0
 20
0.0
 30
0.0
  0
ENDBLK
  5
71
330
6E
100
AcDbEntity
  8
0
100
AcDbBlockEnd
  0
BLOCK
  5
91
330
8F
100
AcDbEntity
  8
0
100
AcDbBlockBegin
  2
2_131443_0_in_131246_0
 70
     2
 10
0.0
 20
0.0
 30
0.0
  3
2_131443_0_in_131246_0
  1

  0
ATTDEF
  5
93
330
8F
100
AcDbEntity
  8
AM_6
100
AcDbText
 10
6.408239784269711
 20
1.40823978426971
 30
0.0
 40
0.5
  1
Eccentric Collar Intermediate Duty Insert Inch Bore
100
AcDbAttributeDefinition
  3

  2
NN
 70
     8
280
     0
  0
ATTDEF
  5
94
330
8F
100
AcDbEntity
  8
AM_6
100
AcDbText
 10
6.408239784269711
 20
0.9082397842697101
 30
0.0
 40
0.5
  1
Eccentric Collar Bearing Inserts -(Intermediate Duty)
100
AcDbAttributeDefinition
  3

  2
NT
 70
     8
280
     0
  0
ATTDEF
  5
95
330
8F
100
AcDbEntity
  8
AM_6
100
AcDbText
 10
6.408239784269711
 20
0.4082397842697101
 30
0.0
 40
0.5
  1
131443
100
AcDbAttributeDefinition
  3

  2
NB
 70
     8
280
     0
  0
ATTDEF
  5
96
330
8F
100
AcDbEntity
  8
AM_6
100
AcDbText
 10
6.408239784269711
 20
-0.0917602157302899
 30
0.0
 40
0.5
  1
$PN.
100
AcDbAttributeDefinition
  3

  2
NBSYN
 70
     8
280
     0
  0
ATTDEF
  5
97
330
8F
100
AcDbEntity
  8
AM_6
100
AcDbText
 10
6.408239784269711
 20
-0.5917602157302899
 30
0.0
 40
0.5
  1
131443
100
AcDbAttributeDefinition
  3

  2
LINA
 70
     8
280
     0
  0
ATTDEF
  5
98
330
8F
100
AcDbEntity
  8
AM_6
100
AcDbText
 10
6.408239784269711
 20
-1.09176021573029
 30
0.0
 40
0.5
  1
207
100
AcDbAttributeDefinition
  3

  2
SERIES
 70
     8
280
     0
  0
ATTDEF
  5
99
330
8F
100
AcDbEntity
  8
AM_6
100
AcDbText
 10
6.408239784269711
 20
-1.59176021573029
 30
0.0
 40
0.5
  1
1-1/4
100
AcDbAttributeDefinition
  3

  2
SS
 70
     8
280
     0
  0
ATTDEF
  5
9A
330
8F
100
AcDbEntity
  8
AM_6
100
AcDbText
 10
6.408239784269711
 20
-2.09176021573029
 30
0.0
 40
0.5
  1
131443
100
AcDbAttributeDefinition
  3

  2
PN
 70
     8
280
     0
  0
ATTDEF
  5
9B
330
8F
100
AcDbEntity
  8
AM_6
100
AcDbText
 10
6.408239784269711
 20
-2.59176021573029
 30
0.0
 40
0.5
  1
INS-SXV-104
100
AcDbAttributeDefinition
  3

  2
DESCRIPTION
 70
     8
280
     0
  0
ATTDEF
  5
9C
330
8F
100
AcDbEntity
  8
AM_6
100
AcDbText
 10
6.408239784269711
 20
-3.09176021573029
 30
0.0
 40
0.5
  1
1.2
100
AcDbAttributeDefinition
  3

  2
WEIGHT
 70
     8
280
     0
  0
ATTDEF
  5
9D
330
8F
100
AcDbEntity
  8
AM_6
100
AcDbText
 10
6.408239784269711
 20
-3.59176021573029
 30
0.0
 40
0.5
  1
1.53
100
AcDbAttributeDefinition
  3

  2
A
 70
     8
280
     0
  0
ATTDEF
  5
9E
330
8F
100
AcDbEntity
  8
AM_6
100
AcDbText
 10
6.408239784269711
 20
-4.091760215730289
 30
0.0
 40
0.5
  1
0.75
100
AcDbAttributeDefinition
  3

  2
C
 70
     8
280
     0
  0
ATTDEF
  5
9F
330
8F
100
AcDbEntity
  8
AM_6
100
AcDbText
 10
6.408239784269711
 20
-4.591760215730289
 30
0.0
 40
0.5
  1
2.8346
100
AcDbAttributeDefinition
  3

  2
D
 70
     8
280
     0
  0
ATTDEF
  5
A0
330
8F
100
AcDbEntity
  8
AM_6
100
AcDbText
 10
6.408239784269711
 20
-5.091760215730289
 30
0.0
 40
0.5
  1
0.20
100
AcDbAttributeDefinition
  3

  2
J
 70
     8
280
     0
  0
ATTDEF
  5
A1
330
8F
100
AcDbEntity
  8
AM_6
100
AcDbText
 10
6.408239784269711
 20
-5.591760215730289
 30
0.0
 40
0.5
  1
2.13
100
AcDbAttributeDefinition
  3

  2
L
 70
     8
280
     0
  0
ATTDEF
  5
A2
330
8F
100
AcDbEntity
  8
AM_6
100
AcDbText
 10
6.408239784269711
 20
-6.091760215730289
 30
0.0
 40
0.5
  1
5/16 - 24
100
AcDbAttributeDefinition
  3

  2
N
 70
     8
280
     0
  0
ATTDEF
  5
A3
330
8F
100
AcDbEntity
  8
AM_6
100
AcDbText
 10
6.408239784269711
 20
-6.591760215730289
 30
0.0
 40
0.5
  1
0.37
100
AcDbAttributeDefinition
  3

  2
W
 70
     8
280
     0
  0
ATTDEF
  5
A4
330
8F
100
AcDbEntity
  8
AM_6
100
AcDbText
 10
6.408239784269711
 20
-7.091760215730289
 30
0.0
 40
0.5
  1
1.16
100
AcDbAttributeDefinition
  3

  2
Y
 70
     8
280
     0
  0
ATTDEF
  5
A5
330
8F
100
AcDbEntity
  8
AM_6
100
AcDbText
 10
6.408239784269711
 20
-7.591760215730289
 30
0.0
 40
0.5
  1
1.84
100
AcDbAttributeDefinition
  3

  2
Z
 70
     8
280
     0
  0
ATTDEF
  5
A6
330
8F
100
AcDbEntity
  8
AM_6
100
AcDbText
 10
6.408239784269711
 20
-8.09176021573029
 30
0.0
 40
0.5
  1
baldor
100
AcDbAttributeDefinition
  3

  2
COMPANY
 70
     8
280
     0
  0
LWPOLYLINE
  5
A9
330
8F
100
AcDbEntity
  8
AM_9
100
AcDbPolyline
 90
        4
 70
     0
 43
0.0
 10
-0.0620312280003966
 20
-1.394144301339255
 10
-0.068199354523849
 20
-1.395489813158237
 10
-0.0769656765799964
 20
-1.399025442834881
 10
-0.0781249964122027
 20
-1.40094441185788
  0
LWPOLYLINE
  5
AA
330
8F
100
AcDbEntity
  8
AM_9
100
AcDbPolyline
 90
        9
 70
     0
 43
0.0
 10
0.0781249655594422
 20
-1.400951504316867
 10
0.0752165049701967
 20
-1.397922871901891
 10
0.0638260742441066
 20
-1.394494419163424
 10
0.045103033379942
 20
-1.391804426445911
 10
0.021352790665445
 20
-1.390171082073627
 10
-0.0046148847116275
 20
-1.389762692962456
 10
-0.029922175382755
 20
-1.390600118112348
 10
-0.0518961256154644
 20
-1.392579131751079
 10
-0.0620312280003966
 20
-1.394144301339255
  0
ARC
  5
AB
330
8F
100
AcDbEntity
  8
AM_9
100
AcDbCircle
 10
0.0
 20
-1.401675
 30
0.0
 40
0.078125
100
AcDbArc
 50
180.0
 51
0.0000008537736463
  0
LINE
  5
AC
330
8F
100
AcDbEntity
  8
AM_9
100
AcDbLine
 10
-0.0779555611565261
 20
-1.401675
 30
0.0
 11
0.0779555611565257
 21
-1.401675
 31
0.0
  0
ELLIPSE
  5
AD
330
8F
100
AcDbEntity
  8
AM_9
100
AcDbEllipse
 10
0.0
 20
-1.400955865060917
 30
0.0
 11
-0.078121622749171
 21
9.567139524396932E-18
 31
0.0
210
0.0
220
0.0
230
1.0
 40
0.1412557319123995
 41
0.0652140136745354
 42
3.07637863991526
  0
CIRCLE
  5
AE
330
8F
100
AcDbEntity
  8
AM_9
100
AcDbCircle
 10
0.0
 20
0.0
 30
0.0
 40
1.349809523809524
  0
CIRCLE
  5
AF
330
8F
100
AcDbEntity
  8
AM_9
100
AcDbCircle
 10
0.0
 20
0.0
 30
0.0
 40
0.92
  0
CIRCLE
  5
B0
330
8F
100
AcDbEntity
  8
AM_9
100
AcDbCircle
 10
0.0
 20
0.0
 30
0.0
 40
0.8761904761904762
  0
CIRCLE
  5
B1
330
8F
100
AcDbEntity
  8
AM_9
100
AcDbCircle
 10
0.0
 20
0.0
 30
0.0
 40
0.6375000000000003
  0
LINE
  5
B2
330
8F
100
AcDbEntity
  8
AM_9
100
AcDbLine
 10
1.05932564637252
 20
0.1097915066726101
 30
0.0
 11
1.05932564637252
 21
-0.1097915066726101
 31
0.0
  0
LINE
  5
B3
330
8F
100
AcDbEntity
  8
AM_9
100
AcDbLine
 10
0.6093767572012554
 20
-0.13935
 30
0.0
 11
1.055858141436688
 21
-0.13935
 31
0.0
  0
LINE
  5
B4
330
8F
100
AcDbEntity
  8
AM_9
100
AcDbLine
 10
1.055858141436688
 20
0.13935
 30
0.0
 11
0.6093289099746221
 21
0.13935
 31
0.0
  0
LINE
  5
B6
330
8F
100
AcDbEntity
  8
AM_5
100
AcDbLine
 10
0.6051536478449089
 20
0.15625
 30
0.0
 11
1.053475646372521
 21
0.15625
 31
0.0
  0
LINE
  5
B7
330
8F
100
AcDbEntity
  8
AM_5
100
AcDbLine
 10
0.6051536478449089
 20
-0.15625
 30
0.0
 11
1.053475646372521
 21
-0.15625
 31
0.0
  0
LINE
  5
BA
330
8F
100
AcDbEntity
  8
AM_7
100
AcDbLine
 10
-0.0820312500000029
 20
-1.401675
 30
0.0
 11
0.0820312500000001
 21
-1.401675
 31
0.0
  0
CIRCLE
  5
BC
330
8F
100
AcDbEntity
  8
AM_4
100
AcDbCircle
 10
0.0
 20
0.0
 30
0.0
 40
1.40823978426971
  0
CIRCLE
  5
BD
330
8F
100
AcDbEntity
  8
AM_4
100
AcDbCircle
 10
0.0
 20
0.0
 30
0.0
 40
1.396831876068126
  0
CIRCLE
  5
BE
330
8F
100
AcDbEntity
  8
AM_4
100
AcDbCircle
 10
0.0
 20
0.0
 30
0.0
 40
1.37178737370838
  0
CIRCLE
  5
BF
330
8F
100
AcDbEntity
  8
AM_4
100
AcDbCircle
 10
0.0
 20
0.0
 30
0.0
 40
1.347590178800662
  0
CIRCLE
  5
C0
330
8F
100
AcDbEntity
  8
AM_4
100
AcDbCircle
 10
0.0
 20
0.0
 30
0.0
 40
1.015
  0
CIRCLE
  5
C1
330
8F
100
AcDbEntity
  8
AM_4
100
AcDbCircle
 10
0.0
 20
0.0
 30
0.0
 40
0.625
  0
CIRCLE
  5
C2
330
8F
100
AcDbEntity
  8
AM_4
100
AcDbCircle
 10
0.0
 20
0.0
 30
0.0
 40
0.6426776695296637
  0
CIRCLE
  5
C3
330
8F
100
AcDbEntity
  8
AM_4
100
AcDbCircle
 10
0.0000000000000001
 20
-0.0000000000000001
 30
0.0
 40
1.065
  0
ENDBLK
  5
92
330
8F
100
AcDbEntity
  8
0
100
AcDbBlockEnd
  0
BLOCK
  5
C6
330
C4
100
AcDbEntity
  8
0
100
AcDbBlockBegin
  2
3_405016_Inch_0_in_131246_0
 70
     2
 10
0.0
 20
0.0
 30
0.0
  3
3_405016_Inch_0_in_131246_0
  1

  0
ATTDEF
  5
C8
330
C4
100
AcDbEntity
  8
AM_6
100
AcDbText
 10
3.61616639878818
 20
-0.6969256983551584
 30
0.0
 40
0.5
  1
405016 -Inch
100
AcDbAttributeDefinition
  3

  2
NN
 70
     8
280
     0
  0
ATTDEF
  5
C9
330
C4
100
AcDbEntity
  8
AM_6
100
AcDbText
 10
3.61616639878818
 20
-1.196925698355158
 30
0.0
 40
0.5
  1
Grease Fitting
100
AcDbAttributeDefinition
  3

  2
NT
 70
     8
280
     0
  0
ATTDEF
  5
CA
330
C4
100
AcDbEntity
  8
AM_6
100
AcDbText
 10
3.61616639878818
 20
-1.696925698355158
 30
0.0
 40
0.5
  1
405016-Inch
100
AcDbAttributeDefinition
  3

  2
NB
 70
     8
280
     0
  0
ATTDEF
  5
CB
330
C4
100
AcDbEntity
  8
AM_6
100
AcDbText
 10
3.61616639878818
 20
-2.196925698355158
 30
0.0
 40
0.5
  1
$MN.-Inch
100
AcDbAttributeDefinition
  3

  2
NBSYN
 70
     8
280
     0
  0
ATTDEF
  5
CC
330
C4
100
AcDbEntity
  8
AM_6
100
AcDbText
 10
3.61616639878818
 20
-2.696925698355158
 30
0.0
 40
0.5
  1
405016
100
AcDbAttributeDefinition
  3

  2
LINA
 70
     8
280
     0
  0
ATTDEF
  5
CD
330
C4
100
AcDbEntity
  8
AM_6
100
AcDbText
 10
3.61616639878818
 20
-3.196925698355158
 30
0.0
 40
0.5
  1
405016
100
AcDbAttributeDefinition
  3

  2
MN
 70
     8
280
     0
  0
ATTDEF
  5
CE
330
C4
100
AcDbEntity
  8
AM_6
100
AcDbText
 10
3.61616639878818
 20
-3.696925698355158
 30
0.0
 40
0.5
  1
7/16 HEX
100
AcDbAttributeDefinition
  3

  2
H
 70
     8
280
     0
  0
ATTDEF
  5
CF
330
C4
100
AcDbEntity
  8
AM_6
100
AcDbText
 10
3.61616639878818
 20
-4.196925698355159
 30
0.0
 40
0.5
  1
0.383
100
AcDbAttributeDefinition
  3

  2
NDR
 70
     8
280
     0
  0
ATTDEF
  5
D0
330
C4
100
AcDbEntity
  8
AM_6
100
AcDbText
 10
3.61616639878818
 20
-4.696925698355159
 30
0.0
 40
0.5
  1
0.337
100
AcDbAttributeDefinition
  3

  2
KDR
 70
     8
280
     0
  0
ATTDEF
  5
D1
330
C4
100
AcDbEntity
  8
AM_6
100
AcDbText
 10
3.61616639878818
 20
-5.196925698355159
 30
0.0
 40
0.5
  1
0.1575
100
AcDbAttributeDefinition
  3

  2
BZE
 70
     8
280
     0
  0
ATTDEF
  5
D2
330
C4
100
AcDbEntity
  8
AM_6
100
AcDbText
 10
3.61616639878818
 20
-5.696925698355159
 30
0.0
 40
0.5
  1
0.4375
100
AcDbAttributeDefinition
  3

  2
HEX
 70
     8
280
     0
  0
ATTDEF
  5
D3
330
C4
100
AcDbEntity
  8
AM_6
100
AcDbText
 10
3.61616639878818
 20
-6.196925698355159
 30
0.0
 40
0.5
  1
0.281250
100
AcDbAttributeDefinition
  3

  2
HEX2
 70
     8
280
     0
  0
ATTDEF
  5
D4
330
C4
100
AcDbEntity
  8
AM_6
100
AcDbText
 10
3.61616639878818
 20
-6.696925698355159
 30
0.0
 40
0.5
  1
baldor
100
AcDbAttributeDefinition
  3

  2
COMPANY
 70
     8
280
     0
  0
LINE
  5
D5
330
C4
100
AcDbEntity
  8
AM_9
100
AcDbLine
 10
-1.38383360121182
 20
-0.9856298934801195
 30
0.0
 11
-1.545497327089044
 21
-0.7056201065198805
 31
0.0
  0
LINE
  5
D6
330
C4
100
AcDbEntity
  8
AM_9
100
AcDbLine
 10
-1.545497327089044
 20
-0.7056201065198805
 30
0.0
 11
-1.577945300101528
 21
-0.6969256983551584
 31
0.0
  0
LINE
  5
D7
330
C4
100
AcDbEntity
  8
AM_9
100
AcDbLine
 10
-1.392528009376542
 20
-1.018077866492603
 30
0.0
 11
-1.38383360121182
 21
-0.9856298934801195
 31
0.0
  0
ARC
  5
D8
330
C4
100
AcDbEntity
  8
AM_9
100
AcDbCircle
 10
-1.93556677745909
 20
-1.117500000000502
 30
0.0
 40
0.1999999999992772
100
AcDbArc
 50
166.0572506183974
 51
253.9214613678315
  0
LINE
  5
D9
330
C4
100
AcDbEntity
  8
AM_9
100
AcDbLine
 10
-1.392528009376542
 20
-1.018077866492603
 30
0.0
 11
-1.577945300101528
 21
-0.6969256983551584
 31
0.0
  0
LINE
  5
DA
330
C4
100
AcDbEntity
  8
AM_9
100
AcDbLine
 10
-1.577945300101528
 20
-0.6969256983551584
 30
0.0
 11
-1.749864138153393
 21
-0.7891464063755989
 31
0.0
  0
LINE
  5
DB
330
C4
100
AcDbEntity
  8
AM_9
100
AcDbLine
 10
-1.558352904303163
 20
-1.120853593624401
 30
0.0
 11
-1.392528009376542
 21
-1.018077866492603
 31
0.0
  0
LINE
  5
DC
330
C4
100
AcDbEntity
  8
AM_9
100
AcDbLine
 10
-2.162166300647152
 20
-1.15457729571137
 30
0.0
 11
-2.173487873871029
 21
-1.161113809059826
 31
0.0
  0
LINE
  5
DD
330
C4
100
AcDbEntity
  8
AM_9
100
AcDbLine
 10
-2.080976419042361
 20
-1.29520229571137
 30
0.0
 11
-2.092297992266238
 21
-1.301738809059826
 31
0.0
  0
LWPOLYLINE
  5
DE
330
C4
100
AcDbEntity
  8
AM_9
100
AcDbPolyline
 90
        4
 70
     0
 43
0.0
 10
-2.162166300647152
 20
-1.15457729571137
 10
-2.12949584600449
 20
-1.203367212109332
 10
-2.099523264826057
 20
-1.256595324422914
 10
-2.080976419042361
 20
-1.29520229571137
  0
LINE
  5
DF
330
C4
100
AcDbEntity
  8
AM_9
100
AcDbLine
 10
-1.880551373002444
 20
-1.212789475716355
 30
0.0
 11
-1.990710729672492
 21
-1.021987873034731
 31
0.0
  0
ELLIPSE
  5
E0
330
C4
100
AcDbEntity
  8
AM_9
100
AcDbEllipse
 10
-2.006182912953518
 20
-1.158270244837341
 30
0.0
 11
-0.07031250000000046
 21
0.1217848224071867
 31
0.0
210
0.0
220
0.0
230
1.0
 40
0.9063077870366495
 41
5.859216366485141
 42
9.848746901463826
  0
LWPOLYLINE
  5
E1
330
C4
100
AcDbEntity
  8
AM_9
100
AcDbPolyline
 90
        4
 70
     0
 43
0.0
 10
-2.092181336213446
 20
-1.020421457656344
 10
-2.113834299404985
 20
-1.066456884363538
 10
-2.140444200171484
 20
-1.116768689712644
 10
-2.162166300647152
 20
-1.15457729571137
  0
LWPOLYLINE
  5
E2
330
C4
100
AcDbEntity
  8
AM_9
100
AcDbPolyline
 90
        4
 70
     0
 43
0.0
 10
-2.080976419042361
 20
-1.29520229571137
 10
-2.022898042828706
 20
-1.295585121917566
 10
-1.966420830668207
 20
-1.298363121169831
 10
-1.929801573003864
 20
-1.301671457656344
  0
LWPOLYLINE
  5
E3
330
C4
100
AcDbEntity
  8
AM_9
100
AcDbPolyline
 90
        3
 70
     0
 43
0.0
 10
-1.89099767727426
 20
-1.194695945966246
 10
-1.909721215784635
 20
-1.22435797563067
 10
-1.932840137299714
 20
-1.242942786561161
  0
LWPOLYLINE
  5
E4
330
C4
100
AcDbEntity
  8
AM_9
100
AcDbPolyline
 90
        9
 70
     0
 43
0.0
 10
-1.89099767727426
 20
-1.194695945966246
 10
-1.886043016802192
 20
-1.178701216295605
 10
-1.884414904053336
 20
-1.145877825105295
 10
-1.893648804248756
 20
-1.110957633207593
 10
-1.912873492545252
 20
-1.079477046299115
 10
-1.939695244625226
 20
-1.055495849846331
 10
-1.955454042902351
 20
-1.047133515936169
 10
-1.972301628273015
 20
-1.041703487144152
 10
-1.98013587764218
 20
-1.040304054033754
  0
LINE
  5
E5
330
C4
100
AcDbEntity
  8
AM_9
100
AcDbLine
 10
-2.042765612286428
 20
-1.052374216923162
 30
0.0
 11
-2.061182912953518
 21
-1.063007450421052
 31
0.0
  0
LINE
  5
E6
330
C4
100
AcDbEntity
  8
AM_9
100
AcDbLine
 10
-1.951182912953518
 20
-1.253533039253629
 30
0.0
 11
-1.932765596360328
 21
-1.2428997965608
 31
0.0
  0
LWPOLYLINE
  5
E7
330
C4
100
AcDbEntity
  8
AM_9
100
AcDbPolyline
 90
        3
 70
     0
 43
0.0
 10
-2.053418504317735
 20
-1.059512337286678
 10
-2.047633341134404
 20
-1.055381372029879
 10
-2.042843436686061
 20
-1.052419199248029
  0
LWPOLYLINE
  5
E8
330
C4
100
AcDbEntity
  8
AM_9
100
AcDbPolyline
 90
       10
 70
     0
 43
0.0
 10
-1.94272032533013
 20
-1.247901570023672
 10
-1.970517537081519
 20
-1.255261709638181
 10
-2.005730725796052
 20
-1.252990967168627
 10
-2.038877231196831
 20
-1.238797239076489
 10
-2.066208634922412
 20
-1.214336212655024
 10
-2.08467853789881
 20
-1.182408286749774
 10
-2.0922551155338
 20
-1.146607393511457
 10
-2.088105827767549
 20
-1.110922481606625
 10
-2.072670681437165
 20
-1.079328872764631
 10
-2.053418504317735
 20
-1.059512337286678
  0
LWPOLYLINE
  5
E9
330
C4
100
AcDbEntity
  8
AM_9
100
AcDbPolyline
 90
        3
 70
     0
 43
0.0
 10
-1.932840137299714
 20
-1.242942786561161
 10
-1.937254690452919
 20
-1.245334802540261
 10
-1.94272032533013
 20
-1.247901570023672
  0
LWPOLYLINE
  5
EA
330
C4
100
AcDbEntity
  8
AM_9
100
AcDbPolyline
 90
        4
 70
     0
 43
0.0
 10
-2.042843436686061
 20
-1.052419199248029
 10
-2.015778428575262
 20
-1.041820477436415
 10
-1.998379092421267
 20
-1.039480939756072
 10
-1.980135877642163
 20
-1.040304054033761
  0
ELLIPSE
  5
EB
330
C4
100
AcDbEntity
  8
AM_9
100
AcDbEllipse
 10
-2.006182912953515
 20
-1.158270244837341
 30
0.0
 11
-0.07031249999999867
 21
0.1217848224071838
 31
0.0
210
0.0
220
0.0
230
1.0
 40
0.9063077870366539
 41
3.764821264091932
 42
4.571432719802707
  0
ELLIPSE
  5
EC
330
C4
100
AcDbEntity
  8
AM_9
100
AcDbEllipse
 10
-2.006182912953518
 20
-1.158270244837342
 30
0.0
 11
-0.07031250000001774
 21
0.1217848224071774
 31
0.0
210
0.0
220
0.0
230
1.0
 40
0.9063077870366858
 41
4.853345240966579
 42
5.659956696677309
  0
LWPOLYLINE
  5
ED
330
C4
100
AcDbEntity
  8
AM_9
100
AcDbPolyline
 90
        5
 70
     0
 43
0.0
 10
-2.092297992266238
 20
-1.301738809059826
 10
-2.114236038412962
 20
-1.268532427593056
 10
-2.135056467694857
 20
-1.234312409178914
 10
-2.155043367351998
 20
-1.197967684420117
 10
-2.173487873871029
 20
-1.161113809059826
  0
LWPOLYLINE
  5
EE
330
C4
100
AcDbEntity
  8
AM_9
100
AcDbPolyline
 90
        4
 70
     0
 43
0.0
 10
-1.989342924118901
 20
-1.307794574827167
 10
-2.018465154622756
 20
-1.306802555641742
 10
-2.056226429867788
 20
-1.30466027073816
 10
-2.092297992266238
 20
-1.301738809059826
  0
LWPOLYLINE
  5
EF
330
C4
100
AcDbEntity
  8
AM_9
100
AcDbPolyline
 90
        4
 70
     0
 43
0.0
 10
-2.173487873871029
 20
-1.161113809059826
 10
-2.158541378749537
 20
-1.129558470909901
 10
-2.142181483585279
 20
-1.096997724328328
 10
-2.127213181555583
 20
-1.068847794243422
  0
ELLIPSE
  5
F0
330
C4
100
AcDbEntity
  8
AM_9
100
AcDbEllipse
 10
-2.024482820492051
 20
-1.168835701380858
 30
0.0
 11
-0.07031250000000003
 21
0.1217848224071867
 31
0.0
210
0.0
220
0.0
230
1.0
 40
0.9063077870366496
 41
0.2424483708721192
 42
2.90025416708448
  0
LWPOLYLINE
  5
F1
330
C4
100
AcDbEntity
  8
AM_9
100
AcDbPolyline
 90
       19
 70
     0
 43
0.0
 10
-1.963940646066847
 20
-1.17495969272169
 10
-1.963773004872968
 20
-1.175698588656244
 10
-1.961355848807996
 20
-1.191743721433438
 10
-1.96126880357389
 20
-1.207448714403708
 10
-1.9634321111393
 20
-1.222404629632414
 10
-1.967715211705557
 20
-1.236267807133345
 10
-1.973975514082467
 20
-1.248773502422536
 10
-1.98210922509445
 20
-1.259727464987809
 10
-1.992095424578251
 20
-1.268958454246113
 10
-2.003970758184522
 20
-1.276221389667563
 10
-2.017626629635229
 20
-1.281114968916621
 10
-2.032359609372437
 20
-1.283209443364642
 10
-2.047482043550594
 20
-1.282450644208958
 10
-2.062535300845819
 20
-1.278972754359581
 10
-2.077172138588571
 20
-1.272936048145487
 10
-2.091052242866706
 20
-1.264514593294691
 10
-2.10382298878761
 20
-1.253925874177152
 10
-2.115137566287072
 20
-1.241450033787056
 10
-2.125006179297705
 20
-1.226872889647148
  0
LWPOLYLINE
  5
F2
330
C4
100
AcDbEntity
  8
AM_9
100
AcDbPolyline
 90
       20
 70
     0
 43
0.0
 10
-2.125006179297705
 20
-1.226872889647148
 10
-2.128465833400798
 20
-1.22044909411272
 10
-2.134949918644801
 20
-1.204930190950809
 10
-2.13916071882183
 20
-1.188927893401033
 10
-2.141029993880483
 20
-1.172923010328872
 10
-2.140581757449687
 20
-1.157358480944413
 10
-2.137910304772518
 20
-1.142629905187695
 10
-2.133153027875014
 20
-1.129063142929311
 10
-2.126448253892693
 20
-1.116904585973729
 10
-2.117883294215847
 20
-1.106337032072525
 10
-2.107458586953336
 20
-1.097538775273945
 10
-2.09514527133442
 20
-1.090788071047438
 10
-2.081155411730137
 20
-1.086519640686633
 10
-2.066278623575817
 20
-1.085098575721099
 10
-2.051137961810495
 20
-1.08650722023241
 10
-2.036152150837998
 20
-1.090597725388061
 10
-2.021661170481247
 20
-1.097208645206343
 10
-2.008008631442725
 20
-1.106158347581911
 10
-1.995547982092583
 20
-1.117215793994918
 10
-1.99228022079983
 20
-1.120694825339641
  0
ELLIPSE
  5
F3
330
C4
100
AcDbEntity
  8
AM_9
100
AcDbEllipse
 10
-2.075483723756036
 20
-1.198281086609234
 30
0.0
 11
0.06659694825923297
 21
-0.1153492980140274
 31
0.0
210
0.0
220
0.0
230
1.0
 40
0.9063077870366515
 41
0.0
 42
6.283185307179586
  0
LINE
  5
F4
330
C4
100
AcDbEntity
  8
AM_5
100
AcDbLine
 10
-1.534024813082737
 20
-1.078716103579453
 30
0.0
 11
-1.38383360121182
 21
-0.9856298934801192
 31
0.0
  0
LINE
  5
F5
330
C4
100
AcDbEntity
  8
AM_5
100
AcDbLine
 10
-1.558352904303163
 20
-1.120853593624401
 30
0.0
 11
-1.534024813082737
 21
-1.078716103579453
 31
0.0
  0
LINE
  5
F6
330
C4
100
AcDbEntity
  8
AM_5
100
AcDbLine
 10
-1.522519198657628
 20
-1.09864441233604
 30
0.0
 11
-1.71271357013765
 21
-0.769218097619012
 31
0.0
  0
LINE
  5
F7
330
C4
100
AcDbEntity
  8
AM_5
100
AcDbLine
 10
-1.701207955712541
 20
-0.7891464063755989
 30
0.0
 11
-1.545497327089044
 21
-0.7056201065198805
 31
0.0
  0
LINE
  5
F8
330
C4
100
AcDbEntity
  8
AM_5
100
AcDbLine
 10
-1.749864138153392
 20
-0.7891464063755987
 30
0.0
 11
-1.701207955712541
 21
-0.7891464063755989
 31
0.0
  0
ELLIPSE
  5
F9
330
C4
100
AcDbEntity
  8
AM_9
100
AcDbEllipse
 10
-2.006182912953518
 20
-1.158270244837341
 30
0.0
 11
-0.05499999999999971
 21
0.09526279441628827
 31
0.0
210
0.0
220
0.0
230
1.0
 40
0.906307787036652
 41
0.0
 42
6.283185307179586
  0
LINE
  5
FA
330
C4
100
AcDbEntity
  8
AM_7
100
AcDbLine
 10
-2.145566777458222
 20
-1.117499999999999
 30
0.0
 11
-1.72556677745822
 21
-1.117499999999999
 31
0.0
  0
LINE
  5
FB
330
C4
100
AcDbEntity
  8
AM_7
100
AcDbLine
 10
-1.935566777458221
 20
-1.3275
 30
0.0
 11
-1.935566777458221
 21
-0.9074999999999979
 31
0.0
  0
LINE
  5
FC
330
C4
100
AcDbEntity
  8
AM_4
100
AcDbLine
 10
-1.698994296277381
 20
-1.233505557077846
 30
0.0
 11
-1.674221153203534
 21
-1.258278700151693
 31
0.0
  0
LINE
  5
FD
330
C4
100
AcDbEntity
  8
AM_4
100
AcDbLine
 10
-1.698994296277381
 20
-1.233505557077846
 30
0.0
 11
-1.917744296277381
 21
-0.854619442922154
 31
0.0
  0
LINE
  5
FE
330
C4
100
AcDbEntity
  8
AM_4
100
AcDbLine
 10
-1.926811895973995
 20
-0.8207787001516927
 30
0.0
 11
-1.917744296277381
 21
-0.854619442922154
 31
0.0
  0
LINE
  5
FF
330
C4
100
AcDbEntity
  8
AM_4
100
AcDbLine
 10
-1.612391755898937
 20
-1.183505557077846
 30
0.0
 11
-1.831141755898937
 21
-0.8046194429221539
 31
0.0
  0
LINE
  5
100
330
C4
100
AcDbEntity
  8
AM_4
100
AcDbLine
 10
-1.831141755898937
 20
-0.8046194429221539
 30
0.0
 11
-1.855914898972784
 21
-0.7798462998483071
 31
0.0
  0
LINE
  5
101
330
C4
100
AcDbEntity
  8
AM_4
100
AcDbLine
 10
-1.603324156202323
 20
-1.217346299848307
 30
0.0
 11
-1.612391755898937
 21
-1.183505557077846
 31
0.0
  0
ARC
  5
102
330
C4
100
AcDbEntity
  8
AM_4
100
AcDbCircle
 10
-1.935566777458221
 20
-1.117499999999999
 30
0.0
 40
0.2000000000000007
100
AcDbArc
 50
253.9214613676323
 51
300.0000000000001
  0
ARC
  5
103
330
C4
100
AcDbEntity
  8
AM_4
100
AcDbCircle
 10
-1.935566777458218
 20
-1.117500000000002
 30
0.0
 40
0.2000000000000026
100
AcDbArc
 50
120.0000000000003
 51
166.0572506185965
  0
LINE
  5
104
330
C4
100
AcDbEntity
  8
AM_4
100
AcDbLine
 10
-1.754108521228278
 20
-0.7817949192431122
 30
0.0
 11
-1.821766755898937
 21
-0.8208574192431123
 31
0.0
  0
LINE
  5
105
330
C4
100
AcDbEntity
  8
AM_4
100
AcDbLine
 10
-1.621766755898937
 20
-1.167267580756888
 30
0.0
 11
-1.554108521228278
 21
-1.128205080756888
 31
0.0
  0
LINE
  5
106
330
C4
100
AcDbEntity
  8
AM_4
100
AcDbLine
 10
-1.990710729672492
 20
-1.021987873034731
 30
0.0
 11
-2.03556677745822
 21
-0.9442949192431122
 31
0.0
  0
LINE
  5
107
330
C4
100
AcDbEntity
  8
AM_4
100
AcDbLine
 10
-1.908369296277381
 20
-0.8708574192431121
 30
0.0
 11
-2.03556677745822
 21
-0.9442949192431122
 31
0.0
  0
LINE
  5
108
330
C4
100
AcDbEntity
  8
AM_4
100
AcDbLine
 10
-1.83556677745822
 20
-1.290705080756887
 30
0.0
 11
-1.708369296277381
 21
-1.217267580756888
 31
0.0
  0
LINE
  5
109
330
C4
100
AcDbEntity
  8
AM_4
100
AcDbLine
 10
-1.83556677745822
 20
-1.290705080756887
 30
0.0
 11
-1.880551373002444
 21
-1.212789475716355
 31
0.0
  0
LINE
  5
10A
330
C4
100
AcDbEntity
  8
AM_4
100
AcDbLine
 10
-1.926811895973995
 20
-0.8207787001516927
 30
0.0
 11
-1.855914898972784
 21
-0.7798462998483071
 31
0.0
  0
LWPOLYLINE
  5
10B
330
C4
100
AcDbEntity
  8
AM_4
100
AcDbPolyline
 90
        3
 70
     0
 43
0.0
 10
-1.903090824816304
 20
-0.8799999999999999
 10
-1.916805017678688
 20
-0.8514595596074827
 10
-1.926811895973995
 20
-0.8207787001516927
  0
LWPOLYLINE
  5
10C
330
C4
100
AcDbEntity
  8
AM_4
100
AcDbPolyline
 90
        3
 70
     0
 43
0.0
 10
-1.855914898972784
 20
-0.7798462998483071
 10
-1.834437228055162
 20
-0.8037405676118847
 10
-1.81648828443786
 20
-0.8299999999999998
  0
LWPOLYLINE
  5
10D
330
C4
100
AcDbEntity
  8
AM_4
100
AcDbPolyline
 90
        3
 70
     0
 43
0.0
 10
-1.713647767738458
 20
-1.208125
 10
-1.727361960600842
 20
-1.179584559607483
 10
-1.737368838896149
 20
-1.148903700151693
  0
LWPOLYLINE
  5
10E
330
C4
100
AcDbEntity
  8
AM_4
100
AcDbPolyline
 90
        3
 70
     0
 43
0.0
 10
-1.674221153203534
 20
-1.258278700151693
 10
-1.695698824121157
 20
-1.234384432388115
 10
-1.713647767738458
 20
-1.208125
  0
LINE
  5
10F
330
C4
100
AcDbEntity
  8
AM_4
100
AcDbLine
 10
-1.674221153203534
 20
-1.258278700151693
 30
0.0
 11
-1.603324156202323
 21
-1.217346299848307
 31
0.0
  0
LWPOLYLINE
  5
110
330
C4
100
AcDbEntity
  8
AM_4
100
AcDbPolyline
 90
        3
 70
     0
 43
0.0
 10
-1.627045227360014
 20
-1.158125
 10
-1.61333103449763
 20
-1.186665440392517
 10
-1.603324156202323
 20
-1.217346299848307
  0
LINE
  5
111
330
C4
100
AcDbEntity
  8
AM_4
100
AcDbLine
 10
-1.86366421028138
 20
-0.9301537001516926
 30
0.0
 11
-1.792767213280169
 21
-0.8892212998483071
 31
0.0
  0
LWPOLYLINE
  5
112
330
C4
100
AcDbEntity
  8
AM_4
100
AcDbPolyline
 90
        3
 70
     0
 43
0.0
 10
-1.737368838896149
 20
-1.148903700151693
 10
-1.77456244898722
 20
-1.09778862725104
 10
-1.808369296277381
 20
-1.0440625
  0
LINE
  5
113
330
C4
100
AcDbEntity
  8
AM_4
100
AcDbLine
 10
-1.737368838896149
 20
-1.148903700151693
 30
0.0
 11
-1.666471841894938
 21
-1.107971299848307
 31
0.0
  0
LWPOLYLINE
  5
114
330
C4
100
AcDbEntity
  8
AM_4
100
AcDbPolyline
 90
        3
 70
     0
 43
0.0
 10
-1.721766755898937
 20
-0.9940624999999998
 10
-1.692265641613399
 20
-1.049946690392517
 10
-1.666471841894938
 20
-1.107971299848307
  0
LWPOLYLINE
  5
115
330
C4
100
AcDbEntity
  8
AM_4
100
AcDbPolyline
 90
        3
 70
     0
 43
0.0
 10
-1.666471841894938
 20
-1.107971299848307
 10
-1.644994170977315
 20
-1.131865567611885
 10
-1.627045227360014
 20
-1.158125
  0
LWPOLYLINE
  5
116
330
C4
100
AcDbEntity
  8
AM_4
100
AcDbPolyline
 90
        3
 70
     0
 43
0.0
 10
-1.81648828443786
 20
-0.8299999999999998
 10
-1.802774091575476
 20
-0.8585404403925172
 10
-1.792767213280169
 20
-0.8892212998483071
  0
LWPOLYLINE
  5
117
330
C4
100
AcDbEntity
  8
AM_4
100
AcDbPolyline
 90
        3
 70
     0
 43
0.0
 10
-1.792767213280169
 20
-0.8892212998483071
 10
-1.774914480469315
 20
-0.912972765773117
 10
-1.721766755898937
 20
-0.9940624999999998
  0
LWPOLYLINE
  5
118
330
C4
100
AcDbEntity
  8
AM_4
100
AcDbPolyline
 90
        3
 70
     0
 43
0.0
 10
-1.808369296277381
 20
-1.0440625
 10
-1.852021203818802
 20
-0.9574903532552732
 10
-1.86366421028138
 20
-0.9301537001516926
  0
LWPOLYLINE
  5
119
330
C4
100
AcDbEntity
  8
AM_4
100
AcDbPolyline
 90
        3
 70
     0
 43
0.0
 10
-1.86366421028138
 20
-0.9301537001516926
 10
-1.885141881199003
 20
-0.9062594323881151
 10
-1.903090824816304
 20
-0.8799999999999999
  0
LINE
  5
11A
330
C4
100
AcDbEntity
  8
AM_4
100
AcDbLine
 10
-1.941488819223409
 20
-1.308419092407284
 30
0.0
 11
-1.989342924118901
 21
-1.307794574827167
 31
0.0
  0
LINE
  5
11B
330
C4
100
AcDbEntity
  8
AM_4
100
AcDbLine
 10
-2.127213181555583
 20
-1.068847794243422
 30
0.0
 11
-2.103868582432991
 21
-1.027169092407283
 31
0.0
  0
LWPOLYLINE
  5
11C
330
C4
100
AcDbEntity
  8
AM_4
100
AcDbPolyline
 90
        3
 70
     0
 43
0.0
 10
-1.941004956875586
 20
-1.026889734350518
 10
-1.969067256844431
 20
-1.024238843014548
 10
-1.998855361682417
 20
-1.022187592413267
  0
LINE
  5
11D
330
C4
100
AcDbEntity
  8
AM_4
100
AcDbLine
 10
-1.998855361682417
 20
-1.022187592413267
 30
0.0
 11
-2.024864170708401
 21
-1.021052666893888
 31
0.0
  0
LWPOLYLINE
  5
11E
330
C4
100
AcDbEntity
  8
AM_4
100
AcDbPolyline
 90
        3
 70
     0
 43
0.0
 10
-2.024864170708401
 20
-1.021052666893888
 10
-2.047854205400641
 20
-1.020510369847584
 10
-2.092181336213446
 20
-1.020421457656344
  0
LINE
  5
11F
330
C4
100
AcDbEntity
  8
AM_4
100
AcDbLine
 10
-2.092181336213446
 20
-1.020421457656344
 30
0.0
 11
-2.103868582432991
 21
-1.027169092407283
 31
0.0
  0
LINE
  5
120
330
C4
100
AcDbEntity
  8
AM_4
100
AcDbLine
 10
-2.103868582432991
 20
-1.027169092407283
 30
0.0
 11
-2.043164078246933
 21
-1.031618123437406
 31
0.0
  0
LWPOLYLINE
  5
121
330
C4
100
AcDbEntity
  8
AM_4
100
AcDbPolyline
 90
        3
 70
     0
 43
0.0
 10
-1.929801573003864
 20
-1.301671457656344
 10
-1.912827890670341
 20
-1.272339189975666
 10
-1.896689633486158
 20
-1.243057477599441
  0
LINE
  5
122
330
C4
100
AcDbEntity
  8
AM_4
100
AcDbLine
 10
-1.896689633486158
 20
-1.243057477599441
 30
0.0
 11
-1.884668103304351
 21
-1.219965725501071
 31
0.0
  0
LWPOLYLINE
  5
123
330
C4
100
AcDbEntity
  8
AM_4
100
AcDbPolyline
 90
        3
 70
     0
 43
0.0
 10
-1.884668103304351
 20
-1.219965725501071
 10
-1.875503116727793
 20
-1.201421611213501
 10
-1.859815075270795
 20
-1.167514734350518
  0
LINE
  5
124
330
C4
100
AcDbEntity
  8
AM_4
100
AcDbLine
 10
-1.914989541024691
 20
-1.253622934142958
 30
0.0
 11
-1.941488819223409
 21
-1.308419092407284
 31
0.0
  0
LINE
  5
125
330
C4
100
AcDbEntity
  8
AM_4
100
AcDbLine
 10
-1.929801573003864
 20
-1.301671457656344
 30
0.0
 11
-1.941488819223409
 21
-1.308419092407284
 31
0.0
  0
LINE
  5
126
330
C4
100
AcDbEntity
  8
AM_4
100
AcDbLine
 10
-1.871870724581774
 20
-1.174475066725467
 30
0.0
 11
-1.902968010842884
 21
-1.23053118204459
 31
0.0
  0
LINE
  5
127
330
C4
100
AcDbEntity
  8
AM_4
100
AcDbLine
 10
-2.01715526922095
 20
-1.032753048956784
 30
0.0
 11
-1.953060606186565
 21
-1.033850066725467
 31
0.0
  0
LINE
  5
128
330
C4
100
AcDbEntity
  8
AM_4
100
AcDbLine
 10
-1.859815075270795
 20
-1.167514734350518
 30
0.0
 11
-1.887024863234647
 21
-1.112287038418517
 31
0.0
  0
LINE
  5
129
330
C4
100
AcDbEntity
  8
AM_4
100
AcDbLine
 10
-1.887024863234647
 20
-1.112287038418517
 30
0.0
 11
-1.906781263187915
 21
-1.078067949924796
 31
0.0
  0
LWPOLYLINE
  5
12A
330
C4
100
AcDbEntity
  8
AM_4
100
AcDbPolyline
 90
        3
 70
     0
 43
0.0
 10
-1.906781263187915
 20
-1.078067949924796
 10
-1.916029898601809
 20
-1.0634112730526
 10
-1.941004956875586
 20
-1.026889734350518
  0
LINE
  5
12B
330
C4
100
AcDbEntity
  8
AM_4
100
AcDbLine
 10
-1.941004956875586
 20
-1.026889734350518
 30
0.0
 11
-1.953060606186565
 21
-1.033850066725467
 31
0.0
  0
LINE
  5
12C
330
C4
100
AcDbEntity
  8
AM_4
100
AcDbLine
 10
-1.953060606186565
 20
-1.033850066725467
 30
0.0
 11
-1.92508117072645
 21
-1.08863340646832
 31
0.0
  0
LINE
  5
12D
330
C4
100
AcDbEntity
  8
AM_4
100
AcDbLine
 10
-1.90532477077318
 20
-1.122852494962034
 30
0.0
 11
-1.871870724581774
 21
-1.174475066725467
 31
0.0
  0
LINE
  5
12E
330
C4
100
AcDbEntity
  8
AM_4
100
AcDbLine
 10
-1.859815075270795
 20
-1.167514734350518
 30
0.0
 11
-1.871870724581774
 21
-1.174475066725467
 31
0.0
  0
LINE
  5
12F
330
C4
100
AcDbEntity
  8
AM_4
100
AcDbLine
 10
-2.043164078246933
 20
-1.031618123437406
 30
0.0
 11
-2.01715526922095
 21
-1.032753048956784
 31
0.0
  0
ELLIPSE
  5
130
330
C4
100
AcDbEntity
  8
AM_4
100
AcDbEllipse
 10
-2.024482820492054
 20
-1.168835701380853
 30
0.0
 11
-0.07031249999999913
 21
0.1217848224071933
 31
0.0
210
0.0
220
0.0
230
1.0
 40
0.9063077870366504
 41
2.900254167084521
 42
3.565561594284258
  0
ELLIPSE
  5
131
330
C4
100
AcDbEntity
  8
AM_4
100
AcDbEllipse
 10
-2.02448282049205
 20
-1.168835701380861
 30
0.0
 11
-0.07031250000000044
 21
0.1217848224071889
 31
0.0
210
0.0
220
0.0
230
1.0
 40
0.9063077870366517
 41
5.859216366485144
 42
6.525633678051704
  0
LINE
  5
132
330
C4
100
AcDbEntity
  8
AM_4
100
AcDbLine
 10
-1.902968010842884
 20
-1.23053118204459
 30
0.0
 11
-1.914989541024691
 21
-1.253622934142958
 31
0.0
  0
ELLIPSE
  5
133
330
C4
100
AcDbEntity
  8
AM_4
100
AcDbEllipse
 10
-2.024482820492055
 20
-1.168835701380858
 30
0.0
 11
-0.07031250000000223
 21
0.1217848224071891
 31
0.0
210
0.0
220
0.0
230
1.0
 40
0.9063077870366538
 41
3.764821264091944
 42
4.57143271980269
  0
LINE
  5
134
330
C4
100
AcDbEntity
  8
AM_4
100
AcDbLine
 10
-1.92508117072645
 20
-1.08863340646832
 30
0.0
 11
-1.90532477077318
 21
-1.122852494962034
 31
0.0
  0
ELLIPSE
  5
135
330
C4
100
AcDbEntity
  8
AM_4
100
AcDbEllipse
 10
-2.024482820492052
 20
-1.168835701380859
 30
0.0
 11
-0.07031250000000089
 21
0.1217848224071869
 31
0.0
210
0.0
220
0.0
230
1.0
 40
0.9063077870366486
 41
4.85334524096667
 42
5.659956696677427
  0
LINE
  5
136
330
C4
100
AcDbEntity
  8
AM_4
100
AcDbLine
 10
-2.214607407433129
 20
-1.210296671626111
 30
0.0
 11
-2.214238439772147
 21
-1.213079104756016
 31
0.0
  0
LWPOLYLINE
  5
137
330
C4
100
AcDbEntity
  8
AM_4
100
AcDbPolyline
 90
        4
 70
     0
 43
0.0
 10
-2.213828241169919
 20
-1.169554753661751
 10
-2.215015443168113
 20
-1.178571862409579
 10
-2.215571505546923
 20
-1.198615663949117
 10
-2.214607407433129
 20
-1.210296671626111
  0
LWPOLYLINE
  5
138
330
C4
100
AcDbEntity
  8
AM_4
100
AcDbPolyline
 90
       34
 70
     0
 43
0.0
 10
-2.096205287464164
 20
-1.338982388948949
 10
-2.08903664737203
 20
-1.340077244206657
 10
-2.069511222373706
 20
-1.341022227044444
 10
-2.050285630218666
 20
-1.338995353681025
 10
-2.031778632086177
 20
-1.334057342196159
 10
-2.014383481293877
 20
-1.326333856695507
 10
-1.998459152022248
 20
-1.31600641524532
 10
-1.984328188717973
 20
-1.303305318248879
 10
-1.972273604581115
 20
-1.288503777637312
 10
-1.962532147153591
 20
-1.271905472723573
 10
-1.955299184633744
 20
-1.253845501242407
 10
-1.950725756576821
 20
-1.234689018558463
 10
-1.948913581056246
 20
-1.214828009161258
 10
-1.949909772734821
 20
-1.194674967439717
 10
-1.953703099247558
 20
-1.174653837311664
 10
-1.960222753989026
 20
-1.155189598295994
 10
-1.969339556292445
 20
-1.136697973783375
 10
-1.980868822711983
 20
-1.119576141226425
 10
-1.99457298065888
 20
-1.104195629993608
 10
-2.010165975550749
 20
-1.090893285071118
 10
-2.027318696109944
 20
-1.079963114640904
 10
-2.045663265827818
 20
-1.07164961491681
 10
-2.064799855034686
 20
-1.066139538180957
 10
-2.084306215066085
 20
-1.063554207872081
 10
-2.103750203655666
 20
-1.063944024848711
 10
-2.122704297567635
 20
-1.067287008726459
 10
-2.140759785037226
 20
-1.07349234502927
 10
-2.157537974771726
 20
-1.082408139376845
 10
-2.172696853919056
 20
-1.093830932061394
 10
-2.185929208450861
 20
-1.107508792775887
 10
-2.196974049686763
 20
-1.123154970670353
 10
-2.205612982985222
 20
-1.140451567304566
 10
-2.211669987109816
 20
-1.159049781900508
 10
-2.213828241169919
 20
-1.169554753661751
  0
ELLIPSE
  5
139
330
C4
100
AcDbEntity
  8
AM_4
100
AcDbEllipse
 10
-2.086158705233382
 20
-1.204444290038773
 30
0.0
 11
-0.06957427803572093
 21
0.120506184457787
 31
0.0
210
0.0
220
0.0
230
1.0
 40
0.9063077870366649
 41
1.153194315540303
 42
1.570796326794897
  0
ELLIPSE
  5
13A
330
C4
100
AcDbEntity
  8
AM_4
100
AcDbEllipse
 10
-2.114152367430864
 20
-1.220606438444094
 30
0.0
 11
0.05174132036229517
 21
-0.08961859571819297
 31
0.0
210
0.0
220
0.0
230
1.0
 40
0.9063077870366506
 41
0.0
 42
6.283185307179586
  0
ELLIPSE
  5
13B
330
C4
100
AcDbEntity
  8
AM_4
100
AcDbEllipse
 10
-2.086158705233381
 20
-1.204444290038774
 30
0.0
 11
-0.06957427803572047
 21
0.120506184457791
 31
0.0
210
0.0
220
0.0
230
1.0
 40
0.9063077870366499
 41
1.570796326794897
 42
7.43637962271991
  0
ENDBLK
  5
C7
330
C4
100
AcDbEntity
  8
0
100
AcDbBlockEnd
  0
BLOCK
  5
13E
330
13C
100
AcDbEntity
  8
0
100
AcDbBlockBegin
  2
4_131246H_0_in_131246_0
 70
     2
 10
0.0
 20
0.0
 30
0.0
  3
4_131246H_0_in_131246_0
  1

  0
ATTDEF
  5
140
330
13C
100
AcDbEntity
  8
AM_6
100
AcDbText
 10
8.085
 20
2.065
 30
0.0
 40
0.5
  1
WSTU-SXV -I-Housing
100
AcDbAttributeDefinition
  3

  2
NN
 70
     8
280
     0
  0
ATTDEF
  5
141
330
13C
100
AcDbEntity
  8
AM_6
100
AcDbText
 10
8.085
 20
1.565
 30
0.0
 40
0.5
  1
Eccentric Collar Take-Up Bearings -(Intermediate Duty) -Wide Slot
100
AcDbAttributeDefinition
  3

  2
NT
 70
     8
280
     0
  0
ATTDEF
  5
142
330
13C
100
AcDbEntity
  8
AM_6
100
AcDbText
 10
8.085
 20
1.065
 30
0.0
 40
0.5
  1
131246H
100
AcDbAttributeDefinition
  3

  2
NB
 70
     8
280
     0
  0
ATTDEF
  5
143
330
13C
100
AcDbEntity
  8
AM_6
100
AcDbText
 10
8.085
 20
0.565
 30
0.0
 40
0.5
  1
$PN.H
100
AcDbAttributeDefinition
  3

  2
NBSYN
 70
     8
280
     0
  0
ATTDEF
  5
144
330
13C
100
AcDbEntity
  8
AM_6
100
AcDbText
 10
8.085
 20
0.0649999999999999
 30
0.0
 40
0.5
  1
131246
100
AcDbAttributeDefinition
  3

  2
LINA
 70
     8
280
     0
  0
ATTDEF
  5
145
330
13C
100
AcDbEntity
  8
AM_6
100
AcDbText
 10
8.085
 20
-0.4350000000000001
 30
0.0
 40
0.5
  1
207
100
AcDbAttributeDefinition
  3

  2
SERIES
 70
     8
280
     0
  0
ATTDEF
  5
146
330
13C
100
AcDbEntity
  8
AM_6
100
AcDbText
 10
8.085
 20
-0.935
 30
0.0
 40
0.5
  1
1-1/4
100
AcDbAttributeDefinition
  3

  2
SS
 70
     8
280
     0
  0
ATTDEF
  5
147
330
13C
100
AcDbEntity
  8
AM_6
100
AcDbText
 10
8.085
 20
-1.435
 30
0.0
 40
0.5
  1
131246
100
AcDbAttributeDefinition
  3

  2
PN
 70
     8
280
     0
  0
ATTDEF
  5
148
330
13C
100
AcDbEntity
  8
AM_6
100
AcDbText
 10
8.085
 20
-1.935
 30
0.0
 40
0.5
  1
WSTU-SXV-104
100
AcDbAttributeDefinition
  3

  2
DESCRIPTION
 70
     8
280
     0
  0
ATTDEF
  5
149
330
13C
100
AcDbEntity
  8
AM_6
100
AcDbText
 10
8.085
 20
-2.435
 30
0.0
 40
0.5
  1
2.8
100
AcDbAttributeDefinition
  3

  2
W
 70
     8
280
     0
  0
ATTDEF
  5
14A
330
13C
100
AcDbEntity
  8
AM_6
100
AcDbText
 10
8.085
 20
-2.935
 30
0.0
 40
0.5
  1
WS308
100
AcDbAttributeDefinition
  3

  2
FS
 70
     8
280
     0
  0
ATTDEF
  5
14B
330
13C
100
AcDbEntity
  8
AM_6
100
AcDbText
 10
8.085
 20
-3.435
 30
0.0
 40
0.5
  1
1.53
100
AcDbAttributeDefinition
  3

  2
A
 70
     8
280
     0
  0
ATTDEF
  5
14C
330
13C
100
AcDbEntity
  8
AM_6
100
AcDbText
 10
8.085
 20
-3.935
 30
0.0
 40
0.5
  1
4.87
100
AcDbAttributeDefinition
  3

  2
B
 70
     8
280
     0
  0
ATTDEF
  5
14D
330
13C
100
AcDbEntity
  8
AM_6
100
AcDbText
 10
8.085
 20
-4.435
 30
0.0
 40
0.5
  1
0.531
100
AcDbAttributeDefinition
  3

  2
C
 70
     8
280
     0
  0
ATTDEF
  5
14E
330
13C
100
AcDbEntity
  8
AM_6
100
AcDbText
 10
8.085
 20
-4.935
 30
0.0
 40
0.5
  1
2.50
100
AcDbAttributeDefinition
  3

  2
D
 70
     8
280
     0
  0
ATTDEF
  5
14F
330
13C
100
AcDbEntity
  8
AM_6
100
AcDbText
 10
8.085
 20
-5.435
 30
0.0
 40
0.5
  1
3.06
100
AcDbAttributeDefinition
  3

  2
E
 70
     8
280
     0
  0
ATTDEF
  5
150
330
13C
100
AcDbEntity
  8
AM_6
100
AcDbText
 10
8.085
 20
-5.935
 30
0.0
 40
0.5
  1
3/4
100
AcDbAttributeDefinition
  3

  2
F
 70
     8
280
     0
  0
ATTDEF
  5
151
330
13C
100
AcDbEntity
  8
AM_6
100
AcDbText
 10
8.085
 20
-6.435
 30
0.0
 40
0.5
  1
0.50
100
AcDbAttributeDefinition
  3

  2
G
 70
     8
280
     0
  0
ATTDEF
  5
152
330
13C
100
AcDbEntity
  8
AM_6
100
AcDbText
 10
8.085
 20
-6.935
 30
0.0
 40
0.5
  1
0.63
100
AcDbAttributeDefinition
  3

  2
H
 70
     8
280
     0
  0
ATTDEF
  5
153
330
13C
100
AcDbEntity
  8
AM_6
100
AcDbText
 10
8.085
 20
-7.435
 30
0.0
 40
0.5
  1
2.50
100
AcDbAttributeDefinition
  3

  2
J
 70
     8
280
     0
  0
ATTDEF
  5
154
330
13C
100
AcDbEntity
  8
AM_6
100
AcDbText
 10
8.085
 20
-7.935
 30
0.0
 40
0.5
  1
1.44
100
AcDbAttributeDefinition
  3

  2
K
 70
     8
280
     0
  0
ATTDEF
  5
155
330
13C
100
AcDbEntity
  8
AM_6
100
AcDbText
 10
8.085
 20
-8.435
 30
0.0
 40
0.5
  1
2.13
100
AcDbAttributeDefinition
  3

  2
L
 70
     8
280
     0
  0
ATTDEF
  5
156
330
13C
100
AcDbEntity
  8
AM_6
100
AcDbText
 10
8.085
 20
-8.935
 30
0.0
 40
0.5
  1
3.480 / 3.510
100
AcDbAttributeDefinition
  3

  2
M
 70
     8
280
     0
  0
ATTDEF
  5
157
330
13C
100
AcDbEntity
  8
AM_6
100
AcDbText
 10
8.085
 20
-9.435
 30
0.0
 40
0.5
  1
4.13
100
AcDbAttributeDefinition
  3

  2
N
 70
     8
280
     0
  0
ATTDEF
  5
158
330
13C
100
AcDbEntity
  8
AM_6
100
AcDbText
 10
8.085
 20
-9.935
 30
0.0
 40
0.5
  1
0.37
100
AcDbAttributeDefinition
  3

  2
R
 70
     8
280
     0
  0
ATTDEF
  5
159
330
13C
100
AcDbEntity
  8
AM_6
100
AcDbText
 10
8.085
 20
-10.435
 30
0.0
 40
0.5
  1
1.16
100
AcDbAttributeDefinition
  3

  2
S
 70
     8
280
     0
  0
ATTDEF
  5
15A
330
13C
100
AcDbEntity
  8
AM_6
100
AcDbText
 10
8.085
 20
-10.935
 30
0.0
 40
0.5
  1
1.63
100
AcDbAttributeDefinition
  3

  2
T
 70
     8
280
     0
  0
ATTDEF
  5
15B
330
13C
100
AcDbEntity
  8
AM_6
100
AcDbText
 10
8.085
 20
-11.435
 30
0.0
 40
0.5
  1
3065
100
AcDbAttributeDefinition
  3

  2
CAPS
 70
     8
280
     0
  0
ATTDEF
  5
15C
330
13C
100
AcDbEntity
  8
AM_6
100
AcDbText
 10
8.085
 20
-11.935
 30
0.0
 40
0.5
  1
5759
100
AcDbAttributeDefinition
  3

  2
CAPD
 70
     8
280
     0
  0
ATTDEF
  5
15D
330
13C
100
AcDbEntity
  8
AM_6
100
AcDbText
 10
8.085
 20
-12.435
 30
0.0
 40
0.5
  1
baldor
100
AcDbAttributeDefinition
  3

  2
COMPANY
 70
     8
280
     0
  0
LINE
  5
15E
330
13C
100
AcDbEntity
  8
AM_9
100
AcDbLine
 10
0.4166666666666661
 20
-1.419928494287262
 30
0.0
 11
0.4166666666666667
 21
-1.354669029279435
 31
0.0
  0
ARC
  5
15F
330
13C
100
AcDbEntity
  8
AM_9
100
AcDbCircle
 10
0.0000000000000012
 20
0.0000000000000024
 30
0.0
 40
1.479800000000002
100
AcDbArc
 50
253.6460954094129
 51
286.3539045905869
  0
ARC
  5
160
330
13C
100
AcDbEntity
  8
AM_9
100
AcDbCircle
 10
-0.0000000000000001
 20
0.0000000000000009
 30
0.0
 40
1.479799999999999
100
AcDbArc
 50
73.64609540941295
 51
106.353904590587
  0
LINE
  5
161
330
13C
100
AcDbEntity
  8
AM_9
100
AcDbLine
 10
0.4166666666666667
 20
1.354669029279435
 30
0.0
 11
0.4166666666666667
 21
1.419928494287261
 31
0.0
  0
LINE
  5
162
330
13C
100
AcDbEntity
  8
AM_9
100
AcDbLine
 10
-0.4166666666666667
 20
1.419928494287261
 30
0.0
 11
-0.4166666666666667
 21
1.354669029279435
 31
0.0
  0
LINE
  5
163
330
13C
100
AcDbEntity
  8
AM_9
100
AcDbLine
 10
-0.4166666666666667
 20
-1.354669029279435
 30
0.0
 11
-0.4166666666666667
 21
-1.419928494287261
 31
0.0
  0
LINE
  5
164
330
13C
100
AcDbEntity
  8
AM_9
100
AcDbLine
 10
1.25
 20
1.74
 30
0.0
 11
-1.25
 21
1.74
 31
0.0
  0
LINE
  5
165
330
13C
100
AcDbEntity
  8
AM_9
100
AcDbLine
 10
1.25
 20
-1.74
 30
0.0
 11
-1.25
 21
-1.74
 31
0.0
  0
LINE
  5
166
330
13C
100
AcDbEntity
  8
AM_9
100
AcDbLine
 10
2.56
 20
-0.3749999999999999
 30
0.0
 11
3.06
 21
-0.3749999999999999
 31
0.0
  0
LINE
  5
167
330
13C
100
AcDbEntity
  8
AM_9
100
AcDbLine
 10
3.06
 20
0.3749999999999999
 30
0.0
 11
2.56
 21
0.3749999999999999
 31
0.0
  0
LINE
  5
168
330
13C
100
AcDbEntity
  8
AM_7
100
AcDbLine
 10
-1.488165
 20
0.0
 30
0.0
 11
1.488165
 21
0.0
 31
0.0
  0
LINE
  5
169
330
13C
100
AcDbEntity
  8
AM_7
100
AcDbLine
 10
0.0
 20
-1.50779
 30
0.0
 11
0.0
 21
1.488165
 31
0.0
  0
LINE
  5
16A
330
13C
100
AcDbEntity
  8
AM_7
100
AcDbLine
 10
-2.140977177918342
 20
-1.23609375
 30
0.0
 11
-1.118501870751662
 21
-0.6457673561675717
 31
0.0
  0
LINE
  5
16B
330
13C
100
AcDbEntity
  8
AM_7
100
AcDbLine
 10
3.085
 20
0.0
 30
0.0
 11
2.535
 21
0.0
 31
0.0
  0
LINE
  5
16C
330
13C
100
AcDbEntity
  8
AM_4
100
AcDbLine
 10
-1.814108521228277
 20
-0.6778718707889794
 30
0.0
 11
-1.494108521250417
 21
-1.232128129172674
 31
0.0
  0
ARC
  5
16D
330
13C
100
AcDbEntity
  8
AM_4
100
AcDbCircle
 10
-1.407505980849834
 20
-1.18212812921102
 30
0.0
 40
0.0999999999999999
100
AcDbArc
 50
210.0000000000002
 51
300.0000000000001
  0
ARC
  5
16E
330
13C
100
AcDbEntity
  8
AM_4
100
AcDbCircle
 10
-1.727505980849835
 20
-0.627871870788979
 30
0.0
 40
0.0999999999999991
100
AcDbArc
 50
119.9999999999999
 51
210.0000000000004
  0
LINE
  5
16F
330
13C
100
AcDbEntity
  8
AM_4
100
AcDbLine
 10
-1.777505980849834
 20
-0.5412693304105357
 30
0.0
 11
-1.357505980849834
 21
-1.268730669589464
 31
0.0
  0
LINE
  5
170
330
13C
100
AcDbEntity
  8
AM_4
100
AcDbLine
 10
-1.357505980849834
 20
-1.268730669589464
 30
0.0
 11
-1.314809027035921
 21
-1.244079571811425
 31
0.0
  0
LINE
  5
171
330
13C
100
AcDbEntity
  8
AM_4
100
AcDbLine
 10
-1.734809027035921
 20
-0.5166182326324961
 30
0.0
 11
-1.777505980849834
 21
-0.5412693304105356
 31
0.0
  0
LINE
  5
172
330
13C
100
AcDbEntity
  8
AM_4
100
AcDbLine
 10
-1.551065347059134
 20
-0.9328967194455822
 30
0.0
 11
-1.583444931676606
 21
-0.8768136337601455
 31
0.0
  0
ARC
  5
173
330
13C
100
AcDbEntity
  8
AM_4
100
AcDbCircle
 10
0.0000000000000127
 20
0.00000000000001
 30
0.0
 40
1.810000000000016
100
AcDbArc
 50
211.0250345348138
 51
226.3217643852493
  0
ARC
  5
174
330
13C
100
AcDbEntity
  8
AM_4
100
AcDbCircle
 10
0.0000000000000011
 20
-0.0000000000000002
 30
0.0
 40
1.810000000000001
100
AcDbArc
 50
133.6782356147506
 51
208.9749654651863
  0
LWPOLYLINE
  5
175
330
13C
100
AcDbEntity
  8
AM_4
100
AcDbPolyline
 90
       19
 70
     0
 43
0.0
 10
3.06
 20
1.1969
 10
3.059797938468672
 20
1.201527969939901
 10
3.059193291684949
 20
1.206120718234114
 10
3.05819066137595
 20
1.210643291294944
 10
3.056797678163732
 20
1.215061269610593
 10
3.055024943491647
 20
1.219341029698431
 10
3.052885948940954
 20
1.22345
 10
3.050396973551746
 20
1.227356908770241
 10
3.047576959929618
 20
1.231032022074355
 10
3.044447370081006
 20
1.234447370081006
 10
3.041032022074356
 20
1.237576959929618
 10
3.037356908770241
 20
1.240396973551745
 10
3.03345
 20
1.242885948940954
 10
3.029341029698432
 20
1.245024943491646
 10
3.025061269610593
 20
1.246797678163732
 10
3.020643291294945
 20
1.248190661375949
 10
3.016120718234115
 20
1.249193291684948
 10
3.011527969939901
 20
1.249797938468672
 10
3.006900000000001
 20
1.25
  0
LINE
  5
176
330
13C
100
AcDbEntity
  8
AM_4
100
AcDbLine
 10
3.0069
 20
1.25
 30
0.0
 11
1.25
 21
1.25
 31
0.0
  0
LWPOLYLINE
  5
177
330
13C
100
AcDbEntity
  8
AM_4
100
AcDbPolyline
 90
       19
 70
     0
 43
0.0
 10
3.006900000000001
 20
-1.25
 10
3.011527969939901
 20
-1.249797938468672
 10
3.016120718234114
 20
-1.249193291684948
 10
3.020643291294945
 20
-1.248190661375949
 10
3.025061269610593
 20
-1.246797678163732
 10
3.029341029698432
 20
-1.245024943491646
 10
3.03345
 20
-1.242885948940954
 10
3.037356908770241
 20
-1.240396973551745
 10
3.041032022074356
 20
-1.237576959929618
 10
3.044447370081006
 20
-1.234447370081006
 10
3.047576959929618
 20
-1.231032022074355
 10
3.050396973551746
 20
-1.227356908770241
 10
3.052885948940954
 20
-1.22345
 10
3.055024943491647
 20
-1.219341029698431
 10
3.056797678163732
 20
-1.215061269610593
 10
3.05819066137595
 20
-1.210643291294944
 10
3.059193291684949
 20
-1.206120718234114
 10
3.059797938468672
 20
-1.201527969939901
 10
3.06
 20
-1.196900000000001
  0
LINE
  5
178
330
13C
100
AcDbEntity
  8
AM_4
100
AcDbLine
 10
3.006900000000001
 20
-1.25
 30
0.0
 11
1.250000000000001
 21
-1.25
 31
0.0
  0
LINE
  5
179
330
13C
100
AcDbEntity
  8
AM_4
100
AcDbLine
 10
3.06
 20
1.1969
 30
0.0
 11
3.06
 21
-1.1969
 31
0.0
  0
CIRCLE
  5
17A
330
13C
100
AcDbEntity
  8
AM_4
100
AcDbCircle
 10
0.0
 20
0.0
 30
0.0
 40
1.4173
  0
LINE
  5
17B
330
13C
100
AcDbEntity
  8
AM_4
100
AcDbLine
 10
3.06
 20
1.1969
 30
0.0
 11
1.250000000000001
 21
1.1969
 31
0.0
  0
ARC
  5
17C
330
13C
100
AcDbEntity
  8
AM_4
100
AcDbCircle
 10
0.0
 20
-0.0000000000000001
 30
0.0
 40
1.7774
100
AcDbArc
 50
134.6903071940541
 51
225.3096928059459
  0
LINE
  5
17D
330
13C
100
AcDbEntity
  8
AM_4
100
AcDbLine
 10
3.06
 20
-1.1969
 30
0.0
 11
1.250000000000001
 21
-1.1969
 31
0.0
  0
ARC
  5
17E
330
13C
100
AcDbEntity
  8
AM_4
100
AcDbCircle
 10
2.5069
 20
-0.6669000000000002
 30
0.0
 40
0.0530999999999998
100
AcDbArc
 50
270.0
 51
0.0000008537736463
  0
LINE
  5
17F
330
13C
100
AcDbEntity
  8
AM_4
100
AcDbLine
 10
1.9831
 20
-0.72
 30
0.0
 11
2.5069
 21
-0.72
 31
0.0
  0
ARC
  5
180
330
13C
100
AcDbEntity
  8
AM_4
100
AcDbCircle
 10
1.9831
 20
-0.6669000000000002
 30
0.0
 40
0.0530999999999999
100
AcDbArc
 50
180.0
 51
270.0
  0
LINE
  5
181
330
13C
100
AcDbEntity
  8
AM_4
100
AcDbLine
 10
1.93
 20
0.6669000000000002
 30
0.0
 11
1.93
 21
-0.6669000000000002
 31
0.0
  0
ARC
  5
182
330
13C
100
AcDbEntity
  8
AM_4
100
AcDbCircle
 10
1.9831
 20
0.6669000000000002
 30
0.0
 40
0.0530999999999998
100
AcDbArc
 50
90.0
 51
180.0
  0
LINE
  5
183
330
13C
100
AcDbEntity
  8
AM_4
100
AcDbLine
 10
2.5069
 20
0.7200000000000002
 30
0.0
 11
1.9831
 21
0.72
 31
0.0
  0
ARC
  5
184
330
13C
100
AcDbEntity
  8
AM_4
100
AcDbCircle
 10
2.506900000000002
 20
0.6669000000000015
 30
0.0
 40
0.0530999999999984
100
AcDbArc
 50
0.0000008537736463
 51
90.0
  0
LWPOLYLINE
  5
185
330
13C
100
AcDbEntity
  8
AM_4
100
AcDbPolyline
 90
       19
 70
     0
 43
0.0
 10
1.25
 20
2.011900000000001
 10
1.249797938468672
 20
2.016527969939901
 10
1.249193291684948
 20
2.021120718234115
 10
1.248190661375949
 20
2.025643291294944
 10
1.246797678163732
 20
2.030061269610593
 10
1.245024943491646
 20
2.034341029698432
 10
1.242885948940954
 20
2.03845
 10
1.240396973551746
 20
2.042356908770241
 10
1.237576959929618
 20
2.046032022074356
 10
1.234447370081006
 20
2.049447370081006
 10
1.231032022074355
 20
2.052576959929618
 10
1.227356908770241
 20
2.055396973551745
 10
1.22345
 20
2.057885948940954
 10
1.219341029698431
 20
2.060024943491646
 10
1.215061269610594
 20
2.061797678163732
 10
1.210643291294944
 20
2.06319066137595
 10
1.206120718234115
 20
2.064193291684948
 10
1.201527969939901
 20
2.064797938468672
 10
1.196900000000001
 20
2.065
  0
LWPOLYLINE
  5
186
330
13C
100
AcDbEntity
  8
AM_4
100
AcDbPolyline
 90
       19
 70
     0
 43
0.0
 10
-1.1969
 20
2.065
 10
-1.201527969939901
 20
2.064797938468672
 10
-1.206120718234114
 20
2.064193291684948
 10
-1.210643291294944
 20
2.06319066137595
 10
-1.215061269610593
 20
2.061797678163732
 10
-1.219341029698431
 20
2.060024943491646
 10
-1.22345
 20
2.057885948940954
 10
-1.22735690877024
 20
2.055396973551746
 10
-1.231032022074355
 20
2.052576959929619
 10
-1.234447370081005
 20
2.049447370081007
 10
-1.237576959929617
 20
2.046032022074356
 10
-1.240396973551745
 20
2.042356908770242
 10
-1.242885948940953
 20
2.038450000000001
 10
-1.245024943491646
 20
2.034341029698433
 10
-1.246797678163732
 20
2.030061269610594
 10
-1.248190661375949
 20
2.025643291294945
 10
-1.249193291684948
 20
2.021120718234116
 10
-1.249797938468671
 20
2.016527969939902
 10
-1.25
 20
2.011900000000002
  0
LINE
  5
187
330
13C
100
AcDbEntity
  8
AM_4
100
AcDbLine
 10
1.196900000000001
 20
2.065
 30
0.0
 11
-1.1969
 21
2.065
 31
0.0
  0
LINE
  5
188
330
13C
100
AcDbEntity
  8
AM_4
100
AcDbLine
 10
1.25
 20
2.011900000000001
 30
0.0
 11
1.250000000000001
 21
1.1969
 31
0.0
  0
LINE
  5
189
330
13C
100
AcDbEntity
  8
AM_4
100
AcDbLine
 10
-1.25
 20
2.011900000000001
 30
0.0
 11
-1.25
 21
1.263586467164001
 31
0.0
  0
LINE
  5
18A
330
13C
100
AcDbEntity
  8
AM_4
100
AcDbLine
 10
1.25
 20
2.011900000000001
 30
0.0
 11
-1.25
 21
2.011900000000001
 31
0.0
  0
LINE
  5
18B
330
13C
100
AcDbEntity
  8
AM_4
100
AcDbLine
 10
1.25
 20
1.5775
 30
0.0
 11
-1.25
 21
1.5775
 31
0.0
  0
LINE
  5
18C
330
13C
100
AcDbEntity
  8
AM_4
100
AcDbLine
 10
1.25
 20
1.65715
 30
0.0
 11
-1.25
 21
1.65715
 31
0.0
  0
LINE
  5
18D
330
13C
100
AcDbEntity
  8
AM_4
100
AcDbLine
 10
-1.25
 20
-1.263586467164001
 30
0.0
 11
-1.25
 21
-2.0119
 31
0.0
  0
LINE
  5
18E
330
13C
100
AcDbEntity
  8
AM_4
100
AcDbLine
 10
1.250000000000001
 20
-1.1969
 30
0.0
 11
1.25
 21
-2.011900000000001
 31
0.0
  0
LINE
  5
18F
330
13C
100
AcDbEntity
  8
AM_4
100
AcDbLine
 10
1.25
 20
-1.65715
 30
0.0
 11
-1.25
 21
-1.65715
 31
0.0
  0
LINE
  5
190
330
13C
100
AcDbEntity
  8
AM_4
100
AcDbLine
 10
1.25
 20
-1.577499999999999
 30
0.0
 11
-1.25
 21
-1.577499999999999
 31
0.0
  0
LWPOLYLINE
  5
191
330
13C
100
AcDbEntity
  8
AM_4
100
AcDbPolyline
 90
       19
 70
     0
 43
0.0
 10
-1.25
 20
-2.011900000000001
 10
-1.249797938468671
 20
-2.016527969939902
 10
-1.249193291684948
 20
-2.021120718234115
 10
-1.248190661375949
 20
-2.025643291294945
 10
-1.246797678163732
 20
-2.030061269610594
 10
-1.245024943491646
 20
-2.034341029698432
 10
-1.242885948940954
 20
-2.038450000000001
 10
-1.240396973551745
 20
-2.042356908770241
 10
-1.237576959929618
 20
-2.046032022074356
 10
-1.234447370081006
 20
-2.049447370081006
 10
-1.231032022074355
 20
-2.052576959929618
 10
-1.227356908770241
 20
-2.055396973551746
 10
-1.22345
 20
-2.057885948940954
 10
-1.219341029698431
 20
-2.060024943491646
 10
-1.215061269610593
 20
-2.061797678163732
 10
-1.210643291294944
 20
-2.06319066137595
 10
-1.206120718234114
 20
-2.064193291684949
 10
-1.201527969939901
 20
-2.064797938468672
 10
-1.196900000000001
 20
-2.065
  0
LINE
  5
192
330
13C
100
AcDbEntity
  8
AM_4
100
AcDbLine
 10
1.1969
 20
-2.065
 30
0.0
 11
-1.196900000000001
 21
-2.065
 31
0.0
  0
LWPOLYLINE
  5
193
330
13C
100
AcDbEntity
  8
AM_4
100
AcDbPolyline
 90
       19
 70
     0
 43
0.0
 10
1.1969
 20
-2.065
 10
1.201527969939901
 20
-2.064797938468672
 10
1.206120718234114
 20
-2.064193291684948
 10
1.210643291294944
 20
-2.06319066137595
 10
1.215061269610593
 20
-2.061797678163732
 10
1.219341029698431
 20
-2.060024943491646
 10
1.22345
 20
-2.057885948940954
 10
1.22735690877024
 20
-2.055396973551746
 10
1.231032022074355
 20
-2.052576959929619
 10
1.234447370081005
 20
-2.049447370081007
 10
1.237576959929617
 20
-2.046032022074356
 10
1.240396973551745
 20
-2.042356908770242
 10
1.242885948940953
 20
-2.038450000000001
 10
1.245024943491646
 20
-2.034341029698432
 10
1.246797678163732
 20
-2.030061269610594
 10
1.248190661375949
 20
-2.025643291294945
 10
1.249193291684948
 20
-2.021120718234116
 10
1.249797938468671
 20
-2.016527969939902
 10
1.25
 20
-2.011900002093456
  0
LINE
  5
194
330
13C
100
AcDbEntity
  8
AM_4
100
AcDbLine
 10
1.25
 20
-2.011900000000001
 30
0.0
 11
-1.25
 21
-2.0119
 31
0.0
  0
LINE
  5
195
330
13C
100
AcDbEntity
  8
AM_4
100
AcDbLine
 10
2.56
 20
0.6786075283254672
 30
0.0
 11
2.56
 21
-0.6786075283254672
 31
0.0
  0
LINE
  5
196
330
13C
100
AcDbEntity
  8
AM_4
100
AcDbLine
 10
2.56
 20
0.6786075283254672
 30
0.0
 11
3.06
 21
0.6786075283254672
 31
0.0
  0
LINE
  5
197
330
13C
100
AcDbEntity
  8
AM_4
100
AcDbLine
 10
3.06
 20
-0.6786075283254671
 30
0.0
 11
2.56
 21
-0.6786075283254672
 31
0.0
  0
ENDBLK
  5
13F
330
13C
100
AcDbEntity
  8
0
100
AcDbBlockEnd
  0
ENDSEC
  0
SECTION
  2
ENTITIES
  0
INSERT
  5
6F
330
1F
100
AcDbEntity
  8
0
100
AcDbBlockReference
  2
1_131246_0
 10
0.0
 20
0.0
 30
0.0
  0
POINT
  5
199
330
1F
100
AcDbEntity
  8
ConnectionPoints
100
AcDbPoint
 10
-1.654108521228278
 20
-0.955
 30
0.0
  0
POINT
  5
19A
330
1F
100
AcDbEntity
  8
ConnectionPoints
100
AcDbPoint
 10
-1.654108521228278
 20
-0.955
 30
0.0
  0
POINT
  5
19B
330
1F
100
AcDbEntity
  8
ConnectionPoints
100
AcDbPoint
 10
0.0
 20
0.0
 30
1.16
  0
ENDSEC
  0
SECTION
  2
OBJECTS
  0
DICTIONARY
  5
C
330
0
100
AcDbDictionary
281
     1
  3
ACAD_DETAILVIEWSTYLE
350
1A3
  3
ACAD_GROUP
350
D
  3
ACAD_LAYOUT
350
1A
  3
ACAD_MATERIAL
350
43
  3
ACAD_MLEADERSTYLE
350
6B
  3
ACAD_MLINESTYLE
350
17
  3
ACAD_PLOTSETTINGS
350
19
  3
ACAD_PLOTSTYLENAME
350
E
  3
ACAD_SCALELIST
350
47
  3
ACAD_SECTIONVIEWSTYLE
350
1A4
  3
ACAD_TABLESTYLE
350
69
  3
ACAD_VISUALSTYLE
350
2A
  3
ACDB_RECOMPOSE_DATA
350
1A0
  3
AcDbVariableDictionary
350
19C
  0
SUN
  5
6D
330
29
100
AcDbSun
 90
        1
290
     0
 63
     7
421
 16777215
 40
1.0
291
     1
 91
  2455826
 92
 54000000
292
     0
 70
     2
 71
   256
280
     1
  0
DICTIONARY
  5
1A3
102
{ACAD_REACTORS
330
C
102
}
330
C
100
AcDbDictionary
281
     1
  0
DICTIONARY
  5
D
102
{ACAD_REACTORS
330
C
102
}
330
C
100
AcDbDictionary
281
     1
  0
DICTIONARY
  5
1A
102
{ACAD_REACTORS
330
C
102
}
330
C
100
AcDbDictionary
281
     1
  3
Layout1
350
1E
  3
Layout2
350
26
  3
Model
350
22
  0
DICTIONARY
  5
43
102
{ACAD_REACTORS
330
C
102
}
330
C
100
AcDbDictionary
281
     1
  3
ByBlock
350
45
  3
ByLayer
350
44
  3
Global
350
46
  0
DICTIONARY
  5
6B
102
{ACAD_REACTORS
330
C
102
}
330
C
100
AcDbDictionary
281
     1
  3
Standard
350
6C
  0
DICTIONARY
  5
17
102
{ACAD_REACTORS
330
C
102
}
330
C
100
AcDbDictionary
281
     1
  3
Standard
350
18
  0
DICTIONARY
  5
19
102
{ACAD_REACTORS
330
C
102
}
330
C
100
AcDbDictionary
281
     1
  0
ACDBDICTIONARYWDFLT
  5
E
102
{ACAD_REACTORS
330
C
102
}
330
C
100
AcDbDictionary
281
     1
  3
Normal
350
F
100
AcDbDictionaryWithDefault
340
F
  0
DICTIONARY
  5
47
102
{ACAD_REACTORS
330
C
102
}
330
C
100
AcDbDictionary
281
     1
  3
A0
350
48
  3
A1
350
49
  3
A2
350
4A
  3
A3
350
4B
  3
A4
350
4C
  3
A5
350
4D
  3
A6
350
4E
  3
A7
350
4F
  3
A8
350
50
  3
A9
350
51
  3
B0
350
52
  3
B1
350
53
  3
B2
350
54
  3
B3
350
55
  3
B4
350
56
  3
B5
350
57
  3
B6
350
58
  3
B7
350
59
  3
B8
350
5A
  3
B9
350
5B
  3
C0
350
5C
  3
C1
350
5D
  3
C2
350
5E
  3
C3
350
5F
  3
C4
350
60
  3
C5
350
61
  3
C6
350
62
  3
C7
350
63
  3
C8
350
64
  3
C9
350
65
  3
D0
350
66
  3
D1
350
67
  3
D2
350
68
  0
DICTIONARY
  5
1A4
102
{ACAD_REACTORS
330
C
102
}
330
C
100
AcDbDictionary
281
     1
  0
DICTIONARY
  5
69
102
{ACAD_REACTORS
330
C
102
}
330
C
100
AcDbDictionary
281
     1
  3
Standard
350
6A
  0
DICTIONARY
  5
2A
102
{ACAD_REACTORS
330
C
102
}
330
C
100
AcDbDictionary
281
     1
  3
2dWireframe
350
2F
  3
Basic
350
32
  3
Brighten
350
36
  3
ColorChange
350
3A
  3
Conceptual
350
34
  3
Dim
350
35
  3
EdgeColorOff
350
3D
  3
Facepattern
350
39
  3
Flat
350
2B
  3
FlatWithEdges
350
2C
  3
Gouraud
350
2D
  3
GouraudWithEdges
350
2E
  3
Hidden
350
31
  3
JitterOff
350
3B
  3
Linepattern
350
38
  3
OverhangOff
350
3C
  3
Realistic
350
33
  3
Shaded
350
42
  3
Shaded with edges
350
41
  3
Shades of Gray
350
3E
  3
Sketchy
350
3F
  3
Thicken
350
37
  3
Wireframe
350
30
  3
X-Ray
350
40
  0
XRECORD
  5
1A0
102
{ACAD_REACTORS
330
C
102
}
330
C
100
AcDbXrecord
280
     1
 90
        1
330
6A
  0
DICTIONARY
  5
19C
102
{ACAD_REACTORS
330
C
102
}
330
C
100
AcDbDictionary
281
     1
  3
CANNOSCALE
350
19D
  3
CMLEADERSTYLE
350
1A2
  3
CTABLESTYLE
350
1A1
  0
LAYOUT
  5
1E
102
{ACAD_REACTORS
330
1A
102
}
330
1A
100
AcDbPlotSettings
  1

  2
none_device
  4

  6

 40
0.0
 41
0.0
 42
0.0
 43
0.0
 44
0.0
 45
0.0
 46
0.0
 47
0.0
 48
0.0
 49
0.0
140
0.0
141
0.0
142
1.0
143
1.0
 70
   688
 72
     0
 73
     0
 74
     5
  7

 75
    16
 76
     0
 77
     2
 78
   300
147
1.0
148
0.0
149
0.0
100
AcDbLayout
  1
Layout1
 70
     1
 71
     1
 10
0.0
 20
0.0
 11
12.0
 21
9.0
 12
0.0
 22
0.0
 32
0.0
 14
1.000000000000000E+20
 24
1.000000000000000E+20
 34
1.000000000000000E+20
 15
-1.000000000000000E+20
 25
-1.000000000000000E+20
 35
-1.000000000000000E+20
146
0.0
 13
0.0
 23
0.0
 33
0.0
 16
1.0
 26
0.0
 36
0.0
 17
0.0
 27
1.0
 37
0.0
 76
     0
330
1B
  0
LAYOUT
  5
26
102
{ACAD_REACTORS
330
1A
102
}
330
1A
100
AcDbPlotSettings
  1

  2
none_device
  4

  6

 40
0.0
 41
0.0
 42
0.0
 43
0.0
 44
0.0
 45
0.0
 46
0.0
 47
0.0
 48
0.0
 49
0.0
140
0.0
141
0.0
142
1.0
143
1.0
 70
   688
 72
     0
 73
     0
 74
     5
  7

 75
    16
 76
     0
 77
     2
 78
   300
147
1.0
148
0.0
149
0.0
100
AcDbLayout
  1
Layout2
 70
     1
 71
     2
 10
0.0
 20
0.0
 11
0.0
 21
0.0
 12
0.0
 22
0.0
 32
0.0
 14
0.0
 24
0.0
 34
0.0
 15
0.0
 25
0.0
 35
0.0
146
0.0
 13
0.0
 23
0.0
 33
0.0
 16
1.0
 26
0.0
 36
0.0
 17
0.0
 27
1.0
 37
0.0
 76
     0
330
23
  0
LAYOUT
  5
22
102
{ACAD_REACTORS
330
1A
102
}
330
1A
100
AcDbPlotSettings
  1

  2
none_device
  4
Letter_(8.50_x_11.00_Inches)
  6

 40
6.35
 41
6.35
 42
6.35000508
 43
6.35000508
 44
215.9
 45
279.4
 46
0.0
 47
0.0
 48
0.0
 49
0.0
140
0.0
141
0.0
142
1.0
143
1.0
 70
  1712
 72
     0
 73
     0
 74
     0
  7

 75
     0
 76
     0
 77
     2
 78
   300
147
1.0
148
0.0
149
0.0
100
AcDbLayout
  1
Model
 70
     1
 71
     0
 10
0.0
 20
0.0
 11
12.0
 21
9.0
 12
0.0
 22
0.0
 32
0.0
 14
1.000000000000000E+20
 24
1.000000000000000E+20
 34
1.000000000000000E+20
 15
-1.000000000000000E+20
 25
-1.000000000000000E+20
 35
-1.000000000000000E+20
146
0.0
 13
0.0
 23
0.0
 33
0.0
 16
1.0
 26
0.0
 36
0.0
 17
0.0
 27
1.0
 37
0.0
 76
     0
330
1F
331
29
  0
MATERIAL
  5
45
102
{ACAD_REACTORS
330
43
102
}
330
43
100
AcDbMaterial
  1
ByBlock
 72
     1
 94
      127
  0
MATERIAL
  5
44
102
{ACAD_REACTORS
330
43
102
}
330
43
100
AcDbMaterial
  1
ByLayer
 72
     1
 94
      127
  0
MATERIAL
  5
46
102
{ACAD_REACTORS
330
43
102
}
330
43
100
AcDbMaterial
  1
Global
 72
     1
 94
      127
  0
MLEADERSTYLE
  5
6C
102
{ACAD_REACTORS
330
6B
102
}
330
6B
100
AcDbMLeaderStyle
179
     2
170
     2
171
     1
172
     0
 90
        2
 40
0.0
 41
0.0
173
     1
 91
-1056964608
340
14
 92
       -2
290
     1
 42
0.09
291
     1
 43
0.36
  3
Standard
341
0
 44
0.18
300

342
11
174
     1
178
     6
175
     1
176
     0
 93
-1056964608
 45
0.18
292
     0
297
     0
 46
0.18
343
0
 94
-1056964608
 47
1.0
 49
1.0
140
1.0
293
     1
141
0.0
294
     1
177
     0
142
1.0
295
     0
296
     0
143
0.125
271
     0
272
     9
273
     9
298
     0
  0
MLINESTYLE
  5
18
102
{ACAD_REACTORS
330
17
102
}
330
17
100
AcDbMlineStyle
  2
Standard
 70
     0
  3

 62
   256
 51
90.0
 52
90.0
 71
     2
 49
0.5
 62
   256
  6
BYLAYER
 49
-0.5
 62
   256
  6
BYLAYER
  0
ACDBPLACEHOLDER
  5
F
102
{ACAD_REACTORS
330
E
102
}
330
E
  0
SCALE
  5
48
102
{ACAD_REACTORS
330
47
102
}
330
47
100
AcDbScale
 70
     0
300
1:1
140
1.0
141
1.0
290
     1
  0
SCALE
  5
49
102
{ACAD_REACTORS
330
47
102
}
330
47
100
AcDbScale
 70
     0
300
1:2
140
1.0
141
2.0
290
     0
  0
SCALE
  5
4A
102
{ACAD_REACTORS
330
47
102
}
330
47
100
AcDbScale
 70
     0
300
1:4
140
1.0
141
4.0
290
     0
  0
SCALE
  5
4B
102
{ACAD_REACTORS
330
47
102
}
330
47
100
AcDbScale
 70
     0
300
1:5
140
1.0
141
5.0
290
     0
  0
SCALE
  5
4C
102
{ACAD_REACTORS
330
47
102
}
330
47
100
AcDbScale
 70
     0
300
1:8
140
1.0
141
8.0
290
     0
  0
SCALE
  5
4D
102
{ACAD_REACTORS
330
47
102
}
330
47
100
AcDbScale
 70
     0
300
1:10
140
1.0
141
10.0
290
     0
  0
SCALE
  5
4E
102
{ACAD_REACTORS
330
47
102
}
330
47
100
AcDbScale
 70
     0
300
1:16
140
1.0
141
16.0
290
     0
  0
SCALE
  5
4F
102
{ACAD_REACTORS
330
47
102
}
330
47
100
AcDbScale
 70
     0
300
1:20
140
1.0
141
20.0
290
     0
  0
SCALE
  5
50
102
{ACAD_REACTORS
330
47
102
}
330
47
100
AcDbScale
 70
     0
300
1:30
140
1.0
141
30.0
290
     0
  0
SCALE
  5
51
102
{ACAD_REACTORS
330
47
102
}
330
47
100
AcDbScale
 70
     0
300
1:40
140
1.0
141
40.0
290
     0
  0
SCALE
  5
52
102
{ACAD_REACTORS
330
47
102
}
330
47
100
AcDbScale
 70
     0
300
1:50
140
1.0
141
50.0
290
     0
  0
SCALE
  5
53
102
{ACAD_REACTORS
330
47
102
}
330
47
100
AcDbScale
 70
     0
300
1:100
140
1.0
141
100.0
290
     0
  0
SCALE
  5
54
102
{ACAD_REACTORS
330
47
102
}
330
47
100
AcDbScale
 70
     0
300
2:1
140
2.0
141
1.0
290
     0
  0
SCALE
  5
55
102
{ACAD_REACTORS
330
47
102
}
330
47
100
AcDbScale
 70
     0
300
4:1
140
4.0
141
1.0
290
     0
  0
SCALE
  5
56
102
{ACAD_REACTORS
330
47
102
}
330
47
100
AcDbScale
 70
     0
300
8:1
140
8.0
141
1.0
290
     0
  0
SCALE
  5
57
102
{ACAD_REACTORS
330
47
102
}
330
47
100
AcDbScale
 70
     0
300
10:1
140
10.0
141
1.0
290
     0
  0
SCALE
  5
58
102
{ACAD_REACTORS
330
47
102
}
330
47
100
AcDbScale
 70
     0
300
100:1
140
100.0
141
1.0
290
     0
  0
SCALE
  5
59
102
{ACAD_REACTORS
330
47
102
}
330
47
100
AcDbScale
 70
     0
300
1/128" = 1'-0"
140
0.0078125
141
12.0
290
     0
  0
SCALE
  5
5A
102
{ACAD_REACTORS
330
47
102
}
330
47
100
AcDbScale
 70
     0
300
1/64" = 1'-0"
140
0.015625
141
12.0
290
     0
  0
SCALE
  5
5B
102
{ACAD_REACTORS
330
47
102
}
330
47
100
AcDbScale
 70
     0
300
1/32" = 1'-0"
140
0.03125
141
12.0
290
     0
  0
SCALE
  5
5C
102
{ACAD_REACTORS
330
47
102
}
330
47
100
AcDbScale
 70
     0
300
1/16" = 1'-0"
140
0.0625
141
12.0
290
     0
  0
SCALE
  5
5D
102
{ACAD_REACTORS
330
47
102
}
330
47
100
AcDbScale
 70
     0
300
3/32" = 1'-0"
140
0.09375
141
12.0
290
     0
  0
SCALE
  5
5E
102
{ACAD_REACTORS
330
47
102
}
330
47
100
AcDbScale
 70
     0
300
1/8" = 1'-0"
140
0.125
141
12.0
290
     0
  0
SCALE
  5
5F
102
{ACAD_REACTORS
330
47
102
}
330
47
100
AcDbScale
 70
     0
300
3/16" = 1'-0"
140
0.1875
141
12.0
290
     0
  0
SCALE
  5
60
102
{ACAD_REACTORS
330
47
102
}
330
47
100
AcDbScale
 70
     0
300
1/4" = 1'-0"
140
0.25
141
12.0
290
     0
  0
SCALE
  5
61
102
{ACAD_REACTORS
330
47
102
}
330
47
100
AcDbScale
 70
     0
300
3/8" = 1'-0"
140
0.375
141
12.0
290
     0
  0
SCALE
  5
62
102
{ACAD_REACTORS
330
47
102
}
330
47
100
AcDbScale
 70
     0
300
1/2" = 1'-0"
140
0.5
141
12.0
290
     0
  0
SCALE
  5
63
102
{ACAD_REACTORS
330
47
102
}
330
47
100
AcDbScale
 70
     0
300
3/4" = 1'-0"
140
0.75
141
12.0
290
     0
  0
SCALE
  5
64
102
{ACAD_REACTORS
330
47
102
}
330
47
100
AcDbScale
 70
     0
300
1" = 1'-0"
140
1.0
141
12.0
290
     0
  0
SCALE
  5
65
102
{ACAD_REACTORS
330
47
102
}
330
47
100
AcDbScale
 70
     0
300
1-1/2" = 1'-0"
140
1.5
141
12.0
290
     0
  0
SCALE
  5
66
102
{ACAD_REACTORS
330
47
102
}
330
47
100
AcDbScale
 70
     0
300
3" = 1'-0"
140
3.0
141
12.0
290
     0
  0
SCALE
  5
67
102
{ACAD_REACTORS
330
47
102
}
330
47
100
AcDbScale
 70
     0
300
6" = 1'-0"
140
6.0
141
12.0
290
     0
  0
SCALE
  5
68
102
{ACAD_REACTORS
330
47
102
}
330
47
100
AcDbScale
 70
     0
300
1'-0" = 1'-0"
140
12.0
141
12.0
290
     0
  0
TABLESTYLE
  5
6A
102
{ACAD_REACTORS
330
69
102
}
102
{ACAD_XDICTIONARY
360
19E
102
}
330
69
100
AcDbTableStyle
  3
Standard
 70
     0
 71
     0
 40
0.06
 41
0.06
280
     0
281
     0
  7
Standard
140
0.18
170
     2
 62
     0
 63
   257
283
     0
 90
        4
 91
        0
  1

274
    -2
284
     1
 64
     0
275
    -2
285
     1
 65
     0
276
    -2
286
     1
 66
     0
277
    -2
287
     1
 67
     0
278
    -2
288
     1
 68
     0
279
    -2
289
     1
 69
     0
  7
Standard
140
0.25
170
     5
 62
     0
 63
   257
283
     0
 90
        4
 91
        0
  1

274
    -2
284
     1
 64
     0
275
    -2
285
     1
 65
     0
276
    -2
286
     1
 66
     0
277
    -2
287
     1
 67
     0
278
    -2
288
     1
 68
     0
279
    -2
289
     1
 69
     0
  7
Standard
140
0.18
170
     5
 62
     0
 63
   257
283
     0
 90
        4
 91
        0
  1

274
    -2
284
     1
 64
     0
275
    -2
285
     1
 65
     0
276
    -2
286
     1
 66
     0
277
    -2
287
     1
 67
     0
278
    -2
288
     1
 68
     0
279
    -2
289
     1
 69
     0
  0
VISUALSTYLE
  5
2F
102
{ACAD_REACTORS
330
2A
102
}
330
2A
100
AcDbVisualStyle
  2
2dWireframe
 70
     4
177
     3
291
     0
 70
    58
 90
        0
176
     1
 90
        2
176
     1
 90
        0
176
     1
 90
        0
176
     1
 40
0.6
176
     1
 40
30.0
176
     1
 62
     7
420
 16777215
176
     1
 90
        1
176
     1
 90
        4
176
     1
 62
     7
176
     1
 62
   257
176
     1
 90
        1
176
     1
 90
        1
176
     1
 40
1.0
176
     1
 90
        0
176
     1
 62
   257
176
     1
 40
1.0
176
     1
 90
        1
176
     1
 90
        6
176
     1
 90
        2
176
     1
 62
     7
176
     1
 90
        5
176
     1
 90
        0
176
     1
 90
        0
176
     1
290
     0
176
     1
 90
        1
176
     1
 40
0.0
176
     1
 90
        0
176
     1
290
     1
176
     1
290
     1
176
     1
290
     0
176
     1
290
     0
176
     1
290
     0
176
     1
290
     0
176
     1
290
     0
176
     1
290
     0
176
     1
290
     0
176
     1
 90
       50
176
     1
 40
0.0
176
     1
 40
1.0
176
     1
 90
        0
176
     1
 62
    18
420
        0
176
     1
 90
       50
176
     1
 90
        3
176
     1
 62
     5
420
      255
176
     1
290
     0
176
     1
 90
       50
176
     1
 90
       50
176
     1
 90
       50
176
     1
290
     0
176
     1
 90
       50
176
     1
 62
   256
176
     0
 40
1.0
176
     0
 90
        2
176
     1
  1
strokes_ogs.tif
176
     1
290
     0
176
     1
 40
1.0
176
     1
 40
1.0
176
     1
  0
VISUALSTYLE
  5
32
102
{ACAD_REACTORS
330
2A
102
}
330
2A
100
AcDbVisualStyle
  2
Basic
 70
     7
177
     3
291
     1
 70
    58
 90
        1
176
     1
 90
        0
176
     1
 90
        1
176
     1
 90
        0
176
     1
 40
0.6
176
     1
 40
30.0
176
     1
 62
     7
420
 16777215
176
     1
 90
        0
176
     1
 90
        4
176
     1
 62
     7
176
     1
 62
   257
176
     1
 90
        1
176
     1
 90
        1
176
     1
 40
1.0
176
     1
 90
        8
176
     1
 62
     7
176
     1
 40
1.0
176
     1
 90
        1
176
     1
 90
        6
176
     1
 90
        2
176
     1
 62
     7
176
     1
 90
        5
176
     1
 90
        0
176
     1
 90
        0
176
     1
290
     0
176
     1
 90
        1
176
     1
 40
0.0
176
     1
 90
        0
176
     1
290
     0
176
     1
290
     1
176
     1
290
     1
176
     1
290
     0
176
     1
290
     0
176
     1
290
     0
176
     1
290
     0
176
     1
290
     0
176
     1
290
     0
176
     1
 90
       50
176
     1
 40
0.0
176
     1
 40
1.0
176
     1
 90
        0
176
     1
 62
    18
420
        0
176
     1
 90
       50
176
     1
 90
        3
176
     1
 62
     5
420
      255
176
     1
290
     0
176
     1
 90
       50
176
     1
 90
       50
176
     1
 90
       50
176
     1
290
     0
176
     1
 90
       50
176
     1
 62
   256
176
     0
 40
1.0
176
     0
 90
        2
176
     1
  1
strokes_ogs.tif
176
     1
290
     0
176
     1
 40
1.0
176
     1
 40
1.0
176
     1
  0
VISUALSTYLE
  5
36
102
{ACAD_REACTORS
330
2A
102
}
330
2A
100
AcDbVisualStyle
  2
Brighten
 70
    12
177
     3
291
     1
 70
    58
 90
        2
176
     1
 90
        2
176
     1
 90
        0
176
     1
 90
        0
176
     1
 40
0.6
176
     1
 40
30.0
176
     1
 62
     7
420
 16777215
176
     1
 90
        1
176
     1
 90
        4
176
     1
 62
     7
176
     1
 62
   257
176
     1
 90
        1
176
     1
 90
        1
176
     1
 40
1.0
176
     1
 90
        8
176
     1
 62
     7
176
     1
 40
1.0
176
     1
 90
        1
176
     1
 90
        6
176
     1
 90
        2
176
     1
 62
     7
176
     1
 90
        5
176
     1
 90
        0
176
     1
 90
        0
176
     1
290
     0
176
     1
 90
        1
176
     1
 40
50.0
176
     1
 90
        0
176
     1
290
     0
176
     1
290
     1
176
     1
290
     1
176
     1
290
     0
176
     1
290
     0
176
     1
290
     0
176
     1
290
     0
176
     1
290
     0
176
     1
290
     0
176
     1
 90
       50
176
     1
 40
0.0
176
     1
 40
1.0
176
     1
 90
        0
176
     1
 62
    18
420
        0
176
     1
 90
       50
176
     1
 90
        3
176
     1
 62
     5
420
      255
176
     1
290
     0
176
     1
 90
       50
176
     1
 90
       50
176
     1
 90
       50
176
     1
290
     0
176
     1
 90
       50
176
     1
 62
   256
176
     0
 40
1.0
176
     0
 90
        2
176
     1
  1
strokes_ogs.tif
176
     1
290
     0
176
     1
 40
1.0
176
     1
 40
1.0
176
     1
  0
VISUALSTYLE
  5
3A
102
{ACAD_REACTORS
330
2A
102
}
330
2A
100
AcDbVisualStyle
  2
ColorChange
 70
    16
177
     3
291
     1
 70
    58
 90
        2
176
     1
 90
        2
176
     1
 90
        3
176
     1
 90
        0
176
     1
 40
0.6
176
     1
 40
30.0
176
     1
 62
     8
420
  8421504
176
     1
 90
        1
176
     1
 90
        4
176
     1
 62
     7
176
     1
 62
   257
176
     1
 90
        1
176
     1
 90
        1
176
     1
 40
1.0
176
     1
 90
        8
176
     1
 62
     8
420
  8421504
176
     1
 40
1.0
176
     1
 90
        1
176
     1
 90
        6
176
     1
 90
        2
176
     1
 62
     7
176
     1
 90
        5
176
     1
 90
        0
176
     1
 90
        0
176
     1
290
     0
176
     1
 90
        1
176
     1
 40
0.0
176
     1
 90
        0
176
     1
290
     0
176
     1
290
     1
176
     1
290
     1
176
     1
290
     0
176
     1
290
     0
176
     1
290
     0
176
     1
290
     0
176
     1
290
     0
176
     1
290
     0
176
     1
 90
       50
176
     1
 40
0.0
176
     1
 40
1.0
176
     1
 90
        0
176
     1
 62
    18
420
        0
176
     1
 90
       50
176
     1
 90
        3
176
     1
 62
     5
420
      255
176
     1
290
     0
176
     1
 90
       50
176
     1
 90
       50
176
     1
 90
       50
176
     1
290
     0
176
     1
 90
       50
176
     1
 62
   256
176
     0
 40
1.0
176
     0
 90
        2
176
     1
  1
strokes_ogs.tif
176
     1
290
     0
176
     1
 40
1.0
176
     1
 40
1.0
176
     1
  0
VISUALSTYLE
  5
34
102
{ACAD_REACTORS
330
2A
102
}
330
2A
100
AcDbVisualStyle
  2
Conceptual
 70
     9
177
     3
291
     0
 70
    58
 90
        3
176
     1
 90
        2
176
     1
 90
        0
176
     1
 90
        0
176
     1
 40
0.6
176
     1
 40
30.0
176
     1
 62
     7
420
 16777215
176
     1
 90
        2
176
     1
 90
        2
176
     1
 62
     7
176
     1
 62
   257
176
     1
 90
        1
176
     1
 90
        1
176
     1
 40
179.0
176
     1
 90
        8
176
     1
 62
     7
176
     1
 40
1.0
176
     1
 90
        1
176
     1
 90
        6
176
     1
 90
        2
176
     1
 62
     7
176
     1
 90
        3
176
     1
 90
        0
176
     1
 90
        0
176
     1
290
     0
176
     1
 90
        1
176
     1
 40
0.0
176
     1
 90
        0
176
     1
290
     0
176
     1
290
     1
176
     1
290
     1
176
     1
290
     0
176
     1
290
     0
176
     1
290
     0
176
     1
290
     0
176
     1
290
     0
176
     1
290
     0
176
     1
 90
       50
176
     1
 40
0.0
176
     1
 40
1.0
176
     1
 90
        0
176
     1
 62
    18
420
        0
176
     1
 90
       50
176
     1
 90
        3
176
     1
 62
     5
420
      255
176
     1
290
     0
176
     1
 90
       50
176
     1
 90
       50
176
     1
 90
       50
176
     1
290
     0
176
     1
 90
       50
176
     1
 62
   256
176
     0
 40
1.0
176
     0
 90
        2
176
     1
  1
strokes_ogs.tif
176
     1
290
     0
176
     1
 40
1.0
176
     1
 40
1.0
176
     1
  0
VISUALSTYLE
  5
35
102
{ACAD_REACTORS
330
2A
102
}
330
2A
100
AcDbVisualStyle
  2
Dim
 70
    11
177
     3
291
     1
 70
    58
 90
        2
176
     1
 90
        2
176
     1
 90
        0
176
     1
 90
        0
176
     1
 40
0.6
176
     1
 40
30.0
176
     1
 62
     7
420
 16777215
176
     1
 90
        1
176
     1
 90
        4
176
     1
 62
     7
176
     1
 62
   257
176
     1
 90
        1
176
     1
 90
        1
176
     1
 40
1.0
176
     1
 90
        8
176
     1
 62
     7
176
     1
 40
1.0
176
     1
 90
        1
176
     1
 90
        6
176
     1
 90
        2
176
     1
 62
     7
176
     1
 90
        5
176
     1
 90
        0
176
     1
 90
        0
176
     1
290
     0
176
     1
 90
        1
176
     1
 40
-50.0
176
     1
 90
        0
176
     1
290
     0
176
     1
290
     1
176
     1
290
     1
176
     1
290
     0
176
     1
290
     0
176
     1
290
     0
176
     1
290
     0
176
     1
290
     0
176
     1
290
     0
176
     1
 90
       50
176
     1
 40
0.0
176
     1
 40
1.0
176
     1
 90
        0
176
     1
 62
    18
420
        0
176
     1
 90
       50
176
     1
 90
        3
176
     1
 62
     5
420
      255
176
     1
290
     0
176
     1
 90
       50
176
     1
 90
       50
176
     1
 90
       50
176
     1
290
     0
176
     1
 90
       50
176
     1
 62
   256
176
     0
 40
1.0
176
     0
 90
        2
176
     1
  1
strokes_ogs.tif
176
     1
290
     0
176
     1
 40
1.0
176
     1
 40
1.0
176
     1
  0
VISUALSTYLE
  5
3D
102
{ACAD_REACTORS
330
2A
102
}
330
2A
100
AcDbVisualStyle
  2
EdgeColorOff
 70
    22
177
     3
291
     1
 70
    58
 90
        2
176
     0
 90
        2
176
     0
 90
        0
176
     0
 90
        0
176
     0
 40
0.6
176
     0
 40
30.0
176
     0
 62
     7
420
 16777215
176
     0
 90
        1
176
     0
 90
        4
176
     0
 62
     7
176
     0
 62
   257
176
     0
 90
        1
176
     0
 90
        1
176
     0
 40
1.0
176
     0
 90
        8
176
     2
 62
     7
176
     0
 40
1.0
176
     0
 90
        1
176
     0
 90
        6
176
     0
 90
        2
176
     0
 62
     7
176
     0
 90
        5
176
     0
 90
        0
176
     0
 90
        0
176
     0
290
     0
176
     0
 90
        1
176
     0
 40
0.0
176
     0
 90
        0
176
     0
290
     0
176
     0
290
     1
176
     0
290
     1
176
     0
290
     0
176
     0
290
     0
176
     0
290
     0
176
     0
290
     0
176
     0
290
     0
176
     0
290
     0
176
     0
 90
       50
176
     0
 40
0.0
176
     0
 40
1.0
176
     0
 90
        0
176
     0
 62
    18
420
        0
176
     0
 90
       50
176
     0
 90
        3
176
     0
 62
     5
420
      255
176
     0
290
     0
176
     0
 90
       50
176
     0
 90
       50
176
     0
 90
       50
176
     0
290
     0
176
     0
 90
       50
176
     0
 62
   256
176
     0
 40
1.0
176
     0
 90
        2
176
     0
  1
strokes_ogs.tif
176
     0
290
     0
176
     0
 40
1.0
176
     0
 40
1.0
176
     0
  0
VISUALSTYLE
  5
39
102
{ACAD_REACTORS
330
2A
102
}
330
2A
100
AcDbVisualStyle
  2
Facepattern
 70
    15
177
     3
291
     1
 70
    58
 90
        2
176
     1
 90
        2
176
     1
 90
        0
176
     1
 90
        0
176
     1
 40
0.6
176
     1
 40
30.0
176
     1
 62
     7
420
 16777215
176
     1
 90
        1
176
     1
 90
        4
176
     1
 62
     7
176
     1
 62
   257
176
     1
 90
        1
176
     1
 90
        1
176
     1
 40
1.0
176
     1
 90
        8
176
     1
 62
     7
176
     1
 40
1.0
176
     1
 90
        1
176
     1
 90
        6
176
     1
 90
        2
176
     1
 62
     7
176
     1
 90
        5
176
     1
 90
        0
176
     1
 90
        0
176
     1
290
     0
176
     1
 90
        1
176
     1
 40
0.0
176
     1
 90
        0
176
     1
290
     0
176
     1
290
     1
176
     1
290
     1
176
     1
290
     0
176
     1
290
     0
176
     1
290
     0
176
     1
290
     0
176
     1
290
     0
176
     1
290
     0
176
     1
 90
       50
176
     1
 40
0.0
176
     1
 40
1.0
176
     1
 90
        0
176
     1
 62
    18
420
        0
176
     1
 90
       50
176
     1
 90
        3
176
     1
 62
     5
420
      255
176
     1
290
     0
176
     1
 90
       50
176
     1
 90
       50
176
     1
 90
       50
176
     1
290
     0
176
     1
 90
       50
176
     1
 62
   256
176
     0
 40
1.0
176
     0
 90
        2
176
     1
  1
strokes_ogs.tif
176
     1
290
     0
176
     1
 40
1.0
176
     1
 40
1.0
176
     1
  0
VISUALSTYLE
  5
2B
102
{ACAD_REACTORS
330
2A
102
}
330
2A
100
AcDbVisualStyle
  2
Flat
 70
     0
177
     3
291
     1
 70
    58
 90
        2
176
     1
 90
        1
176
     1
 90
        1
176
     1
 90
        2
176
     1
 40
0.6
176
     1
 40
30.0
176
     1
 62
     7
420
 16777215
176
     1
 90
        0
176
     1
 90
        0
176
     1
 62
     7
176
     1
 62
   257
176
     1
 90
        1
176
     1
 90
        1
176
     1
 40
1.0
176
     1
 90
        8
176
     1
 62
     7
176
     1
 40
1.0
176
     1
 90
        1
176
     1
 90
        6
176
     1
 90
        2
176
     1
 62
     7
176
     1
 90
        5
176
     1
 90
        0
176
     1
 90
        0
176
     1
290
     0
176
     1
 90
       13
176
     1
 40
0.0
176
     1
 90
        0
176
     1
290
     0
176
     1
290
     1
176
     1
290
     1
176
     1
290
     0
176
     1
290
     0
176
     1
290
     0
176
     1
290
     0
176
     1
290
     0
176
     1
290
     0
176
     1
 90
       50
176
     1
 40
0.0
176
     1
 40
1.0
176
     1
 90
        0
176
     1
 62
    18
420
        0
176
     1
 90
       50
176
     1
 90
        3
176
     1
 62
     5
420
      255
176
     1
290
     0
176
     1
 90
       50
176
     1
 90
       50
176
     1
 90
       50
176
     1
290
     0
176
     1
 90
       50
176
     1
 62
   256
176
     0
 40
1.0
176
     0
 90
        2
176
     1
  1
strokes_ogs.tif
176
     1
290
     0
176
     1
 40
1.0
176
     1
 40
1.0
176
     1
  0
VISUALSTYLE
  5
2C
102
{ACAD_REACTORS
330
2A
102
}
330
2A
100
AcDbVisualStyle
  2
FlatWithEdges
 70
     1
177
     3
291
     1
 70
    58
 90
        2
176
     1
 90
        1
176
     1
 90
        1
176
     1
 90
        2
176
     1
 40
0.6
176
     1
 40
30.0
176
     1
 62
     7
420
 16777215
176
     1
 90
        1
176
     1
 90
        0
176
     1
 62
     7
176
     1
 62
   257
176
     1
 90
        1
176
     1
 90
        1
176
     1
 40
1.0
176
     1
 90
        0
176
     1
 62
   257
176
     1
 40
1.0
176
     1
 90
        1
176
     1
 90
        6
176
     1
 90
        2
176
     1
 62
     7
176
     1
 90
        5
176
     1
 90
        0
176
     1
 90
        0
176
     1
290
     0
176
     1
 90
       13
176
     1
 40
0.0
176
     1
 90
        0
176
     1
290
     0
176
     1
290
     1
176
     1
290
     1
176
     1
290
     0
176
     1
290
     0
176
     1
290
     0
176
     1
290
     0
176
     1
290
     0
176
     1
290
     0
176
     1
 90
       50
176
     1
 40
0.0
176
     1
 40
1.0
176
     1
 90
        0
176
     1
 62
    18
420
        0
176
     1
 90
       50
176
     1
 90
        3
176
     1
 62
     5
420
      255
176
     1
290
     0
176
     1
 90
       50
176
     1
 90
       50
176
     1
 90
       50
176
     1
290
     0
176
     1
 90
       50
176
     1
 62
   256
176
     0
 40
1.0
176
     0
 90
        2
176
     1
  1
strokes_ogs.tif
176
     1
290
     0
176
     1
 40
1.0
176
     1
 40
1.0
176
     1
  0
VISUALSTYLE
  5
2D
102
{ACAD_REACTORS
330
2A
102
}
330
2A
100
AcDbVisualStyle
  2
Gouraud
 70
     2
177
     3
291
     1
 70
    58
 90
        2
176
     1
 90
        2
176
     1
 90
        1
176
     1
 90
        2
176
     1
 40
0.6
176
     1
 40
30.0
176
     1
 62
     7
420
 16777215
176
     1
 90
        0
176
     1
 90
        0
176
     1
 62
     7
176
     1
 62
   257
176
     1
 90
        1
176
     1
 90
        1
176
     1
 40
1.0
176
     1
 90
        0
176
     1
 62
     7
176
     1
 40
1.0
176
     1
 90
        1
176
     1
 90
        6
176
     1
 90
        2
176
     1
 62
     7
176
     1
 90
        5
176
     1
 90
        0
176
     1
 90
        0
176
     1
290
     0
176
     1
 90
       13
176
     1
 40
0.0
176
     1
 90
        0
176
     1
290
     0
176
     1
290
     1
176
     1
290
     1
176
     1
290
     0
176
     1
290
     0
176
     1
290
     0
176
     1
290
     0
176
     1
290
     0
176
     1
290
     0
176
     1
 90
       50
176
     1
 40
0.0
176
     1
 40
1.0
176
     1
 90
        0
176
     1
 62
    18
420
        0
176
     1
 90
       50
176
     1
 90
        3
176
     1
 62
     5
420
      255
176
     1
290
     0
176
     1
 90
       50
176
     1
 90
       50
176
     1
 90
       50
176
     1
290
     0
176
     1
 90
       50
176
     1
 62
   256
176
     0
 40
1.0
176
     0
 90
        2
176
     1
  1
strokes_ogs.tif
176
     1
290
     0
176
     1
 40
1.0
176
     1
 40
1.0
176
     1
  0
VISUALSTYLE
  5
2E
102
{ACAD_REACTORS
330
2A
102
}
330
2A
100
AcDbVisualStyle
  2
GouraudWithEdges
 70
     3
177
     3
291
     1
 70
    58
 90
        2
176
     1
 90
        2
176
     1
 90
        1
176
     1
 90
        2
176
     1
 40
0.6
176
     1
 40
30.0
176
     1
 62
     7
420
 16777215
176
     1
 90
        1
176
     1
 90
        0
176
     1
 62
     7
176
     1
 62
   257
176
     1
 90
        1
176
     1
 90
        1
176
     1
 40
1.0
176
     1
 90
        0
176
     1
 62
   257
176
     1
 40
1.0
176
     1
 90
        1
176
     1
 90
        6
176
     1
 90
        2
176
     1
 62
     7
176
     1
 90
        5
176
     1
 90
        0
176
     1
 90
        0
176
     1
290
     0
176
     1
 90
       13
176
     1
 40
0.0
176
     1
 90
        0
176
     1
290
     0
176
     1
290
     1
176
     1
290
     1
176
     1
290
     0
176
     1
290
     0
176
     1
290
     0
176
     1
290
     0
176
     1
290
     0
176
     1
290
     0
176
     1
 90
       50
176
     1
 40
0.0
176
     1
 40
1.0
176
     1
 90
        0
176
     1
 62
    18
420
        0
176
     1
 90
       50
176
     1
 90
        3
176
     1
 62
     5
420
      255
176
     1
290
     0
176
     1
 90
       50
176
     1
 90
       50
176
     1
 90
       50
176
     1
290
     0
176
     1
 90
       50
176
     1
 62
   256
176
     0
 40
1.0
176
     0
 90
        2
176
     1
  1
strokes_ogs.tif
176
     1
290
     0
176
     1
 40
1.0
176
     1
 40
1.0
176
     1
  0
VISUALSTYLE
  5
31
102
{ACAD_REACTORS
330
2A
102
}
330
2A
100
AcDbVisualStyle
  2
Hidden
 70
     6
177
     3
291
     0
 70
    58
 90
        1
176
     1
 90
        2
176
     1
 90
        2
176
     1
 90
        0
176
     1
 40
0.6
176
     1
 40
30.0
176
     1
 62
     7
420
 16777215
176
     1
 90
        2
176
     1
 90
        2
176
     1
 62
     7
176
     1
 62
   257
176
     1
 90
        2
176
     1
 90
        1
176
     1
 40
40.0
176
     1
 90
        0
176
     1
 62
   257
176
     1
 40
1.0
176
     1
 90
        1
176
     1
 90
        6
176
     1
 90
        2
176
     1
 62
     7
176
     1
 90
        3
176
     1
 90
        0
176
     1
 90
        0
176
     1
290
     0
176
     1
 90
        1
176
     1
 40
0.0
176
     1
 90
        0
176
     1
290
     0
176
     1
290
     1
176
     1
290
     1
176
     1
290
     0
176
     1
290
     0
176
     1
290
     0
176
     1
290
     0
176
     1
290
     0
176
     1
290
     0
176
     1
 90
       50
176
     1
 40
0.0
176
     1
 40
1.0
176
     1
 90
        0
176
     1
 62
    18
420
        0
176
     1
 90
       50
176
     1
 90
        3
176
     1
 62
     5
420
      255
176
     1
290
     0
176
     1
 90
       50
176
     1
 90
       50
176
     1
 90
       50
176
     1
290
     0
176
     1
 90
       50
176
     1
 62
   256
176
     0
 40
1.0
176
     0
 90
        2
176
     1
  1
strokes_ogs.tif
176
     1
290
     0
176
     1
 40
1.0
176
     1
 40
1.0
176
     1
  0
VISUALSTYLE
  5
3B
102
{ACAD_REACTORS
330
2A
102
}
330
2A
100
AcDbVisualStyle
  2
JitterOff
 70
    20
177
     3
291
     1
 70
    58
 90
        2
176
     0
 90
        2
176
     0
 90
        0
176
     0
 90
        0
176
     0
 40
0.6
176
     0
 40
30.0
176
     0
 62
     7
420
 16777215
176
     0
 90
        1
176
     0
 90
        4
176
     0
 62
     7
176
     0
 62
   257
176
     0
 90
        1
176
     0
 90
        1
176
     0
 40
1.0
176
     0
 90
       10
176
     2
 62
     7
176
     0
 40
1.0
176
     0
 90
        1
176
     0
 90
        6
176
     0
 90
        2
176
     0
 62
     7
176
     0
 90
        5
176
     0
 90
        0
176
     0
 90
        0
176
     0
290
     0
176
     0
 90
        1
176
     0
 40
0.0
176
     0
 90
        0
176
     0
290
     0
176
     0
290
     1
176
     0
290
     1
176
     0
290
     0
176
     0
290
     0
176
     0
290
     0
176
     0
290
     0
176
     0
290
     0
176
     0
290
     0
176
     0
 90
       50
176
     0
 40
0.0
176
     0
 40
1.0
176
     0
 90
        0
176
     0
 62
    18
420
        0
176
     0
 90
       50
176
     0
 90
        3
176
     0
 62
     5
420
      255
176
     0
290
     0
176
     0
 90
       50
176
     0
 90
       50
176
     0
 90
       50
176
     0
290
     0
176
     0
 90
       50
176
     0
 62
   256
176
     0
 40
1.0
176
     0
 90
        2
176
     0
  1
strokes_ogs.tif
176
     0
290
     0
176
     0
 40
1.0
176
     0
 40
1.0
176
     0
  0
VISUALSTYLE
  5
38
102
{ACAD_REACTORS
330
2A
102
}
330
2A
100
AcDbVisualStyle
  2
Linepattern
 70
    14
177
     3
291
     1
 70
    58
 90
        2
176
     1
 90
        2
176
     1
 90
        0
176
     1
 90
        0
176
     1
 40
0.6
176
     1
 40
30.0
176
     1
 62
     7
420
 16777215
176
     1
 90
        1
176
     1
 90
        4
176
     1
 62
     7
176
     1
 62
   257
176
     1
 90
        7
176
     1
 90
        7
176
     1
 40
1.0
176
     1
 90
        8
176
     1
 62
     7
176
     1
 40
1.0
176
     1
 90
        1
176
     1
 90
        6
176
     1
 90
        2
176
     1
 62
     7
176
     1
 90
        5
176
     1
 90
        0
176
     1
 90
        0
176
     1
290
     0
176
     1
 90
        1
176
     1
 40
0.0
176
     1
 90
        0
176
     1
290
     0
176
     1
290
     1
176
     1
290
     1
176
     1
290
     0
176
     1
290
     0
176
     1
290
     0
176
     1
290
     0
176
     1
290
     0
176
     1
290
     0
176
     1
 90
       50
176
     1
 40
0.0
176
     1
 40
1.0
176
     1
 90
        0
176
     1
 62
    18
420
        0
176
     1
 90
       50
176
     1
 90
        3
176
     1
 62
     5
420
      255
176
     1
290
     0
176
     1
 90
       50
176
     1
 90
       50
176
     1
 90
       50
176
     1
290
     0
176
     1
 90
       50
176
     1
 62
   256
176
     0
 40
1.0
176
     0
 90
        2
176
     1
  1
strokes_ogs.tif
176
     1
290
     0
176
     1
 40
1.0
176
     1
 40
1.0
176
     1
  0
VISUALSTYLE
  5
3C
102
{ACAD_REACTORS
330
2A
102
}
330
2A
100
AcDbVisualStyle
  2
OverhangOff
 70
    21
177
     3
291
     1
 70
    58
 90
        2
176
     0
 90
        2
176
     0
 90
        0
176
     0
 90
        0
176
     0
 40
0.6
176
     0
 40
30.0
176
     0
 62
     7
420
 16777215
176
     0
 90
        1
176
     0
 90
        4
176
     0
 62
     7
176
     0
 62
   257
176
     0
 90
        1
176
     0
 90
        1
176
     0
 40
1.0
176
     0
 90
        9
176
     2
 62
     7
176
     0
 40
1.0
176
     0
 90
        1
176
     0
 90
        6
176
     0
 90
        2
176
     0
 62
     7
176
     0
 90
        5
176
     0
 90
        0
176
     0
 90
        0
176
     0
290
     0
176
     0
 90
        1
176
     0
 40
0.0
176
     0
 90
        0
176
     0
290
     0
176
     0
290
     1
176
     0
290
     1
176
     0
290
     0
176
     0
290
     0
176
     0
290
     0
176
     0
290
     0
176
     0
290
     0
176
     0
290
     0
176
     0
 90
       50
176
     0
 40
0.0
176
     0
 40
1.0
176
     0
 90
        0
176
     0
 62
    18
420
        0
176
     0
 90
       50
176
     0
 90
        3
176
     0
 62
     5
420
      255
176
     0
290
     0
176
     0
 90
       50
176
     0
 90
       50
176
     0
 90
       50
176
     0
290
     0
176
     0
 90
       50
176
     0
 62
   256
176
     0
 40
1.0
176
     0
 90
        2
176
     0
  1
strokes_ogs.tif
176
     0
290
     0
176
     0
 40
1.0
176
     0
 40
1.0
176
     0
  0
VISUALSTYLE
  5
33
102
{ACAD_REACTORS
330
2A
102
}
330
2A
100
AcDbVisualStyle
  2
Realistic
 70
     8
177
     3
291
     0
 70
    58
 90
        2
176
     1
 90
        3
176
     1
 90
        0
176
     1
 90
        2
176
     1
 40
0.6
176
     1
 40
30.0
176
     1
 62
     7
420
 16777215
176
     1
 90
        0
176
     1
 90
        0
176
     1
 62
     7
176
     1
 62
   257
176
     1
 90
        1
176
     1
 90
        1
176
     1
 40
1.0
176
     1
 90
        8
176
     1
 62
   257
176
     1
 40
1.0
176
     1
 90
        1
176
     1
 90
        6
176
     1
 90
        2
176
     1
 62
     7
176
     1
 90
        3
176
     1
 90
        0
176
     1
 90
        0
176
     1
290
     0
176
     1
 90
       13
176
     1
 40
0.0
176
     1
 90
        0
176
     1
290
     0
176
     1
290
     1
176
     1
290
     1
176
     1
290
     0
176
     1
290
     0
176
     1
290
     0
176
     1
290
     0
176
     1
290
     0
176
     1
290
     0
176
     1
 90
       50
176
     1
 40
0.0
176
     1
 40
1.0
176
     1
 90
        0
176
     1
 62
    18
420
        0
176
     1
 90
       50
176
     1
 90
        3
176
     1
 62
     5
420
      255
176
     1
290
     0
176
     1
 90
       50
176
     1
 90
       50
176
     1
 90
       50
176
     1
290
     0
176
     1
 90
       50
176
     1
 62
   256
176
     0
 40
1.0
176
     0
 90
        2
176
     1
  1
strokes_ogs.tif
176
     1
290
     0
176
     1
 40
1.0
176
     1
 40
1.0
176
     1
  0
VISUALSTYLE
  5
42
102
{ACAD_REACTORS
330
2A
102
}
330
2A
100
AcDbVisualStyle
  2
Shaded
 70
    27
177
     3
291
     0
 70
    58
 90
        2
176
     1
 90
        2
176
     1
 90
        1
176
     1
 90
        2
176
     1
 40
0.6
176
     1
 40
30.0
176
     1
 62
     7
420
 16777215
176
     1
 90
        0
176
     1
 90
        4
176
     1
 62
     7
176
     1
 62
   257
176
     1
 90
        1
176
     1
 90
        1
176
     1
 40
1.0
176
     1
 90
        8
176
     1
 62
   257
176
     1
 40
1.0
176
     1
 90
        1
176
     1
 90
        6
176
     1
 90
        2
176
     1
 62
     8
420
  7895160
176
     1
 90
        3
176
     1
 90
        0
176
     1
 90
        0
176
     1
290
     0
176
     1
 90
        5
176
     1
 40
0.0
176
     1
 90
        0
176
     1
290
     0
176
     1
290
     1
176
     1
290
     1
176
     1
290
     0
176
     1
290
     0
176
     1
290
     0
176
     1
290
     0
176
     1
290
     0
176
     1
290
     0
176
     1
 90
       50
176
     1
 40
0.0
176
     1
 40
1.0
176
     1
 90
        0
176
     1
 62
    18
420
        0
176
     1
 90
       50
176
     1
 90
        3
176
     1
 62
     5
420
      255
176
     1
290
     0
176
     1
 90
       50
176
     1
 90
       50
176
     1
 90
       50
176
     1
290
     0
176
     1
 90
       50
176
     1
 62
   256
176
     0
 40
1.0
176
     0
 90
        2
176
     1
  1
strokes_ogs.tif
176
     1
290
     0
176
     1
 40
1.0
176
     1
 40
1.0
176
     1
  0
VISUALSTYLE
  5
41
102
{ACAD_REACTORS
330
2A
102
}
330
2A
100
AcDbVisualStyle
  2
Shaded with edges
 70
    26
177
     3
291
     0
 70
    58
 90
        2
176
     1
 90
        2
176
     1
 90
        1
176
     1
 90
        2
176
     1
 40
0.6
176
     1
 40
30.0
176
     1
 62
     7
420
 16777215
176
     1
 90
        1
176
     1
 90
       10
176
     1
 62
     7
176
     1
 62
   257
176
     1
 90
        2
176
     1
 90
        1
176
     1
 40
1.0
176
     1
 90
        8
176
     1
 62
   257
176
     1
 40
1.0
176
     1
 90
        1
176
     1
 90
        6
176
     1
 90
        2
176
     1
 62
     7
176
     1
 90
        3
176
     1
 90
        0
176
     1
 90
        0
176
     1
290
     0
176
     1
 90
        5
176
     1
 40
0.0
176
     1
 90
        0
176
     1
290
     0
176
     1
290
     1
176
     1
290
     1
176
     1
290
     0
176
     1
290
     0
176
     1
290
     0
176
     1
290
     0
176
     1
290
     0
176
     1
290
     0
176
     1
 90
       50
176
     1
 40
0.0
176
     1
 40
1.0
176
     1
 90
        0
176
     1
 62
    18
420
        0
176
     1
 90
       50
176
     1
 90
        3
176
     1
 62
     5
420
      255
176
     1
290
     0
176
     1
 90
       50
176
     1
 90
       50
176
     1
 90
       50
176
     1
290
     0
176
     1
 90
       50
176
     1
 62
   256
176
     0
 40
1.0
176
     0
 90
        2
176
     1
  1
strokes_ogs.tif
176
     1
290
     0
176
     1
 40
1.0
176
     1
 40
1.0
176
     1
  0
VISUALSTYLE
  5
3E
102
{ACAD_REACTORS
330
2A
102
}
330
2A
100
AcDbVisualStyle
  2
Shades of Gray
 70
    23
177
     3
291
     0
 70
    58
 90
        2
176
     1
 90
        2
176
     1
 90
        3
176
     1
 90
        0
176
     1
 40
0.6
176
     1
 40
30.0
176
     1
 62
     7
420
 16777215
176
     1
 90
        2
176
     1
 90
        2
176
     1
 62
     7
176
     1
 62
     7
176
     1
 90
        1
176
     1
 90
        1
176
     1
 40
40.0
176
     1
 90
        8
176
     1
 62
     7
176
     1
 40
1.0
176
     1
 90
        1
176
     1
 90
        6
176
     1
 90
        2
176
     1
 62
     7
176
     1
 90
        3
176
     1
 90
        0
176
     1
 90
        0
176
     1
290
     0
176
     1
 90
        1
176
     1
 40
0.0
176
     1
 90
        0
176
     1
290
     0
176
     1
290
     1
176
     1
290
     1
176
     1
290
     0
176
     1
290
     0
176
     1
290
     0
176
     1
290
     0
176
     1
290
     0
176
     1
290
     0
176
     1
 90
       50
176
     1
 40
0.0
176
     1
 40
1.0
176
     1
 90
        0
176
     1
 62
    18
420
        0
176
     1
 90
       50
176
     1
 90
        3
176
     1
 62
     5
420
      255
176
     1
290
     0
176
     1
 90
       50
176
     1
 90
       50
176
     1
 90
       50
176
     1
290
     0
176
     1
 90
       50
176
     1
 62
   256
176
     0
 40
1.0
176
     0
 90
        2
176
     1
  1
strokes_ogs.tif
176
     1
290
     0
176
     1
 40
1.0
176
     1
 40
1.0
176
     1
  0
VISUALSTYLE
  5
3F
102
{ACAD_REACTORS
330
2A
102
}
330
2A
100
AcDbVisualStyle
  2
Sketchy
 70
    24
177
     3
291
     0
 70
    58
 90
        1
176
     1
 90
        2
176
     1
 90
        2
176
     1
 90
        0
176
     1
 40
0.6
176
     1
 40
30.0
176
     1
 62
     7
420
 16777215
176
     1
 90
        2
176
     1
 90
        2
176
     1
 62
     7
176
     1
 62
     7
176
     1
 90
        1
176
     1
 90
        1
176
     1
 40
40.0
176
     1
 90
       11
176
     1
 62
     7
176
     1
 40
1.0
176
     1
 90
        1
176
     1
 90
        6
176
     1
 90
        2
176
     1
 62
     7
176
     1
 90
        6
176
     1
 90
        0
176
     1
 90
        0
176
     1
290
     0
176
     1
 90
        1
176
     1
 40
0.0
176
     1
 90
        0
176
     1
290
     0
176
     1
290
     1
176
     1
290
     1
176
     1
290
     0
176
     1
290
     0
176
     1
290
     0
176
     1
290
     0
176
     1
290
     0
176
     1
290
     0
176
     1
 90
       50
176
     1
 40
0.0
176
     1
 40
1.0
176
     1
 90
        0
176
     1
 62
    18
420
        0
176
     1
 90
       50
176
     1
 90
        3
176
     1
 62
     5
420
      255
176
     1
290
     0
176
     1
 90
       50
176
     1
 90
       50
176
     1
 90
       50
176
     1
290
     0
176
     1
 90
       50
176
     1
 62
   256
176
     0
 40
1.0
176
     0
 90
        2
176
     1
  1
strokes_ogs.tif
176
     1
290
     0
176
     1
 40
1.0
176
     1
 40
1.0
176
     1
  0
VISUALSTYLE
  5
37
102
{ACAD_REACTORS
330
2A
102
}
330
2A
100
AcDbVisualStyle
  2
Thicken
 70
    13
177
     3
291
     1
 70
    58
 90
        2
176
     1
 90
        2
176
     1
 90
        0
176
     1
 90
        0
176
     1
 40
0.6
176
     1
 40
30.0
176
     1
 62
     7
420
 16777215
176
     1
 90
        1
176
     1
 90
        4
176
     1
 62
     7
176
     1
 62
   257
176
     1
 90
        1
176
     1
 90
        1
176
     1
 40
1.0
176
     1
 90
       12
176
     1
 62
     7
176
     1
 40
1.0
176
     1
 90
        1
176
     1
 90
        6
176
     1
 90
        2
176
     1
 62
     7
176
     1
 90
        5
176
     1
 90
        0
176
     1
 90
        0
176
     1
290
     0
176
     1
 90
        1
176
     1
 40
0.0
176
     1
 90
        0
176
     1
290
     0
176
     1
290
     1
176
     1
290
     1
176
     1
290
     0
176
     1
290
     0
176
     1
290
     0
176
     1
290
     0
176
     1
290
     0
176
     1
290
     0
176
     1
 90
       50
176
     1
 40
0.0
176
     1
 40
1.0
176
     1
 90
        0
176
     1
 62
    18
420
        0
176
     1
 90
       50
176
     1
 90
        3
176
     1
 62
     5
420
      255
176
     1
290
     0
176
     1
 90
       50
176
     1
 90
       50
176
     1
 90
       50
176
     1
290
     0
176
     1
 90
       50
176
     1
 62
   256
176
     0
 40
1.0
176
     0
 90
        2
176
     1
  1
strokes_ogs.tif
176
     1
290
     0
176
     1
 40
1.0
176
     1
 40
1.0
176
     1
  0
VISUALSTYLE
  5
30
102
{ACAD_REACTORS
330
2A
102
}
330
2A
100
AcDbVisualStyle
  2
Wireframe
 70
     5
177
     3
291
     0
 70
    58
 90
        0
176
     1
 90
        2
176
     1
 90
        0
176
     1
 90
        0
176
     1
 40
0.6
176
     1
 40
30.0
176
     1
 62
     7
420
 16777215
176
     1
 90
        1
176
     1
 90
        4
176
     1
 62
     7
176
     1
 62
   257
176
     1
 90
        1
176
     1
 90
        1
176
     1
 40
1.0
176
     1
 90
        0
176
     1
 62
   257
176
     1
 40
1.0
176
     1
 90
        1
176
     1
 90
        6
176
     1
 90
        2
176
     1
 62
     7
176
     1
 90
        3
176
     1
 90
        0
176
     1
 90
        0
176
     1
290
     0
176
     1
 90
        1
176
     1
 40
0.0
176
     1
 90
        0
176
     1
290
     0
176
     1
290
     1
176
     1
290
     1
176
     1
290
     0
176
     1
290
     0
176
     1
290
     0
176
     1
290
     0
176
     1
290
     0
176
     1
290
     0
176
     1
 90
       50
176
     1
 40
0.0
176
     1
 40
1.0
176
     1
 90
        0
176
     1
 62
    18
420
        0
176
     1
 90
       50
176
     1
 90
        3
176
     1
 62
     5
420
      255
176
     1
290
     0
176
     1
 90
       50
176
     1
 90
       50
176
     1
 90
       50
176
     1
290
     0
176
     1
 90
       50
176
     1
 62
   256
176
     0
 40
1.0
176
     0
 90
        2
176
     1
  1
strokes_ogs.tif
176
     1
290
     0
176
     1
 40
1.0
176
     1
 40
1.0
176
     1
  0
VISUALSTYLE
  5
40
102
{ACAD_REACTORS
330
2A
102
}
330
2A
100
AcDbVisualStyle
  2
X-Ray
 70
    25
177
     3
291
     0
 70
    58
 90
        2
176
     1
 90
        2
176
     1
 90
        1
176
     1
 90
        1
176
     1
 40
0.5
176
     1
 40
30.0
176
     1
 62
     7
420
 16777215
176
     1
 90
        1
176
     1
 90
        0
176
     1
 62
     7
176
     1
 62
   257
176
     1
 90
        1
176
     1
 90
        1
176
     1
 40
1.0
176
     1
 90
        8
176
     1
 62
     7
176
     1
 40
1.0
176
     1
 90
        1
176
     1
 90
        6
176
     1
 90
        2
176
     1
 62
     7
176
     1
 90
        3
176
     1
 90
        0
176
     1
 90
        0
176
     1
290
     0
176
     1
 90
       13
176
     1
 40
0.0
176
     1
 90
        0
176
     1
290
     0
176
     1
290
     1
176
     1
290
     1
176
     1
290
     0
176
     1
290
     0
176
     1
290
     0
176
     1
290
     0
176
     1
290
     0
176
     1
290
     0
176
     1
 90
       50
176
     1
 40
0.0
176
     1
 40
1.0
176
     1
 90
        0
176
     1
 62
    18
420
        0
176
     1
 90
       50
176
     1
 90
        3
176
     1
 62
     5
420
      255
176
     1
290
     0
176
     1
 90
       50
176
     1
 90
       50
176
     1
 90
       50
176
     1
290
     0
176
     1
 90
       50
176
     1
 62
   256
176
     0
 40
1.0
176
     0
 90
        2
176
     1
  1
strokes_ogs.tif
176
     1
290
     0
176
     1
 40
1.0
176
     1
 40
1.0
176
     1
  0
DICTIONARYVAR
  5
19D
102
{ACAD_REACTORS
330
19C
102
}
330
19C
100
DictionaryVariables
280
     0
  1
1:1
  0
DICTIONARYVAR
  5
1A2
102
{ACAD_REACTORS
330
19C
102
}
330
19C
100
DictionaryVariables
280
     0
  1
Standard
  0
DICTIONARYVAR
  5
1A1
102
{ACAD_REACTORS
330
19C
102
}
330
19C
100
DictionaryVariables
280
     0
  1
Standard
  0
DICTIONARY
  5
19E
330
6A
100
AcDbDictionary
280
     1
281
     1
  3
ACAD_ROUNDTRIP_2008_TABLESTYLE_CELLSTYLEMAP
360
19F
  0
CELLSTYLEMAP
  5
19F
102
{ACAD_REACTORS
330
19E
102
}
330
19E
100
AcDbCellStyleMap
 90
        3
300
CELLSTYLE
  1
TABLEFORMAT_BEGIN
 90
        5
170
     1
 91
        0
 92
    32768
 62
   257
 93
        1
300
CONTENTFORMAT
  1
CONTENTFORMAT_BEGIN
 90
        0
 91
        0
 92
        4
 93
        0
300

 40
0.0
140
1.0
 94
        5
 62
     0
340
11
144
0.25
309
CONTENTFORMAT_END
171
     1
301
MARGIN
  1
CELLMARGIN_BEGIN
 40
0.06
 40
0.06
 40
0.06
 40
0.06
 40
0.06
 40
0.06
309
CELLMARGIN_END
 94
        6
 95
        1
302
GRIDFORMAT
  1
GRIDFORMAT_BEGIN
 90
        0
 91
        1
 62
     0
 92
       -2
340
14
 93
        0
 40
0.045
309
GRIDFORMAT_END
 95
        2
302
GRIDFORMAT
  1
GRIDFORMAT_BEGIN
 90
        0
 91
        1
 62
     0
 92
       -2
340
14
 93
        0
 40
0.045
309
GRIDFORMAT_END
 95
        4
302
GRIDFORMAT
  1
GRIDFORMAT_BEGIN
 90
        0
 91
        1
 62
     0
 92
       -2
340
14
 93
        0
 40
0.045
309
GRIDFORMAT_END
 95
        8
302
GRIDFORMAT
  1
GRIDFORMAT_BEGIN
 90
        0
 91
        1
 62
     0
 92
       -2
340
14
 93
        0
 40
0.045
309
GRIDFORMAT_END
 95
       16
302
GRIDFORMAT
  1
GRIDFORMAT_BEGIN
 90
        0
 91
        1
 62
     0
 92
       -2
340
14
 93
        0
 40
0.045
309
GRIDFORMAT_END
 95
       32
302
GRIDFORMAT
  1
GRIDFORMAT_BEGIN
 90
        0
 91
        1
 62
     0
 92
       -2
340
14
 93
        0
 40
0.045
309
GRIDFORMAT_END
309
TABLEFORMAT_END
  1
CELLSTYLE_BEGIN
 90
        1
 91
        1
300
_TITLE
309
CELLSTYLE_END
300
CELLSTYLE
  1
TABLEFORMAT_BEGIN
 90
        5
170
     1
 91
        0
 92
        0
 62
   257
 93
        1
300
CONTENTFORMAT
  1
CONTENTFORMAT_BEGIN
 90
        0
 91
        0
 92
        4
 93
        0
300

 40
0.0
140
1.0
 94
        5
 62
     0
340
11
144
0.18
309
CONTENTFORMAT_END
171
     1
301
MARGIN
  1
CELLMARGIN_BEGIN
 40
0.06
 40
0.06
 40
0.06
 40
0.06
 40
0.06
 40
0.06
309
CELLMARGIN_END
 94
        6
 95
        1
302
GRIDFORMAT
  1
GRIDFORMAT_BEGIN
 90
        0
 91
        1
 62
     0
 92
       -2
340
14
 93
        0
 40
0.045
309
GRIDFORMAT_END
 95
        2
302
GRIDFORMAT
  1
GRIDFORMAT_BEGIN
 90
        0
 91
        1
 62
     0
 92
       -2
340
14
 93
        0
 40
0.045
309
GRIDFORMAT_END
 95
        4
302
GRIDFORMAT
  1
GRIDFORMAT_BEGIN
 90
        0
 91
        1
 62
     0
 92
       -2
340
14
 93
        0
 40
0.045
309
GRIDFORMAT_END
 95
        8
302
GRIDFORMAT
  1
GRIDFORMAT_BEGIN
 90
        0
 91
        1
 62
     0
 92
       -2
340
14
 93
        0
 40
0.045
309
GRIDFORMAT_END
 95
       16
302
GRIDFORMAT
  1
GRIDFORMAT_BEGIN
 90
        0
 91
        1
 62
     0
 92
       -2
340
14
 93
        0
 40
0.045
309
GRIDFORMAT_END
 95
       32
302
GRIDFORMAT
  1
GRIDFORMAT_BEGIN
 90
        0
 91
        1
 62
     0
 92
       -2
340
14
 93
        0
 40
0.045
309
GRIDFORMAT_END
309
TABLEFORMAT_END
  1
CELLSTYLE_BEGIN
 90
        2
 91
        1
300
_HEADER
309
CELLSTYLE_END
300
CELLSTYLE
  1
TABLEFORMAT_BEGIN
 90
        5
170
     1
 91
        0
 92
        0
 62
   257
 93
        1
300
CONTENTFORMAT
  1
CONTENTFORMAT_BEGIN
 90
        0
 91
        0
 92
        4
 93
        0
300

 40
0.0
140
1.0
 94
        2
 62
     0
340
11
144
0.18
309
CONTENTFORMAT_END
171
     1
301
MARGIN
  1
CELLMARGIN_BEGIN
 40
0.06
 40
0.06
 40
0.06
 40
0.06
 40
0.06
 40
0.06
309
CELLMARGIN_END
 94
        6
 95
        1
302
GRIDFORMAT
  1
GRIDFORMAT_BEGIN
 90
        0
 91
        1
 62
     0
 92
       -2
340
14
 93
        0
 40
0.045
309
GRIDFORMAT_END
 95
        2
302
GRIDFORMAT
  1
GRIDFORMAT_BEGIN
 90
        0
 91
        1
 62
     0
 92
       -2
340
14
 93
        0
 40
0.045
309
GRIDFORMAT_END
 95
        4
302
GRIDFORMAT
  1
GRIDFORMAT_BEGIN
 90
        0
 91
        1
 62
     0
 92
       -2
340
14
 93
        0
 40
0.045
309
GRIDFORMAT_END
 95
        8
302
GRIDFORMAT
  1
GRIDFORMAT_BEGIN
 90
        0
 91
        1
 62
     0
 92
       -2
340
14
 93
        0
 40
0.045
309
GRIDFORMAT_END
 95
       16
302
GRIDFORMAT
  1
GRIDFORMAT_BEGIN
 90
        0
 91
        1
 62
     0
 92
       -2
340
14
 93
        0
 40
0.045
309
GRIDFORMAT_END
 95
       32
302
GRIDFORMAT
  1
GRIDFORMAT_BEGIN
 90
        0
 91
        1
 62
     0
 92
       -2
340
14
 93
        0
 40
0.045
309
GRIDFORMAT_END
309
TABLEFORMAT_END
  1
CELLSTYLE_BEGIN
 90
        3
 91
        2
300
_DATA
309
CELLSTYLE_END
  0
ENDSEC
  0
EOF