0
SECTION
  2
HEADER
  9
$ACADVER
  1
AC1027
  9
$ACADMAINTVER
 70
     8
  9
$DWGCODEPAGE
  3
ANSI_1252
  9
$REQUIREDVERSIONS
160
                 0
  9
$COMMENTS
  1
File was created by Cadenas
  9
$CUSTOMPROPERTYTAG
  1
NN
  9
$CUSTOMPROPERTY
  1
Eccentric Collar Intermediate Duty Wide Slot Take Up Inch Bore
  9
$CUSTOMPROPERTYTAG
  1
NT
  9
$CUSTOMPROPERTY
  1
Eccentric Collar Take-Up Bearings -(Intermediate Duty) -Wide Slot
  9
$CUSTOMPROPERTYTAG
  1
NB
  9
$CUSTOMPROPERTY
  1
131244
  9
$CUSTOMPROPERTYTAG
  1
NBSYN
  9
$CUSTOMPROPERTY
  1
$PN.
  9
$CUSTOMPROPERTYTAG
  1
LINA
  9
$CUSTOMPROPERTY
  1
131244
  9
$CUSTOMPROPERTYTAG
  1
SERIES
  9
$CUSTOMPROPERTY
  1
206
  9
$CUSTOMPROPERTYTAG
  1
SS
  9
$CUSTOMPROPERTY
  1
1-3/16
  9
$CUSTOMPROPERTYTAG
  1
PN
  9
$CUSTOMPROPERTY
  1
131244
  9
$CUSTOMPROPERTYTAG
  1
DESCRIPTION
  9
$CUSTOMPROPERTY
  1
WSTU-SXV-103
  9
$CUSTOMPROPERTYTAG
  1
W
  9
$CUSTOMPROPERTY
  1
2.6
  9
$CUSTOMPROPERTYTAG
  1
FS
  9
$CUSTOMPROPERTY
  1
WS308
  9
$CUSTOMPROPERTYTAG
  1
A
  9
$CUSTOMPROPERTY
  1
1.41
  9
$CUSTOMPROPERTYTAG
  1
B
  9
$CUSTOMPROPERTY
  1
4.38
  9
$CUSTOMPROPERTYTAG
  1
C
  9
$CUSTOMPROPERTY
  1
0.531
  9
$CUSTOMPROPERTYTAG
  1
D
  9
$CUSTOMPROPERTY
  1
2.25
  9
$CUSTOMPROPERTYTAG
  1
E
  9
$CUSTOMPROPERTY
  1
2.75
  9
$CUSTOMPROPERTYTAG
  1
F
  9
$CUSTOMPROPERTY
  1
3/4
  9
$CUSTOMPROPERTYTAG
  1
G
  9
$CUSTOMPROPERTY
  1
0.38
  9
$CUSTOMPROPERTYTAG
  1
H
  9
$CUSTOMPROPERTY
  1
0.63
  9
$CUSTOMPROPERTYTAG
  1
J
  9
$CUSTOMPROPERTY
  1
2.19
  9
$CUSTOMPROPERTYTAG
  1
K
  9
$CUSTOMPROPERTY
  1
1.44
  9
$CUSTOMPROPERTYTAG
  1
L
  9
$CUSTOMPROPERTY
  1
1.75
  9
$CUSTOMPROPERTYTAG
  1
M
  9
$CUSTOMPROPERTY
  1
3.480 / 3.510
  9
$CUSTOMPROPERTYTAG
  1
N
  9
$CUSTOMPROPERTY
  1
4.13
  9
$CUSTOMPROPERTYTAG
  1
R
  9
$CUSTOMPROPERTY
  1
0.35
  9
$CUSTOMPROPERTYTAG
  1
S
  9
$CUSTOMPROPERTY
  1
1.05
  9
$CUSTOMPROPERTYTAG
  1
T
  9
$CUSTOMPROPERTY
  1
1.63
  9
$CUSTOMPROPERTYTAG
  1
COMPANY
  9
$CUSTOMPROPERTY
  1
baldor
  9
$INSBASE
 10
0.0
 20
0.0
 30
0.0
  9
$EXTMIN
 10
1.000000000000000E+20
 20
1.000000000000000E+20
 30
1.000000000000000E+20
  9
$EXTMAX
 10
-1.000000000000000E+20
 20
-1.000000000000000E+20
 30
-1.000000000000000E+20
  9
$LIMMIN
 10
0.0
 20
0.0
  9
$LIMMAX
 10
12.0
 20
9.0
  9
$ORTHOMODE
 70
     0
  9
$REGENMODE
 70
     1
  9
$FILLMODE
 70
     1
  9
$QTEXTMODE
 70
     0
  9
$MIRRTEXT
 70
     1
  9
$LTSCALE
 40
1.0
  9
$ATTMODE
 70
     1
  9
$TEXTSIZE
 40
0.2
  9
$TRACEWID
 40
0.05
  9
$TEXTSTYLE
  7
Standard
  9
$CLAYER
  8
0
  9
$CELTYPE
  6
ByLayer
  9
$CECOLOR
 62
   256
  9
$CELTSCALE
 40
1.0
  9
$DISPSILH
 70
     0
  9
$DIMSCALE
 40
1.0
  9
$DIMASZ
 40
0.18
  9
$DIMEXO
 40
0.0625
  9
$DIMDLI
 40
0.38
  9
$DIMRND
 40
0.0
  9
$DIMDLE
 40
0.0
  9
$DIMEXE
 40
0.18
  9
$DIMTP
 40
0.0
  9
$DIMTM
 40
0.0
  9
$DIMTXT
 40
0.18
  9
$DIMCEN
 40
0.09
  9
$DIMTSZ
 40
0.0
  9
$DIMTOL
 70
     0
  9
$DIMLIM
 70
     0
  9
$DIMTIH
 70
     1
  9
$DIMTOH
 70
     1
  9
$DIMSE1
 70
     0
  9
$DIMSE2
 70
     0
  9
$DIMTAD
 70
     0
  9
$DIMZIN
 70
     0
  9
$DIMBLK
  1

  9
$DIMASO
 70
     1
  9
$DIMSHO
 70
     1
  9
$DIMPOST
  1

  9
$DIMAPOST
  1

  9
$DIMALT
 70
     0
  9
$DIMALTD
 70
     2
  9
$DIMALTF
 40
25.4
  9
$DIMLFAC
 40
1.0
  9
$DIMTOFL
 70
     0
  9
$DIMTVP
 40
0.0
  9
$DIMTIX
 70
     0
  9
$DIMSOXD
 70
     0
  9
$DIMSAH
 70
     0
  9
$DIMBLK1
  1

  9
$DIMBLK2
  1

  9
$DIMSTYLE
  2
Standard
  9
$DIMCLRD
 70
     0
  9
$DIMCLRE
 70
     0
  9
$DIMCLRT
 70
     0
  9
$DIMTFAC
 40
1.0
  9
$DIMGAP
 40
0.09
  9
$DIMJUST
 70
     0
  9
$DIMSD1
 70
     0
  9
$DIMSD2
 70
     0
  9
$DIMTOLJ
 70
     1
  9
$DIMTZIN
 70
     0
  9
$DIMALTZ
 70
     0
  9
$DIMALTTZ
 70
     0
  9
$DIMUPT
 70
     0
  9
$DIMDEC
 70
     4
  9
$DIMTDEC
 70
     4
  9
$DIMALTU
 70
     2
  9
$DIMALTTD
 70
     2
  9
$DIMTXSTY
  7
Standard
  9
$DIMAUNIT
 70
     0
  9
$DIMADEC
 70
     0
  9
$DIMALTRND
 40
0.0
  9
$DIMAZIN
 70
     0
  9
$DIMDSEP
 70
    46
  9
$DIMATFIT
 70
     3
  9
$DIMFRAC
 70
     0
  9
$DIMLDRBLK
  1

  9
$DIMLUNIT
 70
     2
  9
$DIMLWD
 70
    -2
  9
$DIMLWE
 70
    -2
  9
$DIMTMOVE
 70
     0
  9
$DIMFXL
 40
1.0
  9
$DIMFXLON
 70
     0
  9
$DIMJOGANG
 40
0.7853981633974483
  9
$DIMTFILL
 70
     0
  9
$DIMTFILLCLR
 70
     0
  9
$DIMARCSYM
 70
     0
  9
$DIMLTYPE
  6

  9
$DIMLTEX1
  6

  9
$DIMLTEX2
  6

  9
$DIMTXTDIRECTION
 70
     0
  9
$LUNITS
 70
     2
  9
$LUPREC
 70
     4
  9
$SKETCHINC
 40
0.1
  9
$FILLETRAD
 40
0.5
  9
$AUNITS
 70
     0
  9
$AUPREC
 70
     0
  9
$MENU
  1
.
  9
$ELEVATION
 40
0.0
  9
$PELEVATION
 40
0.0
  9
$THICKNESS
 40
0.0
  9
$LIMCHECK
 70
     0
  9
$CHAMFERA
 40
0.0
  9
$CHAMFERB
 40
0.0
  9
$CHAMFERC
 40
0.0
  9
$CHAMFERD
 40
0.0
  9
$SKPOLY
 70
     0
  9
$TDCREATE
 40
2458169.003420891
  9
$TDUCREATE
 40
2458168.961754225
  9
$TDUPDATE
 40
2458169.003421077
  9
$TDUUPDATE
 40
2458168.96175441
  9
$TDINDWG
 40
0.0000000116
  9
$TDUSRTIMER
 40
0.0000000116
  9
$USRTIMER
 70
     1
  9
$ANGBASE
 50
0.0
  9
$ANGDIR
 70
     0
  9
$PDMODE
 70
     0
  9
$PDSIZE
 40
0.0
  9
$PLINEWID
 40
0.0
  9
$SPLFRAME
 70
     0
  9
$SPLINETYPE
 70
     6
  9
$SPLINESEGS
 70
     8
  9
$HANDSEED
  5
1E8
  9
$SURFTAB1
 70
     6
  9
$SURFTAB2
 70
     6
  9
$SURFTYPE
 70
     6
  9
$SURFU
 70
     6
  9
$SURFV
 70
     6
  9
$UCSBASE
  2

  9
$UCSNAME
  2

  9
$UCSORG
 10
0.0
 20
0.0
 30
0.0
  9
$UCSXDIR
 10
1.0
 20
0.0
 30
0.0
  9
$UCSYDIR
 10
0.0
 20
1.0
 30
0.0
  9
$UCSORTHOREF
  2

  9
$UCSORTHOVIEW
 70
     0
  9
$UCSORGTOP
 10
0.0
 20
0.0
 30
0.0
  9
$UCSORGBOTTOM
 10
0.0
 20
0.0
 30
0.0
  9
$UCSORGLEFT
 10
0.0
 20
0.0
 30
0.0
  9
$UCSORGRIGHT
 10
0.0
 20
0.0
 30
0.0
  9
$UCSORGFRONT
 10
0.0
 20
0.0
 30
0.0
  9
$UCSORGBACK
 10
0.0
 20
0.0
 30
0.0
  9
$PUCSBASE
  2

  9
$PUCSNAME
  2

  9
$PUCSORG
 10
0.0
 20
0.0
 30
0.0
  9
$PUCSXDIR
 10
1.0
 20
0.0
 30
0.0
  9
$PUCSYDIR
 10
0.0
 20
1.0
 30
0.0
  9
$PUCSORTHOREF
  2

  9
$PUCSORTHOVIEW
 70
     0
  9
$PUCSORGTOP
 10
0.0
 20
0.0
 30
0.0
  9
$PUCSORGBOTTOM
 10
0.0
 20
0.0
 30
0.0
  9
$PUCSORGLEFT
 10
0.0
 20
0.0
 30
0.0
  9
$PUCSORGRIGHT
 10
0.0
 20
0.0
 30
0.0
  9
$PUCSORGFRONT
 10
0.0
 20
0.0
 30
0.0
  9
$PUCSORGBACK
 10
0.0
 20
0.0
 30
0.0
  9
$USERI1
 70
     0
  9
$USERI2
 70
     0
  9
$USERI3
 70
     0
  9
$USERI4
 70
     0
  9
$USERI5
 70
     0
  9
$USERR1
 40
0.0
  9
$USERR2
 40
0.0
  9
$USERR3
 40
0.0
  9
$USERR4
 40
0.0
  9
$USERR5
 40
0.0
  9
$WORLDVIEW
 70
     1
  9
$SHADEDGE
 70
     3
  9
$SHADEDIF
 70
    70
  9
$TILEMODE
 70
     1
  9
$MAXACTVP
 70
    64
  9
$PINSBASE
 10
0.0
 20
0.0
 30
0.0
  9
$PLIMCHECK
 70
     0
  9
$PEXTMIN
 10
1.000000000000000E+20
 20
1.000000000000000E+20
 30
1.000000000000000E+20
  9
$PEXTMAX
 10
-1.000000000000000E+20
 20
-1.000000000000000E+20
 30
-1.000000000000000E+20
  9
$PLIMMIN
 10
0.0
 20
0.0
  9
$PLIMMAX
 10
12.0
 20
9.0
  9
$UNITMODE
 70
     0
  9
$VISRETAIN
 70
     1
  9
$PLINEGEN
 70
     0
  9
$PSLTSCALE
 70
     1
  9
$TREEDEPTH
 70
  3020
  9
$CMLSTYLE
  2
Standard
  9
$CMLJUST
 70
     0
  9
$CMLSCALE
 40
1.0
  9
$PROXYGRAPHICS
 70
     1
  9
$MEASUREMENT
 70
     0
  9
$CELWEIGHT
370
    -1
  9
$ENDCAPS
280
     0
  9
$JOINSTYLE
280
     0
  9
$LWDISPLAY
290
     0
  9
$INSUNITS
 70
     1
  9
$HYPERLINKBASE
  1

  9
$STYLESHEET
  1

  9
$XEDIT
290
     1
  9
$CEPSNTYPE
380
     0
  9
$PSTYLEMODE
290
     1
  9
$FINGERPRINTGUID
  2
{DE4DBCA6-3F99-419C-B19E-E69D4F3BF7C1}
  9
$VERSIONGUID
  2
{FAEB1C32-E019-11D5-929B-00C0DF256EC4}
  9
$EXTNAMES
290
     1
  9
$PSVPSCALE
 40
0.0
  9
$OLESTARTUP
290
     0
  9
$SORTENTS
280
   127
  9
$INDEXCTL
280
     0
  9
$HIDETEXT
280
     1
  9
$XCLIPFRAME
280
     2
  9
$HALOGAP
280
     0
  9
$OBSCOLOR
 70
   257
  9
$OBSLTYPE
280
     0
  9
$INTERSECTIONDISPLAY
280
     0
  9
$INTERSECTIONCOLOR
 70
   257
  9
$DIMASSOC
280
     2
  9
$PROJECTNAME
  1

  9
$CAMERADISPLAY
290
     0
  9
$LENSLENGTH
 40
50.0
  9
$CAMERAHEIGHT
 40
0.0
  9
$STEPSPERSEC
 40
2.0
  9
$STEPSIZE
 40
6.0
  9
$3DDWFPREC
 40
2.0
  9
$PSOLWIDTH
 40
0.25
  9
$PSOLHEIGHT
 40
4.0
  9
$LOFTANG1
 40
1.570796326794897
  9
$LOFTANG2
 40
1.570796326794897
  9
$LOFTMAG1
 40
0.0
  9
$LOFTMAG2
 40
0.0
  9
$LOFTPARAM
 70
     7
  9
$LOFTNORMALS
280
     1
  9
$LATITUDE
 40
37.795
  9
$LONGITUDE
 40
-122.394
  9
$NORTHDIRECTION
 40
0.0
  9
$TIMEZONE
 70
 -8000
  9
$LIGHTGLYPHDISPLAY
280
     1
  9
$TILEMODELIGHTSYNCH
280
     1
  9
$CMATERIAL
347
44
  9
$SOLIDHIST
280
     0
  9
$SHOWHIST
280
     1
  9
$DWFFRAME
280
     2
  9
$DGNFRAME
280
     2
  9
$REALWORLDSCALE
290
     1
  9
$INTERFERECOLOR
 62
   256
  9
$CSHADOW
280
     0
  9
$SHADOWPLANELOCATION
 40
0.0
  0
ENDSEC
  0
SECTION
  2
CLASSES
  0
CLASS
  1
ACDBDICTIONARYWDFLT
  2
AcDbDictionaryWithDefault
  3
ObjectDBX Classes
 90
        0
 91
        4
280
     0
281
     0
  0
CLASS
  1
VISUALSTYLE
  2
AcDbVisualStyle
  3
ObjectDBX Classes
 90
     4095
 91
        4
280
     0
281
     0
  0
CLASS
  1
MATERIAL
  2
AcDbMaterial
  3
ObjectDBX Classes
 90
     1153
 91
        4
280
     0
281
     0
  0
CLASS
  1
SCALE
  2
AcDbScale
  3
ObjectDBX Classes
 90
     1153
 91
        4
280
     0
281
     0
  0
CLASS
  1
TABLESTYLE
  2
AcDbTableStyle
  3
ObjectDBX Classes
 90
     4095
 91
        4
280
     0
281
     0
  0
CLASS
  1
MLEADERSTYLE
  2
AcDbMLeaderStyle
  3
ACDB_MLEADERSTYLE_CLASS
 90
     4095
 91
        4
280
     0
281
     0
  0
CLASS
  1
SUN
  2
AcDbSun
  3
SCENEOE
 90
     1153
 91
        4
280
     0
281
     0
  0
CLASS
  1
DICTIONARYVAR
  2
AcDbDictionaryVar
  3
ObjectDBX Classes
 90
        0
 91
        4
280
     0
281
     0
  0
CLASS
  1
CELLSTYLEMAP
  2
AcDbCellStyleMap
  3
ObjectDBX Classes
 90
     1152
 91
        4
280
     0
281
     0
  0
ENDSEC
  0
SECTION
  2
TABLES
  0
TABLE
  2
VPORT
  5
8
330
0
100
AcDbSymbolTable
 70
     1
  0
VPORT
  5
29
330
8
100
AcDbSymbolTableRecord
100
AcDbViewportTableRecord
  2
*Active
 70
     0
 10
0.0
 20
0.0
 11
1.0
 21
1.0
 12
0.3546206927791236
 22
-0.1527500000000002
 13
0.0
 23
0.0
 14
0.5
 24
0.5
 15
0.5
 25
0.5
 16
0.0
 26
0.0
 36
1.0
 17
0.0
 27
0.0
 37
0.0
 40
1.974209999999999
 41
2.494837827146347
 42
50.0
 43
0.0
 44
0.0
 50
0.0
 51
0.0
 71
     0
 72
   100
 73
     1
 74
     3
 75
     0
 76
     0
 77
     0
 78
     0
281
     0
 65
     1
110
0.0
120
0.0
130
0.0
111
1.0
121
0.0
131
0.0
112
0.0
122
1.0
132
0.0
 79
     0
146
0.0
348
2F
 60
     3
 61
     5
292
     1
282
     1
141
0.0
142
0.0
 63
   250
361
6D
  0
ENDTAB
  0
TABLE
  2
LTYPE
  5
5
330
0
100
AcDbSymbolTable
 70
     3
  0
LTYPE
  5
14
330
5
100
AcDbSymbolTableRecord
100
AcDbLinetypeTableRecord
  2
ByBlock
 70
     0
  3

 72
    65
 73
     0
 40
0.0
  0
LTYPE
  5
15
330
5
100
AcDbSymbolTableRecord
100
AcDbLinetypeTableRecord
  2
ByLayer
 70
     0
  3

 72
    65
 73
     0
 40
0.0
  0
LTYPE
  5
16
330
5
100
AcDbSymbolTableRecord
100
AcDbLinetypeTableRecord
  2
Continuous
 70
     0
  3
Solid line
 72
    65
 73
     0
 40
0.0
  0
LTYPE
  5
A7
330
5
100
AcDbSymbolTableRecord
100
AcDbLinetypeTableRecord
  2
Dashed
 70
     0
  3

 72
    65
 73
     2
 40
2.0
 49
1.0
 74
     0
 49
-1.0
 74
     0
  0
LTYPE
  5
E2
330
5
100
AcDbSymbolTableRecord
100
AcDbLinetypeTableRecord
  2
Center
 70
     0
  3

 72
    65
 73
     4
 40
1.5
 49
0.45
 74
     0
 49
-0.5
 74
     0
 49
0.05
 74
     0
 49
-0.5
 74
     0
  0
ENDTAB
  0
TABLE
  2
LAYER
  5
2
330
0
100
AcDbSymbolTable
 70
     7
  0
LAYER
  5
10
330
2
100
AcDbSymbolTableRecord
100
AcDbLayerTableRecord
  2
0
 70
     0
 62
     7
  6
Continuous
370
    -3
390
F
347
46
348
0
  0
LAYER
  5
72
330
2
100
AcDbSymbolTableRecord
100
AcDbLayerTableRecord
  2
AM_6
 70
     0
 62
    -2
  6
Continuous
370
    35
390
F
347
46
348
0
  0
LAYER
  5
A8
330
2
100
AcDbSymbolTableRecord
100
AcDbLayerTableRecord
  2
AM_9
 70
     0
 62
     6
  6
Dashed
370
    25
390
F
347
46
348
0
  0
LAYER
  5
DF
330
2
100
AcDbSymbolTableRecord
100
AcDbLayerTableRecord
  2
AM_5
 70
     0
 62
     3
  6
Continuous
370
    25
390
F
347
46
348
0
  0
LAYER
  5
E3
330
2
100
AcDbSymbolTableRecord
100
AcDbLayerTableRecord
  2
AM_7
 70
     0
 62
     7
  6
Center
370
    25
390
F
347
46
348
0
  0
LAYER
  5
E5
330
2
100
AcDbSymbolTableRecord
100
AcDbLayerTableRecord
  2
AM_4
 70
     0
 62
     7
  6
Continuous
370
    50
390
F
347
46
348
0
  0
LAYER
  5
1DB
330
2
100
AcDbSymbolTableRecord
100
AcDbLayerTableRecord
  2
ConnectionPoints
 70
     0
 62
     7
  6
Continuous
370
    50
390
F
347
46
348
0
  0
ENDTAB
  0
TABLE
  2
STYLE
  5
3
330
0
100
AcDbSymbolTable
 70
     1
  0
STYLE
  5
11
330
3
100
AcDbSymbolTableRecord
100
AcDbTextStyleTableRecord
  2
Standard
 70
     0
 40
0.0
 41
1.0
 50
0.0
 71
     0
 42
0.2
  3
txt
  4

  0
ENDTAB
  0
TABLE
  2
VIEW
  5
6
330
0
100
AcDbSymbolTable
 70
     0
  0
ENDTAB
  0
TABLE
  2
UCS
  5
7
330
0
100
AcDbSymbolTable
 70
     0
  0
ENDTAB
  0
TABLE
  2
APPID
  5
9
330
0
100
AcDbSymbolTable
 70
     1
  0
APPID
  5
12
330
9
100
AcDbSymbolTableRecord
100
AcDbRegAppTableRecord
  2
ACAD
 70
     0
  0
ENDTAB
  0
TABLE
  2
DIMSTYLE
  5
A
330
0
100
AcDbSymbolTable
 70
     1
100
AcDbDimStyleTable
  0
DIMSTYLE
105
27
330
A
100
AcDbSymbolTableRecord
100
AcDbDimStyleTableRecord
  2
Standard
 70
     0
178
     0
340
11
  0
ENDTAB
  0
TABLE
  2
BLOCK_RECORD
  5
1
330
0
100
AcDbSymbolTable
 70
     5
  0
BLOCK_RECORD
  5
1F
330
1
100
AcDbSymbolTableRecord
100
AcDbBlockTableRecord
  2
*Model_Space
340
22
 70
     0
280
     1
281
     0
  0
BLOCK_RECORD
  5
1B
330
1
100
AcDbSymbolTableRecord
100
AcDbBlockTableRecord
  2
*Paper_Space
340
1E
 70
     0
280
     1
281
     0
  0
BLOCK_RECORD
  5
23
330
1
100
AcDbSymbolTableRecord
100
AcDbBlockTableRecord
  2
*Paper_Space0
340
26
 70
     0
280
     1
281
     0
  0
BLOCK_RECORD
  5
6E
330
1
100
AcDbSymbolTableRecord
100
AcDbBlockTableRecord
  2
1_131244_4
340
0
102
{BLKREFS
331
6F
102
}
 70
     0
280
     1
281
     0
  0
BLOCK_RECORD
  5
8F
330
1
100
AcDbSymbolTableRecord
100
AcDbBlockTableRecord
  2
2_131441_0_in_131244_4
340
0
102
{BLKREFS
331
90
102
}
 70
     0
280
     1
281
     0
  0
BLOCK_RECORD
  5
F3
330
1
100
AcDbSymbolTableRecord
100
AcDbBlockTableRecord
  2
3_405016_Inch_0_in_131244_4
340
0
102
{BLKREFS
331
F4
102
}
 70
     0
280
     1
281
     0
  0
BLOCK_RECORD
  5
17B
330
1
100
AcDbSymbolTableRecord
100
AcDbBlockTableRecord
  2
4_131244H_0_in_131244_4
340
0
102
{BLKREFS
331
17C
102
}
 70
     0
280
     1
281
     0
  0
ENDTAB
  0
ENDSEC
  0
SECTION
  2
BLOCKS
  0
BLOCK
  5
20
330
1F
100
AcDbEntity
  8
0
100
AcDbBlockBegin
  2
*Model_Space
 70
     0
 10
0.0
 20
0.0
 30
0.0
  3
*Model_Space
  1

  0
ENDBLK
  5
21
330
1F
100
AcDbEntity
  8
0
100
AcDbBlockEnd
  0
BLOCK
  5
1C
330
1B
100
AcDbEntity
 67
     1
  8
0
100
AcDbBlockBegin
  2
*Paper_Space
 70
     0
 10
0.0
 20
0.0
 30
0.0
  3
*Paper_Space
  1

  0
ENDBLK
  5
1D
330
1B
100
AcDbEntity
 67
     1
  8
0
100
AcDbBlockEnd
  0
BLOCK
  5
24
330
23
100
AcDbEntity
  8
0
100
AcDbBlockBegin
  2
*Paper_Space0
 70
     0
 10
0.0
 20
0.0
 30
0.0
  3
*Paper_Space0
  1

  0
ENDBLK
  5
25
330
23
100
AcDbEntity
  8
0
100
AcDbBlockEnd
  0
BLOCK
  5
70
330
6E
100
AcDbEntity
  8
0
100
AcDbBlockBegin
  2
1_131244_4
 70
     2
 10
0.0
 20
0.0
 30
0.0
  3
1_131244_4
  1

  0
ATTDEF
  5
73
330
6E
100
AcDbEntity
  8
AM_6
100
AcDbText
 10
7.769
 20
0.815
 30
0.0
 40
0.5
  1
Eccentric Collar Intermediate Duty Wide Slot Take Up Inch Bore
100
AcDbAttributeDefinition
  3

  2
NN
 70
     8
280
     0
  0
ATTDEF
  5
74
330
6E
100
AcDbEntity
  8
AM_6
100
AcDbText
 10
7.769
 20
0.3149999999999999
 30
0.0
 40
0.5
  1
Eccentric Collar Take-Up Bearings -(Intermediate Duty) -Wide Slot
100
AcDbAttributeDefinition
  3

  2
NT
 70
     8
280
     0
  0
ATTDEF
  5
75
330
6E
100
AcDbEntity
  8
AM_6
100
AcDbText
 10
7.769
 20
-0.1850000000000001
 30
0.0
 40
0.5
  1
131244
100
AcDbAttributeDefinition
  3

  2
NB
 70
     8
280
     0
  0
ATTDEF
  5
76
330
6E
100
AcDbEntity
  8
AM_6
100
AcDbText
 10
7.769
 20
-0.685
 30
0.0
 40
0.5
  1
$PN.
100
AcDbAttributeDefinition
  3

  2
NBSYN
 70
     8
280
     0
  0
ATTDEF
  5
77
330
6E
100
AcDbEntity
  8
AM_6
100
AcDbText
 10
7.769
 20
-1.185
 30
0.0
 40
0.5
  1
131244
100
AcDbAttributeDefinition
  3

  2
LINA
 70
     8
280
     0
  0
ATTDEF
  5
78
330
6E
100
AcDbEntity
  8
AM_6
100
AcDbText
 10
7.769
 20
-1.685
 30
0.0
 40
0.5
  1
206
100
AcDbAttributeDefinition
  3

  2
SERIES
 70
     8
280
     0
  0
ATTDEF
  5
79
330
6E
100
AcDbEntity
  8
AM_6
100
AcDbText
 10
7.769
 20
-2.185
 30
0.0
 40
0.5
  1
1-3/16
100
AcDbAttributeDefinition
  3

  2
SS
 70
     8
280
     0
  0
ATTDEF
  5
7A
330
6E
100
AcDbEntity
  8
AM_6
100
AcDbText
 10
7.769
 20
-2.685
 30
0.0
 40
0.5
  1
131244
100
AcDbAttributeDefinition
  3

  2
PN
 70
     8
280
     0
  0
ATTDEF
  5
7B
330
6E
100
AcDbEntity
  8
AM_6
100
AcDbText
 10
7.769
 20
-3.185
 30
0.0
 40
0.5
  1
WSTU-SXV-103
100
AcDbAttributeDefinition
  3

  2
DESCRIPTION
 70
     8
280
     0
  0
ATTDEF
  5
7C
330
6E
100
AcDbEntity
  8
AM_6
100
AcDbText
 10
7.769
 20
-3.685
 30
0.0
 40
0.5
  1
2.6
100
AcDbAttributeDefinition
  3

  2
W
 70
     8
280
     0
  0
ATTDEF
  5
7D
330
6E
100
AcDbEntity
  8
AM_6
100
AcDbText
 10
7.769
 20
-4.185
 30
0.0
 40
0.5
  1
WS308
100
AcDbAttributeDefinition
  3

  2
FS
 70
     8
280
     0
  0
ATTDEF
  5
7E
330
6E
100
AcDbEntity
  8
AM_6
100
AcDbText
 10
7.769
 20
-4.685
 30
0.0
 40
0.5
  1
1.41
100
AcDbAttributeDefinition
  3

  2
A
 70
     8
280
     0
  0
ATTDEF
  5
7F
330
6E
100
AcDbEntity
  8
AM_6
100
AcDbText
 10
7.769
 20
-5.185
 30
0.0
 40
0.5
  1
4.38
100
AcDbAttributeDefinition
  3

  2
B
 70
     8
280
     0
  0
ATTDEF
  5
80
330
6E
100
AcDbEntity
  8
AM_6
100
AcDbText
 10
7.769
 20
-5.685
 30
0.0
 40
0.5
  1
0.531
100
AcDbAttributeDefinition
  3

  2
C
 70
     8
280
     0
  0
ATTDEF
  5
81
330
6E
100
AcDbEntity
  8
AM_6
100
AcDbText
 10
7.769
 20
-6.185
 30
0.0
 40
0.5
  1
2.25
100
AcDbAttributeDefinition
  3

  2
D
 70
     8
280
     0
  0
ATTDEF
  5
82
330
6E
100
AcDbEntity
  8
AM_6
100
AcDbText
 10
7.769
 20
-6.685
 30
0.0
 40
0.5
  1
2.75
100
AcDbAttributeDefinition
  3

  2
E
 70
     8
280
     0
  0
ATTDEF
  5
83
330
6E
100
AcDbEntity
  8
AM_6
100
AcDbText
 10
7.769
 20
-7.185
 30
0.0
 40
0.5
  1
3/4
100
AcDbAttributeDefinition
  3

  2
F
 70
     8
280
     0
  0
ATTDEF
  5
84
330
6E
100
AcDbEntity
  8
AM_6
100
AcDbText
 10
7.769
 20
-7.685
 30
0.0
 40
0.5
  1
0.38
100
AcDbAttributeDefinition
  3

  2
G
 70
     8
280
     0
  0
ATTDEF
  5
85
330
6E
100
AcDbEntity
  8
AM_6
100
AcDbText
 10
7.769
 20
-8.185
 30
0.0
 40
0.5
  1
0.63
100
AcDbAttributeDefinition
  3

  2
H
 70
     8
280
     0
  0
ATTDEF
  5
86
330
6E
100
AcDbEntity
  8
AM_6
100
AcDbText
 10
7.769
 20
-8.685
 30
0.0
 40
0.5
  1
2.19
100
AcDbAttributeDefinition
  3

  2
J
 70
     8
280
     0
  0
ATTDEF
  5
87
330
6E
100
AcDbEntity
  8
AM_6
100
AcDbText
 10
7.769
 20
-9.185
 30
0.0
 40
0.5
  1
1.44
100
AcDbAttributeDefinition
  3

  2
K
 70
     8
280
     0
  0
ATTDEF
  5
88
330
6E
100
AcDbEntity
  8
AM_6
100
AcDbText
 10
7.769
 20
-9.685
 30
0.0
 40
0.5
  1
1.75
100
AcDbAttributeDefinition
  3

  2
L
 70
     8
280
     0
  0
ATTDEF
  5
89
330
6E
100
AcDbEntity
  8
AM_6
100
AcDbText
 10
7.769
 20
-10.185
 30
0.0
 40
0.5
  1
3.480 / 3.510
100
AcDbAttributeDefinition
  3

  2
M
 70
     8
280
     0
  0
ATTDEF
  5
8A
330
6E
100
AcDbEntity
  8
AM_6
100
AcDbText
 10
7.769
 20
-10.685
 30
0.0
 40
0.5
  1
4.13
100
AcDbAttributeDefinition
  3

  2
N
 70
     8
280
     0
  0
ATTDEF
  5
8B
330
6E
100
AcDbEntity
  8
AM_6
100
AcDbText
 10
7.769
 20
-11.185
 30
0.0
 40
0.5
  1
0.35
100
AcDbAttributeDefinition
  3

  2
R
 70
     8
280
     0
  0
ATTDEF
  5
8C
330
6E
100
AcDbEntity
  8
AM_6
100
AcDbText
 10
7.769
 20
-11.685
 30
0.0
 40
0.5
  1
1.05
100
AcDbAttributeDefinition
  3

  2
S
 70
     8
280
     0
  0
ATTDEF
  5
8D
330
6E
100
AcDbEntity
  8
AM_6
100
AcDbText
 10
7.769
 20
-12.185
 30
0.0
 40
0.5
  1
1.63
100
AcDbAttributeDefinition
  3

  2
T
 70
     8
280
     0
  0
ATTDEF
  5
8E
330
6E
100
AcDbEntity
  8
AM_6
100
AcDbText
 10
7.769
 20
-12.685
 30
0.0
 40
0.5
  1
baldor
100
AcDbAttributeDefinition
  3

  2
COMPANY
 70
     8
280
     0
  0
INSERT
  5
90
330
6E
100
AcDbEntity
  8
0
100
AcDbBlockReference
  2
2_131441_0_in_131244_4
 10
0.0
 20
0.0
 30
0.0
  0
INSERT
  5
F4
330
6E
100
AcDbEntity
  8
0
100
AcDbBlockReference
  2
3_405016_Inch_0_in_131244_4
 10
0.0
 20
0.0
 30
0.0
  0
INSERT
  5
17C
330
6E
100
AcDbEntity
  8
0
100
AcDbBlockReference
  2
4_131244H_0_in_131244_4
 10
0.0
 20
0.0
 30
0.0
  0
ENDBLK
  5
71
330
6E
100
AcDbEntity
  8
0
100
AcDbBlockEnd
  0
BLOCK
  5
91
330
8F
100
AcDbEntity
  8
0
100
AcDbBlockBegin
  2
2_131441_0_in_131244_4
 70
     2
 10
0.0
 20
0.0
 30
0.0
  3
2_131441_0_in_131244_4
  1

  0
ATTDEF
  5
93
330
8F
100
AcDbEntity
  8
AM_6
100
AcDbText
 10
6.219911691678267
 20
0.36
 30
0.0
 40
0.5
  1
Eccentric Collar Intermediate Duty Insert Inch Bore
100
AcDbAttributeDefinition
  3

  2
NN
 70
     8
280
     0
  0
ATTDEF
  5
94
330
8F
100
AcDbEntity
  8
AM_6
100
AcDbText
 10
6.219911691678267
 20
-0.14
 30
0.0
 40
0.5
  1
Eccentric Collar Bearing Inserts -(Intermediate Duty)
100
AcDbAttributeDefinition
  3

  2
NT
 70
     8
280
     0
  0
ATTDEF
  5
95
330
8F
100
AcDbEntity
  8
AM_6
100
AcDbText
 10
6.219911691678267
 20
-0.64
 30
0.0
 40
0.5
  1
131441
100
AcDbAttributeDefinition
  3

  2
NB
 70
     8
280
     0
  0
ATTDEF
  5
96
330
8F
100
AcDbEntity
  8
AM_6
100
AcDbText
 10
6.219911691678267
 20
-1.14
 30
0.0
 40
0.5
  1
$PN.
100
AcDbAttributeDefinition
  3

  2
NBSYN
 70
     8
280
     0
  0
ATTDEF
  5
97
330
8F
100
AcDbEntity
  8
AM_6
100
AcDbText
 10
6.219911691678267
 20
-1.64
 30
0.0
 40
0.5
  1
131441
100
AcDbAttributeDefinition
  3

  2
LINA
 70
     8
280
     0
  0
ATTDEF
  5
98
330
8F
100
AcDbEntity
  8
AM_6
100
AcDbText
 10
6.219911691678267
 20
-2.14
 30
0.0
 40
0.5
  1
206
100
AcDbAttributeDefinition
  3

  2
SERIES
 70
     8
280
     0
  0
ATTDEF
  5
99
330
8F
100
AcDbEntity
  8
AM_6
100
AcDbText
 10
6.219911691678267
 20
-2.64
 30
0.0
 40
0.5
  1
1-3/16
100
AcDbAttributeDefinition
  3

  2
SS
 70
     8
280
     0
  0
ATTDEF
  5
9A
330
8F
100
AcDbEntity
  8
AM_6
100
AcDbText
 10
6.219911691678267
 20
-3.14
 30
0.0
 40
0.5
  1
131441
100
AcDbAttributeDefinition
  3

  2
PN
 70
     8
280
     0
  0
ATTDEF
  5
9B
330
8F
100
AcDbEntity
  8
AM_6
100
AcDbText
 10
6.219911691678267
 20
-3.64
 30
0.0
 40
0.5
  1
INS-SXV-103
100
AcDbAttributeDefinition
  3

  2
DESCRIPTION
 70
     8
280
     0
  0
ATTDEF
  5
9C
330
8F
100
AcDbEntity
  8
AM_6
100
AcDbText
 10
6.219911691678267
 20
-4.140000000000001
 30
0.0
 40
0.5
  1
0.7
100
AcDbAttributeDefinition
  3

  2
WEIGHT
 70
     8
280
     0
  0
ATTDEF
  5
9D
330
8F
100
AcDbEntity
  8
AM_6
100
AcDbText
 10
6.219911691678267
 20
-4.640000000000001
 30
0.0
 40
0.5
  1
1.41
100
AcDbAttributeDefinition
  3

  2
A
 70
     8
280
     0
  0
ATTDEF
  5
9E
330
8F
100
AcDbEntity
  8
AM_6
100
AcDbText
 10
6.219911691678267
 20
-5.140000000000001
 30
0.0
 40
0.5
  1
0.69
100
AcDbAttributeDefinition
  3

  2
C
 70
     8
280
     0
  0
ATTDEF
  5
9F
330
8F
100
AcDbEntity
  8
AM_6
100
AcDbText
 10
6.219911691678267
 20
-5.640000000000001
 30
0.0
 40
0.5
  1
2.4409
100
AcDbAttributeDefinition
  3

  2
D
 70
     8
280
     0
  0
ATTDEF
  5
A0
330
8F
100
AcDbEntity
  8
AM_6
100
AcDbText
 10
6.219911691678267
 20
-6.140000000000001
 30
0.0
 40
0.5
  1
0.16
100
AcDbAttributeDefinition
  3

  2
J
 70
     8
280
     0
  0
ATTDEF
  5
A1
330
8F
100
AcDbEntity
  8
AM_6
100
AcDbText
 10
6.219911691678267
 20
-6.640000000000001
 30
0.0
 40
0.5
  1
1.75
100
AcDbAttributeDefinition
  3

  2
L
 70
     8
280
     0
  0
ATTDEF
  5
A2
330
8F
100
AcDbEntity
  8
AM_6
100
AcDbText
 10
6.219911691678267
 20
-7.140000000000001
 30
0.0
 40
0.5
  1
5/16 - 24
100
AcDbAttributeDefinition
  3

  2
N
 70
     8
280
     0
  0
ATTDEF
  5
A3
330
8F
100
AcDbEntity
  8
AM_6
100
AcDbText
 10
6.219911691678267
 20
-7.640000000000001
 30
0.0
 40
0.5
  1
0.35
100
AcDbAttributeDefinition
  3

  2
W
 70
     8
280
     0
  0
ATTDEF
  5
A4
330
8F
100
AcDbEntity
  8
AM_6
100
AcDbText
 10
6.219911691678267
 20
-8.14
 30
0.0
 40
0.5
  1
1.05
100
AcDbAttributeDefinition
  3

  2
Y
 70
     8
280
     0
  0
ATTDEF
  5
A5
330
8F
100
AcDbEntity
  8
AM_6
100
AcDbText
 10
6.219911691678267
 20
-8.64
 30
0.0
 40
0.5
  1
1.57
100
AcDbAttributeDefinition
  3

  2
Z
 70
     8
280
     0
  0
ATTDEF
  5
A6
330
8F
100
AcDbEntity
  8
AM_6
100
AcDbText
 10
6.219911691678267
 20
-9.14
 30
0.0
 40
0.5
  1
baldor
100
AcDbAttributeDefinition
  3

  2
COMPANY
 70
     8
280
     0
  0
LINE
  5
A9
330
8F
100
AcDbEntity
  8
AM_9
100
AcDbLine
 10
0.875
 20
-0.6680610821222446
 30
0.0
 11
0.8667860821222445
 21
-0.676275
 31
0.0
  0
LINE
  5
AA
330
8F
100
AcDbEntity
  8
AM_9
100
AcDbLine
 10
0.8667860821222445
 20
-0.954975
 30
0.0
 11
0.875
 21
-0.9631889178777554
 31
0.0
  0
LINE
  5
AB
330
8F
100
AcDbEntity
  8
AM_9
100
AcDbLine
 10
0.8667860821222445
 20
-0.8871199974531815
 30
0.0
 11
0.8667860821222445
 21
-0.954975
 31
0.0
  0
LINE
  5
AC
330
8F
100
AcDbEntity
  8
AM_9
100
AcDbLine
 10
0.59375
 20
-0.954975
 30
0.0
 11
0.8667860821222445
 21
-0.954975
 31
0.0
  0
LINE
  5
AD
330
8F
100
AcDbEntity
  8
AM_9
100
AcDbLine
 10
0.8667860821222445
 20
-0.676275
 30
0.0
 11
0.59375
 21
-0.676275
 31
0.0
  0
LINE
  5
AE
330
8F
100
AcDbEntity
  8
AM_9
100
AcDbLine
 10
0.8667860821222445
 20
-0.676275
 30
0.0
 11
0.8667860821222445
 21
-0.7441300025468185
 31
0.0
  0
LINE
  5
AF
330
8F
100
AcDbEntity
  8
AM_9
100
AcDbLine
 10
0.59375
 20
-0.569375
 30
0.0
 11
0.59375
 21
0.3432062139468195
 31
0.0
  0
LINE
  5
B0
330
8F
100
AcDbEntity
  8
AM_9
100
AcDbLine
 10
-0.59375
 20
0.3432062139468195
 30
0.0
 11
-0.59375
 21
-0.569375
 31
0.0
  0
LINE
  5
B1
330
8F
100
AcDbEntity
  8
AM_9
100
AcDbLine
 10
0.59375
 20
-1.033206213946819
 30
0.0
 11
0.59375
 21
-0.9549749999999998
 31
0.0
  0
LINE
  5
B2
330
8F
100
AcDbEntity
  8
AM_9
100
AcDbLine
 10
0.59375
 20
-0.676275
 30
0.0
 11
0.59375
 21
-0.593125
 31
0.0
  0
LINE
  5
B3
330
8F
100
AcDbEntity
  8
AM_9
100
AcDbLine
 10
-0.59375
 20
-0.593125
 30
0.0
 11
-0.59375
 21
-1.033206213946819
 31
0.0
  0
LWPOLYLINE
  5
B4
330
8F
100
AcDbEntity
  8
AM_9
100
AcDbPolyline
 90
       21
 70
     0
 43
0.0
 10
0.5937499999994501
 20
-0.6762750000023431
 10
0.5937332574319254
 20
-0.6763463549005988
 10
0.5930983171338216
 20
-0.6790784006759188
 10
0.5916877865056421
 20
-0.6853414757156668
 10
0.5895748019312053
 20
-0.6953012406163275
 10
0.5870471299435495
 20
-0.7083697307823122
 10
0.5842726994198351
 20
-0.7247737628739107
 10
0.5816408269937087
 20
-0.7436151977094417
 10
0.5793696215995887
 20
-0.7651421471442962
 10
0.5778560356696493
 20
-0.7873945561522158
 10
0.5771831524763535
 20
-0.8111807337454278
 10
0.5774530405419551
 20
-0.8338286818020105
 10
0.5786191323913052
 20
-0.8566062197142417
 10
0.5804753854948114
 20
-0.8775203404171094
 10
0.5829144563288899
 20
-0.8972866396921185
 10
0.5856106376149895
 20
-0.9147167700307882
 10
0.5883568935745641
 20
-0.9298318045989861
 10
0.5907431330738258
 20
-0.9415488232975783
 10
0.5925887966224792
 20
-0.9499412011169092
 10
0.593448653107537
 20
-0.9536853631573855
 10
0.59375
 20
-0.954975
  0
LINE
  5
B5
330
8F
100
AcDbEntity
  8
AM_9
100
AcDbLine
 10
-0.59375
 20
-0.593125
 30
0.0
 11
0.59375
 21
-0.593125
 31
0.0
  0
LINE
  5
B6
330
8F
100
AcDbEntity
  8
AM_9
100
AcDbLine
 10
0.59375
 20
-0.593125
 30
0.0
 11
0.6056250000000002
 21
-0.5812499999999999
 31
0.0
  0
LINE
  5
B7
330
8F
100
AcDbEntity
  8
AM_9
100
AcDbLine
 10
-0.6056250000000002
 20
-0.5812499999999999
 30
0.0
 11
-0.59375
 21
-0.593125
 31
0.0
  0
LINE
  5
B8
330
8F
100
AcDbEntity
  8
AM_9
100
AcDbLine
 10
-0.59375
 20
-0.569375
 30
0.0
 11
0.59375
 21
-0.569375
 31
0.0
  0
LINE
  5
B9
330
8F
100
AcDbEntity
  8
AM_9
100
AcDbLine
 10
-0.6056250000000002
 20
-0.5812499999999999
 30
0.0
 11
0.6056250000000002
 21
-0.5812499999999999
 31
0.0
  0
LINE
  5
BA
330
8F
100
AcDbEntity
  8
AM_9
100
AcDbLine
 10
-0.59375
 20
-0.569375
 30
0.0
 11
-0.6056250000000002
 21
-0.5812499999999999
 31
0.0
  0
LINE
  5
BB
330
8F
100
AcDbEntity
  8
AM_9
100
AcDbLine
 10
0.6056250000000002
 20
-0.5812499999999999
 30
0.0
 11
0.59375
 21
-0.569375
 31
0.0
  0
LINE
  5
BC
330
8F
100
AcDbEntity
  8
AM_9
100
AcDbLine
 10
-0.59375
 20
0.3432062139468195
 30
0.0
 11
0.59375
 21
0.3432062139468195
 31
0.0
  0
LINE
  5
BD
330
8F
100
AcDbEntity
  8
AM_9
100
AcDbLine
 10
0.59375
 20
0.3432062139468195
 30
0.0
 11
0.6105437860531805
 21
0.36
 31
0.0
  0
LINE
  5
BE
330
8F
100
AcDbEntity
  8
AM_9
100
AcDbLine
 10
-0.6105437860531805
 20
0.36
 30
0.0
 11
-0.59375
 21
0.3432062139468195
 31
0.0
  0
LINE
  5
BF
330
8F
100
AcDbEntity
  8
AM_9
100
AcDbLine
 10
-0.59375
 20
-1.033206213946819
 30
0.0
 11
0.59375
 21
-1.033206213946819
 31
0.0
  0
LINE
  5
C0
330
8F
100
AcDbEntity
  8
AM_9
100
AcDbLine
 10
-0.59375
 20
-1.033206213946819
 30
0.0
 11
-0.6105437860531805
 21
-1.05
 31
0.0
  0
LINE
  5
C1
330
8F
100
AcDbEntity
  8
AM_9
100
AcDbLine
 10
0.6105437860531805
 20
-1.05
 30
0.0
 11
0.59375
 21
-1.033206213946819
 31
0.0
  0
LINE
  5
C2
330
8F
100
AcDbEntity
  8
AM_9
100
AcDbLine
 10
0.7476190476190476
 20
-0.4874999999999999
 30
0.0
 11
0.7476190476190476
 21
-0.4562500000000001
 31
0.0
  0
LINE
  5
C3
330
8F
100
AcDbEntity
  8
AM_9
100
AcDbLine
 10
-0.7476190476190476
 20
-0.4562500000000001
 30
0.0
 11
-0.7476190476190476
 21
-0.4874999999999999
 31
0.0
  0
LINE
  5
C4
330
8F
100
AcDbEntity
  8
AM_9
100
AcDbLine
 10
-0.7849999999999999
 20
0.36
 30
0.0
 11
0.7849999999999999
 21
0.36
 31
0.0
  0
LINE
  5
C5
330
8F
100
AcDbEntity
  8
AM_9
100
AcDbLine
 10
0.7849999999999999
 20
0.355
 30
0.0
 11
0.7849999999999999
 21
0.36
 31
0.0
  0
LINE
  5
C6
330
8F
100
AcDbEntity
  8
AM_9
100
AcDbLine
 10
-0.7849999999999999
 20
0.36
 30
0.0
 11
-0.7849999999999999
 21
0.355
 31
0.0
  0
LINE
  5
C7
330
8F
100
AcDbEntity
  8
AM_9
100
AcDbLine
 10
-0.7849999999999999
 20
-0.4562500000000001
 30
0.0
 11
0.7849999999999999
 21
-0.4562500000000001
 31
0.0
  0
LINE
  5
C8
330
8F
100
AcDbEntity
  8
AM_9
100
AcDbLine
 10
0.7849999999999999
 20
-0.4562500000000001
 30
0.0
 11
0.7849999999999999
 21
-0.3349999999999999
 31
0.0
  0
LINE
  5
C9
330
8F
100
AcDbEntity
  8
AM_9
100
AcDbLine
 10
-0.7849999999999999
 20
-0.3349999999999999
 30
0.0
 11
-0.7849999999999999
 21
-0.4562500000000001
 31
0.0
  0
LINE
  5
CA
330
8F
100
AcDbEntity
  8
AM_9
100
AcDbLine
 10
-0.8274999999999999
 20
-0.4874999999999999
 30
0.0
 11
0.8274999999999999
 21
-0.4874999999999999
 31
0.0
  0
ARC
  5
CB
330
8F
100
AcDbEntity
  8
AM_9
100
AcDbCircle
 10
0.8274999999999997
 20
-0.5350000000000001
 30
0.0
 40
0.0475000000000003
100
AcDbArc
 50
4.830628592041939
 51
90.0
  0
ARC
  5
CC
330
8F
100
AcDbEntity
  8
AM_9
100
AcDbCircle
 10
-0.8274999999999997
 20
-0.5350000000000001
 30
0.0
 40
0.0475000000000002
100
AcDbArc
 50
90.0
 51
175.1693714079581
  0
LINE
  5
CD
330
8F
100
AcDbEntity
  8
AM_9
100
AcDbLine
 10
1.162333333333333
 20
-0.182
 30
0.0
 11
1.162333333333333
 21
-0.118
 31
0.0
  0
LINE
  5
CE
330
8F
100
AcDbEntity
  8
AM_9
100
AcDbLine
 10
-1.162333333333333
 20
-0.118
 30
0.0
 11
-1.162333333333333
 21
-0.182
 31
0.0
  0
LINE
  5
CF
330
8F
100
AcDbEntity
  8
AM_9
100
AcDbLine
 10
-1.152774621294205
 20
-0.335
 30
0.0
 11
1.152774621294205
 21
-0.335
 31
0.0
  0
ARC
  5
D0
330
8F
100
AcDbEntity
  8
AM_9
100
AcDbCircle
 10
1.152774621294205
 20
-0.3112499999999992
 30
0.0
 40
0.0237500000000007
100
AcDbArc
 50
270.0
 51
344.428150905397
  0
ARC
  5
D1
330
8F
100
AcDbEntity
  8
AM_9
100
AcDbCircle
 10
-1.152774621294205
 20
-0.3112499999999992
 30
0.0
 40
0.0237500000000008
100
AcDbArc
 50
195.571849094603
 51
270.0
  0
LINE
  5
D2
330
8F
100
AcDbEntity
  8
AM_9
100
AcDbLine
 10
-1.152774621294206
 20
0.355
 30
0.0
 11
1.152774621294206
 21
0.355
 31
0.0
  0
ARC
  5
D3
330
8F
100
AcDbEntity
  8
AM_9
100
AcDbCircle
 10
1.152774621294206
 20
0.3312499999999998
 30
0.0
 40
0.0237500000000002
100
AcDbArc
 50
15.57184413386241
 51
90.0
  0
ARC
  5
D4
330
8F
100
AcDbEntity
  8
AM_9
100
AcDbCircle
 10
-1.152774621294206
 20
0.3312499999999999
 30
0.0
 40
0.0237500000000001
100
AcDbArc
 50
90.0
 51
164.4281558661377
  0
ARC
  5
D5
330
8F
100
AcDbEntity
  8
AM_9
100
AcDbCircle
 10
-0.0000000000001188
 20
0.0100000000000265
 30
0.0
 40
1.220450000000121
100
AcDbArc
 50
344.4281509053982
 51
350.9486832420232
  0
ARC
  5
D6
330
8F
100
AcDbEntity
  8
AM_9
100
AcDbCircle
 10
0.0000000000064801
 20
0.0100000000014125
 30
0.0
 40
1.220450000006611
100
AcDbArc
 50
189.0513167579942
 51
195.5718490945845
  0
LINE
  5
D7
330
8F
100
AcDbEntity
  8
AM_9
100
AcDbLine
 10
-1.175652867517758
 20
-0.3176256058327064
 30
0.0
 11
1.175652867517769
 21
-0.3176256058327064
 31
0.0
  0
LINE
  5
D8
330
8F
100
AcDbEntity
  8
AM_9
100
AcDbLine
 10
-1.205252754612066
 20
-0.182
 30
0.0
 11
1.205252754612077
 21
-0.182
 31
0.0
  0
ELLIPSE
  5
D9
330
8F
100
AcDbEntity
  8
AM_9
100
AcDbEllipse
 10
0.0
 20
0.1707463812482695
 30
0.0
 11
0.07792004660091444
 21
0.0
 31
0.0
210
0.0
220
0.0
230
1.0
 40
0.9912523777664285
 41
2.565079400128594
 42
6.85969856064091
  0
LWPOLYLINE
  5
DA
330
8F
100
AcDbEntity
  8
AM_9
100
AcDbPolyline
 90
       13
 70
     0
 43
0.0
 10
0.0653257033947332
 20
0.2128493652343084
 10
0.0573759498837382
 20
0.2230237305358531
 10
0.0475494978480175
 20
0.2319883931022685
 10
0.0366264672661015
 20
0.2390073729438035
 10
0.024313089742943
 20
0.2442454664754124
 10
0.0117320081660739
 20
0.24723908084248
 10
-0.0015567710361158
 20
0.2481094878292074
 10
-0.0143594064442227
 20
0.2467940301818417
 10
-0.0271171933114111
 20
0.243267820029748
 10
-0.0387644530667333
 20
0.2378294390617895
 10
-0.049635656743532
 20
0.2303308975951648
 10
-0.0580564268351751
 20
0.2222777861823926
 10
-0.0653257033947385
 20
0.2128493652343004
  0
ARC
  5
DB
330
8F
100
AcDbEntity
  8
AM_9
100
AcDbCircle
 10
0.0000000000000229
 20
0.0100000000000016
 30
0.0
 40
1.220449999999977
100
AcDbArc
 50
353.9797846834485
 51
15.57184899806613
  0
ARC
  5
DC
330
8F
100
AcDbEntity
  8
AM_9
100
AcDbCircle
 10
-0.0000000000056122
 20
0.0100000000004693
 30
0.0
 40
1.220449999994458
100
AcDbArc
 50
164.4281510018845
 51
186.0202153166008
  0
LINE
  5
DD
330
8F
100
AcDbEntity
  8
AM_9
100
AcDbLine
 10
-1.213719161297199
 20
-0.1179999999999997
 30
0.0
 11
1.213719161297209
 21
-0.1179999999999997
 31
0.0
  0
LINE
  5
DE
330
8F
100
AcDbEntity
  8
AM_9
100
AcDbLine
 10
-1.175652868069767
 20
0.3376256038518795
 30
0.0
 11
1.175652868069776
 21
0.3376256038518795
 31
0.0
  0
LINE
  5
E0
330
8F
100
AcDbEntity
  8
AM_5
100
AcDbLine
 10
0.59375
 20
-0.6593749999999999
 30
0.0
 11
0.875
 21
-0.6593749999999999
 31
0.0
  0
LINE
  5
E1
330
8F
100
AcDbEntity
  8
AM_5
100
AcDbLine
 10
0.59375
 20
-0.971875
 30
0.0
 11
0.875
 21
-0.971875
 31
0.0
  0
LINE
  5
E4
330
8F
100
AcDbEntity
  8
AM_7
100
AcDbLine
 10
0.9003667881348828
 20
-0.815625
 30
0.0
 11
0.5333912558568418
 21
-0.815625
 31
0.0
  0
ARC
  5
E6
330
8F
100
AcDbEntity
  8
AM_4
100
AcDbCircle
 10
0.8274999999999709
 20
-0.5350000000000021
 30
0.0
 40
0.0475000000000291
100
AcDbArc
 50
0.0000008537736463
 51
4.830628592041485
  0
ARC
  5
E7
330
8F
100
AcDbEntity
  8
AM_4
100
AcDbCircle
 10
-0.8274999999999709
 20
-0.5350000000000021
 30
0.0
 40
0.0475000000000291
100
AcDbArc
 50
175.1693714079586
 51
179.9999991462263
  0
LWPOLYLINE
  5
E8
330
8F
100
AcDbEntity
  8
AM_4
100
AcDbPolyline
 90
        8
 70
     0
 43
0.0
 10
0.8667860821222445
 20
-0.8871199974531815
 10
0.8653155434513728
 20
-0.8662056562845624
 10
0.8642940500651026
 20
-0.8438672994449485
 10
0.8638519756419311
 20
-0.8207062877266508
 10
0.8640247146555907
 20
-0.797400564873638
 10
0.864802531002989
 20
-0.7747549347382867
 10
0.866081443871967
 20
-0.7532512080730129
 10
0.8667860821222445
 20
-0.7441300025468185
  0
LWPOLYLINE
  5
E9
330
8F
100
AcDbEntity
  8
AM_4
100
AcDbPolyline
 90
        8
 70
     0
 43
0.0
 10
0.8667860821222445
 20
-0.7441300025468185
 10
0.8680135927636264
 20
-0.7285351973791043
 10
0.8693728120756488
 20
-0.713987793789937
 10
0.8712316874701116
 20
-0.6968949306435906
 10
0.87296420046647
 20
-0.6828849211810005
 10
0.8741577100058635
 20
-0.6740130723543581
 10
0.874870099621091
 20
-0.6689638915667555
 10
0.8749999999999575
 20
-0.6680610821225389
  0
LINE
  5
EA
330
8F
100
AcDbEntity
  8
AM_4
100
AcDbLine
 10
-0.875
 20
-0.5350000000000001
 30
0.0
 11
0.875
 21
-0.5350000000000001
 31
0.0
  0
LINE
  5
EB
330
8F
100
AcDbEntity
  8
AM_4
100
AcDbLine
 10
0.875
 20
-1.0025
 30
0.0
 11
0.875
 21
-0.9631889178777554
 31
0.0
  0
LINE
  5
EC
330
8F
100
AcDbEntity
  8
AM_4
100
AcDbLine
 10
0.8749999999999998
 20
-0.6680610821222446
 30
0.0
 11
0.875
 21
-0.5350000000000001
 31
0.0
  0
LINE
  5
ED
330
8F
100
AcDbEntity
  8
AM_4
100
AcDbLine
 10
-0.875
 20
-0.5350000000000001
 30
0.0
 11
-0.875
 21
-1.0025
 31
0.0
  0
LWPOLYLINE
  5
EE
330
8F
100
AcDbEntity
  8
AM_4
100
AcDbPolyline
 90
        9
 70
     0
 43
0.0
 10
0.8749999999999575
 20
-0.9631889178774611
 10
0.8749775445550414
 20
-0.9630332311554479
 10
0.8745495359887914
 20
-0.9600350384556235
 10
0.8736864794560201
 20
-0.9537996832981425
 10
0.8724307182564858
 20
-0.9442088351630122
 10
0.8709098499022158
 20
-0.93157192189826
 10
0.8692444123565142
 20
-0.9159766364433254
 10
0.8679713342622474
 20
-0.902224042691245
 10
0.8667860821222444
 20
-0.8871199974531815
  0
LINE
  5
EF
330
8F
100
AcDbEntity
  8
AM_4
100
AcDbLine
 10
-0.8275
 20
-1.05
 30
0.0
 11
0.8275
 21
-1.05
 31
0.0
  0
LINE
  5
F0
330
8F
100
AcDbEntity
  8
AM_4
100
AcDbLine
 10
-0.875
 20
-1.0025
 30
0.0
 11
0.875
 21
-1.0025
 31
0.0
  0
ARC
  5
F1
330
8F
100
AcDbEntity
  8
AM_4
100
AcDbCircle
 10
0.8274999999999998
 20
-1.0025
 30
0.0
 40
0.0475000000000003
100
AcDbArc
 50
270.0
 51
0.0
  0
ARC
  5
F2
330
8F
100
AcDbEntity
  8
AM_4
100
AcDbCircle
 10
-0.8274999999999998
 20
-1.0025
 30
0.0
 40
0.0475000000000002
100
AcDbArc
 50
180.0
 51
270.0
  0
ENDBLK
  5
92
330
8F
100
AcDbEntity
  8
0
100
AcDbBlockEnd
  0
BLOCK
  5
F5
330
F3
100
AcDbEntity
  8
0
100
AcDbBlockBegin
  2
3_405016_Inch_0_in_131244_4
 70
     2
 10
0.0
 20
0.0
 30
0.0
  3
3_405016_Inch_0_in_131244_4
  1

  0
ATTDEF
  5
F7
330
F3
100
AcDbEntity
  8
AM_6
100
AcDbText
 10
3.772050971469379
 20
0.2187499999999999
 30
0.0
 40
0.5
  1
405016 -Inch
100
AcDbAttributeDefinition
  3

  2
NN
 70
     8
280
     0
  0
ATTDEF
  5
F8
330
F3
100
AcDbEntity
  8
AM_6
100
AcDbText
 10
3.772050971469379
 20
-0.2812500000000001
 30
0.0
 40
0.5
  1
Grease Fitting
100
AcDbAttributeDefinition
  3

  2
NT
 70
     8
280
     0
  0
ATTDEF
  5
F9
330
F3
100
AcDbEntity
  8
AM_6
100
AcDbText
 10
3.772050971469379
 20
-0.7812500000000001
 30
0.0
 40
0.5
  1
405016-Inch
100
AcDbAttributeDefinition
  3

  2
NB
 70
     8
280
     0
  0
ATTDEF
  5
FA
330
F3
100
AcDbEntity
  8
AM_6
100
AcDbText
 10
3.772050971469379
 20
-1.28125
 30
0.0
 40
0.5
  1
$MN.-Inch
100
AcDbAttributeDefinition
  3

  2
NBSYN
 70
     8
280
     0
  0
ATTDEF
  5
FB
330
F3
100
AcDbEntity
  8
AM_6
100
AcDbText
 10
3.772050971469379
 20
-1.78125
 30
0.0
 40
0.5
  1
405016
100
AcDbAttributeDefinition
  3

  2
LINA
 70
     8
280
     0
  0
ATTDEF
  5
FC
330
F3
100
AcDbEntity
  8
AM_6
100
AcDbText
 10
3.772050971469379
 20
-2.28125
 30
0.0
 40
0.5
  1
405016
100
AcDbAttributeDefinition
  3

  2
MN
 70
     8
280
     0
  0
ATTDEF
  5
FD
330
F3
100
AcDbEntity
  8
AM_6
100
AcDbText
 10
3.772050971469379
 20
-2.78125
 30
0.0
 40
0.5
  1
7/16 HEX
100
AcDbAttributeDefinition
  3

  2
H
 70
     8
280
     0
  0
ATTDEF
  5
FE
330
F3
100
AcDbEntity
  8
AM_6
100
AcDbText
 10
3.772050971469379
 20
-3.28125
 30
0.0
 40
0.5
  1
0.383
100
AcDbAttributeDefinition
  3

  2
NDR
 70
     8
280
     0
  0
ATTDEF
  5
FF
330
F3
100
AcDbEntity
  8
AM_6
100
AcDbText
 10
3.772050971469379
 20
-3.78125
 30
0.0
 40
0.5
  1
0.337
100
AcDbAttributeDefinition
  3

  2
KDR
 70
     8
280
     0
  0
ATTDEF
  5
100
330
F3
100
AcDbEntity
  8
AM_6
100
AcDbText
 10
3.772050971469379
 20
-4.28125
 30
0.0
 40
0.5
  1
0.1575
100
AcDbAttributeDefinition
  3

  2
BZE
 70
     8
280
     0
  0
ATTDEF
  5
101
330
F3
100
AcDbEntity
  8
AM_6
100
AcDbText
 10
3.772050971469379
 20
-4.78125
 30
0.0
 40
0.5
  1
0.4375
100
AcDbAttributeDefinition
  3

  2
HEX
 70
     8
280
     0
  0
ATTDEF
  5
102
330
F3
100
AcDbEntity
  8
AM_6
100
AcDbText
 10
3.772050971469379
 20
-5.28125
 30
0.0
 40
0.5
  1
0.281250
100
AcDbAttributeDefinition
  3

  2
HEX2
 70
     8
280
     0
  0
ATTDEF
  5
103
330
F3
100
AcDbEntity
  8
AM_6
100
AcDbText
 10
3.772050971469379
 20
-5.78125
 30
0.0
 40
0.5
  1
baldor
100
AcDbAttributeDefinition
  3

  2
COMPANY
 70
     8
280
     0
  0
LINE
  5
104
330
F3
100
AcDbEntity
  8
AM_9
100
AcDbLine
 10
-1.925091846361162
 20
-0.151074129835757
 30
0.0
 11
-1.936413419585039
 21
-0.1791093260592887
 31
0.0
  0
LINE
  5
105
330
F3
100
AcDbEntity
  8
AM_9
100
AcDbLine
 10
-1.773917000322665
 20
-0.2099962668917053
 30
0.0
 11
-1.78560424654221
 21
-0.2389369657326276
 31
0.0
  0
LWPOLYLINE
  5
106
330
F3
100
AcDbEntity
  8
AM_9
100
AcDbPolyline
 90
        3
 70
     0
 43
0.0
 10
-1.557763195057259
 20
0.1093749999999999
 10
-1.539903545073336
 20
0.0546874999999999
 10
-1.518336580522336
 20
-0.0000000000000001
  0
LWPOLYLINE
  5
107
330
F3
100
AcDbEntity
  8
AM_9
100
AcDbPolyline
 90
        3
 70
     0
 43
0.0
 10
-1.518336580522336
 20
-0.0000000000000001
 10
-1.539814251439958
 20
-0.0544416102741496
 10
-1.557763195057259
 20
-0.109375
  0
LWPOLYLINE
  5
108
330
F3
100
AcDbEntity
  8
AM_9
100
AcDbPolyline
 90
        3
 70
     0
 43
0.0
 10
-1.715986151900575
 20
-0.2987675689889718
 10
-1.731873436463671
 20
-0.2912216284034024
 10
-1.747083438161686
 20
-0.2813919000363599
  0
LWPOLYLINE
  5
109
330
F3
100
AcDbEntity
  8
AM_9
100
AcDbPolyline
 90
        3
 70
     0
 43
0.0
 10
-1.447439583521124
 20
-0.0000000000000001
 10
-1.457393790950399
 20
0.0544416102741495
 10
-1.471160654678815
 20
0.1093749999999999
  0
LWPOLYLINE
  5
10A
330
F3
100
AcDbEntity
  8
AM_9
100
AcDbPolyline
 90
        3
 70
     0
 43
0.0
 10
-1.46695394191382
 20
-0.0942424143995492
 10
-1.457446461816431
 20
-0.0546875000000001
 10
-1.447439583521124
 20
-0.0000000000000001
  0
LINE
  5
10B
330
F3
100
AcDbEntity
  8
AM_9
100
AcDbLine
 10
-1.471160654678815
 20
-0.109375
 30
0.0
 11
-1.46695394191382
 21
-0.0942424143995492
 31
0.0
  0
LWPOLYLINE
  5
10C
330
F3
100
AcDbEntity
  8
AM_9
100
AcDbPolyline
 90
        3
 70
     0
 43
0.0
 10
-1.557763195057259
 20
-0.109375
 10
-1.571477387919644
 20
-0.1640625
 10
-1.581484266214951
 20
-0.2187500000000001
  0
LINE
  5
10D
330
F3
100
AcDbEntity
  8
AM_9
100
AcDbLine
 10
-1.518336580522336
 20
-0.0000000000000001
 30
0.0
 11
-1.447439583521124
 21
-0.0000000000000001
 31
0.0
  0
LWPOLYLINE
  5
10E
330
F3
100
AcDbEntity
  8
AM_9
100
AcDbPolyline
 90
        3
 70
     0
 43
0.0
 10
-1.581484266214951
 20
0.2187499999999999
 10
-1.571530058785676
 20
0.1643083897258503
 10
-1.557763195057259
 20
0.1093749999999999
  0
ELLIPSE
  5
10F
330
F3
100
AcDbEntity
  8
AM_9
100
AcDbEllipse
 10
-1.958267794749666
 20
-0.4687500000000001
 30
0.0
 11
-0.0959538295573179
 21
0.03874944547499731
 31
0.0
210
0.0
220
0.0
230
1.0
 40
0.2113091308703473
 41
3.04060964969654
 42
6.384168311072848
  0
ELLIPSE
  5
110
330
F3
100
AcDbEntity
  8
AM_9
100
AcDbEllipse
 10
-1.930274132552182
 20
-0.3994303217889761
 30
0.0
 11
-0.1290248947933272
 21
0.05210467522533584
 31
0.0
210
0.0
220
0.0
230
1.0
 40
0.2113091308703499
 41
3.037952549900423
 42
5.801105639492174
  0
ELLIPSE
  5
111
330
F3
100
AcDbEntity
  8
AM_9
100
AcDbEllipse
 10
-1.919599151074803
 20
-0.3729962569746822
 30
0.0
 11
-0.1235034625626333
 21
0.04987493162725161
 31
0.0
210
0.0
220
0.0
230
1.0
 40
0.2113091308703521
 41
3.396652879994553
 42
6.027212785323481
  0
LWPOLYLINE
  5
112
330
F3
100
AcDbEntity
  8
AM_9
100
AcDbPolyline
 90
        5
 70
     0
 43
0.0
 10
-1.936413419585039
 20
-0.1791093260592887
 10
-1.958275808083665
 20
-0.1842540823997054
 10
-1.979171895013658
 20
-0.1862220679364951
 10
-1.999089514568567
 20
-0.1844124966919381
 10
-2.01760330118983
 20
-0.1791093260592887
  0
LWPOLYLINE
  5
113
330
F3
100
AcDbEntity
  8
AM_9
100
AcDbPolyline
 90
        5
 70
     0
 43
0.0
 10
-1.78560424654221
 20
-0.2389369657326276
 10
-1.824445535229639
 20
-0.2295338871417796
 10
-1.862580581941558
 20
-0.216687117104632
 10
-1.900199376302741
 20
-0.1996402057054678
 10
-1.936413419585039
 20
-0.1791093260592887
  0
LWPOLYLINE
  5
114
330
F3
100
AcDbEntity
  8
AM_9
100
AcDbPolyline
 90
        3
 70
     0
 43
0.0
 10
-1.759104968343492
 20
-0.2711532636537956
 10
-1.772840146108065
 20
-0.2561815527589921
 10
-1.78560424654221
 20
-0.2389369657326276
  0
ELLIPSE
  5
115
330
F3
100
AcDbEntity
  8
AM_9
100
AcDbEllipse
 10
-1.86859824781085
 20
-0.2467045921760237
 30
0.0
 11
-0.1303939210191767
 21
0.05265753494273735
 31
0.0
210
0.0
220
0.0
230
1.0
 40
0.2113091308703422
 41
3.806340372002964
 42
6.919181903097275
  0
LWPOLYLINE
  5
116
330
F3
100
AcDbEntity
  8
AM_9
100
AcDbPolyline
 90
        3
 70
     0
 43
0.0
 10
-1.502847629125089
 20
-0.2000409996967265
 10
-1.489109598296117
 20
-0.1643083897258505
 10
-1.471160654678815
 20
-0.109375
  0
LINE
  5
117
330
F3
100
AcDbEntity
  8
AM_9
100
AcDbLine
 10
-1.510587269213739
 20
-0.2187500000000001
 30
0.0
 11
-1.502847629125089
 21
-0.2000409996967265
 31
0.0
  0
LINE
  5
118
330
F3
100
AcDbEntity
  8
AM_9
100
AcDbLine
 10
-1.502847751207054
 20
0.2000413016192557
 30
0.0
 11
-1.510587269213739
 21
0.2187499999999999
 31
0.0
  0
LWPOLYLINE
  5
119
330
F3
100
AcDbEntity
  8
AM_9
100
AcDbPolyline
 90
        3
 70
     0
 43
0.0
 10
-1.471160654678815
 20
0.1093749999999999
 10
-1.489020304662739
 20
0.1640624999999999
 10
-1.502847751207054
 20
0.2000413016192557
  0
LINE
  5
11A
330
F3
100
AcDbEntity
  8
AM_9
100
AcDbLine
 10
-1.936226647213052
 20
-0.1204089378707286
 30
0.0
 11
-1.937312092202764
 21
-0.1230967854582223
 31
0.0
  0
LINE
  5
11B
330
F3
100
AcDbEntity
  8
AM_9
100
AcDbLine
 10
-1.731106418787177
 20
-0.2
 30
0.0
 11
-1.728437939442474
 21
-0.193392142543456
 31
0.0
  0
ELLIPSE
  5
11C
330
F3
100
AcDbEntity
  8
AM_9
100
AcDbEllipse
 10
-1.850298340272315
 20
-0.2013892028241913
 30
0.0
 11
-0.1019970226638909
 21
0.04118989399965291
 31
0.0
210
0.0
220
0.0
230
1.0
 40
0.211309130870351
 41
3.141592653589793
 42
6.283185307179586
  0
LWPOLYLINE
  5
11D
330
F3
100
AcDbEntity
  8
AM_9
100
AcDbPolyline
 90
        4
 70
     0
 43
0.0
 10
-1.936231376868072
 20
-0.1204206514110938
 10
-1.936370542852601
 20
-0.1208367673933812
 10
-1.935792958895474
 20
-0.1245107513506023
 10
-1.933883056561511
 20
-0.1273659489906998
  0
LWPOLYLINE
  5
11E
330
F3
100
AcDbEntity
  8
AM_9
100
AcDbPolyline
 90
        5
 70
     0
 43
0.0
 10
-1.728436995240985
 20
-0.1933898041312626
 10
-1.728530331372137
 20
-0.1936098952159724
 10
-1.731745868324775
 20
-0.1971856748420371
 10
-1.737764231567557
 20
-0.1994144431868155
 10
-1.744628202148
 20
-0.1999999999699529
  0
LWPOLYLINE
  5
11F
330
F3
100
AcDbEntity
  8
AM_9
100
AcDbPolyline
 90
        3
 70
     0
 43
0.0
 10
-1.837925333360438
 20
-0.1745741884610189
 10
-1.810536257987008
 20
-0.1876759562813858
 10
-1.773917000322665
 20
-0.2099962668917053
  0
LWPOLYLINE
  5
120
330
F3
100
AcDbEntity
  8
AM_9
100
AcDbPolyline
 90
        3
 70
     0
 43
0.0
 10
-1.925091846361162
 20
-0.151074129835757
 10
-1.895887238861639
 20
-0.1564222384464442
 10
-1.867216739919344
 20
-0.1639312493177434
  0
LWPOLYLINE
  5
121
330
F3
100
AcDbEntity
  8
AM_9
100
AcDbPolyline
 90
        3
 70
     0
 43
0.0
 10
-1.773917000322665
 20
-0.2099962668917053
 10
-1.756943317989142
 20
-0.2163479371246913
 10
-1.740805060804959
 20
-0.2258378743019629
  0
LWPOLYLINE
  5
122
330
F3
100
AcDbEntity
  8
AM_9
100
AcDbPolyline
 90
        4
 70
     0
 43
0.0
 10
-1.962002726705657
 20
-0.141958509815605
 10
-1.958127607259608
 20
-0.1420496512545706
 10
-1.943638692144858
 20
-0.1441228263802214
 10
-1.925091846361162
 20
-0.151074129835757
  0
ELLIPSE
  5
123
330
F3
100
AcDbEntity
  8
AM_9
100
AcDbEllipse
 10
-1.850298340272319
 20
-0.2013892028241875
 30
0.0
 11
-0.1303939210191758
 21
0.0526575349427347
 31
0.0
210
0.0
220
0.0
230
1.0
 40
0.2113091308703451
 41
3.814164134970078
 42
4.684499812332477
  0
ELLIPSE
  5
124
330
F3
100
AcDbEntity
  8
AM_9
100
AcDbEllipse
 10
-1.850298340272318
 20
-0.2013892028241875
 30
0.0
 11
-0.1303939210191754
 21
0.05265753494273366
 31
0.0
210
0.0
220
0.0
230
1.0
 40
0.2113091308703444
 41
-1.28133890909049
 42
-0.6725714813802837
  0
LINE
  5
125
330
F3
100
AcDbEntity
  8
AM_9
100
AcDbLine
 10
-1.747083438161686
 20
-0.2813919000363599
 30
0.0
 11
-1.759104968343492
 21
-0.2711532636537956
 31
0.0
  0
ELLIPSE
  5
126
330
F3
100
AcDbEntity
  8
AM_9
100
AcDbEllipse
 10
-1.868598247810852
 20
-0.2467045921760213
 30
0.0
 11
-0.1303939210191744
 21
0.05265753494273322
 31
0.0
210
0.0
220
0.0
230
1.0
 40
0.2113091308703511
 41
2.800469246484368
 42
3.607080702195132
  0
ELLIPSE
  5
127
330
F3
100
AcDbEntity
  8
AM_9
100
AcDbEllipse
 10
-1.868598247812681
 20
-0.2467045921728296
 30
0.0
 11
-0.1303939210218976
 21
0.05265753494551129
 31
0.0
210
0.0
220
0.0
230
1.0
 40
0.2113091308779817
 41
-3.77758924950487
 42
-3.764628581856909
  0
LWPOLYLINE
  5
128
330
F3
100
AcDbEntity
  8
AM_9
100
AcDbPolyline
 90
        3
 70
     0
 43
0.0
 10
-1.996280065079274
 20
-0.204804047648308
 10
-1.995891354344288
 20
-0.2053908312737411
 10
-1.995271367151907
 20
-0.2063659030961057
  0
LWPOLYLINE
  5
129
330
F3
100
AcDbEntity
  8
AM_9
100
AcDbPolyline
 90
       17
 70
     0
 43
0.0
 10
-1.735113104593061
 20
-0.1790373738501779
 10
-1.743080569669254
 20
-0.1733931390117467
 10
-1.753836643103436
 20
-0.1670729780242511
 10
-1.766479694625879
 20
-0.1606047421316795
 10
-1.78137011777172
 20
-0.1538031670974777
 10
-1.797271994578601
 20
-0.1472336073736393
 10
-1.81463296440032
 20
-0.1407130262602576
 10
-1.831988441530565
 20
-0.1347930597680667
 10
-1.849846153114853
 20
-0.1293028157827817
 10
-1.866675914614927
 20
-0.1247141396218192
 10
-1.882992658515632
 20
-0.1208880884981781
 10
-1.897391709375466
 20
-0.1181545989145989
 10
-1.910324062241213
 20
-0.1164278875396128
 10
-1.920683790400914
 20
-0.1158549073091554
 10
-1.928793965217611
 20
-0.1164156227038167
 10
-1.933970606408452
 20
-0.1180609686233501
 10
-1.936231376868072
 20
-0.1204206514110938
  0
LWPOLYLINE
  5
12A
330
F3
100
AcDbEntity
  8
AM_9
100
AcDbPolyline
 90
        4
 70
     0
 43
0.0
 10
-1.735113104593062
 20
-0.1790373738501784
 10
-1.730158444120994
 20
-0.1842628795203941
 10
-1.728050559654251
 20
-0.1891729979031393
 10
-1.728436995240985
 20
-0.1933898041312626
  0
LINE
  5
12B
330
F3
100
AcDbEntity
  8
AM_9
100
AcDbLine
 10
-1.652484723596182
 20
0.1999999999999999
 30
0.0
 11
-1.715174025446239
 21
0.1999999999999999
 31
0.0
  0
LINE
  5
12C
330
F3
100
AcDbEntity
  8
AM_9
100
AcDbLine
 10
-1.715176669533615
 20
-0.2
 30
0.0
 11
-1.652484723596182
 21
-0.2
 31
0.0
  0
LINE
  5
12D
330
F3
100
AcDbEntity
  8
AM_9
100
AcDbLine
 10
-1.510587269213739
 20
0.2187499999999999
 30
0.0
 11
-1.63688264059897
 21
0.2187499999999999
 31
0.0
  0
LINE
  5
12E
330
F3
100
AcDbEntity
  8
AM_9
100
AcDbLine
 10
-1.63688264059897
 20
-0.2187500000000001
 30
0.0
 11
-1.510587269213739
 21
-0.2187500000000001
 31
0.0
  0
ELLIPSE
  5
12F
330
F3
100
AcDbEntity
  8
AM_9
100
AcDbEllipse
 10
-1.565882183217738
 20
-0.000000000000002
 30
0.0
 11
1.339457436567435E-17
 21
0.2187500000000029
 31
0.0
210
0.0
220
0.0
230
1.0
 40
0.4999999999999974
 41
1.957635673558143
 42
7.476300319920031
  0
LINE
  5
130
330
F3
100
AcDbEntity
  8
AM_9
100
AcDbLine
 10
-1.498223948547079
 20
0.1999999999999999
 30
0.0
 11
-1.565882183217738
 21
0.1999999999999999
 31
0.0
  0
LINE
  5
131
330
F3
100
AcDbEntity
  8
AM_9
100
AcDbLine
 10
-1.565882183217738
 20
-0.2
 30
0.0
 11
-1.498223948547079
 21
-0.2
 31
0.0
  0
LWPOLYLINE
  5
132
330
F3
100
AcDbEntity
  8
AM_9
100
AcDbPolyline
 90
        3
 70
     0
 43
0.0
 10
-1.637444421804065
 20
0.215157231345658
 10
-1.646836848028244
 20
0.1643083897258503
 10
-1.660603711756661
 20
0.1093749999999999
  0
LINE
  5
133
330
F3
100
AcDbEntity
  8
AM_9
100
AcDbLine
 10
-1.660603711756661
 20
0.1093749999999999
 30
0.0
 11
-1.66496510978155
 21
0.0947872327174848
 31
0.0
  0
LWPOLYLINE
  5
134
330
F3
100
AcDbEntity
  8
AM_9
100
AcDbPolyline
 90
        3
 70
     0
 43
0.0
 10
-1.660603711756661
 20
-0.109375
 10
-1.646889518894277
 20
-0.1640625
 10
-1.637422522482169
 20
-0.2152958551034308
  0
LINE
  5
135
330
F3
100
AcDbEntity
  8
AM_9
100
AcDbLine
 10
-1.66495336743448
 20
-0.0948252067274292
 30
0.0
 11
-1.660603711756661
 21
-0.109375
 31
0.0
  0
LINE
  5
136
330
F3
100
AcDbEntity
  8
AM_9
100
AcDbLine
 10
-1.327679330924676
 20
0.1853871066562612
 30
0.0
 11
-1.496496220608745
 21
0.1914800577488989
 31
0.0
  0
LINE
  5
137
330
F3
100
AcDbEntity
  8
AM_9
100
AcDbLine
 10
-1.496496220608745
 20
-0.191480057748899
 30
0.0
 11
-1.327679330924676
 21
-0.1853871066562613
 31
0.0
  0
LINE
  5
138
330
F3
100
AcDbEntity
  8
AM_9
100
AcDbLine
 10
-1.262112593642526
 20
0.1319978794387896
 30
0.0
 11
-1.275826720701595
 21
0.1513925839218323
 31
0.0
  0
LINE
  5
139
330
F3
100
AcDbEntity
  8
AM_9
100
AcDbLine
 10
-1.275826720701595
 20
-0.1513925839218324
 30
0.0
 11
-1.262112593642526
 21
-0.1319978794387897
 31
0.0
  0
ELLIPSE
  5
13A
330
F3
100
AcDbEntity
  8
AM_9
100
AcDbEllipse
 10
-1.652484723596183
 20
-0.0000000000000006
 30
0.0
 11
1.339457436567414E-17
 21
0.2187499999999994
 31
0.0
210
0.0
220
0.0
230
1.0
 40
0.4999999999999983
 41
0.0
 42
6.283185307179586
  0
ELLIPSE
  5
13B
330
F3
100
AcDbEntity
  8
AM_9
100
AcDbEllipse
 10
-1.652484723596182
 20
0.0
 30
0.0
 11
1.224646799147353E-17
 21
0.2
 31
0.0
210
0.0
220
0.0
230
1.0
 40
0.4999999999999982
 41
0.0
 42
6.283185307179586
  0
ELLIPSE
  5
13C
330
F3
100
AcDbEntity
  8
AM_9
100
AcDbEllipse
 10
-1.498223948547072
 20
-0.0000000000000034
 30
0.0
 11
1.224646799147373E-17
 21
0.2000000000000033
 31
0.0
210
0.0
220
0.0
230
1.0
 40
0.4999999999999922
 41
0.0
 42
6.283185307179586
  0
ELLIPSE
  5
13D
330
F3
100
AcDbEntity
  8
AM_9
100
AcDbEllipse
 10
-1.565882183217738
 20
-0.0000000000000005
 30
0.0
 11
1.224646799147356E-17
 21
0.2000000000000004
 31
0.0
210
0.0
220
0.0
230
1.0
 40
0.4999999999999993
 41
0.0
 42
6.283185307179586
  0
ELLIPSE
  5
13E
330
F3
100
AcDbEntity
  8
AM_9
100
AcDbEllipse
 10
-1.498223948547079
 20
0.0000000000000001
 30
0.0
 11
1.172668097677220E-17
 21
0.1915112338502297
 31
0.0
210
0.0
220
0.0
230
1.0
 40
0.500000000000001
 41
0.0
 42
6.283185307179586
  0
ELLIPSE
  5
13F
330
F3
100
AcDbEntity
  8
AM_9
100
AcDbEllipse
 10
-1.329352082057836
 20
-0.0000000000000006
 30
0.0
 11
1.135353457964635E-17
 21
0.1854172907249849
 31
0.0
210
0.0
220
0.0
230
1.0
 40
0.4999999999999981
 41
0.0
 42
6.283185307179586
  0
ELLIPSE
  5
140
330
F3
100
AcDbEntity
  8
AM_9
100
AcDbEllipse
 10
-1.308780891469233
 20
0.0000000000000005
 30
0.0
 11
9.899048221688929E-18
 21
0.1616637258772249
 31
0.0
210
0.0
220
0.0
230
1.0
 40
0.4999999999999931
 41
0.0
 42
6.283185307179586
  0
LWPOLYLINE
  5
141
330
F3
100
AcDbEntity
  8
AM_4
100
AcDbPolyline
 90
        3
 70
     0
 43
0.0
 10
-1.728783530623152
 20
-0.2360765106845277
 10
-1.719618544046594
 20
-0.2462091938631851
 10
-1.703930502589597
 20
-0.2689146070947222
  0
LWPOLYLINE
  5
142
330
F3
100
AcDbEntity
  8
AM_4
100
AcDbPolyline
 90
        3
 70
     0
 43
0.0
 10
-1.703930502589597
 20
-0.2689146070947222
 10
-1.716926390439208
 20
-0.2634308483997528
 10
-1.731140290553448
 20
-0.2602304684431305
  0
LWPOLYLINE
  5
143
330
F3
100
AcDbEntity
  8
AM_4
100
AcDbPolyline
 90
        3
 70
     0
 43
0.0
 10
-1.749440198091982
 20
-0.3055458577949631
 10
-1.733058243473004
 20
-0.3030753670497808
 10
-1.715986151900575
 20
-0.2987675689889718
  0
LINE
  5
144
330
F3
100
AcDbEntity
  8
AM_4
100
AcDbLine
 10
-1.703930502589597
 20
-0.2689146070947222
 30
0.0
 11
-1.715986151900575
 21
-0.2987675689889718
 31
0.0
  0
LINE
  5
145
330
F3
100
AcDbEntity
  8
AM_4
100
AcDbLine
 10
-1.86362825287832
 20
-0.5093460834378319
 30
0.0
 11
-1.803016502611056
 21
-0.4540180898723598
 31
0.0
  0
LINE
  5
146
330
F3
100
AcDbEntity
  8
AM_4
100
AcDbLine
 10
-2.059751669910931
 20
-0.3503396289636352
 30
0.0
 11
-2.0545582476202
 21
-0.4322420068738781
 31
0.0
  0
ELLIPSE
  5
147
330
F3
100
AcDbEntity
  8
AM_4
100
AcDbEllipse
 10
-1.958267794749666
 20
-0.4687500000000001
 30
0.0
 11
-0.09595382955731788
 21
0.03874944547499721
 31
0.0
210
0.0
220
0.0
230
1.0
 40
0.2113091308703506
 41
0.1009830038932531
 42
3.04060964969654
  0
LINE
  5
148
330
F3
100
AcDbEntity
  8
AM_4
100
AcDbLine
 10
-2.006281727965953
 20
-0.151074129835757
 30
0.0
 11
-2.01760330118983
 21
-0.1791093260592887
 31
0.0
  0
LWPOLYLINE
  5
149
330
F3
100
AcDbEntity
  8
AM_4
100
AcDbPolyline
 90
       10
 70
     0
 43
0.0
 10
-2.035830381491923
 20
-0.3179542747726135
 10
-2.036711409604587
 20
-0.3182322229796883
 10
-2.042216137389665
 20
-0.3204956185790785
 10
-2.047187817183963
 20
-0.3235476223887203
 10
-2.051583175886068
 20
-0.3274553870238202
 10
-2.055220470104105
 20
-0.3321900320438107
 10
-2.058095582413124
 20
-0.3381760888145225
 10
-2.059553108266059
 20
-0.3442977325691564
 10
-2.059758614441753
 20
-0.3502269624460997
 10
-2.059711956406497
 20
-0.3508906664865969
  0
LWPOLYLINE
  5
14A
330
F3
100
AcDbEntity
  8
AM_4
100
AcDbPolyline
 90
        9
 70
     0
 43
0.0
 10
-1.803269465131814
 20
-0.4542465443967103
 10
-1.799848111536146
 20
-0.4506704981943736
 10
-1.796530683445983
 20
-0.4456732287792303
 10
-1.794114393819228
 20
-0.4396091547580462
 10
-1.7930723972125
 20
-0.4335188872387205
 10
-1.793214134721413
 20
-0.4276850389333618
 10
-1.794327606863313
 20
-0.4221922070479439
 10
-1.796267204989271
 20
-0.4170039100569143
 10
-1.797706816830726
 20
-0.4141636529622577
  0
ELLIPSE
  5
14B
330
F3
100
AcDbEntity
  8
AM_4
100
AcDbEllipse
 10
-1.930274132552183
 20
-0.399430321788976
 30
0.0
 11
-0.1290248947933272
 21
0.05210467522533585
 31
0.0
210
0.0
220
0.0
230
1.0
 40
0.211309130870348
 41
0.1053784736573853
 42
3.037952549900427
  0
LWPOLYLINE
  5
14C
330
F3
100
AcDbEntity
  8
AM_4
100
AcDbPolyline
 90
        3
 70
     0
 43
0.0
 10
-1.797176033505366
 20
-0.2987675689889718
 10
-1.783642768004976
 20
-0.3030606061861223
 10
-1.770083483379991
 20
-0.305456396233367
  0
ELLIPSE
  5
14D
330
F3
100
AcDbEntity
  8
AM_4
100
AcDbEllipse
 10
-1.868598247810852
 20
-0.2467045921760209
 30
0.0
 11
-0.1303939210191749
 21
0.05265753494273356
 31
0.0
210
0.0
220
0.0
230
1.0
 40
0.2113091308703476
 41
1.711945269609633
 42
2.505596057672103
  0
LWPOLYLINE
  5
14E
330
F3
100
AcDbEntity
  8
AM_4
100
AcDbPolyline
 90
        4
 70
     0
 43
0.0
 10
-2.01760330118983
 20
-0.1791093260592887
 10
-2.002726183146754
 20
-0.1988355121406939
 10
-1.98629691090408
 20
-0.2156330920108724
 10
-1.980799892292737
 20
-0.2201680623457971
  0
LWPOLYLINE
  5
14F
330
F3
100
AcDbEntity
  8
AM_4
100
AcDbPolyline
 90
        3
 70
     0
 43
0.0
 10
-1.980799892292737
 20
-0.2201680623457971
 10
-1.967859370694109
 20
-0.2290462109660021
 10
-1.947984009751793
 20
-0.2389369657326275
  0
LWPOLYLINE
  5
150
330
F3
100
AcDbEntity
  8
AM_4
100
AcDbPolyline
 90
        4
 70
     0
 43
0.0
 10
-1.750896690506716
 20
-0.2602304684431209
 10
-1.76014532592061
 20
-0.2616913382589203
 10
-1.772442843370244
 20
-0.2647402074337707
 10
-1.785120384194388
 20
-0.2689146070947222
  0
LINE
  5
151
330
F3
100
AcDbEntity
  8
AM_4
100
AcDbLine
 10
-1.937312092202764
 20
-0.1230967854582223
 30
0.0
 11
-1.952295362936206
 21
-0.1601993088245384
 31
0.0
  0
LINE
  5
152
330
F3
100
AcDbEntity
  8
AM_4
100
AcDbLine
 10
-1.748301317608431
 20
-0.2425790968238377
 30
0.0
 11
-1.731106418787177
 21
-0.2
 31
0.0
  0
ELLIPSE
  5
153
330
F3
100
AcDbEntity
  8
AM_4
100
AcDbEllipse
 10
-1.850298340272319
 20
-0.2013892028241881
 30
0.0
 11
-0.1019970226638878
 21
0.04118989399964965
 31
0.0
210
0.0
220
0.0
230
1.0
 40
0.2113091308703495
 41
0.0
 42
3.141592653589793
  0
LWPOLYLINE
  5
154
330
F3
100
AcDbEntity
  8
AM_4
100
AcDbPolyline
 90
        4
 70
     0
 43
0.0
 10
-2.006281727965953
 20
-0.151074129835757
 10
-1.989665885978424
 20
-0.145877822676052
 10
-1.973611273323292
 20
-0.1427138007556462
 10
-1.962002726705657
 20
-0.141958509815605
  0
LWPOLYLINE
  5
155
330
F3
100
AcDbEntity
  8
AM_4
100
AcDbPolyline
 90
        6
 70
     0
 43
0.0
 10
-1.936296763532247
 20
-0.2099962668917053
 10
-1.946605899889577
 20
-0.1943573015029059
 10
-1.957949726723787
 20
-0.1805491420332303
 10
-1.970663701300594
 20
-0.1688997677199809
 10
-1.984559627490286
 20
-0.1598729403210871
 10
-2.006281727965953
 20
-0.151074129835757
  0
LINE
  5
156
330
F3
100
AcDbEntity
  8
AM_4
100
AcDbLine
 10
-1.960672873162828
 20
-0.1419585097669023
 30
0.0
 11
-1.962111349810981
 21
-0.1419585097669023
 31
0.0
  0
ELLIPSE
  5
157
330
F3
100
AcDbEntity
  8
AM_4
100
AcDbEllipse
 10
-1.850298340272311
 20
-0.2013892028241882
 30
0.0
 11
-0.1303939210191842
 21
0.05265753494273401
 31
0.0
210
0.0
220
0.0
230
1.0
 40
0.2113091308703345
 41
5.610613825799306
 42
7.795870906981468
  0
ELLIPSE
  5
158
330
F3
100
AcDbEntity
  8
AM_4
100
AcDbEllipse
 10
-1.868598247810852
 20
-0.2467045921760201
 30
0.0
 11
-0.1303939210191745
 21
0.05265753494273336
 31
0.0
210
0.0
220
0.0
230
1.0
 40
0.2113091308703531
 41
0.6359965959176836
 42
1.512685599801939
  0
LWPOLYLINE
  5
159
330
F3
100
AcDbEntity
  8
AM_4
100
AcDbPolyline
 90
        3
 70
     0
 43
0.0
 10
-1.769196598045252
 20
-0.3055458577949631
 10
-1.759746399158943
 20
-0.3064767622622302
 10
-1.749440198091982
 20
-0.3055458577949631
  0
LWPOLYLINE
  5
15A
330
F3
100
AcDbEntity
  8
AM_4
100
AcDbPolyline
 90
       19
 70
     0
 43
0.0
 10
-1.797314210930189
 20
-0.4148841716710989
 10
-1.798799555578926
 20
-0.4118073769999273
 10
-1.801086871564172
 20
-0.4060282847173253
 10
-1.803112199709029
 20
-0.3990123201985551
 10
-1.804558674095889
 20
-0.3908953900498412
 10
-1.805136324918651
 20
-0.3819559637624484
 10
-1.804643681470649
 20
-0.3725356757939591
 10
-1.802722796208754
 20
-0.3619062390514749
 10
-1.79942940896887
 20
-0.3517027833077467
 10
-1.794953124949012
 20
-0.3422685359085932
 10
-1.789518248160421
 20
-0.33379089289716
 10
-1.783375134777679
 20
-0.3263924616498926
 10
-1.776805863949974
 20
-0.3201531451013075
 10
-1.770136399536385
 20
-0.3151146001862237
 10
-1.763724623733541
 20
-0.3112611484184207
 10
-1.757907196217403
 20
-0.3084971408123008
 10
-1.752928878951573
 20
-0.3066506815925933
 10
-1.748919407126814
 20
-0.3055145155295327
 10
-1.747616988491094
 20
-0.3052173089758289
  0
LWPOLYLINE
  5
15B
330
F3
100
AcDbEntity
  8
AM_4
100
AcDbPolyline
 90
       18
 70
     0
 43
0.0
 10
-1.995271367151907
 20
-0.2063659030961057
 10
-1.993846758109834
 20
-0.2088011429542997
 10
-1.991573429007681
 20
-0.2133588727087715
 10
-1.989286931217249
 20
-0.2191469335622684
 10
-1.987264606244499
 20
-0.2261714577757477
 10
-1.985823400381643
 20
-0.2342954001315542
 10
-1.98525282154065
 20
-0.2432395016083994
 10
-1.985753602034127
 20
-0.2526620059808259
 10
-1.987683593608026
 20
-0.2632898591964449
 10
-1.990985145460475
 20
-0.2734892103087
 10
-1.995468267308574
 20
-0.2829178850222361
 10
-2.000908460872707
 20
-0.2913889883783158
 10
-2.00705521909622
 20
-0.2987802650918212
 10
-2.013626204584448
 20
-0.3050120290814159
 10
-2.020295175873946
 20
-0.3100429128585496
 10
-2.026704172428692
 20
-0.3138890421554502
 10
-2.032516911094496
 20
-0.3166466064451768
 10
-2.036637565316755
 20
-0.3182060992894963
  0
ELLIPSE
  5
15C
330
F3
100
AcDbEntity
  8
AM_4
100
AcDbEllipse
 10
-1.919599151074837
 20
-0.3729962569746642
 30
0.0
 11
-0.1235034625625955
 21
0.04987493162723571
 31
0.0
210
0.0
220
0.0
230
1.0
 40
0.2113091308703476
 41
6.04222147305915
 42
9.666181167147752
  0
ELLIPSE
  5
15D
330
F3
100
AcDbEntity
  8
AM_4
100
AcDbEllipse
 10
-1.85029834027232
 20
-0.2013892028241871
 30
0.0
 11
-0.1303939210191833
 21
0.05265753494272146
 31
0.0
210
0.0
220
0.0
230
1.0
 40
0.2113091308703627
 41
1.711945269609623
 42
2.518556725320337
  0
LINE
  5
15E
330
F3
100
AcDbEntity
  8
AM_4
100
AcDbLine
 10
-1.731140290553448
 20
-0.2602304684431305
 30
0.0
 11
-1.750896690506716
 21
-0.2602304684431209
 31
0.0
  0
ELLIPSE
  5
15F
330
F3
100
AcDbEntity
  8
AM_4
100
AcDbEllipse
 10
-1.850298340272318
 20
-0.2013892028241887
 30
0.0
 11
-0.1303939210191738
 21
0.05265753494273324
 31
0.0
210
0.0
220
0.0
230
1.0
 40
0.2113091308703508
 41
2.800469246484361
 42
3.607080702195122
  0
LINE
  5
160
330
F3
100
AcDbEntity
  8
AM_4
100
AcDbLine
 10
-1.740805060804959
 20
-0.2258378743019629
 30
0.0
 11
-1.728783530623152
 21
-0.2360765106845277
 31
0.0
  0
LWPOLYLINE
  5
161
330
F3
100
AcDbEntity
  8
AM_4
100
AcDbPolyline
 90
        3
 70
     0
 43
0.0
 10
-1.785120384194388
 20
-0.2689146070947222
 10
-1.813182684163232
 20
-0.251275593729576
 10
-1.842970789001218
 20
-0.2360765106845275
  0
LINE
  5
162
330
F3
100
AcDbEntity
  8
AM_4
100
AcDbLine
 10
-1.842970789001218
 20
-0.2360765106845275
 30
0.0
 11
-1.868979598027202
 21
-0.2258378743019627
 31
0.0
  0
LWPOLYLINE
  5
163
330
F3
100
AcDbEntity
  8
AM_4
100
AcDbPolyline
 90
        4
 70
     0
 43
0.0
 10
-1.868979598027202
 20
-0.2258378743019627
 10
-1.891969632719442
 20
-0.2189176876709014
 10
-1.913975502580127
 20
-0.2138633349839127
 10
-1.936296763532247
 20
-0.2099962668917053
  0
LINE
  5
164
330
F3
100
AcDbEntity
  8
AM_4
100
AcDbLine
 10
-1.936296763532247
 20
-0.2099962668917053
 30
0.0
 11
-1.947984009751792
 21
-0.2389369657326276
 31
0.0
  0
LWPOLYLINE
  5
165
330
F3
100
AcDbEntity
  8
AM_4
100
AcDbPolyline
 90
        3
 70
     0
 43
0.0
 10
-1.947984009751792
 20
-0.2389369657326276
 10
-1.91830418851799
 20
-0.2560939713202353
 10
-1.887279505565735
 20
-0.2711532636537956
  0
LINE
  5
166
330
F3
100
AcDbEntity
  8
AM_4
100
AcDbLine
 10
-1.887279505565735
 20
-0.2711532636537956
 30
0.0
 11
-1.861270696539752
 21
-0.2813919000363599
 31
0.0
  0
LWPOLYLINE
  5
167
330
F3
100
AcDbEntity
  8
AM_4
100
AcDbPolyline
 90
        3
 70
     0
 43
0.0
 10
-1.861270696539752
 20
-0.2813919000363599
 10
-1.829620145685728
 20
-0.2911775952746243
 10
-1.797176033505366
 20
-0.2987675689889718
  0
LINE
  5
168
330
F3
100
AcDbEntity
  8
AM_4
100
AcDbLine
 10
-1.785120384194388
 20
-0.2689146070947222
 30
0.0
 11
-1.797176033505366
 21
-0.2987675689889718
 31
0.0
  0
ARC
  5
169
330
F3
100
AcDbEntity
  8
AM_4
100
AcDbCircle
 10
-1.779682204777021
 20
-0.0000000000000001
 30
0.0
 40
0.2
100
AcDbArc
 50
90.0
 51
219.6450492545611
  0
LWPOLYLINE
  5
16A
330
F3
100
AcDbEntity
  8
AM_4
100
AcDbPolyline
 90
       10
 70
     0
 43
0.0
 10
-1.933883056561511
 20
-0.1273659489906998
 10
-1.93222125508635
 20
-0.1291842652280562
 10
-1.925943707818687
 20
-0.1344729790611519
 10
-1.916786108755966
 20
-0.1405186270901959
 10
-1.905489919593955
 20
-0.146827078301712
 10
-1.891748768453205
 20
-0.1535654953592165
 10
-1.876687278713723
 20
-0.1601799433259583
 10
-1.859893855894063
 20
-0.1668493358980661
 10
-1.842494519740068
 20
-0.1731116383367606
 10
-1.824251304960964
 20
-0.1790373738502114
  0
ELLIPSE
  5
16B
330
F3
100
AcDbEntity
  8
AM_4
100
AcDbEllipse
 10
-1.779682204777022
 20
-0.0000000000000001
 30
0.0
 11
1.224646799147352E-17
 21
0.1999999999999998
 31
0.0
210
0.0
220
0.0
230
1.0
 40
0.4999999999999997
 41
0.0
 42
2.679646633022829
  0
LINE
  5
16C
330
F3
100
AcDbEntity
  8
AM_4
100
AcDbLine
 10
-1.715174025446239
 20
0.1999999999999999
 30
0.0
 11
-1.779682204777022
 21
0.1999999999999999
 31
0.0
  0
LINE
  5
16D
330
F3
100
AcDbEntity
  8
AM_4
100
AcDbLine
 10
-1.744775986374908
 20
-0.2
 30
0.0
 11
-1.715176669533615
 21
-0.2
 31
0.0
  0
LWPOLYLINE
  5
16E
330
F3
100
AcDbEntity
  8
AM_4
100
AcDbPolyline
 90
        8
 70
     0
 43
0.0
 10
-1.744628202148
 20
-0.1999999999699529
 10
-1.746115319387304
 20
-0.1999786710855128
 10
-1.756988919864053
 20
-0.1988321115509053
 10
-1.769387241578035
 20
-0.1961649429984259
 10
-1.783810671944028
 20
-0.1920694300574958
 10
-1.799323651804845
 20
-0.1870948030566195
 10
-1.816417055591816
 20
-0.181500594761393
 10
-1.824251304960982
 20
-0.1790373738501783
  0
LINE
  5
16F
330
F3
100
AcDbEntity
  8
AM_4
100
AcDbLine
 10
-1.707779637600181
 20
0.2187499999999999
 30
0.0
 11
-1.63688264059897
 21
0.2187499999999999
 31
0.0
  0
LWPOLYLINE
  5
170
330
F3
100
AcDbEntity
  8
AM_4
100
AcDbPolyline
 90
        3
 70
     0
 43
0.0
 10
-1.747206252135105
 20
0.1093749999999999
 10
-1.729346602151182
 20
0.1640624999999999
 10
-1.707779637600181
 20
0.2187499999999999
  0
LWPOLYLINE
  5
171
330
F3
100
AcDbEntity
  8
AM_4
100
AcDbPolyline
 90
        3
 70
     0
 43
0.0
 10
-1.770927323292797
 20
0.0
 10
-1.760973115863522
 20
0.0544416102741495
 10
-1.747206252135105
 20
0.1093749999999999
  0
LINE
  5
172
330
F3
100
AcDbEntity
  8
AM_4
100
AcDbLine
 10
-1.63688264059897
 20
0.2187499999999999
 30
0.0
 11
-1.637444421804065
 21
0.215157231345658
 31
0.0
  0
ELLIPSE
  5
173
330
F3
100
AcDbEntity
  8
AM_4
100
AcDbEllipse
 10
-1.565882183217737
 20
-0.0000000000000001
 30
0.0
 11
1.339457436567419E-17
 21
0.2187500000000003
 31
0.0
210
0.0
220
0.0
230
1.0
 40
0.5000000000000034
 41
1.193115012740451
 42
1.957635673558153
  0
LWPOLYLINE
  5
174
330
F3
100
AcDbEntity
  8
AM_4
100
AcDbPolyline
 90
        3
 70
     0
 43
0.0
 10
-1.66496510978155
 20
0.0947872327174848
 10
-1.678463361740584
 20
0.0546875
 10
-1.700030326291585
 20
0.0
  0
LINE
  5
175
330
F3
100
AcDbEntity
  8
AM_4
100
AcDbLine
 10
-1.770927323292797
 20
0.0
 30
0.0
 11
-1.700030326291585
 21
0.0
 31
0.0
  0
LWPOLYLINE
  5
176
330
F3
100
AcDbEntity
  8
AM_4
100
AcDbPolyline
 90
        3
 70
     0
 43
0.0
 10
-1.747206252135105
 20
-0.1093749999999999
 10
-1.760920444997489
 20
-0.0546875
 10
-1.770927323292797
 20
0.0
  0
LWPOLYLINE
  5
177
330
F3
100
AcDbEntity
  8
AM_4
100
AcDbPolyline
 90
        3
 70
     0
 43
0.0
 10
-1.707779637600181
 20
-0.2187500000000001
 10
-1.729257308517804
 20
-0.1643083897258504
 10
-1.747206252135105
 20
-0.1093749999999999
  0
LINE
  5
178
330
F3
100
AcDbEntity
  8
AM_4
100
AcDbLine
 10
-1.707779637600181
 20
-0.2187500000000001
 30
0.0
 11
-1.63688264059897
 21
-0.2187500000000001
 31
0.0
  0
LINE
  5
179
330
F3
100
AcDbEntity
  8
AM_4
100
AcDbLine
 10
-1.637422522482169
 20
-0.2152958551034308
 30
0.0
 11
-1.63688264059897
 21
-0.2187500000000001
 31
0.0
  0
LWPOLYLINE
  5
17A
330
F3
100
AcDbEntity
  8
AM_4
100
AcDbPolyline
 90
        3
 70
     0
 43
0.0
 10
-1.700030326291585
 20
0.0
 10
-1.678552655373963
 20
-0.0544416102741496
 10
-1.66495336743448
 20
-0.0948252067274292
  0
ENDBLK
  5
F6
330
F3
100
AcDbEntity
  8
0
100
AcDbBlockEnd
  0
BLOCK
  5
17D
330
17B
100
AcDbEntity
  8
0
100
AcDbBlockBegin
  2
4_131244H_0_in_131244_4
 70
     2
 10
0.0
 20
0.0
 30
0.0
  3
4_131244H_0_in_131244_4
  1

  0
ATTDEF
  5
17F
330
17B
100
AcDbEntity
  8
AM_6
100
AcDbText
 10
7.769
 20
0.815
 30
0.0
 40
0.5
  1
WSTU-SXV -I-Housing
100
AcDbAttributeDefinition
  3

  2
NN
 70
     8
280
     0
  0
ATTDEF
  5
180
330
17B
100
AcDbEntity
  8
AM_6
100
AcDbText
 10
7.769
 20
0.3149999999999999
 30
0.0
 40
0.5
  1
Eccentric Collar Take-Up Bearings -(Intermediate Duty) -Wide Slot
100
AcDbAttributeDefinition
  3

  2
NT
 70
     8
280
     0
  0
ATTDEF
  5
181
330
17B
100
AcDbEntity
  8
AM_6
100
AcDbText
 10
7.769
 20
-0.1850000000000001
 30
0.0
 40
0.5
  1
131244H
100
AcDbAttributeDefinition
  3

  2
NB
 70
     8
280
     0
  0
ATTDEF
  5
182
330
17B
100
AcDbEntity
  8
AM_6
100
AcDbText
 10
7.769
 20
-0.685
 30
0.0
 40
0.5
  1
$PN.H
100
AcDbAttributeDefinition
  3

  2
NBSYN
 70
     8
280
     0
  0
ATTDEF
  5
183
330
17B
100
AcDbEntity
  8
AM_6
100
AcDbText
 10
7.769
 20
-1.185
 30
0.0
 40
0.5
  1
131244
100
AcDbAttributeDefinition
  3

  2
LINA
 70
     8
280
     0
  0
ATTDEF
  5
184
330
17B
100
AcDbEntity
  8
AM_6
100
AcDbText
 10
7.769
 20
-1.685
 30
0.0
 40
0.5
  1
206
100
AcDbAttributeDefinition
  3

  2
SERIES
 70
     8
280
     0
  0
ATTDEF
  5
185
330
17B
100
AcDbEntity
  8
AM_6
100
AcDbText
 10
7.769
 20
-2.185
 30
0.0
 40
0.5
  1
1-3/16
100
AcDbAttributeDefinition
  3

  2
SS
 70
     8
280
     0
  0
ATTDEF
  5
186
330
17B
100
AcDbEntity
  8
AM_6
100
AcDbText
 10
7.769
 20
-2.685
 30
0.0
 40
0.5
  1
131244
100
AcDbAttributeDefinition
  3

  2
PN
 70
     8
280
     0
  0
ATTDEF
  5
187
330
17B
100
AcDbEntity
  8
AM_6
100
AcDbText
 10
7.769
 20
-3.185
 30
0.0
 40
0.5
  1
WSTU-SXV-103
100
AcDbAttributeDefinition
  3

  2
DESCRIPTION
 70
     8
280
     0
  0
ATTDEF
  5
188
330
17B
100
AcDbEntity
  8
AM_6
100
AcDbText
 10
7.769
 20
-3.685
 30
0.0
 40
0.5
  1
2.6
100
AcDbAttributeDefinition
  3

  2
W
 70
     8
280
     0
  0
ATTDEF
  5
189
330
17B
100
AcDbEntity
  8
AM_6
100
AcDbText
 10
7.769
 20
-4.185
 30
0.0
 40
0.5
  1
WS308
100
AcDbAttributeDefinition
  3

  2
FS
 70
     8
280
     0
  0
ATTDEF
  5
18A
330
17B
100
AcDbEntity
  8
AM_6
100
AcDbText
 10
7.769
 20
-4.685
 30
0.0
 40
0.5
  1
1.41
100
AcDbAttributeDefinition
  3

  2
A
 70
     8
280
     0
  0
ATTDEF
  5
18B
330
17B
100
AcDbEntity
  8
AM_6
100
AcDbText
 10
7.769
 20
-5.185
 30
0.0
 40
0.5
  1
4.38
100
AcDbAttributeDefinition
  3

  2
B
 70
     8
280
     0
  0
ATTDEF
  5
18C
330
17B
100
AcDbEntity
  8
AM_6
100
AcDbText
 10
7.769
 20
-5.685
 30
0.0
 40
0.5
  1
0.531
100
AcDbAttributeDefinition
  3

  2
C
 70
     8
280
     0
  0
ATTDEF
  5
18D
330
17B
100
AcDbEntity
  8
AM_6
100
AcDbText
 10
7.769
 20
-6.185
 30
0.0
 40
0.5
  1
2.25
100
AcDbAttributeDefinition
  3

  2
D
 70
     8
280
     0
  0
ATTDEF
  5
18E
330
17B
100
AcDbEntity
  8
AM_6
100
AcDbText
 10
7.769
 20
-6.685
 30
0.0
 40
0.5
  1
2.75
100
AcDbAttributeDefinition
  3

  2
E
 70
     8
280
     0
  0
ATTDEF
  5
18F
330
17B
100
AcDbEntity
  8
AM_6
100
AcDbText
 10
7.769
 20
-7.185
 30
0.0
 40
0.5
  1
3/4
100
AcDbAttributeDefinition
  3

  2
F
 70
     8
280
     0
  0
ATTDEF
  5
190
330
17B
100
AcDbEntity
  8
AM_6
100
AcDbText
 10
7.769
 20
-7.685
 30
0.0
 40
0.5
  1
0.38
100
AcDbAttributeDefinition
  3

  2
G
 70
     8
280
     0
  0
ATTDEF
  5
191
330
17B
100
AcDbEntity
  8
AM_6
100
AcDbText
 10
7.769
 20
-8.185
 30
0.0
 40
0.5
  1
0.63
100
AcDbAttributeDefinition
  3

  2
H
 70
     8
280
     0
  0
ATTDEF
  5
192
330
17B
100
AcDbEntity
  8
AM_6
100
AcDbText
 10
7.769
 20
-8.685
 30
0.0
 40
0.5
  1
2.19
100
AcDbAttributeDefinition
  3

  2
J
 70
     8
280
     0
  0
ATTDEF
  5
193
330
17B
100
AcDbEntity
  8
AM_6
100
AcDbText
 10
7.769
 20
-9.185
 30
0.0
 40
0.5
  1
1.44
100
AcDbAttributeDefinition
  3

  2
K
 70
     8
280
     0
  0
ATTDEF
  5
194
330
17B
100
AcDbEntity
  8
AM_6
100
AcDbText
 10
7.769
 20
-9.685
 30
0.0
 40
0.5
  1
1.75
100
AcDbAttributeDefinition
  3

  2
L
 70
     8
280
     0
  0
ATTDEF
  5
195
330
17B
100
AcDbEntity
  8
AM_6
100
AcDbText
 10
7.769
 20
-10.185
 30
0.0
 40
0.5
  1
3.480 / 3.510
100
AcDbAttributeDefinition
  3

  2
M
 70
     8
280
     0
  0
ATTDEF
  5
196
330
17B
100
AcDbEntity
  8
AM_6
100
AcDbText
 10
7.769
 20
-10.685
 30
0.0
 40
0.5
  1
4.13
100
AcDbAttributeDefinition
  3

  2
N
 70
     8
280
     0
  0
ATTDEF
  5
197
330
17B
100
AcDbEntity
  8
AM_6
100
AcDbText
 10
7.769
 20
-11.185
 30
0.0
 40
0.5
  1
0.35
100
AcDbAttributeDefinition
  3

  2
R
 70
     8
280
     0
  0
ATTDEF
  5
198
330
17B
100
AcDbEntity
  8
AM_6
100
AcDbText
 10
7.769
 20
-11.685
 30
0.0
 40
0.5
  1
1.05
100
AcDbAttributeDefinition
  3

  2
S
 70
     8
280
     0
  0
ATTDEF
  5
199
330
17B
100
AcDbEntity
  8
AM_6
100
AcDbText
 10
7.769
 20
-12.185
 30
0.0
 40
0.5
  1
1.63
100
AcDbAttributeDefinition
  3

  2
T
 70
     8
280
     0
  0
ATTDEF
  5
19A
330
17B
100
AcDbEntity
  8
AM_6
100
AcDbText
 10
7.769
 20
-12.685
 30
0.0
 40
0.5
  1
2250
100
AcDbAttributeDefinition
  3

  2
CAPS
 70
     8
280
     0
  0
ATTDEF
  5
19B
330
17B
100
AcDbEntity
  8
AM_6
100
AcDbText
 10
7.769
 20
-13.185
 30
0.0
 40
0.5
  1
4368
100
AcDbAttributeDefinition
  3

  2
CAPD
 70
     8
280
     0
  0
ATTDEF
  5
19C
330
17B
100
AcDbEntity
  8
AM_6
100
AcDbText
 10
7.769
 20
-13.685
 30
0.0
 40
0.5
  1
baldor
100
AcDbAttributeDefinition
  3

  2
COMPANY
 70
     8
280
     0
  0
ELLIPSE
  5
19D
330
17B
100
AcDbEntity
  8
AM_9
100
AcDbEllipse
 10
-1.498223948547079
 20
-0.0000000000000001
 30
0.0
 11
1.959434878635765E-17
 21
0.32
 31
0.0
210
0.0
220
0.0
230
1.0
 40
0.5000000000000004
 41
0.0
 42
6.283185307179586
  0
LWPOLYLINE
  5
19E
330
17B
100
AcDbEntity
  8
AM_9
100
AcDbPolyline
 90
        4
 70
     0
 43
0.0
 10
-1.432693414451936
 20
-0.4187637587409605
 10
-1.432367182341987
 20
-0.4188018252746134
 10
-1.416683779116238
 20
-0.4199288028369721
 10
-1.412336626357302
 20
-0.4199985790599904
  0
LWPOLYLINE
  5
19F
330
17B
100
AcDbEntity
  8
AM_9
100
AcDbPolyline
 90
       17
 70
     0
 43
0.0
 10
-1.630011110267906
 20
-0.2355264923776988
 10
-1.629782907253547
 20
-0.236101567513114
 10
-1.621322421488243
 20
-0.2560316934712984
 10
-1.612026630249339
 20
-0.2752822204335544
 10
-1.60187924331715
 20
-0.2937714508013193
 10
-1.590872857640827
 20
-0.3114003709932099
 10
-1.579036417454883
 20
-0.3280256646542692
 10
-1.566416352997921
 20
-0.3435109230958994
 10
-1.553088457028837
 20
-0.3577217562212867
 10
-1.539150755613224
 20
-0.3705449676918263
 10
-1.524709408530854
 20
-0.3819035773257282
 10
-1.509865114271519
 20
-0.3917601063941335
 10
-1.494706302610942
 20
-0.4001087261978367
 10
-1.479309609010078
 20
-0.4069630547207153
 10
-1.463744033295901
 20
-0.4123458887828986
 10
-1.448075099882216
 20
-0.4162832174328788
 10
-1.432693414451936
 20
-0.4187637587409605
  0
LWPOLYLINE
  5
1A0
330
17B
100
AcDbEntity
  8
AM_9
100
AcDbPolyline
 90
       17
 70
     0
 43
0.0
 10
-1.432161991771977
 20
0.418825461056885
 10
-1.445438886568729
 20
0.4168044320400954
 10
-1.46054506811879
 20
0.4132680486318936
 10
-1.475374585391656
 20
0.4084667592015751
 10
-1.489898153488341
 20
0.4024190286603263
 10
-1.504093999154777
 20
0.3951342599890232
 10
-1.517945616923012
 20
0.3866115897902904
 10
-1.531438135189775
 20
0.3768404721110127
 10
-1.544553466358333
 20
0.3658040830726704
 10
-1.557264902722868
 20
0.3534863799357723
 10
-1.569532570327194
 20
0.339882699564796
 10
-1.581301865409622
 20
0.3250117980373843
 10
-1.592506837126598
 20
0.308924871617019
 10
-1.60307857536258
 20
0.2917065399673326
 10
-1.612955612696075
 20
0.273466087742579
 10
-1.622090711979226
 20
0.2543252122719724
 10
-1.630020706810213
 20
0.2355022618014675
  0
LWPOLYLINE
  5
1A1
330
17B
100
AcDbEntity
  8
AM_9
100
AcDbPolyline
 90
        4
 70
     0
 43
0.0
 10
-1.411551803602343
 20
0.4199999865422338
 10
-1.414562888599996
 20
0.4199759647437599
 10
-1.430093753947491
 20
0.419050477889638
 10
-1.432161991771977
 20
0.418825461056885
  0
LWPOLYLINE
  5
1A2
330
17B
100
AcDbEntity
  8
AM_9
100
AcDbPolyline
 90
       37
 70
     0
 43
0.0
 10
-1.395153068896507
 20
0.41875
 10
-1.377211871989141
 20
0.4147067127699057
 10
-1.358780091278444
 20
0.4078406560399244
 10
-1.339728929615108
 20
0.397982836106955
 10
-1.32050449156949
 20
0.3852323956162526
 10
-1.302119455828508
 20
0.3703568777531808
 10
-1.283938173847486
 20
0.3529285119214644
 10
-1.265904539154616
 20
0.3327230670911776
 10
-1.248478623240313
 20
0.3100545987063227
 10
-1.232212917683171
 20
0.2855796703022201
 10
-1.216937156072506
 20
0.2589599844694295
 10
-1.202664373187127
 20
0.22989871810357
 10
-1.18983401150991
 20
0.1989085965275853
 10
-1.179028659948242
 20
0.1673644734914756
 10
-1.16994720832845
 20
0.1343669878693818
 10
-1.162666867770929
 20
0.0995787484588542
 10
-1.157502534182631
 20
0.0637214672144987
 10
-1.154721707549047
 20
0.0296585429004536
 10
-1.153976222876832
 20
-0.0048629341970504
 10
-1.155358956321292
 20
-0.040127764525422
 10
-1.158923628549639
 20
-0.0753554180487166
 10
-1.164251840643566
 20
-0.1081637994748789
 10
-1.171459706372708
 20
-0.1404561775489912
 10
-1.180623491228939
 20
-0.1724425395954821
 10
-1.19156567434399
 20
-0.2034351573201389
 10
-1.203885885966864
 20
-0.2325799882964985
 10
-1.217676027639774
 20
-0.26034327636832
 10
-1.233014590300248
 20
-0.2868717301827775
 10
-1.249565241026356
 20
-0.311568373019649
 10
-1.266898715605935
 20
-0.3339186757237284
 10
-1.285072520027618
 20
-0.3540990203152768
 10
-1.304187578816465
 20
-0.3721646735596035
 10
-1.323790035441474
 20
-0.3876119918804038
 10
-1.341554952862762
 20
-0.3990474914032098
 10
-1.359389524169334
 20
-0.4081101293303394
 10
-1.377385245323967
 20
-0.4147584997043037
 10
-1.395153068896506
 20
-0.41875
  0
LINE
  5
1A3
330
17B
100
AcDbEntity
  8
AM_9
100
AcDbLine
 10
-1.411621408168635
 20
-0.4200000000000001
 30
0.0
 11
-1.410542595533822
 21
-0.4200000000000001
 31
0.0
  0
LINE
  5
1A4
330
17B
100
AcDbEntity
  8
AM_9
100
AcDbLine
 10
-1.410542595533822
 20
0.42
 30
0.0
 11
-1.411621408168635
 21
0.42
 31
0.0
  0
LINE
  5
1A5
330
17B
100
AcDbEntity
  8
AM_9
100
AcDbLine
 10
2.37
 20
-0.3749999999999999
 30
0.0
 11
2.75
 21
-0.3749999999999999
 31
0.0
  0
LINE
  5
1A6
330
17B
100
AcDbEntity
  8
AM_9
100
AcDbLine
 10
2.75
 20
0.3749999999999999
 30
0.0
 11
2.37
 21
0.3749999999999999
 31
0.0
  0
LINE
  5
1A7
330
17B
100
AcDbEntity
  8
AM_9
100
AcDbLine
 10
1.7931
 20
-0.45135
 30
0.0
 11
1.7931
 21
0.4513500000000001
 31
0.0
  0
LINE
  5
1A8
330
17B
100
AcDbEntity
  8
AM_9
100
AcDbLine
 10
1.74
 20
-0.45135
 30
0.0
 11
1.74
 21
0.4513500000000001
 31
0.0
  0
LINE
  5
1A9
330
17B
100
AcDbEntity
  8
AM_9
100
AcDbLine
 10
2.37
 20
-0.45135
 30
0.0
 11
2.37
 21
0.45135
 31
0.0
  0
LINE
  5
1AA
330
17B
100
AcDbEntity
  8
AM_9
100
AcDbLine
 10
2.316900000000001
 20
-0.45135
 30
0.0
 11
2.316900000000001
 21
0.45135
 31
0.0
  0
LWPOLYLINE
  5
1AB
330
17B
100
AcDbEntity
  8
AM_9
100
AcDbPolyline
 90
       37
 70
     0
 43
0.0
 10
-1.427532653513979
 20
-0.4187500000000001
 10
-1.443737567700599
 20
-0.4146846664839159
 10
-1.459109544984345
 20
-0.4078406560399238
 10
-1.473980548443319
 20
-0.39793853571511
 10
-1.48782454825058
 20
-0.3852323956162515
 10
-1.500238645330144
 20
-0.3703004817578738
 10
-1.511625383573683
 20
-0.3529285119214628
 10
-1.522249555068264
 20
-0.3326467204649644
 10
-1.531791428847581
 20
-0.3100545987063207
 10
-1.540206894850813
 20
-0.2854912964286103
 10
-1.54760273705062
 20
-0.2589599844694273
 10
-1.554177777004903
 20
-0.2297876125601117
 10
-1.559746663669074
 20
-0.1989085965275827
 10
-1.564255964753672
 20
-0.1672470725698118
 10
-1.567873724875048
 20
-0.134366987869379
 10
-1.570700595699758
 20
-0.0994380518026953
 10
-1.572640552937878
 20
-0.0637214672144958
 10
-1.573675421048201
 20
-0.0295349303579772
 10
-1.573948069398709
 20
0.0048629341970534
 10
-1.573433943174053
 20
0.0402618452304951
 10
-1.57210828578016
 20
0.0753554180487194
 10
-1.570076669661086
 20
0.1082733662458602
 10
-1.567277924988686
 20
0.140456177548994
 10
-1.563575610899594
 20
0.1725505957952282
 10
-1.559008372959883
 20
0.2034351573201415
 10
-1.553589454069129
 20
0.2326729579886661
 10
-1.54725360340883
 20
0.2603432763683224
 10
-1.539750908712437
 20
0.2869584705538921
 10
-1.531212447534585
 20
0.311568373019651
 10
-1.52161402180152
 20
0.3339906236843098
 10
-1.510935053024485
 20
0.3540990203152783
 10
-1.498800686916113
 20
0.372225436562198
 10
-1.485521120117567
 20
0.3876119918804049
 10
-1.472511303957981
 20
0.3990783031060375
 10
-1.458617153073654
 20
0.4081101293303399
 10
-1.443477132041982
 20
0.41477446044962
 10
-1.427532653513977
 20
0.4187500000000001
  0
LINE
  5
1AC
330
17B
100
AcDbEntity
  8
AM_9
100
AcDbLine
 10
-0.3958333333333333
 20
-0.07965
 30
0.0
 11
-0.3958333333333333
 21
0.45135
 31
0.0
  0
LINE
  5
1AD
330
17B
100
AcDbEntity
  8
AM_9
100
AcDbLine
 10
0.3958333333333333
 20
-0.07965
 30
0.0
 11
0.3958333333333333
 21
0.45135
 31
0.0
  0
LINE
  5
1AE
330
17B
100
AcDbEntity
  8
AM_9
100
AcDbLine
 10
1.22045
 20
-0.4513500000000001
 30
0.0
 11
1.22045
 21
0.45135
 31
0.0
  0
LINE
  5
1AF
330
17B
100
AcDbEntity
  8
AM_9
100
AcDbLine
 10
-1.22045
 20
0.45135
 30
0.0
 11
-1.22045
 21
-0.4513500000000001
 31
0.0
  0
LINE
  5
1B0
330
17B
100
AcDbEntity
  8
AM_9
100
AcDbLine
 10
0.3958333333333333
 20
-0.07965
 30
0.0
 11
-0.3958333333333333
 21
-0.07965
 31
0.0
  0
LINE
  5
1B1
330
17B
100
AcDbEntity
  8
AM_9
100
AcDbLine
 10
1.125
 20
0.4513500000000001
 30
0.0
 11
-1.125
 21
0.4513500000000001
 31
0.0
  0
LINE
  5
1B2
330
17B
100
AcDbEntity
  8
AM_9
100
AcDbLine
 10
1.125
 20
-0.45135
 30
0.0
 11
-1.125
 21
-0.45135
 31
0.0
  0
ELLIPSE
  5
1B3
330
17B
100
AcDbEntity
  8
AM_9
100
AcDbEllipse
 10
-1.411621408168635
 20
0.0000000000000002
 30
0.0
 11
-7.715274834628329E-17
 21
-0.4200000000000002
 31
0.0
210
0.0
220
0.0
230
1.0
 40
0.5000000000000002
 41
0.0
 42
6.283185307179586
  0
LINE
  5
1B4
330
17B
100
AcDbEntity
  8
AM_7
100
AcDbLine
 10
2.769
 20
0.0
 30
0.0
 11
2.351
 21
0.0
 31
0.0
  0
LINE
  5
1B5
330
17B
100
AcDbEntity
  8
AM_7
100
AcDbLine
 10
0.0
 20
0.5841000000000001
 30
0.0
 11
0.0
 21
-1.1205
 31
0.0
  0
LWPOLYLINE
  5
1B6
330
17B
100
AcDbEntity
  8
AM_4
100
AcDbPolyline
 90
       12
 70
     0
 43
0.0
 10
-1.671621408168635
 20
0.0
 10
-1.671513714402927
 20
-0.0126231963110156
 10
-1.670738642857079
 20
-0.0361066817200057
 10
-1.669215949349892
 20
-0.059492014554557
 10
-1.666945248527149
 20
-0.082717967915464
 10
-1.663925192466331
 20
-0.1057267496886929
 10
-1.660153203464747
 20
-0.1284616224745453
 10
-1.655625067554459
 20
-0.1508669642739187
 10
-1.650334454119932
 20
-0.1728881265760034
 10
-1.644272412805423
 20
-0.1944709775668674
 10
-1.63742695325551
 20
-0.215560975166811
 10
-1.630011110267906
 20
-0.2355264923776988
  0
LWPOLYLINE
  5
1B7
330
17B
100
AcDbEntity
  8
AM_4
100
AcDbPolyline
 90
       13
 70
     0
 43
0.0
 10
-1.630020706810213
 20
0.2355022618014675
 10
-1.6304488398543
 20
0.2344173571691701
 10
-1.638021952206568
 20
0.2138403177444267
 10
-1.644810757101242
 20
0.1926789553030862
 10
-1.650820412501518
 20
0.1710076701969154
 10
-1.65605757507272
 20
0.1488936278100223
 10
-1.660528730324763
 20
0.1263995703975829
 10
-1.664239424690396
 20
0.1035858832526261
 10
-1.667194037722206
 20
0.0805119440916417
 10
-1.669395832358415
 20
0.0572369046480577
 10
-1.670847116930355
 20
0.0338200626482954
 10
-1.671549421189798
 20
0.0103209544892985
 10
-1.671621408168635
 20
0.0
  0
LINE
  5
1B8
330
17B
100
AcDbEntity
  8
AM_4
100
AcDbLine
 10
2.37
 20
-0.45135
 30
0.0
 11
2.37
 21
-0.815
 31
0.0
  0
LINE
  5
1B9
330
17B
100
AcDbEntity
  8
AM_4
100
AcDbLine
 10
2.37
 20
-0.815
 30
0.0
 11
2.75
 21
-0.815
 31
0.0
  0
LINE
  5
1BA
330
17B
100
AcDbEntity
  8
AM_4
100
AcDbLine
 10
2.75
 20
0.815
 30
0.0
 11
2.37
 21
0.815
 31
0.0
  0
LINE
  5
1BB
330
17B
100
AcDbEntity
  8
AM_4
100
AcDbLine
 10
2.37
 20
0.815
 30
0.0
 11
2.37
 21
0.45135
 31
0.0
  0
LINE
  5
1BC
330
17B
100
AcDbEntity
  8
AM_4
100
AcDbLine
 10
2.75
 20
0.815
 30
0.0
 11
2.75
 21
-0.815
 31
0.0
  0
LINE
  5
1BD
330
17B
100
AcDbEntity
  8
AM_4
100
AcDbLine
 10
2.75
 20
-0.45135
 30
0.0
 11
1.125
 21
-0.45135
 31
0.0
  0
LINE
  5
1BE
330
17B
100
AcDbEntity
  8
AM_4
100
AcDbLine
 10
2.6969
 20
-0.398249999999999
 30
0.0
 11
1.125
 21
-0.3982500000000001
 31
0.0
  0
LINE
  5
1BF
330
17B
100
AcDbEntity
  8
AM_4
100
AcDbLine
 10
2.6969
 20
-0.398249999999999
 30
0.0
 11
2.6969
 21
0.39825
 31
0.0
  0
LINE
  5
1C0
330
17B
100
AcDbEntity
  8
AM_4
100
AcDbLine
 10
2.75
 20
-0.4513499999999995
 30
0.0
 11
2.696900002740977
 21
-0.3982500027409758
 31
0.0
  0
LINE
  5
1C1
330
17B
100
AcDbEntity
  8
AM_4
100
AcDbLine
 10
2.75
 20
0.4513500000000001
 30
0.0
 11
1.125
 21
0.4513500000000001
 31
0.0
  0
LINE
  5
1C2
330
17B
100
AcDbEntity
  8
AM_4
100
AcDbLine
 10
2.6969
 20
0.39825
 30
0.0
 11
1.125
 21
0.39825
 31
0.0
  0
LINE
  5
1C3
330
17B
100
AcDbEntity
  8
AM_4
100
AcDbLine
 10
2.6969
 20
0.3982499999999997
 30
0.0
 11
2.75
 21
0.4513499999999998
 31
0.0
  0
LINE
  5
1C4
330
17B
100
AcDbEntity
  8
AM_4
100
AcDbLine
 10
-1.63
 20
-0.4187499999999998
 30
0.0
 11
-1.5974
 21
-0.4513499999999998
 31
0.0
  0
LINE
  5
1C5
330
17B
100
AcDbEntity
  8
AM_4
100
AcDbLine
 10
-1.5974
 20
-0.4513499999999998
 30
0.0
 11
-1.125
 21
-0.4513499999999998
 31
0.0
  0
LINE
  5
1C6
330
17B
100
AcDbEntity
  8
AM_4
100
AcDbLine
 10
-1.63
 20
0.4187500000000002
 30
0.0
 11
-1.63
 21
-0.41875
 31
0.0
  0
LINE
  5
1C7
330
17B
100
AcDbEntity
  8
AM_4
100
AcDbLine
 10
-1.63
 20
-0.41875
 30
0.0
 11
-1.125
 21
-0.4187499999999998
 31
0.0
  0
LINE
  5
1C8
330
17B
100
AcDbEntity
  8
AM_4
100
AcDbLine
 10
-1.5974
 20
0.4513500000000003
 30
0.0
 11
-1.63
 21
0.4187500000000002
 31
0.0
  0
LINE
  5
1C9
330
17B
100
AcDbEntity
  8
AM_4
100
AcDbLine
 10
-1.63
 20
0.4187500000000002
 30
0.0
 11
-1.125
 21
0.4187500000000002
 31
0.0
  0
LINE
  5
1CA
330
17B
100
AcDbEntity
  8
AM_4
100
AcDbLine
 10
-1.5974
 20
0.4513500000000003
 30
0.0
 11
-1.125
 21
0.4513500000000001
 31
0.0
  0
LINE
  5
1CB
330
17B
100
AcDbEntity
  8
AM_4
100
AcDbLine
 10
1.125
 20
0.5310000000000001
 30
0.0
 11
-1.125
 21
0.5310000000000001
 31
0.0
  0
LINE
  5
1CC
330
17B
100
AcDbEntity
  8
AM_4
100
AcDbLine
 10
-1.125
 20
0.5310000000000002
 30
0.0
 11
-1.07190000379471
 21
0.4779000037947106
 31
0.0
  0
LINE
  5
1CD
330
17B
100
AcDbEntity
  8
AM_4
100
AcDbLine
 10
-1.125
 20
0.5310000000000001
 30
0.0
 11
-1.125
 21
-0.5309999999999999
 31
0.0
  0
LINE
  5
1CE
330
17B
100
AcDbEntity
  8
AM_4
100
AcDbLine
 10
1.125
 20
-0.5309999999999999
 30
0.0
 11
-1.125
 21
-0.5309999999999999
 31
0.0
  0
LINE
  5
1CF
330
17B
100
AcDbEntity
  8
AM_4
100
AcDbLine
 10
1.071900000000001
 20
-0.4779000000000007
 30
0.0
 11
-1.0719
 21
-0.4779000000000007
 31
0.0
  0
LINE
  5
1D0
330
17B
100
AcDbEntity
  8
AM_4
100
AcDbLine
 10
-1.0719
 20
-0.4779000000000004
 30
0.0
 11
-1.125
 21
-0.5310000000000001
 31
0.0
  0
LINE
  5
1D1
330
17B
100
AcDbEntity
  8
AM_4
100
AcDbLine
 10
-1.0719
 20
-0.4779000000000007
 30
0.0
 11
-1.071900000000001
 21
-0.2654999999999998
 31
0.0
  0
LINE
  5
1D2
330
17B
100
AcDbEntity
  8
AM_4
100
AcDbLine
 10
1.071900000000001
 20
0.4779000000000009
 30
0.0
 11
-1.0719
 21
0.4779000000000009
 31
0.0
  0
LINE
  5
1D3
330
17B
100
AcDbEntity
  8
AM_4
100
AcDbLine
 10
-1.071900000000001
 20
0.2655000000000001
 30
0.0
 11
-1.0719
 21
0.4779000000000009
 31
0.0
  0
LINE
  5
1D4
330
17B
100
AcDbEntity
  8
AM_4
100
AcDbLine
 10
1.125
 20
0.2655000000000002
 30
0.0
 11
-1.125
 21
0.2655000000000001
 31
0.0
  0
LINE
  5
1D5
330
17B
100
AcDbEntity
  8
AM_4
100
AcDbLine
 10
1.125
 20
0.5310000000000001
 30
0.0
 11
1.125
 21
-0.5309999999999999
 31
0.0
  0
LINE
  5
1D6
330
17B
100
AcDbEntity
  8
AM_4
100
AcDbLine
 10
1.071900000000001
 20
0.4779000000000009
 30
0.0
 11
1.125
 21
0.531
 31
0.0
  0
LINE
  5
1D7
330
17B
100
AcDbEntity
  8
AM_4
100
AcDbLine
 10
1.071900000000001
 20
0.2655000000000002
 30
0.0
 11
1.071900000000001
 21
0.4779000000000009
 31
0.0
  0
LINE
  5
1D8
330
17B
100
AcDbEntity
  8
AM_4
100
AcDbLine
 10
-1.125
 20
-0.2654999999999998
 30
0.0
 11
1.125
 21
-0.2654999999999998
 31
0.0
  0
LINE
  5
1D9
330
17B
100
AcDbEntity
  8
AM_4
100
AcDbLine
 10
1.071900000000001
 20
-0.4779000000000007
 30
0.0
 11
1.071900000000001
 21
-0.2655
 31
0.0
  0
LINE
  5
1DA
330
17B
100
AcDbEntity
  8
AM_4
100
AcDbLine
 10
1.125
 20
-0.5309999999999997
 30
0.0
 11
1.071900000000001
 21
-0.4779000000000008
 31
0.0
  0
ENDBLK
  5
17E
330
17B
100
AcDbEntity
  8
0
100
AcDbBlockEnd
  0
ENDSEC
  0
SECTION
  2
ENTITIES
  0
INSERT
  5
6F
330
1F
100
AcDbEntity
  8
0
100
AcDbBlockReference
  2
1_131244_4
 10
0.0
 20
0.0
 30
0.0
  0
POINT
  5
1DC
330
1F
100
AcDbEntity
  8
ConnectionPoints
100
AcDbPoint
 10
-1.498223948547079
 20
-0.0000000000000001
 30
-0.8649999999999999
  0
POINT
  5
1DD
330
1F
100
AcDbEntity
  8
ConnectionPoints
100
AcDbPoint
 10
-1.498223948547079
 20
-0.0000000000000001
 30
-0.8649999999999999
  0
POINT
  5
1DE
330
1F
100
AcDbEntity
  8
ConnectionPoints
100
AcDbPoint
 10
0.0
 20
-1.05
 30
0.0000000000000001
  0
ENDSEC
  0
SECTION
  2
OBJECTS
  0
DICTIONARY
  5
C
330
0
100
AcDbDictionary
281
     1
  3
ACAD_DETAILVIEWSTYLE
350
1E6
  3
ACAD_GROUP
350
D
  3
ACAD_LAYOUT
350
1A
  3
ACAD_MATERIAL
350
43
  3
ACAD_MLEADERSTYLE
350
6B
  3
ACAD_MLINESTYLE
350
17
  3
ACAD_PLOTSETTINGS
350
19
  3
ACAD_PLOTSTYLENAME
350
E
  3
ACAD_SCALELIST
350
47
  3
ACAD_SECTIONVIEWSTYLE
350
1E7
  3
ACAD_TABLESTYLE
350
69
  3
ACAD_VISUALSTYLE
350
2A
  3
ACDB_RECOMPOSE_DATA
350
1E3
  3
AcDbVariableDictionary
350
1DF
  0
SUN
  5
6D
330
29
100
AcDbSun
 90
        1
290
     0
 63
     7
421
 16777215
 40
1.0
291
     1
 91
  2455826
 92
 54000000
292
     0
 70
     2
 71
   256
280
     1
  0
DICTIONARY
  5
1E6
102
{ACAD_REACTORS
330
C
102
}
330
C
100
AcDbDictionary
281
     1
  0
DICTIONARY
  5
D
102
{ACAD_REACTORS
330
C
102
}
330
C
100
AcDbDictionary
281
     1
  0
DICTIONARY
  5
1A
102
{ACAD_REACTORS
330
C
102
}
330
C
100
AcDbDictionary
281
     1
  3
Layout1
350
1E
  3
Layout2
350
26
  3
Model
350
22
  0
DICTIONARY
  5
43
102
{ACAD_REACTORS
330
C
102
}
330
C
100
AcDbDictionary
281
     1
  3
ByBlock
350
45
  3
ByLayer
350
44
  3
Global
350
46
  0
DICTIONARY
  5
6B
102
{ACAD_REACTORS
330
C
102
}
330
C
100
AcDbDictionary
281
     1
  3
Standard
350
6C
  0
DICTIONARY
  5
17
102
{ACAD_REACTORS
330
C
102
}
330
C
100
AcDbDictionary
281
     1
  3
Standard
350
18
  0
DICTIONARY
  5
19
102
{ACAD_REACTORS
330
C
102
}
330
C
100
AcDbDictionary
281
     1
  0
ACDBDICTIONARYWDFLT
  5
E
102
{ACAD_REACTORS
330
C
102
}
330
C
100
AcDbDictionary
281
     1
  3
Normal
350
F
100
AcDbDictionaryWithDefault
340
F
  0
DICTIONARY
  5
47
102
{ACAD_REACTORS
330
C
102
}
330
C
100
AcDbDictionary
281
     1
  3
A0
350
48
  3
A1
350
49
  3
A2
350
4A
  3
A3
350
4B
  3
A4
350
4C
  3
A5
350
4D
  3
A6
350
4E
  3
A7
350
4F
  3
A8
350
50
  3
A9
350
51
  3
B0
350
52
  3
B1
350
53
  3
B2
350
54
  3
B3
350
55
  3
B4
350
56
  3
B5
350
57
  3
B6
350
58
  3
B7
350
59
  3
B8
350
5A
  3
B9
350
5B
  3
C0
350
5C
  3
C1
350
5D
  3
C2
350
5E
  3
C3
350
5F
  3
C4
350
60
  3
C5
350
61
  3
C6
350
62
  3
C7
350
63
  3
C8
350
64
  3
C9
350
65
  3
D0
350
66
  3
D1
350
67
  3
D2
350
68
  0
DICTIONARY
  5
1E7
102
{ACAD_REACTORS
330
C
102
}
330
C
100
AcDbDictionary
281
     1
  0
DICTIONARY
  5
69
102
{ACAD_REACTORS
330
C
102
}
330
C
100
AcDbDictionary
281
     1
  3
Standard
350
6A
  0
DICTIONARY
  5
2A
102
{ACAD_REACTORS
330
C
102
}
330
C
100
AcDbDictionary
281
     1
  3
2dWireframe
350
2F
  3
Basic
350
32
  3
Brighten
350
36
  3
ColorChange
350
3A
  3
Conceptual
350
34
  3
Dim
350
35
  3
EdgeColorOff
350
3D
  3
Facepattern
350
39
  3
Flat
350
2B
  3
FlatWithEdges
350
2C
  3
Gouraud
350
2D
  3
GouraudWithEdges
350
2E
  3
Hidden
350
31
  3
JitterOff
350
3B
  3
Linepattern
350
38
  3
OverhangOff
350
3C
  3
Realistic
350
33
  3
Shaded
350
42
  3
Shaded with edges
350
41
  3
Shades of Gray
350
3E
  3
Sketchy
350
3F
  3
Thicken
350
37
  3
Wireframe
350
30
  3
X-Ray
350
40
  0
XRECORD
  5
1E3
102
{ACAD_REACTORS
330
C
102
}
330
C
100
AcDbXrecord
280
     1
 90
        1
330
6A
  0
DICTIONARY
  5
1DF
102
{ACAD_REACTORS
330
C
102
}
330
C
100
AcDbDictionary
281
     1
  3
CANNOSCALE
350
1E0
  3
CMLEADERSTYLE
350
1E5
  3
CTABLESTYLE
350
1E4
  0
LAYOUT
  5
1E
102
{ACAD_REACTORS
330
1A
102
}
330
1A
100
AcDbPlotSettings
  1

  2
none_device
  4

  6

 40
0.0
 41
0.0
 42
0.0
 43
0.0
 44
0.0
 45
0.0
 46
0.0
 47
0.0
 48
0.0
 49
0.0
140
0.0
141
0.0
142
1.0
143
1.0
 70
   688
 72
     0
 73
     0
 74
     5
  7

 75
    16
 76
     0
 77
     2
 78
   300
147
1.0
148
0.0
149
0.0
100
AcDbLayout
  1
Layout1
 70
     1
 71
     1
 10
0.0
 20
0.0
 11
12.0
 21
9.0
 12
0.0
 22
0.0
 32
0.0
 14
1.000000000000000E+20
 24
1.000000000000000E+20
 34
1.000000000000000E+20
 15
-1.000000000000000E+20
 25
-1.000000000000000E+20
 35
-1.000000000000000E+20
146
0.0
 13
0.0
 23
0.0
 33
0.0
 16
1.0
 26
0.0
 36
0.0
 17
0.0
 27
1.0
 37
0.0
 76
     0
330
1B
  0
LAYOUT
  5
26
102
{ACAD_REACTORS
330
1A
102
}
330
1A
100
AcDbPlotSettings
  1

  2
none_device
  4

  6

 40
0.0
 41
0.0
 42
0.0
 43
0.0
 44
0.0
 45
0.0
 46
0.0
 47
0.0
 48
0.0
 49
0.0
140
0.0
141
0.0
142
1.0
143
1.0
 70
   688
 72
     0
 73
     0
 74
     5
  7

 75
    16
 76
     0
 77
     2
 78
   300
147
1.0
148
0.0
149
0.0
100
AcDbLayout
  1
Layout2
 70
     1
 71
     2
 10
0.0
 20
0.0
 11
0.0
 21
0.0
 12
0.0
 22
0.0
 32
0.0
 14
0.0
 24
0.0
 34
0.0
 15
0.0
 25
0.0
 35
0.0
146
0.0
 13
0.0
 23
0.0
 33
0.0
 16
1.0
 26
0.0
 36
0.0
 17
0.0
 27
1.0
 37
0.0
 76
     0
330
23
  0
LAYOUT
  5
22
102
{ACAD_REACTORS
330
1A
102
}
330
1A
100
AcDbPlotSettings
  1

  2
none_device
  4
Letter_(8.50_x_11.00_Inches)
  6

 40
6.35
 41
6.35
 42
6.35000508
 43
6.35000508
 44
215.9
 45
279.4
 46
0.0
 47
0.0
 48
0.0
 49
0.0
140
0.0
141
0.0
142
1.0
143
1.0
 70
  1712
 72
     0
 73
     0
 74
     0
  7

 75
     0
 76
     0
 77
     2
 78
   300
147
1.0
148
0.0
149
0.0
100
AcDbLayout
  1
Model
 70
     1
 71
     0
 10
0.0
 20
0.0
 11
12.0
 21
9.0
 12
0.0
 22
0.0
 32
0.0
 14
1.000000000000000E+20
 24
1.000000000000000E+20
 34
1.000000000000000E+20
 15
-1.000000000000000E+20
 25
-1.000000000000000E+20
 35
-1.000000000000000E+20
146
0.0
 13
0.0
 23
0.0
 33
0.0
 16
1.0
 26
0.0
 36
0.0
 17
0.0
 27
1.0
 37
0.0
 76
     0
330
1F
331
29
  0
MATERIAL
  5
45
102
{ACAD_REACTORS
330
43
102
}
330
43
100
AcDbMaterial
  1
ByBlock
 72
     1
 94
      127
  0
MATERIAL
  5
44
102
{ACAD_REACTORS
330
43
102
}
330
43
100
AcDbMaterial
  1
ByLayer
 72
     1
 94
      127
  0
MATERIAL
  5
46
102
{ACAD_REACTORS
330
43
102
}
330
43
100
AcDbMaterial
  1
Global
 72
     1
 94
      127
  0
MLEADERSTYLE
  5
6C
102
{ACAD_REACTORS
330
6B
102
}
330
6B
100
AcDbMLeaderStyle
179
     2
170
     2
171
     1
172
     0
 90
        2
 40
0.0
 41
0.0
173
     1
 91
-1056964608
340
14
 92
       -2
290
     1
 42
0.09
291
     1
 43
0.36
  3
Standard
341
0
 44
0.18
300

342
11
174
     1
178
     6
175
     1
176
     0
 93
-1056964608
 45
0.18
292
     0
297
     0
 46
0.18
343
0
 94
-1056964608
 47
1.0
 49
1.0
140
1.0
293
     1
141
0.0
294
     1
177
     0
142
1.0
295
     0
296
     0
143
0.125
271
     0
272
     9
273
     9
298
     0
  0
MLINESTYLE
  5
18
102
{ACAD_REACTORS
330
17
102
}
330
17
100
AcDbMlineStyle
  2
Standard
 70
     0
  3

 62
   256
 51
90.0
 52
90.0
 71
     2
 49
0.5
 62
   256
  6
BYLAYER
 49
-0.5
 62
   256
  6
BYLAYER
  0
ACDBPLACEHOLDER
  5
F
102
{ACAD_REACTORS
330
E
102
}
330
E
  0
SCALE
  5
48
102
{ACAD_REACTORS
330
47
102
}
330
47
100
AcDbScale
 70
     0
300
1:1
140
1.0
141
1.0
290
     1
  0
SCALE
  5
49
102
{ACAD_REACTORS
330
47
102
}
330
47
100
AcDbScale
 70
     0
300
1:2
140
1.0
141
2.0
290
     0
  0
SCALE
  5
4A
102
{ACAD_REACTORS
330
47
102
}
330
47
100
AcDbScale
 70
     0
300
1:4
140
1.0
141
4.0
290
     0
  0
SCALE
  5
4B
102
{ACAD_REACTORS
330
47
102
}
330
47
100
AcDbScale
 70
     0
300
1:5
140
1.0
141
5.0
290
     0
  0
SCALE
  5
4C
102
{ACAD_REACTORS
330
47
102
}
330
47
100
AcDbScale
 70
     0
300
1:8
140
1.0
141
8.0
290
     0
  0
SCALE
  5
4D
102
{ACAD_REACTORS
330
47
102
}
330
47
100
AcDbScale
 70
     0
300
1:10
140
1.0
141
10.0
290
     0
  0
SCALE
  5
4E
102
{ACAD_REACTORS
330
47
102
}
330
47
100
AcDbScale
 70
     0
300
1:16
140
1.0
141
16.0
290
     0
  0
SCALE
  5
4F
102
{ACAD_REACTORS
330
47
102
}
330
47
100
AcDbScale
 70
     0
300
1:20
140
1.0
141
20.0
290
     0
  0
SCALE
  5
50
102
{ACAD_REACTORS
330
47
102
}
330
47
100
AcDbScale
 70
     0
300
1:30
140
1.0
141
30.0
290
     0
  0
SCALE
  5
51
102
{ACAD_REACTORS
330
47
102
}
330
47
100
AcDbScale
 70
     0
300
1:40
140
1.0
141
40.0
290
     0
  0
SCALE
  5
52
102
{ACAD_REACTORS
330
47
102
}
330
47
100
AcDbScale
 70
     0
300
1:50
140
1.0
141
50.0
290
     0
  0
SCALE
  5
53
102
{ACAD_REACTORS
330
47
102
}
330
47
100
AcDbScale
 70
     0
300
1:100
140
1.0
141
100.0
290
     0
  0
SCALE
  5
54
102
{ACAD_REACTORS
330
47
102
}
330
47
100
AcDbScale
 70
     0
300
2:1
140
2.0
141
1.0
290
     0
  0
SCALE
  5
55
102
{ACAD_REACTORS
330
47
102
}
330
47
100
AcDbScale
 70
     0
300
4:1
140
4.0
141
1.0
290
     0
  0
SCALE
  5
56
102
{ACAD_REACTORS
330
47
102
}
330
47
100
AcDbScale
 70
     0
300
8:1
140
8.0
141
1.0
290
     0
  0
SCALE
  5
57
102
{ACAD_REACTORS
330
47
102
}
330
47
100
AcDbScale
 70
     0
300
10:1
140
10.0
141
1.0
290
     0
  0
SCALE
  5
58
102
{ACAD_REACTORS
330
47
102
}
330
47
100
AcDbScale
 70
     0
300
100:1
140
100.0
141
1.0
290
     0
  0
SCALE
  5
59
102
{ACAD_REACTORS
330
47
102
}
330
47
100
AcDbScale
 70
     0
300
1/128" = 1'-0"
140
0.0078125
141
12.0
290
     0
  0
SCALE
  5
5A
102
{ACAD_REACTORS
330
47
102
}
330
47
100
AcDbScale
 70
     0
300
1/64" = 1'-0"
140
0.015625
141
12.0
290
     0
  0
SCALE
  5
5B
102
{ACAD_REACTORS
330
47
102
}
330
47
100
AcDbScale
 70
     0
300
1/32" = 1'-0"
140
0.03125
141
12.0
290
     0
  0
SCALE
  5
5C
102
{ACAD_REACTORS
330
47
102
}
330
47
100
AcDbScale
 70
     0
300
1/16" = 1'-0"
140
0.0625
141
12.0
290
     0
  0
SCALE
  5
5D
102
{ACAD_REACTORS
330
47
102
}
330
47
100
AcDbScale
 70
     0
300
3/32" = 1'-0"
140
0.09375
141
12.0
290
     0
  0
SCALE
  5
5E
102
{ACAD_REACTORS
330
47
102
}
330
47
100
AcDbScale
 70
     0
300
1/8" = 1'-0"
140
0.125
141
12.0
290
     0
  0
SCALE
  5
5F
102
{ACAD_REACTORS
330
47
102
}
330
47
100
AcDbScale
 70
     0
300
3/16" = 1'-0"
140
0.1875
141
12.0
290
     0
  0
SCALE
  5
60
102
{ACAD_REACTORS
330
47
102
}
330
47
100
AcDbScale
 70
     0
300
1/4" = 1'-0"
140
0.25
141
12.0
290
     0
  0
SCALE
  5
61
102
{ACAD_REACTORS
330
47
102
}
330
47
100
AcDbScale
 70
     0
300
3/8" = 1'-0"
140
0.375
141
12.0
290
     0
  0
SCALE
  5
62
102
{ACAD_REACTORS
330
47
102
}
330
47
100
AcDbScale
 70
     0
300
1/2" = 1'-0"
140
0.5
141
12.0
290
     0
  0
SCALE
  5
63
102
{ACAD_REACTORS
330
47
102
}
330
47
100
AcDbScale
 70
     0
300
3/4" = 1'-0"
140
0.75
141
12.0
290
     0
  0
SCALE
  5
64
102
{ACAD_REACTORS
330
47
102
}
330
47
100
AcDbScale
 70
     0
300
1" = 1'-0"
140
1.0
141
12.0
290
     0
  0
SCALE
  5
65
102
{ACAD_REACTORS
330
47
102
}
330
47
100
AcDbScale
 70
     0
300
1-1/2" = 1'-0"
140
1.5
141
12.0
290
     0
  0
SCALE
  5
66
102
{ACAD_REACTORS
330
47
102
}
330
47
100
AcDbScale
 70
     0
300
3" = 1'-0"
140
3.0
141
12.0
290
     0
  0
SCALE
  5
67
102
{ACAD_REACTORS
330
47
102
}
330
47
100
AcDbScale
 70
     0
300
6" = 1'-0"
140
6.0
141
12.0
290
     0
  0
SCALE
  5
68
102
{ACAD_REACTORS
330
47
102
}
330
47
100
AcDbScale
 70
     0
300
1'-0" = 1'-0"
140
12.0
141
12.0
290
     0
  0
TABLESTYLE
  5
6A
102
{ACAD_REACTORS
330
69
102
}
102
{ACAD_XDICTIONARY
360
1E1
102
}
330
69
100
AcDbTableStyle
  3
Standard
 70
     0
 71
     0
 40
0.06
 41
0.06
280
     0
281
     0
  7
Standard
140
0.18
170
     2
 62
     0
 63
   257
283
     0
 90
        4
 91
        0
  1

274
    -2
284
     1
 64
     0
275
    -2
285
     1
 65
     0
276
    -2
286
     1
 66
     0
277
    -2
287
     1
 67
     0
278
    -2
288
     1
 68
     0
279
    -2
289
     1
 69
     0
  7
Standard
140
0.25
170
     5
 62
     0
 63
   257
283
     0
 90
        4
 91
        0
  1

274
    -2
284
     1
 64
     0
275
    -2
285
     1
 65
     0
276
    -2
286
     1
 66
     0
277
    -2
287
     1
 67
     0
278
    -2
288
     1
 68
     0
279
    -2
289
     1
 69
     0
  7
Standard
140
0.18
170
     5
 62
     0
 63
   257
283
     0
 90
        4
 91
        0
  1

274
    -2
284
     1
 64
     0
275
    -2
285
     1
 65
     0
276
    -2
286
     1
 66
     0
277
    -2
287
     1
 67
     0
278
    -2
288
     1
 68
     0
279
    -2
289
     1
 69
     0
  0
VISUALSTYLE
  5
2F
102
{ACAD_REACTORS
330
2A
102
}
330
2A
100
AcDbVisualStyle
  2
2dWireframe
 70
     4
177
     3
291
     0
 70
    58
 90
        0
176
     1
 90
        2
176
     1
 90
        0
176
     1
 90
        0
176
     1
 40
0.6
176
     1
 40
30.0
176
     1
 62
     7
420
 16777215
176
     1
 90
        1
176
     1
 90
        4
176
     1
 62
     7
176
     1
 62
   257
176
     1
 90
        1
176
     1
 90
        1
176
     1
 40
1.0
176
     1
 90
        0
176
     1
 62
   257
176
     1
 40
1.0
176
     1
 90
        1
176
     1
 90
        6
176
     1
 90
        2
176
     1
 62
     7
176
     1
 90
        5
176
     1
 90
        0
176
     1
 90
        0
176
     1
290
     0
176
     1
 90
        1
176
     1
 40
0.0
176
     1
 90
        0
176
     1
290
     1
176
     1
290
     1
176
     1
290
     0
176
     1
290
     0
176
     1
290
     0
176
     1
290
     0
176
     1
290
     0
176
     1
290
     0
176
     1
290
     0
176
     1
 90
       50
176
     1
 40
0.0
176
     1
 40
1.0
176
     1
 90
        0
176
     1
 62
    18
420
        0
176
     1
 90
       50
176
     1
 90
        3
176
     1
 62
     5
420
      255
176
     1
290
     0
176
     1
 90
       50
176
     1
 90
       50
176
     1
 90
       50
176
     1
290
     0
176
     1
 90
       50
176
     1
 62
   256
176
     0
 40
1.0
176
     0
 90
        2
176
     1
  1
strokes_ogs.tif
176
     1
290
     0
176
     1
 40
1.0
176
     1
 40
1.0
176
     1
  0
VISUALSTYLE
  5
32
102
{ACAD_REACTORS
330
2A
102
}
330
2A
100
AcDbVisualStyle
  2
Basic
 70
     7
177
     3
291
     1
 70
    58
 90
        1
176
     1
 90
        0
176
     1
 90
        1
176
     1
 90
        0
176
     1
 40
0.6
176
     1
 40
30.0
176
     1
 62
     7
420
 16777215
176
     1
 90
        0
176
     1
 90
        4
176
     1
 62
     7
176
     1
 62
   257
176
     1
 90
        1
176
     1
 90
        1
176
     1
 40
1.0
176
     1
 90
        8
176
     1
 62
     7
176
     1
 40
1.0
176
     1
 90
        1
176
     1
 90
        6
176
     1
 90
        2
176
     1
 62
     7
176
     1
 90
        5
176
     1
 90
        0
176
     1
 90
        0
176
     1
290
     0
176
     1
 90
        1
176
     1
 40
0.0
176
     1
 90
        0
176
     1
290
     0
176
     1
290
     1
176
     1
290
     1
176
     1
290
     0
176
     1
290
     0
176
     1
290
     0
176
     1
290
     0
176
     1
290
     0
176
     1
290
     0
176
     1
 90
       50
176
     1
 40
0.0
176
     1
 40
1.0
176
     1
 90
        0
176
     1
 62
    18
420
        0
176
     1
 90
       50
176
     1
 90
        3
176
     1
 62
     5
420
      255
176
     1
290
     0
176
     1
 90
       50
176
     1
 90
       50
176
     1
 90
       50
176
     1
290
     0
176
     1
 90
       50
176
     1
 62
   256
176
     0
 40
1.0
176
     0
 90
        2
176
     1
  1
strokes_ogs.tif
176
     1
290
     0
176
     1
 40
1.0
176
     1
 40
1.0
176
     1
  0
VISUALSTYLE
  5
36
102
{ACAD_REACTORS
330
2A
102
}
330
2A
100
AcDbVisualStyle
  2
Brighten
 70
    12
177
     3
291
     1
 70
    58
 90
        2
176
     1
 90
        2
176
     1
 90
        0
176
     1
 90
        0
176
     1
 40
0.6
176
     1
 40
30.0
176
     1
 62
     7
420
 16777215
176
     1
 90
        1
176
     1
 90
        4
176
     1
 62
     7
176
     1
 62
   257
176
     1
 90
        1
176
     1
 90
        1
176
     1
 40
1.0
176
     1
 90
        8
176
     1
 62
     7
176
     1
 40
1.0
176
     1
 90
        1
176
     1
 90
        6
176
     1
 90
        2
176
     1
 62
     7
176
     1
 90
        5
176
     1
 90
        0
176
     1
 90
        0
176
     1
290
     0
176
     1
 90
        1
176
     1
 40
50.0
176
     1
 90
        0
176
     1
290
     0
176
     1
290
     1
176
     1
290
     1
176
     1
290
     0
176
     1
290
     0
176
     1
290
     0
176
     1
290
     0
176
     1
290
     0
176
     1
290
     0
176
     1
 90
       50
176
     1
 40
0.0
176
     1
 40
1.0
176
     1
 90
        0
176
     1
 62
    18
420
        0
176
     1
 90
       50
176
     1
 90
        3
176
     1
 62
     5
420
      255
176
     1
290
     0
176
     1
 90
       50
176
     1
 90
       50
176
     1
 90
       50
176
     1
290
     0
176
     1
 90
       50
176
     1
 62
   256
176
     0
 40
1.0
176
     0
 90
        2
176
     1
  1
strokes_ogs.tif
176
     1
290
     0
176
     1
 40
1.0
176
     1
 40
1.0
176
     1
  0
VISUALSTYLE
  5
3A
102
{ACAD_REACTORS
330
2A
102
}
330
2A
100
AcDbVisualStyle
  2
ColorChange
 70
    16
177
     3
291
     1
 70
    58
 90
        2
176
     1
 90
        2
176
     1
 90
        3
176
     1
 90
        0
176
     1
 40
0.6
176
     1
 40
30.0
176
     1
 62
     8
420
  8421504
176
     1
 90
        1
176
     1
 90
        4
176
     1
 62
     7
176
     1
 62
   257
176
     1
 90
        1
176
     1
 90
        1
176
     1
 40
1.0
176
     1
 90
        8
176
     1
 62
     8
420
  8421504
176
     1
 40
1.0
176
     1
 90
        1
176
     1
 90
        6
176
     1
 90
        2
176
     1
 62
     7
176
     1
 90
        5
176
     1
 90
        0
176
     1
 90
        0
176
     1
290
     0
176
     1
 90
        1
176
     1
 40
0.0
176
     1
 90
        0
176
     1
290
     0
176
     1
290
     1
176
     1
290
     1
176
     1
290
     0
176
     1
290
     0
176
     1
290
     0
176
     1
290
     0
176
     1
290
     0
176
     1
290
     0
176
     1
 90
       50
176
     1
 40
0.0
176
     1
 40
1.0
176
     1
 90
        0
176
     1
 62
    18
420
        0
176
     1
 90
       50
176
     1
 90
        3
176
     1
 62
     5
420
      255
176
     1
290
     0
176
     1
 90
       50
176
     1
 90
       50
176
     1
 90
       50
176
     1
290
     0
176
     1
 90
       50
176
     1
 62
   256
176
     0
 40
1.0
176
     0
 90
        2
176
     1
  1
strokes_ogs.tif
176
     1
290
     0
176
     1
 40
1.0
176
     1
 40
1.0
176
     1
  0
VISUALSTYLE
  5
34
102
{ACAD_REACTORS
330
2A
102
}
330
2A
100
AcDbVisualStyle
  2
Conceptual
 70
     9
177
     3
291
     0
 70
    58
 90
        3
176
     1
 90
        2
176
     1
 90
        0
176
     1
 90
        0
176
     1
 40
0.6
176
     1
 40
30.0
176
     1
 62
     7
420
 16777215
176
     1
 90
        2
176
     1
 90
        2
176
     1
 62
     7
176
     1
 62
   257
176
     1
 90
        1
176
     1
 90
        1
176
     1
 40
179.0
176
     1
 90
        8
176
     1
 62
     7
176
     1
 40
1.0
176
     1
 90
        1
176
     1
 90
        6
176
     1
 90
        2
176
     1
 62
     7
176
     1
 90
        3
176
     1
 90
        0
176
     1
 90
        0
176
     1
290
     0
176
     1
 90
        1
176
     1
 40
0.0
176
     1
 90
        0
176
     1
290
     0
176
     1
290
     1
176
     1
290
     1
176
     1
290
     0
176
     1
290
     0
176
     1
290
     0
176
     1
290
     0
176
     1
290
     0
176
     1
290
     0
176
     1
 90
       50
176
     1
 40
0.0
176
     1
 40
1.0
176
     1
 90
        0
176
     1
 62
    18
420
        0
176
     1
 90
       50
176
     1
 90
        3
176
     1
 62
     5
420
      255
176
     1
290
     0
176
     1
 90
       50
176
     1
 90
       50
176
     1
 90
       50
176
     1
290
     0
176
     1
 90
       50
176
     1
 62
   256
176
     0
 40
1.0
176
     0
 90
        2
176
     1
  1
strokes_ogs.tif
176
     1
290
     0
176
     1
 40
1.0
176
     1
 40
1.0
176
     1
  0
VISUALSTYLE
  5
35
102
{ACAD_REACTORS
330
2A
102
}
330
2A
100
AcDbVisualStyle
  2
Dim
 70
    11
177
     3
291
     1
 70
    58
 90
        2
176
     1
 90
        2
176
     1
 90
        0
176
     1
 90
        0
176
     1
 40
0.6
176
     1
 40
30.0
176
     1
 62
     7
420
 16777215
176
     1
 90
        1
176
     1
 90
        4
176
     1
 62
     7
176
     1
 62
   257
176
     1
 90
        1
176
     1
 90
        1
176
     1
 40
1.0
176
     1
 90
        8
176
     1
 62
     7
176
     1
 40
1.0
176
     1
 90
        1
176
     1
 90
        6
176
     1
 90
        2
176
     1
 62
     7
176
     1
 90
        5
176
     1
 90
        0
176
     1
 90
        0
176
     1
290
     0
176
     1
 90
        1
176
     1
 40
-50.0
176
     1
 90
        0
176
     1
290
     0
176
     1
290
     1
176
     1
290
     1
176
     1
290
     0
176
     1
290
     0
176
     1
290
     0
176
     1
290
     0
176
     1
290
     0
176
     1
290
     0
176
     1
 90
       50
176
     1
 40
0.0
176
     1
 40
1.0
176
     1
 90
        0
176
     1
 62
    18
420
        0
176
     1
 90
       50
176
     1
 90
        3
176
     1
 62
     5
420
      255
176
     1
290
     0
176
     1
 90
       50
176
     1
 90
       50
176
     1
 90
       50
176
     1
290
     0
176
     1
 90
       50
176
     1
 62
   256
176
     0
 40
1.0
176
     0
 90
        2
176
     1
  1
strokes_ogs.tif
176
     1
290
     0
176
     1
 40
1.0
176
     1
 40
1.0
176
     1
  0
VISUALSTYLE
  5
3D
102
{ACAD_REACTORS
330
2A
102
}
330
2A
100
AcDbVisualStyle
  2
EdgeColorOff
 70
    22
177
     3
291
     1
 70
    58
 90
        2
176
     0
 90
        2
176
     0
 90
        0
176
     0
 90
        0
176
     0
 40
0.6
176
     0
 40
30.0
176
     0
 62
     7
420
 16777215
176
     0
 90
        1
176
     0
 90
        4
176
     0
 62
     7
176
     0
 62
   257
176
     0
 90
        1
176
     0
 90
        1
176
     0
 40
1.0
176
     0
 90
        8
176
     2
 62
     7
176
     0
 40
1.0
176
     0
 90
        1
176
     0
 90
        6
176
     0
 90
        2
176
     0
 62
     7
176
     0
 90
        5
176
     0
 90
        0
176
     0
 90
        0
176
     0
290
     0
176
     0
 90
        1
176
     0
 40
0.0
176
     0
 90
        0
176
     0
290
     0
176
     0
290
     1
176
     0
290
     1
176
     0
290
     0
176
     0
290
     0
176
     0
290
     0
176
     0
290
     0
176
     0
290
     0
176
     0
290
     0
176
     0
 90
       50
176
     0
 40
0.0
176
     0
 40
1.0
176
     0
 90
        0
176
     0
 62
    18
420
        0
176
     0
 90
       50
176
     0
 90
        3
176
     0
 62
     5
420
      255
176
     0
290
     0
176
     0
 90
       50
176
     0
 90
       50
176
     0
 90
       50
176
     0
290
     0
176
     0
 90
       50
176
     0
 62
   256
176
     0
 40
1.0
176
     0
 90
        2
176
     0
  1
strokes_ogs.tif
176
     0
290
     0
176
     0
 40
1.0
176
     0
 40
1.0
176
     0
  0
VISUALSTYLE
  5
39
102
{ACAD_REACTORS
330
2A
102
}
330
2A
100
AcDbVisualStyle
  2
Facepattern
 70
    15
177
     3
291
     1
 70
    58
 90
        2
176
     1
 90
        2
176
     1
 90
        0
176
     1
 90
        0
176
     1
 40
0.6
176
     1
 40
30.0
176
     1
 62
     7
420
 16777215
176
     1
 90
        1
176
     1
 90
        4
176
     1
 62
     7
176
     1
 62
   257
176
     1
 90
        1
176
     1
 90
        1
176
     1
 40
1.0
176
     1
 90
        8
176
     1
 62
     7
176
     1
 40
1.0
176
     1
 90
        1
176
     1
 90
        6
176
     1
 90
        2
176
     1
 62
     7
176
     1
 90
        5
176
     1
 90
        0
176
     1
 90
        0
176
     1
290
     0
176
     1
 90
        1
176
     1
 40
0.0
176
     1
 90
        0
176
     1
290
     0
176
     1
290
     1
176
     1
290
     1
176
     1
290
     0
176
     1
290
     0
176
     1
290
     0
176
     1
290
     0
176
     1
290
     0
176
     1
290
     0
176
     1
 90
       50
176
     1
 40
0.0
176
     1
 40
1.0
176
     1
 90
        0
176
     1
 62
    18
420
        0
176
     1
 90
       50
176
     1
 90
        3
176
     1
 62
     5
420
      255
176
     1
290
     0
176
     1
 90
       50
176
     1
 90
       50
176
     1
 90
       50
176
     1
290
     0
176
     1
 90
       50
176
     1
 62
   256
176
     0
 40
1.0
176
     0
 90
        2
176
     1
  1
strokes_ogs.tif
176
     1
290
     0
176
     1
 40
1.0
176
     1
 40
1.0
176
     1
  0
VISUALSTYLE
  5
2B
102
{ACAD_REACTORS
330
2A
102
}
330
2A
100
AcDbVisualStyle
  2
Flat
 70
     0
177
     3
291
     1
 70
    58
 90
        2
176
     1
 90
        1
176
     1
 90
        1
176
     1
 90
        2
176
     1
 40
0.6
176
     1
 40
30.0
176
     1
 62
     7
420
 16777215
176
     1
 90
        0
176
     1
 90
        0
176
     1
 62
     7
176
     1
 62
   257
176
     1
 90
        1
176
     1
 90
        1
176
     1
 40
1.0
176
     1
 90
        8
176
     1
 62
     7
176
     1
 40
1.0
176
     1
 90
        1
176
     1
 90
        6
176
     1
 90
        2
176
     1
 62
     7
176
     1
 90
        5
176
     1
 90
        0
176
     1
 90
        0
176
     1
290
     0
176
     1
 90
       13
176
     1
 40
0.0
176
     1
 90
        0
176
     1
290
     0
176
     1
290
     1
176
     1
290
     1
176
     1
290
     0
176
     1
290
     0
176
     1
290
     0
176
     1
290
     0
176
     1
290
     0
176
     1
290
     0
176
     1
 90
       50
176
     1
 40
0.0
176
     1
 40
1.0
176
     1
 90
        0
176
     1
 62
    18
420
        0
176
     1
 90
       50
176
     1
 90
        3
176
     1
 62
     5
420
      255
176
     1
290
     0
176
     1
 90
       50
176
     1
 90
       50
176
     1
 90
       50
176
     1
290
     0
176
     1
 90
       50
176
     1
 62
   256
176
     0
 40
1.0
176
     0
 90
        2
176
     1
  1
strokes_ogs.tif
176
     1
290
     0
176
     1
 40
1.0
176
     1
 40
1.0
176
     1
  0
VISUALSTYLE
  5
2C
102
{ACAD_REACTORS
330
2A
102
}
330
2A
100
AcDbVisualStyle
  2
FlatWithEdges
 70
     1
177
     3
291
     1
 70
    58
 90
        2
176
     1
 90
        1
176
     1
 90
        1
176
     1
 90
        2
176
     1
 40
0.6
176
     1
 40
30.0
176
     1
 62
     7
420
 16777215
176
     1
 90
        1
176
     1
 90
        0
176
     1
 62
     7
176
     1
 62
   257
176
     1
 90
        1
176
     1
 90
        1
176
     1
 40
1.0
176
     1
 90
        0
176
     1
 62
   257
176
     1
 40
1.0
176
     1
 90
        1
176
     1
 90
        6
176
     1
 90
        2
176
     1
 62
     7
176
     1
 90
        5
176
     1
 90
        0
176
     1
 90
        0
176
     1
290
     0
176
     1
 90
       13
176
     1
 40
0.0
176
     1
 90
        0
176
     1
290
     0
176
     1
290
     1
176
     1
290
     1
176
     1
290
     0
176
     1
290
     0
176
     1
290
     0
176
     1
290
     0
176
     1
290
     0
176
     1
290
     0
176
     1
 90
       50
176
     1
 40
0.0
176
     1
 40
1.0
176
     1
 90
        0
176
     1
 62
    18
420
        0
176
     1
 90
       50
176
     1
 90
        3
176
     1
 62
     5
420
      255
176
     1
290
     0
176
     1
 90
       50
176
     1
 90
       50
176
     1
 90
       50
176
     1
290
     0
176
     1
 90
       50
176
     1
 62
   256
176
     0
 40
1.0
176
     0
 90
        2
176
     1
  1
strokes_ogs.tif
176
     1
290
     0
176
     1
 40
1.0
176
     1
 40
1.0
176
     1
  0
VISUALSTYLE
  5
2D
102
{ACAD_REACTORS
330
2A
102
}
330
2A
100
AcDbVisualStyle
  2
Gouraud
 70
     2
177
     3
291
     1
 70
    58
 90
        2
176
     1
 90
        2
176
     1
 90
        1
176
     1
 90
        2
176
     1
 40
0.6
176
     1
 40
30.0
176
     1
 62
     7
420
 16777215
176
     1
 90
        0
176
     1
 90
        0
176
     1
 62
     7
176
     1
 62
   257
176
     1
 90
        1
176
     1
 90
        1
176
     1
 40
1.0
176
     1
 90
        0
176
     1
 62
     7
176
     1
 40
1.0
176
     1
 90
        1
176
     1
 90
        6
176
     1
 90
        2
176
     1
 62
     7
176
     1
 90
        5
176
     1
 90
        0
176
     1
 90
        0
176
     1
290
     0
176
     1
 90
       13
176
     1
 40
0.0
176
     1
 90
        0
176
     1
290
     0
176
     1
290
     1
176
     1
290
     1
176
     1
290
     0
176
     1
290
     0
176
     1
290
     0
176
     1
290
     0
176
     1
290
     0
176
     1
290
     0
176
     1
 90
       50
176
     1
 40
0.0
176
     1
 40
1.0
176
     1
 90
        0
176
     1
 62
    18
420
        0
176
     1
 90
       50
176
     1
 90
        3
176
     1
 62
     5
420
      255
176
     1
290
     0
176
     1
 90
       50
176
     1
 90
       50
176
     1
 90
       50
176
     1
290
     0
176
     1
 90
       50
176
     1
 62
   256
176
     0
 40
1.0
176
     0
 90
        2
176
     1
  1
strokes_ogs.tif
176
     1
290
     0
176
     1
 40
1.0
176
     1
 40
1.0
176
     1
  0
VISUALSTYLE
  5
2E
102
{ACAD_REACTORS
330
2A
102
}
330
2A
100
AcDbVisualStyle
  2
GouraudWithEdges
 70
     3
177
     3
291
     1
 70
    58
 90
        2
176
     1
 90
        2
176
     1
 90
        1
176
     1
 90
        2
176
     1
 40
0.6
176
     1
 40
30.0
176
     1
 62
     7
420
 16777215
176
     1
 90
        1
176
     1
 90
        0
176
     1
 62
     7
176
     1
 62
   257
176
     1
 90
        1
176
     1
 90
        1
176
     1
 40
1.0
176
     1
 90
        0
176
     1
 62
   257
176
     1
 40
1.0
176
     1
 90
        1
176
     1
 90
        6
176
     1
 90
        2
176
     1
 62
     7
176
     1
 90
        5
176
     1
 90
        0
176
     1
 90
        0
176
     1
290
     0
176
     1
 90
       13
176
     1
 40
0.0
176
     1
 90
        0
176
     1
290
     0
176
     1
290
     1
176
     1
290
     1
176
     1
290
     0
176
     1
290
     0
176
     1
290
     0
176
     1
290
     0
176
     1
290
     0
176
     1
290
     0
176
     1
 90
       50
176
     1
 40
0.0
176
     1
 40
1.0
176
     1
 90
        0
176
     1
 62
    18
420
        0
176
     1
 90
       50
176
     1
 90
        3
176
     1
 62
     5
420
      255
176
     1
290
     0
176
     1
 90
       50
176
     1
 90
       50
176
     1
 90
       50
176
     1
290
     0
176
     1
 90
       50
176
     1
 62
   256
176
     0
 40
1.0
176
     0
 90
        2
176
     1
  1
strokes_ogs.tif
176
     1
290
     0
176
     1
 40
1.0
176
     1
 40
1.0
176
     1
  0
VISUALSTYLE
  5
31
102
{ACAD_REACTORS
330
2A
102
}
330
2A
100
AcDbVisualStyle
  2
Hidden
 70
     6
177
     3
291
     0
 70
    58
 90
        1
176
     1
 90
        2
176
     1
 90
        2
176
     1
 90
        0
176
     1
 40
0.6
176
     1
 40
30.0
176
     1
 62
     7
420
 16777215
176
     1
 90
        2
176
     1
 90
        2
176
     1
 62
     7
176
     1
 62
   257
176
     1
 90
        2
176
     1
 90
        1
176
     1
 40
40.0
176
     1
 90
        0
176
     1
 62
   257
176
     1
 40
1.0
176
     1
 90
        1
176
     1
 90
        6
176
     1
 90
        2
176
     1
 62
     7
176
     1
 90
        3
176
     1
 90
        0
176
     1
 90
        0
176
     1
290
     0
176
     1
 90
        1
176
     1
 40
0.0
176
     1
 90
        0
176
     1
290
     0
176
     1
290
     1
176
     1
290
     1
176
     1
290
     0
176
     1
290
     0
176
     1
290
     0
176
     1
290
     0
176
     1
290
     0
176
     1
290
     0
176
     1
 90
       50
176
     1
 40
0.0
176
     1
 40
1.0
176
     1
 90
        0
176
     1
 62
    18
420
        0
176
     1
 90
       50
176
     1
 90
        3
176
     1
 62
     5
420
      255
176
     1
290
     0
176
     1
 90
       50
176
     1
 90
       50
176
     1
 90
       50
176
     1
290
     0
176
     1
 90
       50
176
     1
 62
   256
176
     0
 40
1.0
176
     0
 90
        2
176
     1
  1
strokes_ogs.tif
176
     1
290
     0
176
     1
 40
1.0
176
     1
 40
1.0
176
     1
  0
VISUALSTYLE
  5
3B
102
{ACAD_REACTORS
330
2A
102
}
330
2A
100
AcDbVisualStyle
  2
JitterOff
 70
    20
177
     3
291
     1
 70
    58
 90
        2
176
     0
 90
        2
176
     0
 90
        0
176
     0
 90
        0
176
     0
 40
0.6
176
     0
 40
30.0
176
     0
 62
     7
420
 16777215
176
     0
 90
        1
176
     0
 90
        4
176
     0
 62
     7
176
     0
 62
   257
176
     0
 90
        1
176
     0
 90
        1
176
     0
 40
1.0
176
     0
 90
       10
176
     2
 62
     7
176
     0
 40
1.0
176
     0
 90
        1
176
     0
 90
        6
176
     0
 90
        2
176
     0
 62
     7
176
     0
 90
        5
176
     0
 90
        0
176
     0
 90
        0
176
     0
290
     0
176
     0
 90
        1
176
     0
 40
0.0
176
     0
 90
        0
176
     0
290
     0
176
     0
290
     1
176
     0
290
     1
176
     0
290
     0
176
     0
290
     0
176
     0
290
     0
176
     0
290
     0
176
     0
290
     0
176
     0
290
     0
176
     0
 90
       50
176
     0
 40
0.0
176
     0
 40
1.0
176
     0
 90
        0
176
     0
 62
    18
420
        0
176
     0
 90
       50
176
     0
 90
        3
176
     0
 62
     5
420
      255
176
     0
290
     0
176
     0
 90
       50
176
     0
 90
       50
176
     0
 90
       50
176
     0
290
     0
176
     0
 90
       50
176
     0
 62
   256
176
     0
 40
1.0
176
     0
 90
        2
176
     0
  1
strokes_ogs.tif
176
     0
290
     0
176
     0
 40
1.0
176
     0
 40
1.0
176
     0
  0
VISUALSTYLE
  5
38
102
{ACAD_REACTORS
330
2A
102
}
330
2A
100
AcDbVisualStyle
  2
Linepattern
 70
    14
177
     3
291
     1
 70
    58
 90
        2
176
     1
 90
        2
176
     1
 90
        0
176
     1
 90
        0
176
     1
 40
0.6
176
     1
 40
30.0
176
     1
 62
     7
420
 16777215
176
     1
 90
        1
176
     1
 90
        4
176
     1
 62
     7
176
     1
 62
   257
176
     1
 90
        7
176
     1
 90
        7
176
     1
 40
1.0
176
     1
 90
        8
176
     1
 62
     7
176
     1
 40
1.0
176
     1
 90
        1
176
     1
 90
        6
176
     1
 90
        2
176
     1
 62
     7
176
     1
 90
        5
176
     1
 90
        0
176
     1
 90
        0
176
     1
290
     0
176
     1
 90
        1
176
     1
 40
0.0
176
     1
 90
        0
176
     1
290
     0
176
     1
290
     1
176
     1
290
     1
176
     1
290
     0
176
     1
290
     0
176
     1
290
     0
176
     1
290
     0
176
     1
290
     0
176
     1
290
     0
176
     1
 90
       50
176
     1
 40
0.0
176
     1
 40
1.0
176
     1
 90
        0
176
     1
 62
    18
420
        0
176
     1
 90
       50
176
     1
 90
        3
176
     1
 62
     5
420
      255
176
     1
290
     0
176
     1
 90
       50
176
     1
 90
       50
176
     1
 90
       50
176
     1
290
     0
176
     1
 90
       50
176
     1
 62
   256
176
     0
 40
1.0
176
     0
 90
        2
176
     1
  1
strokes_ogs.tif
176
     1
290
     0
176
     1
 40
1.0
176
     1
 40
1.0
176
     1
  0
VISUALSTYLE
  5
3C
102
{ACAD_REACTORS
330
2A
102
}
330
2A
100
AcDbVisualStyle
  2
OverhangOff
 70
    21
177
     3
291
     1
 70
    58
 90
        2
176
     0
 90
        2
176
     0
 90
        0
176
     0
 90
        0
176
     0
 40
0.6
176
     0
 40
30.0
176
     0
 62
     7
420
 16777215
176
     0
 90
        1
176
     0
 90
        4
176
     0
 62
     7
176
     0
 62
   257
176
     0
 90
        1
176
     0
 90
        1
176
     0
 40
1.0
176
     0
 90
        9
176
     2
 62
     7
176
     0
 40
1.0
176
     0
 90
        1
176
     0
 90
        6
176
     0
 90
        2
176
     0
 62
     7
176
     0
 90
        5
176
     0
 90
        0
176
     0
 90
        0
176
     0
290
     0
176
     0
 90
        1
176
     0
 40
0.0
176
     0
 90
        0
176
     0
290
     0
176
     0
290
     1
176
     0
290
     1
176
     0
290
     0
176
     0
290
     0
176
     0
290
     0
176
     0
290
     0
176
     0
290
     0
176
     0
290
     0
176
     0
 90
       50
176
     0
 40
0.0
176
     0
 40
1.0
176
     0
 90
        0
176
     0
 62
    18
420
        0
176
     0
 90
       50
176
     0
 90
        3
176
     0
 62
     5
420
      255
176
     0
290
     0
176
     0
 90
       50
176
     0
 90
       50
176
     0
 90
       50
176
     0
290
     0
176
     0
 90
       50
176
     0
 62
   256
176
     0
 40
1.0
176
     0
 90
        2
176
     0
  1
strokes_ogs.tif
176
     0
290
     0
176
     0
 40
1.0
176
     0
 40
1.0
176
     0
  0
VISUALSTYLE
  5
33
102
{ACAD_REACTORS
330
2A
102
}
330
2A
100
AcDbVisualStyle
  2
Realistic
 70
     8
177
     3
291
     0
 70
    58
 90
        2
176
     1
 90
        3
176
     1
 90
        0
176
     1
 90
        2
176
     1
 40
0.6
176
     1
 40
30.0
176
     1
 62
     7
420
 16777215
176
     1
 90
        0
176
     1
 90
        0
176
     1
 62
     7
176
     1
 62
   257
176
     1
 90
        1
176
     1
 90
        1
176
     1
 40
1.0
176
     1
 90
        8
176
     1
 62
   257
176
     1
 40
1.0
176
     1
 90
        1
176
     1
 90
        6
176
     1
 90
        2
176
     1
 62
     7
176
     1
 90
        3
176
     1
 90
        0
176
     1
 90
        0
176
     1
290
     0
176
     1
 90
       13
176
     1
 40
0.0
176
     1
 90
        0
176
     1
290
     0
176
     1
290
     1
176
     1
290
     1
176
     1
290
     0
176
     1
290
     0
176
     1
290
     0
176
     1
290
     0
176
     1
290
     0
176
     1
290
     0
176
     1
 90
       50
176
     1
 40
0.0
176
     1
 40
1.0
176
     1
 90
        0
176
     1
 62
    18
420
        0
176
     1
 90
       50
176
     1
 90
        3
176
     1
 62
     5
420
      255
176
     1
290
     0
176
     1
 90
       50
176
     1
 90
       50
176
     1
 90
       50
176
     1
290
     0
176
     1
 90
       50
176
     1
 62
   256
176
     0
 40
1.0
176
     0
 90
        2
176
     1
  1
strokes_ogs.tif
176
     1
290
     0
176
     1
 40
1.0
176
     1
 40
1.0
176
     1
  0
VISUALSTYLE
  5
42
102
{ACAD_REACTORS
330
2A
102
}
330
2A
100
AcDbVisualStyle
  2
Shaded
 70
    27
177
     3
291
     0
 70
    58
 90
        2
176
     1
 90
        2
176
     1
 90
        1
176
     1
 90
        2
176
     1
 40
0.6
176
     1
 40
30.0
176
     1
 62
     7
420
 16777215
176
     1
 90
        0
176
     1
 90
        4
176
     1
 62
     7
176
     1
 62
   257
176
     1
 90
        1
176
     1
 90
        1
176
     1
 40
1.0
176
     1
 90
        8
176
     1
 62
   257
176
     1
 40
1.0
176
     1
 90
        1
176
     1
 90
        6
176
     1
 90
        2
176
     1
 62
     8
420
  7895160
176
     1
 90
        3
176
     1
 90
        0
176
     1
 90
        0
176
     1
290
     0
176
     1
 90
        5
176
     1
 40
0.0
176
     1
 90
        0
176
     1
290
     0
176
     1
290
     1
176
     1
290
     1
176
     1
290
     0
176
     1
290
     0
176
     1
290
     0
176
     1
290
     0
176
     1
290
     0
176
     1
290
     0
176
     1
 90
       50
176
     1
 40
0.0
176
     1
 40
1.0
176
     1
 90
        0
176
     1
 62
    18
420
        0
176
     1
 90
       50
176
     1
 90
        3
176
     1
 62
     5
420
      255
176
     1
290
     0
176
     1
 90
       50
176
     1
 90
       50
176
     1
 90
       50
176
     1
290
     0
176
     1
 90
       50
176
     1
 62
   256
176
     0
 40
1.0
176
     0
 90
        2
176
     1
  1
strokes_ogs.tif
176
     1
290
     0
176
     1
 40
1.0
176
     1
 40
1.0
176
     1
  0
VISUALSTYLE
  5
41
102
{ACAD_REACTORS
330
2A
102
}
330
2A
100
AcDbVisualStyle
  2
Shaded with edges
 70
    26
177
     3
291
     0
 70
    58
 90
        2
176
     1
 90
        2
176
     1
 90
        1
176
     1
 90
        2
176
     1
 40
0.6
176
     1
 40
30.0
176
     1
 62
     7
420
 16777215
176
     1
 90
        1
176
     1
 90
       10
176
     1
 62
     7
176
     1
 62
   257
176
     1
 90
        2
176
     1
 90
        1
176
     1
 40
1.0
176
     1
 90
        8
176
     1
 62
   257
176
     1
 40
1.0
176
     1
 90
        1
176
     1
 90
        6
176
     1
 90
        2
176
     1
 62
     7
176
     1
 90
        3
176
     1
 90
        0
176
     1
 90
        0
176
     1
290
     0
176
     1
 90
        5
176
     1
 40
0.0
176
     1
 90
        0
176
     1
290
     0
176
     1
290
     1
176
     1
290
     1
176
     1
290
     0
176
     1
290
     0
176
     1
290
     0
176
     1
290
     0
176
     1
290
     0
176
     1
290
     0
176
     1
 90
       50
176
     1
 40
0.0
176
     1
 40
1.0
176
     1
 90
        0
176
     1
 62
    18
420
        0
176
     1
 90
       50
176
     1
 90
        3
176
     1
 62
     5
420
      255
176
     1
290
     0
176
     1
 90
       50
176
     1
 90
       50
176
     1
 90
       50
176
     1
290
     0
176
     1
 90
       50
176
     1
 62
   256
176
     0
 40
1.0
176
     0
 90
        2
176
     1
  1
strokes_ogs.tif
176
     1
290
     0
176
     1
 40
1.0
176
     1
 40
1.0
176
     1
  0
VISUALSTYLE
  5
3E
102
{ACAD_REACTORS
330
2A
102
}
330
2A
100
AcDbVisualStyle
  2
Shades of Gray
 70
    23
177
     3
291
     0
 70
    58
 90
        2
176
     1
 90
        2
176
     1
 90
        3
176
     1
 90
        0
176
     1
 40
0.6
176
     1
 40
30.0
176
     1
 62
     7
420
 16777215
176
     1
 90
        2
176
     1
 90
        2
176
     1
 62
     7
176
     1
 62
     7
176
     1
 90
        1
176
     1
 90
        1
176
     1
 40
40.0
176
     1
 90
        8
176
     1
 62
     7
176
     1
 40
1.0
176
     1
 90
        1
176
     1
 90
        6
176
     1
 90
        2
176
     1
 62
     7
176
     1
 90
        3
176
     1
 90
        0
176
     1
 90
        0
176
     1
290
     0
176
     1
 90
        1
176
     1
 40
0.0
176
     1
 90
        0
176
     1
290
     0
176
     1
290
     1
176
     1
290
     1
176
     1
290
     0
176
     1
290
     0
176
     1
290
     0
176
     1
290
     0
176
     1
290
     0
176
     1
290
     0
176
     1
 90
       50
176
     1
 40
0.0
176
     1
 40
1.0
176
     1
 90
        0
176
     1
 62
    18
420
        0
176
     1
 90
       50
176
     1
 90
        3
176
     1
 62
     5
420
      255
176
     1
290
     0
176
     1
 90
       50
176
     1
 90
       50
176
     1
 90
       50
176
     1
290
     0
176
     1
 90
       50
176
     1
 62
   256
176
     0
 40
1.0
176
     0
 90
        2
176
     1
  1
strokes_ogs.tif
176
     1
290
     0
176
     1
 40
1.0
176
     1
 40
1.0
176
     1
  0
VISUALSTYLE
  5
3F
102
{ACAD_REACTORS
330
2A
102
}
330
2A
100
AcDbVisualStyle
  2
Sketchy
 70
    24
177
     3
291
     0
 70
    58
 90
        1
176
     1
 90
        2
176
     1
 90
        2
176
     1
 90
        0
176
     1
 40
0.6
176
     1
 40
30.0
176
     1
 62
     7
420
 16777215
176
     1
 90
        2
176
     1
 90
        2
176
     1
 62
     7
176
     1
 62
     7
176
     1
 90
        1
176
     1
 90
        1
176
     1
 40
40.0
176
     1
 90
       11
176
     1
 62
     7
176
     1
 40
1.0
176
     1
 90
        1
176
     1
 90
        6
176
     1
 90
        2
176
     1
 62
     7
176
     1
 90
        6
176
     1
 90
        0
176
     1
 90
        0
176
     1
290
     0
176
     1
 90
        1
176
     1
 40
0.0
176
     1
 90
        0
176
     1
290
     0
176
     1
290
     1
176
     1
290
     1
176
     1
290
     0
176
     1
290
     0
176
     1
290
     0
176
     1
290
     0
176
     1
290
     0
176
     1
290
     0
176
     1
 90
       50
176
     1
 40
0.0
176
     1
 40
1.0
176
     1
 90
        0
176
     1
 62
    18
420
        0
176
     1
 90
       50
176
     1
 90
        3
176
     1
 62
     5
420
      255
176
     1
290
     0
176
     1
 90
       50
176
     1
 90
       50
176
     1
 90
       50
176
     1
290
     0
176
     1
 90
       50
176
     1
 62
   256
176
     0
 40
1.0
176
     0
 90
        2
176
     1
  1
strokes_ogs.tif
176
     1
290
     0
176
     1
 40
1.0
176
     1
 40
1.0
176
     1
  0
VISUALSTYLE
  5
37
102
{ACAD_REACTORS
330
2A
102
}
330
2A
100
AcDbVisualStyle
  2
Thicken
 70
    13
177
     3
291
     1
 70
    58
 90
        2
176
     1
 90
        2
176
     1
 90
        0
176
     1
 90
        0
176
     1
 40
0.6
176
     1
 40
30.0
176
     1
 62
     7
420
 16777215
176
     1
 90
        1
176
     1
 90
        4
176
     1
 62
     7
176
     1
 62
   257
176
     1
 90
        1
176
     1
 90
        1
176
     1
 40
1.0
176
     1
 90
       12
176
     1
 62
     7
176
     1
 40
1.0
176
     1
 90
        1
176
     1
 90
        6
176
     1
 90
        2
176
     1
 62
     7
176
     1
 90
        5
176
     1
 90
        0
176
     1
 90
        0
176
     1
290
     0
176
     1
 90
        1
176
     1
 40
0.0
176
     1
 90
        0
176
     1
290
     0
176
     1
290
     1
176
     1
290
     1
176
     1
290
     0
176
     1
290
     0
176
     1
290
     0
176
     1
290
     0
176
     1
290
     0
176
     1
290
     0
176
     1
 90
       50
176
     1
 40
0.0
176
     1
 40
1.0
176
     1
 90
        0
176
     1
 62
    18
420
        0
176
     1
 90
       50
176
     1
 90
        3
176
     1
 62
     5
420
      255
176
     1
290
     0
176
     1
 90
       50
176
     1
 90
       50
176
     1
 90
       50
176
     1
290
     0
176
     1
 90
       50
176
     1
 62
   256
176
     0
 40
1.0
176
     0
 90
        2
176
     1
  1
strokes_ogs.tif
176
     1
290
     0
176
     1
 40
1.0
176
     1
 40
1.0
176
     1
  0
VISUALSTYLE
  5
30
102
{ACAD_REACTORS
330
2A
102
}
330
2A
100
AcDbVisualStyle
  2
Wireframe
 70
     5
177
     3
291
     0
 70
    58
 90
        0
176
     1
 90
        2
176
     1
 90
        0
176
     1
 90
        0
176
     1
 40
0.6
176
     1
 40
30.0
176
     1
 62
     7
420
 16777215
176
     1
 90
        1
176
     1
 90
        4
176
     1
 62
     7
176
     1
 62
   257
176
     1
 90
        1
176
     1
 90
        1
176
     1
 40
1.0
176
     1
 90
        0
176
     1
 62
   257
176
     1
 40
1.0
176
     1
 90
        1
176
     1
 90
        6
176
     1
 90
        2
176
     1
 62
     7
176
     1
 90
        3
176
     1
 90
        0
176
     1
 90
        0
176
     1
290
     0
176
     1
 90
        1
176
     1
 40
0.0
176
     1
 90
        0
176
     1
290
     0
176
     1
290
     1
176
     1
290
     1
176
     1
290
     0
176
     1
290
     0
176
     1
290
     0
176
     1
290
     0
176
     1
290
     0
176
     1
290
     0
176
     1
 90
       50
176
     1
 40
0.0
176
     1
 40
1.0
176
     1
 90
        0
176
     1
 62
    18
420
        0
176
     1
 90
       50
176
     1
 90
        3
176
     1
 62
     5
420
      255
176
     1
290
     0
176
     1
 90
       50
176
     1
 90
       50
176
     1
 90
       50
176
     1
290
     0
176
     1
 90
       50
176
     1
 62
   256
176
     0
 40
1.0
176
     0
 90
        2
176
     1
  1
strokes_ogs.tif
176
     1
290
     0
176
     1
 40
1.0
176
     1
 40
1.0
176
     1
  0
VISUALSTYLE
  5
40
102
{ACAD_REACTORS
330
2A
102
}
330
2A
100
AcDbVisualStyle
  2
X-Ray
 70
    25
177
     3
291
     0
 70
    58
 90
        2
176
     1
 90
        2
176
     1
 90
        1
176
     1
 90
        1
176
     1
 40
0.5
176
     1
 40
30.0
176
     1
 62
     7
420
 16777215
176
     1
 90
        1
176
     1
 90
        0
176
     1
 62
     7
176
     1
 62
   257
176
     1
 90
        1
176
     1
 90
        1
176
     1
 40
1.0
176
     1
 90
        8
176
     1
 62
     7
176
     1
 40
1.0
176
     1
 90
        1
176
     1
 90
        6
176
     1
 90
        2
176
     1
 62
     7
176
     1
 90
        3
176
     1
 90
        0
176
     1
 90
        0
176
     1
290
     0
176
     1
 90
       13
176
     1
 40
0.0
176
     1
 90
        0
176
     1
290
     0
176
     1
290
     1
176
     1
290
     1
176
     1
290
     0
176
     1
290
     0
176
     1
290
     0
176
     1
290
     0
176
     1
290
     0
176
     1
290
     0
176
     1
 90
       50
176
     1
 40
0.0
176
     1
 40
1.0
176
     1
 90
        0
176
     1
 62
    18
420
        0
176
     1
 90
       50
176
     1
 90
        3
176
     1
 62
     5
420
      255
176
     1
290
     0
176
     1
 90
       50
176
     1
 90
       50
176
     1
 90
       50
176
     1
290
     0
176
     1
 90
       50
176
     1
 62
   256
176
     0
 40
1.0
176
     0
 90
        2
176
     1
  1
strokes_ogs.tif
176
     1
290
     0
176
     1
 40
1.0
176
     1
 40
1.0
176
     1
  0
DICTIONARYVAR
  5
1E0
102
{ACAD_REACTORS
330
1DF
102
}
330
1DF
100
DictionaryVariables
280
     0
  1
1:1
  0
DICTIONARYVAR
  5
1E5
102
{ACAD_REACTORS
330
1DF
102
}
330
1DF
100
DictionaryVariables
280
     0
  1
Standard
  0
DICTIONARYVAR
  5
1E4
102
{ACAD_REACTORS
330
1DF
102
}
330
1DF
100
DictionaryVariables
280
     0
  1
Standard
  0
DICTIONARY
  5
1E1
330
6A
100
AcDbDictionary
280
     1
281
     1
  3
ACAD_ROUNDTRIP_2008_TABLESTYLE_CELLSTYLEMAP
360
1E2
  0
CELLSTYLEMAP
  5
1E2
102
{ACAD_REACTORS
330
1E1
102
}
330
1E1
100
AcDbCellStyleMap
 90
        3
300
CELLSTYLE
  1
TABLEFORMAT_BEGIN
 90
        5
170
     1
 91
        0
 92
    32768
 62
   257
 93
        1
300
CONTENTFORMAT
  1
CONTENTFORMAT_BEGIN
 90
        0
 91
        0
 92
        4
 93
        0
300

 40
0.0
140
1.0
 94
        5
 62
     0
340
11
144
0.25
309
CONTENTFORMAT_END
171
     1
301
MARGIN
  1
CELLMARGIN_BEGIN
 40
0.06
 40
0.06
 40
0.06
 40
0.06
 40
0.06
 40
0.06
309
CELLMARGIN_END
 94
        6
 95
        1
302
GRIDFORMAT
  1
GRIDFORMAT_BEGIN
 90
        0
 91
        1
 62
     0
 92
       -2
340
14
 93
        0
 40
0.045
309
GRIDFORMAT_END
 95
        2
302
GRIDFORMAT
  1
GRIDFORMAT_BEGIN
 90
        0
 91
        1
 62
     0
 92
       -2
340
14
 93
        0
 40
0.045
309
GRIDFORMAT_END
 95
        4
302
GRIDFORMAT
  1
GRIDFORMAT_BEGIN
 90
        0
 91
        1
 62
     0
 92
       -2
340
14
 93
        0
 40
0.045
309
GRIDFORMAT_END
 95
        8
302
GRIDFORMAT
  1
GRIDFORMAT_BEGIN
 90
        0
 91
        1
 62
     0
 92
       -2
340
14
 93
        0
 40
0.045
309
GRIDFORMAT_END
 95
       16
302
GRIDFORMAT
  1
GRIDFORMAT_BEGIN
 90
        0
 91
        1
 62
     0
 92
       -2
340
14
 93
        0
 40
0.045
309
GRIDFORMAT_END
 95
       32
302
GRIDFORMAT
  1
GRIDFORMAT_BEGIN
 90
        0
 91
        1
 62
     0
 92
       -2
340
14
 93
        0
 40
0.045
309
GRIDFORMAT_END
309
TABLEFORMAT_END
  1
CELLSTYLE_BEGIN
 90
        1
 91
        1
300
_TITLE
309
CELLSTYLE_END
300
CELLSTYLE
  1
TABLEFORMAT_BEGIN
 90
        5
170
     1
 91
        0
 92
        0
 62
   257
 93
        1
300
CONTENTFORMAT
  1
CONTENTFORMAT_BEGIN
 90
        0
 91
        0
 92
        4
 93
        0
300

 40
0.0
140
1.0
 94
        5
 62
     0
340
11
144
0.18
309
CONTENTFORMAT_END
171
     1
301
MARGIN
  1
CELLMARGIN_BEGIN
 40
0.06
 40
0.06
 40
0.06
 40
0.06
 40
0.06
 40
0.06
309
CELLMARGIN_END
 94
        6
 95
        1
302
GRIDFORMAT
  1
GRIDFORMAT_BEGIN
 90
        0
 91
        1
 62
     0
 92
       -2
340
14
 93
        0
 40
0.045
309
GRIDFORMAT_END
 95
        2
302
GRIDFORMAT
  1
GRIDFORMAT_BEGIN
 90
        0
 91
        1
 62
     0
 92
       -2
340
14
 93
        0
 40
0.045
309
GRIDFORMAT_END
 95
        4
302
GRIDFORMAT
  1
GRIDFORMAT_BEGIN
 90
        0
 91
        1
 62
     0
 92
       -2
340
14
 93
        0
 40
0.045
309
GRIDFORMAT_END
 95
        8
302
GRIDFORMAT
  1
GRIDFORMAT_BEGIN
 90
        0
 91
        1
 62
     0
 92
       -2
340
14
 93
        0
 40
0.045
309
GRIDFORMAT_END
 95
       16
302
GRIDFORMAT
  1
GRIDFORMAT_BEGIN
 90
        0
 91
        1
 62
     0
 92
       -2
340
14
 93
        0
 40
0.045
309
GRIDFORMAT_END
 95
       32
302
GRIDFORMAT
  1
GRIDFORMAT_BEGIN
 90
        0
 91
        1
 62
     0
 92
       -2
340
14
 93
        0
 40
0.045
309
GRIDFORMAT_END
309
TABLEFORMAT_END
  1
CELLSTYLE_BEGIN
 90
        2
 91
        1
300
_HEADER
309
CELLSTYLE_END
300
CELLSTYLE
  1
TABLEFORMAT_BEGIN
 90
        5
170
     1
 91
        0
 92
        0
 62
   257
 93
        1
300
CONTENTFORMAT
  1
CONTENTFORMAT_BEGIN
 90
        0
 91
        0
 92
        4
 93
        0
300

 40
0.0
140
1.0
 94
        2
 62
     0
340
11
144
0.18
309
CONTENTFORMAT_END
171
     1
301
MARGIN
  1
CELLMARGIN_BEGIN
 40
0.06
 40
0.06
 40
0.06
 40
0.06
 40
0.06
 40
0.06
309
CELLMARGIN_END
 94
        6
 95
        1
302
GRIDFORMAT
  1
GRIDFORMAT_BEGIN
 90
        0
 91
        1
 62
     0
 92
       -2
340
14
 93
        0
 40
0.045
309
GRIDFORMAT_END
 95
        2
302
GRIDFORMAT
  1
GRIDFORMAT_BEGIN
 90
        0
 91
        1
 62
     0
 92
       -2
340
14
 93
        0
 40
0.045
309
GRIDFORMAT_END
 95
        4
302
GRIDFORMAT
  1
GRIDFORMAT_BEGIN
 90
        0
 91
        1
 62
     0
 92
       -2
340
14
 93
        0
 40
0.045
309
GRIDFORMAT_END
 95
        8
302
GRIDFORMAT
  1
GRIDFORMAT_BEGIN
 90
        0
 91
        1
 62
     0
 92
       -2
340
14
 93
        0
 40
0.045
309
GRIDFORMAT_END
 95
       16
302
GRIDFORMAT
  1
GRIDFORMAT_BEGIN
 90
        0
 91
        1
 62
     0
 92
       -2
340
14
 93
        0
 40
0.045
309
GRIDFORMAT_END
 95
       32
302
GRIDFORMAT
  1
GRIDFORMAT_BEGIN
 90
        0
 91
        1
 62
     0
 92
       -2
340
14
 93
        0
 40
0.045
309
GRIDFORMAT_END
309
TABLEFORMAT_END
  1
CELLSTYLE_BEGIN
 90
        3
 91
        2
300
_DATA
309
CELLSTYLE_END
  0
ENDSEC
  0
EOF