0
SECTION
  2
HEADER
  9
$ACADVER
  1
AC1027
  9
$ACADMAINTVER
 70
     8
  9
$DWGCODEPAGE
  3
ANSI_1252
  9
$REQUIREDVERSIONS
160
                 0
  9
$COMMENTS
  1
File was created by Cadenas
  9
$CUSTOMPROPERTYTAG
  1
NN
  9
$CUSTOMPROPERTY
  1
Eccentric Collar Wide Slot Take Up Inch Bore
  9
$CUSTOMPROPERTYTAG
  1
NT
  9
$CUSTOMPROPERTY
  1
SXR Normal Duty Wide Slot Take-Up Bearings
  9
$CUSTOMPROPERTYTAG
  1
NB
  9
$CUSTOMPROPERTY
  1
131230
  9
$CUSTOMPROPERTYTAG
  1
NBSYN
  9
$CUSTOMPROPERTY
  1
$PN.
  9
$CUSTOMPROPERTYTAG
  1
LINA
  9
$CUSTOMPROPERTY
  1
131230
  9
$CUSTOMPROPERTYTAG
  1
SERIES
  9
$CUSTOMPROPERTY
  1
211
  9
$CUSTOMPROPERTYTAG
  1
SS
  9
$CUSTOMPROPERTY
  1
2-3/16
  9
$CUSTOMPROPERTYTAG
  1
PN
  9
$CUSTOMPROPERTY
  1
131230
  9
$CUSTOMPROPERTYTAG
  1
DESCRIPTION
  9
$CUSTOMPROPERTY
  1
WSTU-SXR-203
  9
$CUSTOMPROPERTYTAG
  1
LF
  9
$CUSTOMPROPERTY
  1
RE-LUBE
  9
$CUSTOMPROPERTYTAG
  1
W
  9
$CUSTOMPROPERTY
  1
10.0
  9
$CUSTOMPROPERTYTAG
  1
FS
  9
$CUSTOMPROPERTY
  1
WS502
  9
$CUSTOMPROPERTYTAG
  1
A
  9
$CUSTOMPROPERTY
  1
2.59
  9
$CUSTOMPROPERTYTAG
  1
B
  9
$CUSTOMPROPERTY
  1
6.69
  9
$CUSTOMPROPERTYTAG
  1
C
  9
$CUSTOMPROPERTY
  1
1.063
  9
$CUSTOMPROPERTYTAG
  1
D
  9
$CUSTOMPROPERTY
  1
3.75
  9
$CUSTOMPROPERTYTAG
  1
E
  9
$CUSTOMPROPERTY
  1
4.19
  9
$CUSTOMPROPERTYTAG
  1
F
  9
$CUSTOMPROPERTY
  1
1-1/4
  9
$CUSTOMPROPERTYTAG
  1
G
  9
$CUSTOMPROPERTY
  1
0.75
  9
$CUSTOMPROPERTYTAG
  1
H
  9
$CUSTOMPROPERTY
  1
1.00
  9
$CUSTOMPROPERTYTAG
  1
J
  9
$CUSTOMPROPERTY
  1
4.00
  9
$CUSTOMPROPERTYTAG
  1
K
  9
$CUSTOMPROPERTY
  1
2.50
  9
$CUSTOMPROPERTYTAG
  1
L
  9
$CUSTOMPROPERTY
  1
3.00
  9
$CUSTOMPROPERTYTAG
  1
M
  9
$CUSTOMPROPERTY
  1
5.110/5.140
  9
$CUSTOMPROPERTYTAG
  1
N
  9
$CUSTOMPROPERTY
  1
5.88
  9
$CUSTOMPROPERTYTAG
  1
R
  9
$CUSTOMPROPERTY
  1
0.88
  9
$CUSTOMPROPERTYTAG
  1
S
  9
$CUSTOMPROPERTY
  1
1.71
  9
$CUSTOMPROPERTYTAG
  1
T
  9
$CUSTOMPROPERTY
  1
2.50
  9
$CUSTOMPROPERTYTAG
  1
COMPANY
  9
$CUSTOMPROPERTY
  1
baldor
  9
$INSBASE
 10
0.0
 20
0.0
 30
0.0
  9
$EXTMIN
 10
1.000000000000000E+20
 20
1.000000000000000E+20
 30
1.000000000000000E+20
  9
$EXTMAX
 10
-1.000000000000000E+20
 20
-1.000000000000000E+20
 30
-1.000000000000000E+20
  9
$LIMMIN
 10
0.0
 20
0.0
  9
$LIMMAX
 10
12.0
 20
9.0
  9
$ORTHOMODE
 70
     0
  9
$REGENMODE
 70
     1
  9
$FILLMODE
 70
     1
  9
$QTEXTMODE
 70
     0
  9
$MIRRTEXT
 70
     1
  9
$LTSCALE
 40
1.0
  9
$ATTMODE
 70
     1
  9
$TEXTSIZE
 40
0.2
  9
$TRACEWID
 40
0.05
  9
$TEXTSTYLE
  7
Standard
  9
$CLAYER
  8
0
  9
$CELTYPE
  6
ByLayer
  9
$CECOLOR
 62
   256
  9
$CELTSCALE
 40
1.0
  9
$DISPSILH
 70
     0
  9
$DIMSCALE
 40
1.0
  9
$DIMASZ
 40
0.18
  9
$DIMEXO
 40
0.0625
  9
$DIMDLI
 40
0.38
  9
$DIMRND
 40
0.0
  9
$DIMDLE
 40
0.0
  9
$DIMEXE
 40
0.18
  9
$DIMTP
 40
0.0
  9
$DIMTM
 40
0.0
  9
$DIMTXT
 40
0.18
  9
$DIMCEN
 40
0.09
  9
$DIMTSZ
 40
0.0
  9
$DIMTOL
 70
     0
  9
$DIMLIM
 70
     0
  9
$DIMTIH
 70
     1
  9
$DIMTOH
 70
     1
  9
$DIMSE1
 70
     0
  9
$DIMSE2
 70
     0
  9
$DIMTAD
 70
     0
  9
$DIMZIN
 70
     0
  9
$DIMBLK
  1

  9
$DIMASO
 70
     1
  9
$DIMSHO
 70
     1
  9
$DIMPOST
  1

  9
$DIMAPOST
  1

  9
$DIMALT
 70
     0
  9
$DIMALTD
 70
     2
  9
$DIMALTF
 40
25.4
  9
$DIMLFAC
 40
1.0
  9
$DIMTOFL
 70
     0
  9
$DIMTVP
 40
0.0
  9
$DIMTIX
 70
     0
  9
$DIMSOXD
 70
     0
  9
$DIMSAH
 70
     0
  9
$DIMBLK1
  1

  9
$DIMBLK2
  1

  9
$DIMSTYLE
  2
Standard
  9
$DIMCLRD
 70
     0
  9
$DIMCLRE
 70
     0
  9
$DIMCLRT
 70
     0
  9
$DIMTFAC
 40
1.0
  9
$DIMGAP
 40
0.09
  9
$DIMJUST
 70
     0
  9
$DIMSD1
 70
     0
  9
$DIMSD2
 70
     0
  9
$DIMTOLJ
 70
     1
  9
$DIMTZIN
 70
     0
  9
$DIMALTZ
 70
     0
  9
$DIMALTTZ
 70
     0
  9
$DIMUPT
 70
     0
  9
$DIMDEC
 70
     4
  9
$DIMTDEC
 70
     4
  9
$DIMALTU
 70
     2
  9
$DIMALTTD
 70
     2
  9
$DIMTXSTY
  7
Standard
  9
$DIMAUNIT
 70
     0
  9
$DIMADEC
 70
     0
  9
$DIMALTRND
 40
0.0
  9
$DIMAZIN
 70
     0
  9
$DIMDSEP
 70
    46
  9
$DIMATFIT
 70
     3
  9
$DIMFRAC
 70
     0
  9
$DIMLDRBLK
  1

  9
$DIMLUNIT
 70
     2
  9
$DIMLWD
 70
    -2
  9
$DIMLWE
 70
    -2
  9
$DIMTMOVE
 70
     0
  9
$DIMFXL
 40
1.0
  9
$DIMFXLON
 70
     0
  9
$DIMJOGANG
 40
0.7853981633974483
  9
$DIMTFILL
 70
     0
  9
$DIMTFILLCLR
 70
     0
  9
$DIMARCSYM
 70
     0
  9
$DIMLTYPE
  6

  9
$DIMLTEX1
  6

  9
$DIMLTEX2
  6

  9
$DIMTXTDIRECTION
 70
     0
  9
$LUNITS
 70
     2
  9
$LUPREC
 70
     4
  9
$SKETCHINC
 40
0.1
  9
$FILLETRAD
 40
0.5
  9
$AUNITS
 70
     0
  9
$AUPREC
 70
     0
  9
$MENU
  1
.
  9
$ELEVATION
 40
0.0
  9
$PELEVATION
 40
0.0
  9
$THICKNESS
 40
0.0
  9
$LIMCHECK
 70
     0
  9
$CHAMFERA
 40
0.0
  9
$CHAMFERB
 40
0.0
  9
$CHAMFERC
 40
0.0
  9
$CHAMFERD
 40
0.0
  9
$SKPOLY
 70
     0
  9
$TDCREATE
 40
2458168.980133854
  9
$TDUCREATE
 40
2458168.938467187
  9
$TDUPDATE
 40
2458168.980134039
  9
$TDUUPDATE
 40
2458168.938467373
  9
$TDINDWG
 40
0.0000000116
  9
$TDUSRTIMER
 40
0.0000000116
  9
$USRTIMER
 70
     1
  9
$ANGBASE
 50
0.0
  9
$ANGDIR
 70
     0
  9
$PDMODE
 70
     0
  9
$PDSIZE
 40
0.0
  9
$PLINEWID
 40
0.0
  9
$SPLFRAME
 70
     0
  9
$SPLINETYPE
 70
     6
  9
$SPLINESEGS
 70
     8
  9
$HANDSEED
  5
204
  9
$SURFTAB1
 70
     6
  9
$SURFTAB2
 70
     6
  9
$SURFTYPE
 70
     6
  9
$SURFU
 70
     6
  9
$SURFV
 70
     6
  9
$UCSBASE
  2

  9
$UCSNAME
  2

  9
$UCSORG
 10
0.0
 20
0.0
 30
0.0
  9
$UCSXDIR
 10
1.0
 20
0.0
 30
0.0
  9
$UCSYDIR
 10
0.0
 20
1.0
 30
0.0
  9
$UCSORTHOREF
  2

  9
$UCSORTHOVIEW
 70
     0
  9
$UCSORGTOP
 10
0.0
 20
0.0
 30
0.0
  9
$UCSORGBOTTOM
 10
0.0
 20
0.0
 30
0.0
  9
$UCSORGLEFT
 10
0.0
 20
0.0
 30
0.0
  9
$UCSORGRIGHT
 10
0.0
 20
0.0
 30
0.0
  9
$UCSORGFRONT
 10
0.0
 20
0.0
 30
0.0
  9
$UCSORGBACK
 10
0.0
 20
0.0
 30
0.0
  9
$PUCSBASE
  2

  9
$PUCSNAME
  2

  9
$PUCSORG
 10
0.0
 20
0.0
 30
0.0
  9
$PUCSXDIR
 10
1.0
 20
0.0
 30
0.0
  9
$PUCSYDIR
 10
0.0
 20
1.0
 30
0.0
  9
$PUCSORTHOREF
  2

  9
$PUCSORTHOVIEW
 70
     0
  9
$PUCSORGTOP
 10
0.0
 20
0.0
 30
0.0
  9
$PUCSORGBOTTOM
 10
0.0
 20
0.0
 30
0.0
  9
$PUCSORGLEFT
 10
0.0
 20
0.0
 30
0.0
  9
$PUCSORGRIGHT
 10
0.0
 20
0.0
 30
0.0
  9
$PUCSORGFRONT
 10
0.0
 20
0.0
 30
0.0
  9
$PUCSORGBACK
 10
0.0
 20
0.0
 30
0.0
  9
$USERI1
 70
     0
  9
$USERI2
 70
     0
  9
$USERI3
 70
     0
  9
$USERI4
 70
     0
  9
$USERI5
 70
     0
  9
$USERR1
 40
0.0
  9
$USERR2
 40
0.0
  9
$USERR3
 40
0.0
  9
$USERR4
 40
0.0
  9
$USERR5
 40
0.0
  9
$WORLDVIEW
 70
     1
  9
$SHADEDGE
 70
     3
  9
$SHADEDIF
 70
    70
  9
$TILEMODE
 70
     1
  9
$MAXACTVP
 70
    64
  9
$PINSBASE
 10
0.0
 20
0.0
 30
0.0
  9
$PLIMCHECK
 70
     0
  9
$PEXTMIN
 10
1.000000000000000E+20
 20
1.000000000000000E+20
 30
1.000000000000000E+20
  9
$PEXTMAX
 10
-1.000000000000000E+20
 20
-1.000000000000000E+20
 30
-1.000000000000000E+20
  9
$PLIMMIN
 10
0.0
 20
0.0
  9
$PLIMMAX
 10
12.0
 20
9.0
  9
$UNITMODE
 70
     0
  9
$VISRETAIN
 70
     1
  9
$PLINEGEN
 70
     0
  9
$PSLTSCALE
 70
     1
  9
$TREEDEPTH
 70
  3020
  9
$CMLSTYLE
  2
Standard
  9
$CMLJUST
 70
     0
  9
$CMLSCALE
 40
1.0
  9
$PROXYGRAPHICS
 70
     1
  9
$MEASUREMENT
 70
     0
  9
$CELWEIGHT
370
    -1
  9
$ENDCAPS
280
     0
  9
$JOINSTYLE
280
     0
  9
$LWDISPLAY
290
     0
  9
$INSUNITS
 70
     1
  9
$HYPERLINKBASE
  1

  9
$STYLESHEET
  1

  9
$XEDIT
290
     1
  9
$CEPSNTYPE
380
     0
  9
$PSTYLEMODE
290
     1
  9
$FINGERPRINTGUID
  2
{4D8908F4-AAB9-4799-A03B-E5CFDD541D9A}
  9
$VERSIONGUID
  2
{FAEB1C32-E019-11D5-929B-00C0DF256EC4}
  9
$EXTNAMES
290
     1
  9
$PSVPSCALE
 40
0.0
  9
$OLESTARTUP
290
     0
  9
$SORTENTS
280
   127
  9
$INDEXCTL
280
     0
  9
$HIDETEXT
280
     1
  9
$XCLIPFRAME
280
     2
  9
$HALOGAP
280
     0
  9
$OBSCOLOR
 70
   257
  9
$OBSLTYPE
280
     0
  9
$INTERSECTIONDISPLAY
280
     0
  9
$INTERSECTIONCOLOR
 70
   257
  9
$DIMASSOC
280
     2
  9
$PROJECTNAME
  1

  9
$CAMERADISPLAY
290
     0
  9
$LENSLENGTH
 40
50.0
  9
$CAMERAHEIGHT
 40
0.0
  9
$STEPSPERSEC
 40
2.0
  9
$STEPSIZE
 40
6.0
  9
$3DDWFPREC
 40
2.0
  9
$PSOLWIDTH
 40
0.25
  9
$PSOLHEIGHT
 40
4.0
  9
$LOFTANG1
 40
1.570796326794897
  9
$LOFTANG2
 40
1.570796326794897
  9
$LOFTMAG1
 40
0.0
  9
$LOFTMAG2
 40
0.0
  9
$LOFTPARAM
 70
     7
  9
$LOFTNORMALS
280
     1
  9
$LATITUDE
 40
37.795
  9
$LONGITUDE
 40
-122.394
  9
$NORTHDIRECTION
 40
0.0
  9
$TIMEZONE
 70
 -8000
  9
$LIGHTGLYPHDISPLAY
280
     1
  9
$TILEMODELIGHTSYNCH
280
     1
  9
$CMATERIAL
347
44
  9
$SOLIDHIST
280
     0
  9
$SHOWHIST
280
     1
  9
$DWFFRAME
280
     2
  9
$DGNFRAME
280
     2
  9
$REALWORLDSCALE
290
     1
  9
$INTERFERECOLOR
 62
   256
  9
$CSHADOW
280
     0
  9
$SHADOWPLANELOCATION
 40
0.0
  0
ENDSEC
  0
SECTION
  2
CLASSES
  0
CLASS
  1
ACDBDICTIONARYWDFLT
  2
AcDbDictionaryWithDefault
  3
ObjectDBX Classes
 90
        0
 91
        4
280
     0
281
     0
  0
CLASS
  1
VISUALSTYLE
  2
AcDbVisualStyle
  3
ObjectDBX Classes
 90
     4095
 91
        4
280
     0
281
     0
  0
CLASS
  1
MATERIAL
  2
AcDbMaterial
  3
ObjectDBX Classes
 90
     1153
 91
        4
280
     0
281
     0
  0
CLASS
  1
SCALE
  2
AcDbScale
  3
ObjectDBX Classes
 90
     1153
 91
        4
280
     0
281
     0
  0
CLASS
  1
TABLESTYLE
  2
AcDbTableStyle
  3
ObjectDBX Classes
 90
     4095
 91
        4
280
     0
281
     0
  0
CLASS
  1
MLEADERSTYLE
  2
AcDbMLeaderStyle
  3
ACDB_MLEADERSTYLE_CLASS
 90
     4095
 91
        4
280
     0
281
     0
  0
CLASS
  1
SUN
  2
AcDbSun
  3
SCENEOE
 90
     1153
 91
        4
280
     0
281
     0
  0
CLASS
  1
DICTIONARYVAR
  2
AcDbDictionaryVar
  3
ObjectDBX Classes
 90
        0
 91
        4
280
     0
281
     0
  0
CLASS
  1
CELLSTYLEMAP
  2
AcDbCellStyleMap
  3
ObjectDBX Classes
 90
     1152
 91
        4
280
     0
281
     0
  0
ENDSEC
  0
SECTION
  2
TABLES
  0
TABLE
  2
VPORT
  5
8
330
0
100
AcDbSymbolTable
 70
     1
  0
VPORT
  5
29
330
8
100
AcDbSymbolTableRecord
100
AcDbViewportTableRecord
  2
*Active
 70
     0
 10
0.0
 20
0.0
 11
1.0
 21
1.0
 12
-0.2947499999999987
 22
0.0
 13
0.0
 23
0.0
 14
0.5
 24
0.5
 15
0.5
 25
0.5
 16
0.0
 26
0.0
 36
1.0
 17
0.0
 27
0.0
 37
0.0
 40
5.997599999999999
 41
0.5254251700680275
 42
50.0
 43
0.0
 44
0.0
 50
0.0
 51
0.0
 71
     0
 72
   100
 73
     1
 74
     3
 75
     0
 76
     0
 77
     0
 78
     0
281
     0
 65
     1
110
0.0
120
0.0
130
0.0
111
1.0
121
0.0
131
0.0
112
0.0
122
1.0
132
0.0
 79
     0
146
0.0
348
2F
 60
     3
 61
     5
292
     1
282
     1
141
0.0
142
0.0
 63
   250
361
6D
  0
ENDTAB
  0
TABLE
  2
LTYPE
  5
5
330
0
100
AcDbSymbolTable
 70
     3
  0
LTYPE
  5
14
330
5
100
AcDbSymbolTableRecord
100
AcDbLinetypeTableRecord
  2
ByBlock
 70
     0
  3

 72
    65
 73
     0
 40
0.0
  0
LTYPE
  5
15
330
5
100
AcDbSymbolTableRecord
100
AcDbLinetypeTableRecord
  2
ByLayer
 70
     0
  3

 72
    65
 73
     0
 40
0.0
  0
LTYPE
  5
16
330
5
100
AcDbSymbolTableRecord
100
AcDbLinetypeTableRecord
  2
Continuous
 70
     0
  3
Solid line
 72
    65
 73
     0
 40
0.0
  0
LTYPE
  5
A8
330
5
100
AcDbSymbolTableRecord
100
AcDbLinetypeTableRecord
  2
Dashed
 70
     0
  3

 72
    65
 73
     2
 40
2.0
 49
1.0
 74
     0
 49
-1.0
 74
     0
  0
LTYPE
  5
E4
330
5
100
AcDbSymbolTableRecord
100
AcDbLinetypeTableRecord
  2
Center
 70
     0
  3

 72
    65
 73
     4
 40
1.5
 49
0.45
 74
     0
 49
-0.5
 74
     0
 49
0.05
 74
     0
 49
-0.5
 74
     0
  0
ENDTAB
  0
TABLE
  2
LAYER
  5
2
330
0
100
AcDbSymbolTable
 70
     7
  0
LAYER
  5
10
330
2
100
AcDbSymbolTableRecord
100
AcDbLayerTableRecord
  2
0
 70
     0
 62
     7
  6
Continuous
370
    -3
390
F
347
46
348
0
  0
LAYER
  5
72
330
2
100
AcDbSymbolTableRecord
100
AcDbLayerTableRecord
  2
AM_6
 70
     0
 62
    -2
  6
Continuous
370
    35
390
F
347
46
348
0
  0
LAYER
  5
A9
330
2
100
AcDbSymbolTableRecord
100
AcDbLayerTableRecord
  2
AM_9
 70
     0
 62
     6
  6
Dashed
370
    25
390
F
347
46
348
0
  0
LAYER
  5
E1
330
2
100
AcDbSymbolTableRecord
100
AcDbLayerTableRecord
  2
AM_5
 70
     0
 62
     3
  6
Continuous
370
    25
390
F
347
46
348
0
  0
LAYER
  5
E5
330
2
100
AcDbSymbolTableRecord
100
AcDbLayerTableRecord
  2
AM_7
 70
     0
 62
     7
  6
Center
370
    25
390
F
347
46
348
0
  0
LAYER
  5
E8
330
2
100
AcDbSymbolTableRecord
100
AcDbLayerTableRecord
  2
AM_4
 70
     0
 62
     7
  6
Continuous
370
    50
390
F
347
46
348
0
  0
LAYER
  5
1F7
330
2
100
AcDbSymbolTableRecord
100
AcDbLayerTableRecord
  2
ConnectionPoints
 70
     0
 62
     7
  6
Continuous
370
    50
390
F
347
46
348
0
  0
ENDTAB
  0
TABLE
  2
STYLE
  5
3
330
0
100
AcDbSymbolTable
 70
     1
  0
STYLE
  5
11
330
3
100
AcDbSymbolTableRecord
100
AcDbTextStyleTableRecord
  2
Standard
 70
     0
 40
0.0
 41
1.0
 50
0.0
 71
     0
 42
0.2
  3
txt
  4

  0
ENDTAB
  0
TABLE
  2
VIEW
  5
6
330
0
100
AcDbSymbolTable
 70
     0
  0
ENDTAB
  0
TABLE
  2
UCS
  5
7
330
0
100
AcDbSymbolTable
 70
     0
  0
ENDTAB
  0
TABLE
  2
APPID
  5
9
330
0
100
AcDbSymbolTable
 70
     1
  0
APPID
  5
12
330
9
100
AcDbSymbolTableRecord
100
AcDbRegAppTableRecord
  2
ACAD
 70
     0
  0
ENDTAB
  0
TABLE
  2
DIMSTYLE
  5
A
330
0
100
AcDbSymbolTable
 70
     1
100
AcDbDimStyleTable
  0
DIMSTYLE
105
27
330
A
100
AcDbSymbolTableRecord
100
AcDbDimStyleTableRecord
  2
Standard
 70
     0
178
     0
340
11
  0
ENDTAB
  0
TABLE
  2
BLOCK_RECORD
  5
1
330
0
100
AcDbSymbolTable
 70
     5
  0
BLOCK_RECORD
  5
1F
330
1
100
AcDbSymbolTableRecord
100
AcDbBlockTableRecord
  2
*Model_Space
340
22
 70
     0
280
     1
281
     0
  0
BLOCK_RECORD
  5
1B
330
1
100
AcDbSymbolTableRecord
100
AcDbBlockTableRecord
  2
*Paper_Space
340
1E
 70
     0
280
     1
281
     0
  0
BLOCK_RECORD
  5
23
330
1
100
AcDbSymbolTableRecord
100
AcDbBlockTableRecord
  2
*Paper_Space0
340
26
 70
     0
280
     1
281
     0
  0
BLOCK_RECORD
  5
6E
330
1
100
AcDbSymbolTableRecord
100
AcDbBlockTableRecord
  2
1_131230_2
340
0
102
{BLKREFS
331
6F
102
}
 70
     0
280
     1
281
     0
  0
BLOCK_RECORD
  5
90
330
1
100
AcDbSymbolTableRecord
100
AcDbBlockTableRecord
  2
2_131927_0_in_131230_2
340
0
102
{BLKREFS
331
91
102
}
 70
     0
280
     1
281
     0
  0
BLOCK_RECORD
  5
103
330
1
100
AcDbSymbolTableRecord
100
AcDbBlockTableRecord
  2
3_405016_Inch_0_in_131230_2
340
0
102
{BLKREFS
331
104
102
}
 70
     0
280
     1
281
     0
  0
BLOCK_RECORD
  5
177
330
1
100
AcDbSymbolTableRecord
100
AcDbBlockTableRecord
  2
4_131230H_0_in_131230_2
340
0
102
{BLKREFS
331
178
102
}
 70
     0
280
     1
281
     0
  0
ENDTAB
  0
ENDSEC
  0
SECTION
  2
BLOCKS
  0
BLOCK
  5
20
330
1F
100
AcDbEntity
  8
0
100
AcDbBlockBegin
  2
*Model_Space
 70
     0
 10
0.0
 20
0.0
 30
0.0
  3
*Model_Space
  1

  0
ENDBLK
  5
21
330
1F
100
AcDbEntity
  8
0
100
AcDbBlockEnd
  0
BLOCK
  5
1C
330
1B
100
AcDbEntity
 67
     1
  8
0
100
AcDbBlockBegin
  2
*Paper_Space
 70
     0
 10
0.0
 20
0.0
 30
0.0
  3
*Paper_Space
  1

  0
ENDBLK
  5
1D
330
1B
100
AcDbEntity
 67
     1
  8
0
100
AcDbBlockEnd
  0
BLOCK
  5
24
330
23
100
AcDbEntity
  8
0
100
AcDbBlockBegin
  2
*Paper_Space0
 70
     0
 10
0.0
 20
0.0
 30
0.0
  3
*Paper_Space0
  1

  0
ENDBLK
  5
25
330
23
100
AcDbEntity
  8
0
100
AcDbBlockEnd
  0
BLOCK
  5
70
330
6E
100
AcDbEntity
  8
0
100
AcDbBlockBegin
  2
1_131230_2
 70
     2
 10
0.0
 20
0.0
 30
0.0
  3
1_131230_2
  1

  0
ATTDEF
  5
73
330
6E
100
AcDbEntity
  8
AM_6
100
AcDbText
 10
6.25
 20
2.94
 30
0.0
 40
0.5
  1
Eccentric Collar Wide Slot Take Up Inch Bore
100
AcDbAttributeDefinition
  3

  2
NN
 70
     8
280
     0
  0
ATTDEF
  5
74
330
6E
100
AcDbEntity
  8
AM_6
100
AcDbText
 10
6.25
 20
2.44
 30
0.0
 40
0.5
  1
SXR Normal Duty Wide Slot Take-Up Bearings
100
AcDbAttributeDefinition
  3

  2
NT
 70
     8
280
     0
  0
ATTDEF
  5
75
330
6E
100
AcDbEntity
  8
AM_6
100
AcDbText
 10
6.25
 20
1.94
 30
0.0
 40
0.5
  1
131230
100
AcDbAttributeDefinition
  3

  2
NB
 70
     8
280
     0
  0
ATTDEF
  5
76
330
6E
100
AcDbEntity
  8
AM_6
100
AcDbText
 10
6.25
 20
1.44
 30
0.0
 40
0.5
  1
$PN.
100
AcDbAttributeDefinition
  3

  2
NBSYN
 70
     8
280
     0
  0
ATTDEF
  5
77
330
6E
100
AcDbEntity
  8
AM_6
100
AcDbText
 10
6.25
 20
0.94
 30
0.0
 40
0.5
  1
131230
100
AcDbAttributeDefinition
  3

  2
LINA
 70
     8
280
     0
  0
ATTDEF
  5
78
330
6E
100
AcDbEntity
  8
AM_6
100
AcDbText
 10
6.25
 20
0.4399999999999999
 30
0.0
 40
0.5
  1
211
100
AcDbAttributeDefinition
  3

  2
SERIES
 70
     8
280
     0
  0
ATTDEF
  5
79
330
6E
100
AcDbEntity
  8
AM_6
100
AcDbText
 10
6.25
 20
-0.0600000000000001
 30
0.0
 40
0.5
  1
2-3/16
100
AcDbAttributeDefinition
  3

  2
SS
 70
     8
280
     0
  0
ATTDEF
  5
7A
330
6E
100
AcDbEntity
  8
AM_6
100
AcDbText
 10
6.25
 20
-0.56
 30
0.0
 40
0.5
  1
131230
100
AcDbAttributeDefinition
  3

  2
PN
 70
     8
280
     0
  0
ATTDEF
  5
7B
330
6E
100
AcDbEntity
  8
AM_6
100
AcDbText
 10
6.25
 20
-1.06
 30
0.0
 40
0.5
  1
WSTU-SXR-203
100
AcDbAttributeDefinition
  3

  2
DESCRIPTION
 70
     8
280
     0
  0
ATTDEF
  5
7C
330
6E
100
AcDbEntity
  8
AM_6
100
AcDbText
 10
6.25
 20
-1.56
 30
0.0
 40
0.5
  1
RE-LUBE
100
AcDbAttributeDefinition
  3

  2
LF
 70
     8
280
     0
  0
ATTDEF
  5
7D
330
6E
100
AcDbEntity
  8
AM_6
100
AcDbText
 10
6.25
 20
-2.06
 30
0.0
 40
0.5
  1
10.0
100
AcDbAttributeDefinition
  3

  2
W
 70
     8
280
     0
  0
ATTDEF
  5
7E
330
6E
100
AcDbEntity
  8
AM_6
100
AcDbText
 10
6.25
 20
-2.56
 30
0.0
 40
0.5
  1
WS502
100
AcDbAttributeDefinition
  3

  2
FS
 70
     8
280
     0
  0
ATTDEF
  5
7F
330
6E
100
AcDbEntity
  8
AM_6
100
AcDbText
 10
6.25
 20
-3.06
 30
0.0
 40
0.5
  1
2.59
100
AcDbAttributeDefinition
  3

  2
A
 70
     8
280
     0
  0
ATTDEF
  5
80
330
6E
100
AcDbEntity
  8
AM_6
100
AcDbText
 10
6.25
 20
-3.56
 30
0.0
 40
0.5
  1
6.69
100
AcDbAttributeDefinition
  3

  2
B
 70
     8
280
     0
  0
ATTDEF
  5
81
330
6E
100
AcDbEntity
  8
AM_6
100
AcDbText
 10
6.25
 20
-4.06
 30
0.0
 40
0.5
  1
1.063
100
AcDbAttributeDefinition
  3

  2
C
 70
     8
280
     0
  0
ATTDEF
  5
82
330
6E
100
AcDbEntity
  8
AM_6
100
AcDbText
 10
6.25
 20
-4.56
 30
0.0
 40
0.5
  1
3.75
100
AcDbAttributeDefinition
  3

  2
D
 70
     8
280
     0
  0
ATTDEF
  5
83
330
6E
100
AcDbEntity
  8
AM_6
100
AcDbText
 10
6.25
 20
-5.06
 30
0.0
 40
0.5
  1
4.19
100
AcDbAttributeDefinition
  3

  2
E
 70
     8
280
     0
  0
ATTDEF
  5
84
330
6E
100
AcDbEntity
  8
AM_6
100
AcDbText
 10
6.25
 20
-5.56
 30
0.0
 40
0.5
  1
1-1/4
100
AcDbAttributeDefinition
  3

  2
F
 70
     8
280
     0
  0
ATTDEF
  5
85
330
6E
100
AcDbEntity
  8
AM_6
100
AcDbText
 10
6.25
 20
-6.06
 30
0.0
 40
0.5
  1
0.75
100
AcDbAttributeDefinition
  3

  2
G
 70
     8
280
     0
  0
ATTDEF
  5
86
330
6E
100
AcDbEntity
  8
AM_6
100
AcDbText
 10
6.25
 20
-6.56
 30
0.0
 40
0.5
  1
1.00
100
AcDbAttributeDefinition
  3

  2
H
 70
     8
280
     0
  0
ATTDEF
  5
87
330
6E
100
AcDbEntity
  8
AM_6
100
AcDbText
 10
6.25
 20
-7.06
 30
0.0
 40
0.5
  1
4.00
100
AcDbAttributeDefinition
  3

  2
J
 70
     8
280
     0
  0
ATTDEF
  5
88
330
6E
100
AcDbEntity
  8
AM_6
100
AcDbText
 10
6.25
 20
-7.56
 30
0.0
 40
0.5
  1
2.50
100
AcDbAttributeDefinition
  3

  2
K
 70
     8
280
     0
  0
ATTDEF
  5
89
330
6E
100
AcDbEntity
  8
AM_6
100
AcDbText
 10
6.25
 20
-8.06
 30
0.0
 40
0.5
  1
3.00
100
AcDbAttributeDefinition
  3

  2
L
 70
     8
280
     0
  0
ATTDEF
  5
8A
330
6E
100
AcDbEntity
  8
AM_6
100
AcDbText
 10
6.25
 20
-8.56
 30
0.0
 40
0.5
  1
5.110/5.140
100
AcDbAttributeDefinition
  3

  2
M
 70
     8
280
     0
  0
ATTDEF
  5
8B
330
6E
100
AcDbEntity
  8
AM_6
100
AcDbText
 10
6.25
 20
-9.06
 30
0.0
 40
0.5
  1
5.88
100
AcDbAttributeDefinition
  3

  2
N
 70
     8
280
     0
  0
ATTDEF
  5
8C
330
6E
100
AcDbEntity
  8
AM_6
100
AcDbText
 10
6.25
 20
-9.56
 30
0.0
 40
0.5
  1
0.88
100
AcDbAttributeDefinition
  3

  2
R
 70
     8
280
     0
  0
ATTDEF
  5
8D
330
6E
100
AcDbEntity
  8
AM_6
100
AcDbText
 10
6.25
 20
-10.06
 30
0.0
 40
0.5
  1
1.71
100
AcDbAttributeDefinition
  3

  2
S
 70
     8
280
     0
  0
ATTDEF
  5
8E
330
6E
100
AcDbEntity
  8
AM_6
100
AcDbText
 10
6.25
 20
-10.56
 30
0.0
 40
0.5
  1
2.50
100
AcDbAttributeDefinition
  3

  2
T
 70
     8
280
     0
  0
ATTDEF
  5
8F
330
6E
100
AcDbEntity
  8
AM_6
100
AcDbText
 10
6.25
 20
-11.06
 30
0.0
 40
0.5
  1
baldor
100
AcDbAttributeDefinition
  3

  2
COMPANY
 70
     8
280
     0
  0
INSERT
  5
91
330
6E
100
AcDbEntity
  8
0
100
AcDbBlockReference
  2
2_131927_0_in_131230_2
 10
0.0
 20
0.0
 30
0.0
  0
INSERT
  5
104
330
6E
100
AcDbEntity
  8
0
100
AcDbBlockReference
  2
3_405016_Inch_0_in_131230_2
 10
0.0
 20
0.0
 30
0.0
  0
INSERT
  5
178
330
6E
100
AcDbEntity
  8
0
100
AcDbBlockReference
  2
4_131230H_0_in_131230_2
 10
0.0
 20
0.0
 30
0.0
  0
ENDBLK
  5
71
330
6E
100
AcDbEntity
  8
0
100
AcDbBlockEnd
  0
BLOCK
  5
92
330
90
100
AcDbEntity
  8
0
100
AcDbBlockBegin
  2
2_131927_0_in_131230_2
 70
     2
 10
0.0
 20
0.0
 30
0.0
  3
2_131927_0_in_131230_2
  1

  0
ATTDEF
  5
94
330
90
100
AcDbEntity
  8
AM_6
100
AcDbText
 10
5.88
 20
1.968111460934546
 30
0.0
 40
0.5
  1
Eccentric Collar Insert Inch Bore
100
AcDbAttributeDefinition
  3

  2
NN
 70
     8
280
     0
  0
ATTDEF
  5
95
330
90
100
AcDbEntity
  8
AM_6
100
AcDbText
 10
5.88
 20
1.468111460934546
 30
0.0
 40
0.5
  1
SXR Normal Duty Bearing Inserts
100
AcDbAttributeDefinition
  3

  2
NT
 70
     8
280
     0
  0
ATTDEF
  5
96
330
90
100
AcDbEntity
  8
AM_6
100
AcDbText
 10
5.88
 20
0.9681114609345458
 30
0.0
 40
0.5
  1
131927
100
AcDbAttributeDefinition
  3

  2
NB
 70
     8
280
     0
  0
ATTDEF
  5
97
330
90
100
AcDbEntity
  8
AM_6
100
AcDbText
 10
5.88
 20
0.4681114609345458
 30
0.0
 40
0.5
  1
$PN.
100
AcDbAttributeDefinition
  3

  2
NBSYN
 70
     8
280
     0
  0
ATTDEF
  5
98
330
90
100
AcDbEntity
  8
AM_6
100
AcDbText
 10
5.88
 20
-0.0318885390654542
 30
0.0
 40
0.5
  1
131927
100
AcDbAttributeDefinition
  3

  2
LINA
 70
     8
280
     0
  0
ATTDEF
  5
99
330
90
100
AcDbEntity
  8
AM_6
100
AcDbText
 10
5.88
 20
-0.5318885390654542
 30
0.0
 40
0.5
  1
211
100
AcDbAttributeDefinition
  3

  2
SERIES
 70
     8
280
     0
  0
ATTDEF
  5
9A
330
90
100
AcDbEntity
  8
AM_6
100
AcDbText
 10
5.88
 20
-1.031888539065454
 30
0.0
 40
0.5
  1
2-3/16
100
AcDbAttributeDefinition
  3

  2
SS
 70
     8
280
     0
  0
ATTDEF
  5
9B
330
90
100
AcDbEntity
  8
AM_6
100
AcDbText
 10
5.88
 20
-1.531888539065454
 30
0.0
 40
0.5
  1
131927
100
AcDbAttributeDefinition
  3

  2
PN
 70
     8
280
     0
  0
ATTDEF
  5
9C
330
90
100
AcDbEntity
  8
AM_6
100
AcDbText
 10
5.88
 20
-2.031888539065454
 30
0.0
 40
0.5
  1
INS-SXR-203
100
AcDbAttributeDefinition
  3

  2
DESCRIPTION
 70
     8
280
     0
  0
ATTDEF
  5
9D
330
90
100
AcDbEntity
  8
AM_6
100
AcDbText
 10
5.88
 20
-2.531888539065454
 30
0.0
 40
0.5
  1
2.9
100
AcDbAttributeDefinition
  3

  2
WEIGHT
 70
     8
280
     0
  0
ATTDEF
  5
9E
330
90
100
AcDbEntity
  8
AM_6
100
AcDbText
 10
5.88
 20
-3.031888539065454
 30
0.0
 40
0.5
  1
2.59
100
AcDbAttributeDefinition
  3

  2
A
 70
     8
280
     0
  0
ATTDEF
  5
9F
330
90
100
AcDbEntity
  8
AM_6
100
AcDbText
 10
5.88
 20
-3.531888539065454
 30
0.0
 40
0.5
  1
0.94
100
AcDbAttributeDefinition
  3

  2
C
 70
     8
280
     0
  0
ATTDEF
  5
A0
330
90
100
AcDbEntity
  8
AM_6
100
AcDbText
 10
5.88
 20
-4.031888539065454
 30
0.0
 40
0.5
  1
3.9370
100
AcDbAttributeDefinition
  3

  2
D
 70
     8
280
     0
  0
ATTDEF
  5
A1
330
90
100
AcDbEntity
  8
AM_6
100
AcDbText
 10
5.88
 20
-4.531888539065454
 30
0.0
 40
0.5
  1
0.25
100
AcDbAttributeDefinition
  3

  2
J
 70
     8
280
     0
  0
ATTDEF
  5
A2
330
90
100
AcDbEntity
  8
AM_6
100
AcDbText
 10
5.88
 20
-5.031888539065454
 30
0.0
 40
0.5
  1
3.00
100
AcDbAttributeDefinition
  3

  2
L
 70
     8
280
     0
  0
ATTDEF
  5
A3
330
90
100
AcDbEntity
  8
AM_6
100
AcDbText
 10
5.88
 20
-5.531888539065454
 30
0.0
 40
0.5
  1
3/8 - 24
100
AcDbAttributeDefinition
  3

  2
N
 70
     8
280
     0
  0
ATTDEF
  5
A4
330
90
100
AcDbEntity
  8
AM_6
100
AcDbText
 10
5.88
 20
-6.031888539065454
 30
0.0
 40
0.5
  1
0.88
100
AcDbAttributeDefinition
  3

  2
W
 70
     8
280
     0
  0
ATTDEF
  5
A5
330
90
100
AcDbEntity
  8
AM_6
100
AcDbText
 10
5.88
 20
-6.531888539065454
 30
0.0
 40
0.5
  1
1.71
100
AcDbAttributeDefinition
  3

  2
Y
 70
     8
280
     0
  0
ATTDEF
  5
A6
330
90
100
AcDbEntity
  8
AM_6
100
AcDbText
 10
5.88
 20
-7.031888539065454
 30
0.0
 40
0.5
  1
2.71
100
AcDbAttributeDefinition
  3

  2
Z
 70
     8
280
     0
  0
ATTDEF
  5
A7
330
90
100
AcDbEntity
  8
AM_6
100
AcDbText
 10
5.88
 20
-7.531888539065454
 30
0.0
 40
0.5
  1
baldor
100
AcDbAttributeDefinition
  3

  2
COMPANY
 70
     8
280
     0
  0
LINE
  5
AA
330
90
100
AcDbEntity
  8
AM_9
100
AcDbLine
 10
-1.25815
 20
1.493835112473834
 30
0.0
 11
-1.251985112473833
 21
1.5
 31
0.0
  0
LINE
  5
AB
330
90
100
AcDbEntity
  8
AM_9
100
AcDbLine
 10
-1.605514887526166
 20
1.5
 30
0.0
 11
-1.59935
 21
1.493835112473834
 31
0.0
  0
LINE
  5
AC
330
90
100
AcDbEntity
  8
AM_9
100
AcDbLine
 10
-1.325562291140315
 20
1.493835112473834
 30
0.0
 11
-1.25815
 21
1.493835112473834
 31
0.0
  0
LINE
  5
AD
330
90
100
AcDbEntity
  8
AM_9
100
AcDbLine
 10
-1.25815
 20
1.09375
 30
0.0
 11
-1.25815
 21
1.493835112473834
 31
0.0
  0
LINE
  5
AE
330
90
100
AcDbEntity
  8
AM_9
100
AcDbLine
 10
-1.59935
 20
1.493835112473834
 30
0.0
 11
-1.59935
 21
1.09375
 31
0.0
  0
LINE
  5
AF
330
90
100
AcDbEntity
  8
AM_9
100
AcDbLine
 10
-1.59935
 20
1.493835112473834
 30
0.0
 11
-1.531937708859685
 21
1.493835112473834
 31
0.0
  0
LINE
  5
B0
330
90
100
AcDbEntity
  8
AM_9
100
AcDbLine
 10
-1.134206392513693
 20
-1.09375
 30
0.0
 11
0.8611999999999999
 21
-1.09375
 31
0.0
  0
LINE
  5
B1
330
90
100
AcDbEntity
  8
AM_9
100
AcDbLine
 10
0.8611999999999999
 20
1.09375
 30
0.0
 11
-1.134206392513693
 21
1.09375
 31
0.0
  0
LWPOLYLINE
  5
B2
330
90
100
AcDbEntity
  8
AM_9
100
AcDbPolyline
 90
       20
 70
     0
 43
0.0
 10
-1.59935
 20
1.09375
 10
-1.597029544357383
 20
1.093390464358057
 10
-1.589867783613459
 20
1.092311147382701
 10
-1.578479805931762
 20
1.090689560454469
 10
-1.562549614675786
 20
1.08861703063446
 10
-1.543239931503588
 20
1.086412742430655
 10
-1.520097431336624
 20
1.084218177172749
 10
-1.494901282578177
 20
1.082386573589463
 10
-1.46702058199228
 20
1.081040859517358
 10
-1.439061447786157
 20
1.080412434422821
 10
-1.409980331356056
 20
1.080526262041328
 10
-1.382497317694784
 20
1.081352862446125
 10
-1.355552407391057
 20
1.082840057470975
 10
-1.331272305956513
 20
1.084751862563986
 10
-1.309073506381111
 20
1.086971556953038
 10
-1.290591156308675
 20
1.089161406124053
 10
-1.275552342895655
 20
1.091171033634169
 10
-1.265220765056316
 20
1.09266944369341
 10
-1.259318715778698
 20
1.093568316372086
 10
-1.258150000000474
 20
1.093749999999926
  0
LINE
  5
B3
330
90
100
AcDbEntity
  8
AM_9
100
AcDbLine
 10
-1.6912
 20
-1.09375
 30
0.0
 11
-1.160793607486307
 21
-1.09375
 31
0.0
  0
LINE
  5
B4
330
90
100
AcDbEntity
  8
AM_9
100
AcDbLine
 10
-1.160793607486307
 20
1.09375
 30
0.0
 11
-1.25815
 21
1.09375
 31
0.0
  0
LINE
  5
B5
330
90
100
AcDbEntity
  8
AM_9
100
AcDbLine
 10
-1.59935
 20
1.09375
 30
0.0
 11
-1.6912
 21
1.09375
 31
0.0
  0
LINE
  5
B6
330
90
100
AcDbEntity
  8
AM_9
100
AcDbLine
 10
-1.160793607486307
 20
-1.09375
 30
0.0
 11
-1.1475
 21
-1.107043607486307
 31
0.0
  0
LINE
  5
B7
330
90
100
AcDbEntity
  8
AM_9
100
AcDbLine
 10
-1.1475
 20
1.107043607486307
 30
0.0
 11
-1.160793607486307
 21
1.09375
 31
0.0
  0
LINE
  5
B8
330
90
100
AcDbEntity
  8
AM_9
100
AcDbLine
 10
-1.160793607486307
 20
1.09375
 30
0.0
 11
-1.160793607486307
 21
-1.09375
 31
0.0
  0
LINE
  5
B9
330
90
100
AcDbEntity
  8
AM_9
100
AcDbLine
 10
-1.134206392513693
 20
1.09375
 30
0.0
 11
-1.1475
 21
1.107043607486307
 31
0.0
  0
LINE
  5
BA
330
90
100
AcDbEntity
  8
AM_9
100
AcDbLine
 10
-1.1475
 20
-1.107043607486307
 30
0.0
 11
-1.134206392513693
 21
-1.09375
 31
0.0
  0
LINE
  5
BB
330
90
100
AcDbEntity
  8
AM_9
100
AcDbLine
 10
-1.134206392513693
 20
1.09375
 30
0.0
 11
-1.134206392513693
 21
-1.09375
 31
0.0
  0
LINE
  5
BC
330
90
100
AcDbEntity
  8
AM_9
100
AcDbLine
 10
-1.1475
 20
1.107043607486307
 30
0.0
 11
-1.1475
 21
-1.107043607486307
 31
0.0
  0
LINE
  5
BD
330
90
100
AcDbEntity
  8
AM_9
100
AcDbLine
 10
0.8611999999999999
 20
-1.09375
 30
0.0
 11
0.88
 21
-1.11255
 31
0.0
  0
LINE
  5
BE
330
90
100
AcDbEntity
  8
AM_9
100
AcDbLine
 10
0.88
 20
1.11255
 30
0.0
 11
0.8611999999999999
 21
1.09375
 31
0.0
  0
LINE
  5
BF
330
90
100
AcDbEntity
  8
AM_9
100
AcDbLine
 10
-1.6912
 20
1.09375
 30
0.0
 11
-1.71
 21
1.11255
 31
0.0
  0
LINE
  5
C0
330
90
100
AcDbEntity
  8
AM_9
100
AcDbLine
 10
-1.71
 20
-1.11255
 30
0.0
 11
-1.6912
 21
-1.09375
 31
0.0
  0
LINE
  5
C1
330
90
100
AcDbEntity
  8
AM_9
100
AcDbLine
 10
-1.6912
 20
1.09375
 30
0.0
 11
-1.6912
 21
-1.09375
 31
0.0
  0
LINE
  5
C2
330
90
100
AcDbEntity
  8
AM_9
100
AcDbLine
 10
0.88
 20
1.3362
 30
0.0
 11
0.8612
 21
1.355
 31
0.0
  0
LINE
  5
C3
330
90
100
AcDbEntity
  8
AM_9
100
AcDbLine
 10
0.8612
 20
-1.355
 30
0.0
 11
0.88
 21
-1.3362
 31
0.0
  0
LINE
  5
C4
330
90
100
AcDbEntity
  8
AM_9
100
AcDbLine
 10
0.88
 20
1.3362
 30
0.0
 11
0.88
 21
-1.3362
 31
0.0
  0
LINE
  5
C5
330
90
100
AcDbEntity
  8
AM_9
100
AcDbLine
 10
-1.035
 20
0.7009101226262893
 30
0.0
 11
-1.035
 21
-0.7009101226262893
 31
0.0
  0
LINE
  5
C6
330
90
100
AcDbEntity
  8
AM_9
100
AcDbLine
 10
0.47
 20
-1.355
 30
0.0
 11
0.8612
 21
-1.355
 31
0.0
  0
LINE
  5
C7
330
90
100
AcDbEntity
  8
AM_9
100
AcDbLine
 10
0.8612
 20
1.355
 30
0.0
 11
0.47
 21
1.355
 31
0.0
  0
LINE
  5
C8
330
90
100
AcDbEntity
  8
AM_9
100
AcDbLine
 10
0.8612
 20
1.355
 30
0.0
 11
0.8612
 21
-1.355
 31
0.0
  0
LINE
  5
C9
330
90
100
AcDbEntity
  8
AM_9
100
AcDbLine
 10
-0.9035499999999997
 20
-1.355
 30
0.0
 11
-0.47
 21
-1.355
 31
0.0
  0
LINE
  5
CA
330
90
100
AcDbEntity
  8
AM_9
100
AcDbLine
 10
-0.47
 20
1.355
 30
0.0
 11
-0.9035499999999995
 21
1.355
 31
0.0
  0
LINE
  5
CB
330
90
100
AcDbEntity
  8
AM_9
100
AcDbLine
 10
-1.0162
 20
0.7278994161283545
 30
0.0
 11
-1.0162
 21
-0.7278994161283545
 31
0.0
  0
LINE
  5
CC
330
90
100
AcDbEntity
  8
AM_9
100
AcDbLine
 10
-1.0725
 20
0.642062107587732
 30
0.0
 11
-1.0725
 21
-0.642062107587732
 31
0.0
  0
LINE
  5
CD
330
90
100
AcDbEntity
  8
AM_9
100
AcDbLine
 10
-1.119374999999999
 20
0.5563268907530918
 30
0.0
 11
-1.119374999999999
 21
-0.5563268907530918
 31
0.0
  0
LINE
  5
CE
330
90
100
AcDbEntity
  8
AM_9
100
AcDbLine
 10
-0.2999999999999999
 20
-1.874761904761906
 30
0.0
 11
-0.2
 21
-1.874761904761906
 31
0.0
  0
LINE
  5
CF
330
90
100
AcDbEntity
  8
AM_9
100
AcDbLine
 10
-0.2
 20
1.874761904761906
 30
0.0
 11
-0.2999999999999999
 21
1.874761904761906
 31
0.0
  0
LINE
  5
D0
330
90
100
AcDbEntity
  8
AM_9
100
AcDbLine
 10
0.47
 20
1.881862123004764
 30
0.0
 11
0.47
 21
-1.881862123004764
 31
0.0
  0
ARC
  5
D1
330
90
100
AcDbEntity
  8
AM_9
100
AcDbCircle
 10
0.4323999999999996
 20
-1.881862123004764
 30
0.0
 40
0.0376000000000006
100
AcDbArc
 50
282.9403792430003
 51
0.0
  0
ARC
  5
D2
330
90
100
AcDbEntity
  8
AM_9
100
AcDbCircle
 10
0.4323999999999996
 20
1.881862123004764
 30
0.0
 40
0.0376000000000004
100
AcDbArc
 50
0.0
 51
77.05962075699965
  0
LINE
  5
D3
330
90
100
AcDbEntity
  8
AM_9
100
AcDbLine
 10
-0.47
 20
1.881862123004764
 30
0.0
 11
-0.47
 21
-1.881862123004764
 31
0.0
  0
ARC
  5
D4
330
90
100
AcDbEntity
  8
AM_9
100
AcDbCircle
 10
-0.432399999999999
 20
-1.881862123004764
 30
0.0
 40
0.037600000000001
100
AcDbArc
 50
180.0
 51
257.0596207569986
  0
ARC
  5
D5
330
90
100
AcDbEntity
  8
AM_9
100
AcDbCircle
 10
-0.432399999999999
 20
1.881862123004764
 30
0.0
 40
0.0376000000000012
100
AcDbArc
 50
102.9403792430014
 51
180.0
  0
ARC
  5
D6
330
90
100
AcDbEntity
  8
AM_9
100
AcDbCircle
 10
-0.0000000000000885
 20
0.0000000000004436
 30
0.0
 40
1.968499999999548
100
AcDbArc
 50
98.7660534478746
 51
102.9403792430003
  0
ARC
  5
D7
330
90
100
AcDbEntity
  8
AM_9
100
AcDbCircle
 10
0.0000000000368219
 20
0.0000000001922242
 30
0.0
 40
1.968500000195459
100
AcDbArc
 50
257.0596207572077
 51
261.2339465519177
  0
LINE
  5
D8
330
90
100
AcDbEntity
  8
AM_9
100
AcDbLine
 10
-0.4408200321093793
 20
1.918507218983313
 30
0.0
 11
-0.4408200321093793
 21
-1.918507218983181
 31
0.0
  0
LINE
  5
D9
330
90
100
AcDbEntity
  8
AM_9
100
AcDbLine
 10
-0.2999999999999999
 20
1.945505654065287
 30
0.0
 11
-0.2999999999999999
 21
-1.945505654065154
 31
0.0
  0
LWPOLYLINE
  5
DA
330
90
100
AcDbEntity
  8
AM_9
100
AcDbPolyline
 90
        4
 70
     0
 43
0.0
 10
0.3748042095630575
 20
0.0069935166647726
 10
0.3749594758733858
 20
-0.0026363602997703
 10
0.3727781586075756
 20
-0.0234632429330011
 10
0.3726569964280399
 20
-0.024088611982674
  0
ARC
  5
DB
330
90
100
AcDbEntity
  8
AM_9
100
AcDbCircle
 10
0.0000000000000026
 20
0.0000000000000269
 30
0.0
 40
1.968499999999973
100
AcDbArc
 50
77.059620757
 51
95.83132474664205
  0
ARC
  5
DC
330
90
100
AcDbEntity
  8
AM_9
100
AcDbCircle
 10
-0.0000000000000434
 20
0.000000000000721
 30
0.0
 40
1.968500000000702
100
AcDbArc
 50
264.1686752533614
 51
282.9403792429965
  0
LINE
  5
DD
330
90
100
AcDbEntity
  8
AM_9
100
AcDbLine
 10
-0.2000000000000002
 20
1.958313624014294
 30
0.0
 11
-0.2000000000000002
 21
-1.958313624014284
 31
0.0
  0
LINE
  5
DE
330
90
100
AcDbEntity
  8
AM_9
100
AcDbLine
 10
0.440820032109379
 20
1.918507218983313
 30
0.0
 11
0.440820032109379
 21
-1.918507218983303
 31
0.0
  0
ELLIPSE
  5
DF
330
90
100
AcDbEntity
  8
AM_9
100
AcDbEllipse
 10
0.2494565094248997
 20
0.0
 30
0.0
 11
-2.294866261987764E-17
 21
-0.1249267006936497
 31
0.0
210
0.0
220
0.0
230
1.0
 40
0.9919052612886764
 41
3.41252552009953
 42
6.012252440669769
  0
ARC
  5
E0
330
90
100
AcDbEntity
  8
AM_9
100
AcDbCircle
 10
0.2500000000000009
 20
0.0
 30
0.0
 40
0.1249999999999992
100
AcDbArc
 50
254.3561872460431
 51
105.6438127539524
  0
LINE
  5
E2
330
90
100
AcDbEntity
  8
AM_5
100
AcDbLine
 10
-1.24125
 20
1.09375
 30
0.0
 11
-1.24125
 21
1.5
 31
0.0
  0
LINE
  5
E3
330
90
100
AcDbEntity
  8
AM_5
100
AcDbLine
 10
-1.61625
 20
1.09375
 30
0.0
 11
-1.61625
 21
1.5
 31
0.0
  0
LINE
  5
E6
330
90
100
AcDbEntity
  8
AM_7
100
AcDbLine
 10
-1.42875
 20
1.533518931692629
 30
0.0
 11
-1.42875
 21
1.032274908879121
 31
0.0
  0
LINE
  5
E7
330
90
100
AcDbEntity
  8
AM_7
100
AcDbLine
 10
0.2500000000000014
 20
-0.1312499999999993
 30
0.0
 11
0.2500000000000014
 21
0.131249999999998
 31
0.0
  0
LINE
  5
E9
330
90
100
AcDbEntity
  8
AM_4
100
AcDbLine
 10
-1.0725
 20
-1.29047619047619
 30
0.0
 11
-1.035
 21
-1.29047619047619
 31
0.0
  0
LINE
  5
EA
330
90
100
AcDbEntity
  8
AM_4
100
AcDbLine
 10
-1.035
 20
1.29047619047619
 30
0.0
 11
-1.0725
 21
1.29047619047619
 31
0.0
  0
LINE
  5
EB
330
90
100
AcDbEntity
  8
AM_4
100
AcDbLine
 10
-1.035
 20
-1.3362
 30
0.0
 11
-1.0162
 21
-1.355
 31
0.0
  0
LINE
  5
EC
330
90
100
AcDbEntity
  8
AM_4
100
AcDbLine
 10
-1.0162
 20
1.355
 30
0.0
 11
-1.035
 21
1.3362
 31
0.0
  0
LINE
  5
ED
330
90
100
AcDbEntity
  8
AM_4
100
AcDbLine
 10
-1.035
 20
-0.7009101226262893
 30
0.0
 11
-1.035
 21
-1.3362
 31
0.0
  0
LINE
  5
EE
330
90
100
AcDbEntity
  8
AM_4
100
AcDbLine
 10
-1.035
 20
1.3362
 30
0.0
 11
-1.035
 21
0.7009101226262893
 31
0.0
  0
LINE
  5
EF
330
90
100
AcDbEntity
  8
AM_4
100
AcDbLine
 10
-1.0162
 20
-1.355
 30
0.0
 11
-0.9035499999999997
 21
-1.355
 31
0.0
  0
LINE
  5
F0
330
90
100
AcDbEntity
  8
AM_4
100
AcDbLine
 10
-0.9035499999999995
 20
1.355
 30
0.0
 11
-1.0162
 21
1.355
 31
0.0
  0
LINE
  5
F1
330
90
100
AcDbEntity
  8
AM_4
100
AcDbLine
 10
-1.0162
 20
-0.7278994161283545
 30
0.0
 11
-1.0162
 21
-1.355
 31
0.0
  0
LINE
  5
F2
330
90
100
AcDbEntity
  8
AM_4
100
AcDbLine
 10
-1.0162
 20
1.355
 30
0.0
 11
-1.0162
 21
0.7278994161283545
 31
0.0
  0
LWPOLYLINE
  5
F3
330
90
100
AcDbEntity
  8
AM_4
100
AcDbPolyline
 90
        9
 70
     0
 43
0.0
 10
-1.325562291140315
 20
1.493835112473834
 10
-1.349769724615556
 20
1.492360961229132
 10
-1.37620362704105
 20
1.491193066410631
 10
-1.404153797238722
 20
1.490473749252569
 10
-1.432802785283531
 20
1.490272480141989
 10
-1.461220862625065
 20
1.490624332400663
 10
-1.488724377174856
 20
1.4914732870278
 10
-1.511198129639955
 20
1.492547295596126
 10
-1.531937708859685
 20
1.493835112473834
  0
LWPOLYLINE
  5
F4
330
90
100
AcDbEntity
  8
AM_4
100
AcDbPolyline
 90
        7
 70
     0
 43
0.0
 10
-1.53193770885968
 20
1.493835112473825
 10
-1.560672848052196
 20
1.495862141594347
 10
-1.578744970522842
 20
1.49738753348554
 10
-1.592929191155915
 20
1.498719469198174
 10
-1.60145378215836
 20
1.499576688572732
 10
-1.605345027544268
 20
1.499982101739511
 10
-1.605514887526063
 20
1.499999999999989
  0
LINE
  5
F5
330
90
100
AcDbEntity
  8
AM_4
100
AcDbLine
 10
-1.663125
 20
-1.5
 30
0.0
 11
-1.119374999999999
 21
-1.5
 31
0.0
  0
LINE
  5
F6
330
90
100
AcDbEntity
  8
AM_4
100
AcDbLine
 10
-1.119374999999999
 20
1.5
 30
0.0
 11
-1.251985112473833
 21
1.5
 31
0.0
  0
LINE
  5
F7
330
90
100
AcDbEntity
  8
AM_4
100
AcDbLine
 10
-1.605514887526166
 20
1.5
 30
0.0
 11
-1.663125
 21
1.5
 31
0.0
  0
LWPOLYLINE
  5
F8
330
90
100
AcDbEntity
  8
AM_4
100
AcDbPolyline
 90
        8
 70
     0
 43
0.0
 10
-1.251985112473937
 20
1.499999999999989
 10
-1.253140236406651
 20
1.49987861570094
 10
-1.258718080357319
 20
1.499303437774727
 10
-1.268278186478819
 20
1.498359936391333
 10
-1.282026068516489
 20
1.497097158210585
 10
-1.299431031023731
 20
1.495658266962498
 10
-1.320458558660938
 20
1.494159283366996
 10
-1.325562291140315
 20
1.493835112473834
  0
LINE
  5
F9
330
90
100
AcDbEntity
  8
AM_4
100
AcDbLine
 10
-1.0725
 20
-0.642062107587732
 30
0.0
 11
-1.0725
 21
-1.453125
 31
0.0
  0
LINE
  5
FA
330
90
100
AcDbEntity
  8
AM_4
100
AcDbLine
 10
-1.0725
 20
1.453125
 30
0.0
 11
-1.0725
 21
0.642062107587732
 31
0.0
  0
ARC
  5
FB
330
90
100
AcDbEntity
  8
AM_4
100
AcDbCircle
 10
-1.119374999999999
 20
-1.453125000000001
 30
0.0
 40
0.0468749999999991
100
AcDbArc
 50
270.0
 51
0.0
  0
ARC
  5
FC
330
90
100
AcDbEntity
  8
AM_4
100
AcDbCircle
 10
-1.119374999999999
 20
1.453125000000001
 30
0.0
 40
0.0468749999999991
100
AcDbArc
 50
0.0
 51
90.0
  0
LINE
  5
FD
330
90
100
AcDbEntity
  8
AM_4
100
AcDbLine
 10
-1.119374999999999
 20
-0.5563268907530918
 30
0.0
 11
-1.119374999999999
 21
-1.5
 31
0.0
  0
LINE
  5
FE
330
90
100
AcDbEntity
  8
AM_4
100
AcDbLine
 10
-1.119374999999999
 20
1.5
 30
0.0
 11
-1.119374999999999
 21
0.5563268907530918
 31
0.0
  0
LINE
  5
FF
330
90
100
AcDbEntity
  8
AM_4
100
AcDbLine
 10
-1.71
 20
1.453125
 30
0.0
 11
-1.71
 21
-1.453125
 31
0.0
  0
ARC
  5
100
330
90
100
AcDbEntity
  8
AM_4
100
AcDbCircle
 10
-1.663125000000001
 20
-1.453125
 30
0.0
 40
0.0468749999999993
100
AcDbArc
 50
180.0
 51
270.0
  0
ARC
  5
101
330
90
100
AcDbEntity
  8
AM_4
100
AcDbCircle
 10
-1.663125000000001
 20
1.453125
 30
0.0
 40
0.0468749999999996
100
AcDbArc
 50
90.0
 51
180.0
  0
LINE
  5
102
330
90
100
AcDbEntity
  8
AM_4
100
AcDbLine
 10
-1.663125
 20
1.5
 30
0.0
 11
-1.663125
 21
-1.5
 31
0.0
  0
ENDBLK
  5
93
330
90
100
AcDbEntity
  8
0
100
AcDbBlockEnd
  0
BLOCK
  5
105
330
103
100
AcDbEntity
  8
0
100
AcDbBlockBegin
  2
3_405016_Inch_0_in_131230_2
 70
     2
 10
0.0
 20
0.0
 30
0.0
  3
3_405016_Inch_0_in_131230_2
  1

  0
ATTDEF
  5
107
330
103
100
AcDbEntity
  8
AM_6
100
AcDbText
 10
5.218750000016433
 20
-1.041925698355158
 30
0.0
 40
0.5
  1
405016 -Inch
100
AcDbAttributeDefinition
  3

  2
NN
 70
     8
280
     0
  0
ATTDEF
  5
108
330
103
100
AcDbEntity
  8
AM_6
100
AcDbText
 10
5.218750000016433
 20
-1.541925698355158
 30
0.0
 40
0.5
  1
Grease Fitting
100
AcDbAttributeDefinition
  3

  2
NT
 70
     8
280
     0
  0
ATTDEF
  5
109
330
103
100
AcDbEntity
  8
AM_6
100
AcDbText
 10
5.218750000016433
 20
-2.041925698355158
 30
0.0
 40
0.5
  1
405016-Inch
100
AcDbAttributeDefinition
  3

  2
NB
 70
     8
280
     0
  0
ATTDEF
  5
10A
330
103
100
AcDbEntity
  8
AM_6
100
AcDbText
 10
5.218750000016433
 20
-2.541925698355158
 30
0.0
 40
0.5
  1
$MN.-Inch
100
AcDbAttributeDefinition
  3

  2
NBSYN
 70
     8
280
     0
  0
ATTDEF
  5
10B
330
103
100
AcDbEntity
  8
AM_6
100
AcDbText
 10
5.218750000016433
 20
-3.041925698355158
 30
0.0
 40
0.5
  1
405016
100
AcDbAttributeDefinition
  3

  2
LINA
 70
     8
280
     0
  0
ATTDEF
  5
10C
330
103
100
AcDbEntity
  8
AM_6
100
AcDbText
 10
5.218750000016433
 20
-3.541925698355158
 30
0.0
 40
0.5
  1
405016
100
AcDbAttributeDefinition
  3

  2
MN
 70
     8
280
     0
  0
ATTDEF
  5
10D
330
103
100
AcDbEntity
  8
AM_6
100
AcDbText
 10
5.218750000016433
 20
-4.041925698355158
 30
0.0
 40
0.5
  1
7/16 HEX
100
AcDbAttributeDefinition
  3

  2
H
 70
     8
280
     0
  0
ATTDEF
  5
10E
330
103
100
AcDbEntity
  8
AM_6
100
AcDbText
 10
5.218750000016433
 20
-4.541925698355158
 30
0.0
 40
0.5
  1
0.383
100
AcDbAttributeDefinition
  3

  2
NDR
 70
     8
280
     0
  0
ATTDEF
  5
10F
330
103
100
AcDbEntity
  8
AM_6
100
AcDbText
 10
5.218750000016433
 20
-5.041925698355158
 30
0.0
 40
0.5
  1
0.337
100
AcDbAttributeDefinition
  3

  2
KDR
 70
     8
280
     0
  0
ATTDEF
  5
110
330
103
100
AcDbEntity
  8
AM_6
100
AcDbText
 10
5.218750000016433
 20
-5.541925698355158
 30
0.0
 40
0.5
  1
0.1575
100
AcDbAttributeDefinition
  3

  2
BZE
 70
     8
280
     0
  0
ATTDEF
  5
111
330
103
100
AcDbEntity
  8
AM_6
100
AcDbText
 10
5.218750000016433
 20
-6.041925698355158
 30
0.0
 40
0.5
  1
0.4375
100
AcDbAttributeDefinition
  3

  2
HEX
 70
     8
280
     0
  0
ATTDEF
  5
112
330
103
100
AcDbEntity
  8
AM_6
100
AcDbText
 10
5.218750000016433
 20
-6.541925698355158
 30
0.0
 40
0.5
  1
0.281250
100
AcDbAttributeDefinition
  3

  2
HEX2
 70
     8
280
     0
  0
ATTDEF
  5
113
330
103
100
AcDbEntity
  8
AM_6
100
AcDbText
 10
5.218750000016433
 20
-7.041925698355158
 30
0.0
 40
0.5
  1
baldor
100
AcDbAttributeDefinition
  3

  2
COMPANY
 70
     8
280
     0
  0
LWPOLYLINE
  5
114
330
103
100
AcDbEntity
  8
AM_9
100
AcDbPolyline
 90
        5
 70
     0
 43
0.0
 10
-0.1791093260592888
 20
-1.646738809059826
 10
-0.1842540823997055
 20
-1.613670119967152
 10
-0.1862220679364952
 20
-1.579312409178914
 10
-0.1844124966919382
 20
-1.543126446285356
 10
-0.1791093260592888
 20
-1.506113809059826
  0
LINE
  5
115
330
103
100
AcDbEntity
  8
AM_9
100
AcDbLine
 10
-0.1510741298357571
 20
-1.49957729571137
 30
0.0
 11
-0.1791093260592888
 21
-1.506113809059826
 31
0.0
  0
LWPOLYLINE
  5
116
330
103
100
AcDbEntity
  8
AM_9
100
AcDbPolyline
 90
        5
 70
     0
 43
0.0
 10
-0.1791093260592888
 20
-1.506113809059826
 10
-0.198835512140694
 20
-1.474688517736611
 10
-0.2156330920108726
 20
-1.441997724328328
 10
-0.2290462109660022
 20
-1.407506153690794
 10
-0.2389369657326277
 20
-1.372169092407283
  0
LINE
  5
117
330
103
100
AcDbEntity
  8
AM_9
100
AcDbLine
 10
-0.2099962668917054
 20
-1.365421457656344
 30
0.0
 11
-0.2389369657326277
 21
-1.372169092407283
 31
0.0
  0
LINE
  5
118
330
103
100
AcDbEntity
  8
AM_9
100
AcDbLine
 10
-0.2389369657326277
 20
-1.372169092407283
 30
0.0
 11
-0.2711532636537957
 21
-1.376618123437406
 31
0.0
  0
LWPOLYLINE
  5
119
330
103
100
AcDbEntity
  8
AM_9
100
AcDbPolyline
 90
        3
 70
     0
 43
0.0
 10
-0.2813919000363601
 20
-1.377753048956784
 10
-0.2911775952746244
 20
-1.37855559349426
 10
-0.2987675689889719
 20
-1.378850066725466
  0
LWPOLYLINE
  5
11A
330
103
100
AcDbEntity
  8
AM_9
100
AcDbPolyline
 90
        5
 70
     0
 43
0.0
 10
-0.2389369657326277
 20
-1.653419092407283
 10
-0.2295338871417797
 20
-1.65299806213629
 10
-0.2166871171046321
 20
-1.651802555641742
 10
-0.1996402057054679
 20
-1.649676787031713
 10
-0.1791093260592888
 20
-1.646738809059826
  0
LINE
  5
11B
330
103
100
AcDbEntity
  8
AM_9
100
AcDbLine
 10
-0.1510741298357571
 20
-1.64020229571137
 30
0.0
 11
-0.1791093260592888
 21
-1.646738809059826
 31
0.0
  0
LINE
  5
11C
330
103
100
AcDbEntity
  8
AM_9
100
AcDbLine
 10
-0.452415808934145
 20
-1.666254016496842
 30
0.0
 11
-0.3774664534000949
 21
-1.684780662014441
 31
0.0
  0
LINE
  5
11D
330
103
100
AcDbEntity
  8
AM_9
100
AcDbLine
 10
-0.4395859245204076
 20
-1.418349390582632
 30
0.0
 11
-0.4986131040655764
 21
-1.468113178260487
 31
0.0
  0
LWPOLYLINE
  5
11E
330
103
100
AcDbEntity
  8
AM_9
100
AcDbPolyline
 90
        3
 70
     0
 43
0.0
 10
-0.2689146070947223
 20
-1.371889734350518
 10
-0.2512755937295761
 20
-1.369238843014548
 10
-0.2360765106845276
 20
-1.367187592413266
  0
LWPOLYLINE
  5
11F
330
103
100
AcDbEntity
  8
AM_9
100
AcDbPolyline
 90
        9
 70
     0
 43
0.0
 10
-0.377432696819365
 20
-1.42351814224382
 10
-0.3810360084820234
 20
-1.420481970695498
 10
-0.3899389580301019
 20
-1.414524780666714
 10
-0.3987646234333816
 20
-1.410647162860581
 10
-0.4076260012262021
 20
-1.408655139105516
 10
-0.416485175077264
 20
-1.408526432332472
 10
-0.4258503063098036
 20
-1.410522960536528
 10
-0.4341568815816702
 20
-1.414427443801801
 10
-0.4400693976572808
 20
-1.418762731536069
  0
LWPOLYLINE
  5
120
330
103
100
AcDbEntity
  8
AM_9
100
AcDbPolyline
 90
        9
 70
     0
 43
0.0
 10
-0.3784964559909306
 20
-1.684513425715111
 10
-0.3723411561469011
 20
-1.685736606166218
 10
-0.363479679683825
 20
-1.685919806224097
 10
-0.3540886943252646
 20
-1.683977797455675
 10
-0.3457531022271933
 20
-1.680117845072912
 10
-0.3385898404768587
 20
-1.674722010571571
 10
-0.3324629583461047
 20
-1.667929500079084
 10
-0.3272174227179932
 20
-1.659611883713217
 10
-0.3248656604492887
 20
-1.654704863147002
  0
LWPOLYLINE
  5
121
330
103
100
AcDbEntity
  8
AM_9
100
AcDbPolyline
 90
        3
 70
     0
 43
0.0
 10
-0.0000000000000002
 20
-1.165778700151693
 10
0.0544416102741494
 20
-1.196326042662265
 10
0.1093749999999998
 20
-1.225
  0
LWPOLYLINE
  5
122
330
103
100
AcDbEntity
  8
AM_9
100
AcDbPolyline
 90
        3
 70
     0
 43
0.0
 10
-0.1093750000000001
 20
-1.225
 10
-0.0546875000000001
 20
-1.196459559607483
 10
-0.0000000000000002
 20
-1.165778700151693
  0
LWPOLYLINE
  5
123
330
103
100
AcDbEntity
  8
AM_9
100
AcDbPolyline
 90
        6
 70
     0
 43
0.0
 10
-0.1510741298357571
 20
-1.64020229571137
 10
-0.1564222384464443
 20
-1.640146258798399
 10
-0.1639940363880806
 20
-1.640585121917566
 10
-0.1744063212866123
 20
-1.641646289109957
 10
-0.1876759562813859
 20
-1.643363121169831
 10
-0.2099962668917054
 20
-1.646671457656344
  0
LWPOLYLINE
  5
124
330
103
100
AcDbEntity
  8
AM_9
100
AcDbPolyline
 90
        3
 70
     0
 43
0.0
 10
-0.1427803223229838
 20
-1.547533335214886
 10
-0.1427138007556463
 20
-1.548367212109331
 10
-0.1419585098156051
 20
-1.567769408754154
  0
LWPOLYLINE
  5
125
330
103
100
AcDbEntity
  8
AM_9
100
AcDbPolyline
 90
        3
 70
     0
 43
0.0
 10
-0.1510741298357571
 20
-1.49957729571137
 10
-0.1458778226760521
 20
-1.523510622598914
 10
-0.1427803223229838
 20
-1.547533335214886
  0
LWPOLYLINE
  5
126
330
103
100
AcDbEntity
  8
AM_9
100
AcDbPolyline
 90
        3
 70
     0
 43
0.0
 10
-0.1814738246994243
 20
-1.409730975916486
 10
-0.1805491420332304
 20
-1.411456884363538
 10
-0.1765789831125443
 20
-1.419205855542361
  0
LWPOLYLINE
  5
127
330
103
100
AcDbEntity
  8
AM_9
100
AcDbPolyline
 90
        3
 70
     0
 43
0.0
 10
-0.2099962668917054
 20
-1.365421457656344
 10
-0.1943573015029059
 20
-1.387992854288234
 10
-0.1814738246994243
 20
-1.409730975916486
  0
LWPOLYLINE
  5
128
330
103
100
AcDbEntity
  8
AM_9
100
AcDbPolyline
 90
        3
 70
     0
 43
0.0
 10
-0.2258378743019628
 20
-1.366052666893888
 10
-0.2189176876709016
 20
-1.365510369847584
 10
-0.2099962668917054
 20
-1.365421457656344
  0
LWPOLYLINE
  5
129
330
103
100
AcDbEntity
  8
AM_9
100
AcDbPolyline
 90
        3
 70
     0
 43
0.0
 10
-0.1421775110101313
 20
-1.578331861631041
 10
-0.1441228263802216
 20
-1.601595324422914
 10
-0.1510741298357571
 20
-1.64020229571137
  0
LWPOLYLINE
  5
12A
330
103
100
AcDbEntity
  8
AM_9
100
AcDbPolyline
 90
        3
 70
     0
 43
0.0
 10
-0.1419585098156051
 20
-1.567769408754154
 10
-0.1420496512545707
 20
-1.574566312422038
 10
-0.1420988184102938
 20
-1.576211926403797
  0
LINE
  5
12B
330
103
100
AcDbEntity
  8
AM_9
100
AcDbLine
 10
-0.15968132984162
 20
-1.46241232750553
 30
0.0
 11
-0.1510741298357571
 21
-1.49957729571137
 31
0.0
  0
LWPOLYLINE
  5
12C
330
103
100
AcDbEntity
  8
AM_9
100
AcDbPolyline
 90
        3
 70
     0
 43
0.0
 10
-0.1765789831125443
 20
-1.419205855542361
 10
-0.168899767719981
 20
-1.436210167846305
 10
-0.1680938658620395
 20
-1.438195225711879
  0
ELLIPSE
  5
12D
330
103
100
AcDbEntity
  8
AM_9
100
AcDbEllipse
 10
-0.2013892028241867
 20
-1.50327024483734
 30
0.0
 11
-0.03193085011438218
 21
0.136951858096092
 31
0.0
210
0.0
220
0.0
230
1.0
 40
0.3659981507706632
 41
2.150416404658181
 42
6.139946939636918
  0
LWPOLYLINE
  5
12E
330
103
100
AcDbEntity
  8
AM_9
100
AcDbPolyline
 90
        3
 70
     0
 43
0.0
 10
-0.3055458577949632
 20
-1.467852494962034
 10
-0.3030753670497809
 20
-1.493922855181632
 10
-0.2987675689889719
 20
-1.519475066725467
  0
LWPOLYLINE
  5
12F
330
103
100
AcDbEntity
  8
AM_9
100
AcDbPolyline
 90
        3
 70
     0
 43
0.0
 10
-0.2602304684431209
 20
-1.423067949924796
 10
-0.2616913382589204
 20
-1.4084112730526
 10
-0.2689146070947223
 20
-1.371889734350518
  0
LINE
  5
130
330
103
100
AcDbEntity
  8
AM_9
100
AcDbLine
 10
-0.2689146070947223
 20
-1.371889734350518
 30
0.0
 11
-0.2987675689889719
 21
-1.378850066725466
 31
0.0
  0
LWPOLYLINE
  5
131
330
103
100
AcDbEntity
  8
AM_9
100
AcDbPolyline
 90
        3
 70
     0
 43
0.0
 10
-0.2987675689889719
 20
-1.378850066725466
 10
-0.3030606061861224
 20
-1.406294122408012
 10
-0.3055458577949632
 20
-1.433633406468319
  0
LINE
  5
132
330
103
100
AcDbEntity
  8
AM_9
100
AcDbLine
 10
-0.2711532636537957
 20
-1.376618123437406
 30
0.0
 11
-0.2813919000363601
 21
-1.377753048956784
 31
0.0
  0
ELLIPSE
  5
133
330
103
100
AcDbEntity
  8
AM_9
100
AcDbEllipse
 10
-0.2467045921760207
 20
-1.513835701380858
 30
0.0
 11
-0.03193085011438261
 21
0.1369518580960947
 31
0.0
210
0.0
220
0.0
230
1.0
 40
0.3659981507706637
 41
2.252432457672344
 42
6.139946939636897
  0
ELLIPSE
  5
134
330
103
100
AcDbEntity
  8
AM_9
100
AcDbEllipse
 10
-0.2467045921760222
 20
-1.513835701380858
 30
0.0
 11
-0.03193085011438235
 21
0.1369518580960931
 31
0.0
210
0.0
220
0.0
230
1.0
 40
0.3659981507706596
 41
1.190793506113467
 42
1.951156734850508
  0
LINE
  5
135
330
103
100
AcDbEntity
  8
AM_9
100
AcDbLine
 10
-0.3055458577949632
 20
-1.433633406468319
 30
0.0
 11
-0.3055458577949632
 21
-1.467852494962034
 31
0.0
  0
ELLIPSE
  5
136
330
103
100
AcDbEntity
  8
AM_9
100
AcDbEllipse
 10
-0.2467045921760249
 20
-1.513835701380857
 30
0.0
 11
-0.03193085011437965
 21
0.1369518580960916
 31
0.0
210
0.0
220
0.0
230
1.0
 40
0.3659981507706531
 41
0.0560213022649805
 42
0.8626327579757779
  0
LWPOLYLINE
  5
137
330
103
100
AcDbEntity
  8
AM_9
100
AcDbPolyline
 90
       14
 70
     0
 43
0.0
 10
-0.325016200611935
 20
-1.655048538654543
 10
-0.3248771292317021
 20
-1.654753160854534
 10
-0.3236660141420682
 20
-1.652637878884566
 10
-0.3208672519477958
 20
-1.648830961174614
 10
-0.3160775331696511
 20
-1.643850239427156
 10
-0.3089750974102735
 20
-1.638386907727111
 10
-0.2995724064612582
 20
-1.633374065123766
 10
-0.2885454278877356
 20
-1.629820392526549
 10
-0.2771519950540929
 20
-1.6283309234469
 10
-0.2667275898562116
 20
-1.62881137557723
 10
-0.2582197874901552
 20
-1.630614386758223
 10
-0.2520327532709998
 20
-1.632899844339771
 10
-0.2480966067647176
 20
-1.634947578876143
 10
-0.2461136548810496
 20
-1.636266448282685
  0
LWPOLYLINE
  5
138
330
103
100
AcDbEntity
  8
AM_9
100
AcDbPolyline
 90
        4
 70
     0
 43
0.0
 10
-0.2457249882508971
 20
-1.636571960916105
 10
-0.2457850458531231
 20
-1.636518681302098
 10
-0.2468705573094934
 20
-1.635438476890795
 10
-0.2470230985107113
 20
-1.635276008005601
  0
LWPOLYLINE
  5
139
330
103
100
AcDbEntity
  8
AM_9
100
AcDbPolyline
 90
        4
 70
     0
 43
0.0
 10
-0.3007762844048443
 20
-1.405318221543981
 10
-0.3004441846353729
 20
-1.404250810595742
 10
-0.3001081643462709
 20
-1.403322536303943
 10
-0.3001080482840256
 20
-1.403322263717043
  0
LWPOLYLINE
  5
13A
330
103
100
AcDbEntity
  8
AM_9
100
AcDbPolyline
 90
       14
 70
     0
 43
0.0
 10
-0.3006235576497693
 20
-1.404337486087253
 10
-0.3024959198695593
 20
-1.407268230092431
 10
-0.3061378571463804
 20
-1.411672847354018
 10
-0.3119352661734856
 20
-1.4169692348276
 10
-0.3201029690575352
 20
-1.422359048011462
 10
-0.3303613346300516
 20
-1.426831486351954
 10
-0.3417227496887573
 20
-1.429494748633036
 10
-0.3528496021784235
 20
-1.430049625738427
 10
-0.3624964697135706
 20
-1.428875048988202
 10
-0.3699802706488175
 20
-1.42675289711675
 10
-0.3751269618472711
 20
-1.424499273582869
 10
-0.3781457388587592
 20
-1.422729841661226
 10
-0.379352397699384
 20
-1.421853669165215
 10
-0.379368683946963
 20
-1.421840291227878
  0
LINE
  5
13B
330
103
100
AcDbEntity
  8
AM_9
100
AcDbLine
 10
-0.177120771554662
 20
-1.384661692407327
 30
0.0
 11
-0.2263662233581053
 21
-1.396143458059951
 31
0.0
  0
LINE
  5
13C
330
103
100
AcDbEntity
  8
AM_9
100
AcDbLine
 10
-0.176412182290271
 20
-1.61039703161473
 30
0.0
 11
-0.1343592486638227
 21
-1.600592229115782
 31
0.0
  0
LWPOLYLINE
  5
13D
330
103
100
AcDbEntity
  8
AM_9
100
AcDbPolyline
 90
       20
 70
     0
 43
0.0
 10
-0.1343659249938089
 20
-1.60059378540361
 10
-0.1293028157827818
 20
-1.597990967168627
 10
-0.1247141396218193
 20
-1.592417196040507
 10
-0.1208880884981782
 20
-1.583797239076489
 10
-0.118154598914599
 20
-1.572880991490922
 10
-0.1164278875396129
 20
-1.559336212655024
 10
-0.1158549073091555
 20
-1.544330271317741
 10
-0.1164156227038168
 20
-1.527408286749774
 10
-0.1180609686233502
 20
-1.510004703027538
 10
-0.1208367673933813
 20
-1.491607393511457
 10
-0.1245107513506023
 20
-1.473747455120003
 10
-0.1291842652280563
 20
-1.455922481606624
 10
-0.134472979061152
 20
-1.4395960564441
 10
-0.140518627090196
 20
-1.424328872764631
 10
-0.1468270783017121
 20
-1.411370478489193
 10
-0.1535654953592166
 20
-1.400381372029879
 10
-0.1601799433259584
 20
-1.392268942862664
 10
-0.1668493358980662
 20
-1.386820477436415
 10
-0.1731116383367607
 20
-1.384480939756072
 10
-0.1747510595011282
 20
-1.384378778999577
  0
LINE
  5
13E
330
103
100
AcDbEntity
  8
AM_9
100
AcDbLine
 10
-0.1771125901748264
 20
-1.384659785344162
 30
0.0
 11
-0.1790373738502117
 21
-1.385304054033761
 31
0.0
  0
LWPOLYLINE
  5
13F
330
103
100
AcDbEntity
  8
AM_9
100
AcDbPolyline
 90
        3
 70
     0
 43
0.0
 10
-0.2689146070947223
 20
-1.512514734350518
 10
-0.2634308483997529
 20
-1.484890958955647
 10
-0.2602304684431306
 20
-1.457287038418516
  0
LWPOLYLINE
  5
140
330
103
100
AcDbEntity
  8
AM_9
100
AcDbPolyline
 90
        5
 70
     0
 43
0.0
 10
-0.179037373850178
 20
-1.539695945966246
 10
-0.1733931390117468
 20
-1.555209976006311
 10
-0.1670729780242512
 20
-1.56935797563067
 10
-0.1606047421316796
 20
-1.580955943415793
 10
-0.1546043316098602
 20
-1.589375839152789
  0
ARC
  5
141
330
103
100
AcDbEntity
  8
AM_9
100
AcDbCircle
 10
0.0000000000000002
 20
-1.4625
 30
0.0
 40
0.1999999999999996
100
AcDbArc
 50
219.3387608412212
 51
0.0
  0
LWPOLYLINE
  5
142
330
103
100
AcDbEntity
  8
AM_9
100
AcDbPolyline
 90
        6
 70
     0
 43
0.0
 10
-0.1546043316098602
 20
-1.589375839152789
 10
-0.1538031670974778
 20
-1.590334802540261
 10
-0.1472336073736394
 20
-1.596712011960484
 10
-0.1407130262602577
 20
-1.60026170963818
 10
-0.1347930597680668
 20
-1.600684256104104
 10
-0.1343659249938089
 20
-1.60059378540361
  0
LINE
  5
143
330
103
100
AcDbEntity
  8
AM_9
100
AcDbLine
 10
-0.2360765106845276
 20
-1.367187592413266
 30
0.0
 11
-0.2258378743019628
 21
-1.366052666893888
 31
0.0
  0
ELLIPSE
  5
144
330
103
100
AcDbEntity
  8
AM_9
100
AcDbEllipse
 10
-0.2013892028241897
 20
-1.503270244837342
 30
0.0
 11
-0.0319308501143819
 21
0.1369518580960953
 31
0.0
210
0.0
220
0.0
230
1.0
 40
0.3659981507705639
 41
0.056021302265008
 42
0.862632757975738
  0
LINE
  5
145
330
103
100
AcDbEntity
  8
AM_9
100
AcDbLine
 10
-0.2602304684431306
 20
-1.457287038418516
 30
0.0
 11
-0.2602304684431209
 21
-1.423067949924796
 31
0.0
  0
ELLIPSE
  5
146
330
103
100
AcDbEntity
  8
AM_9
100
AcDbEllipse
 10
-0.2013892028241872
 20
-1.50327024483734
 30
0.0
 11
-0.03193085011438277
 21
0.1369518580960954
 31
0.0
210
0.0
220
0.0
230
1.0
 40
0.3659981507706729
 41
1.144545279139741
 42
1.951156734850496
  0
LWPOLYLINE
  5
147
330
103
100
AcDbEntity
  8
AM_9
100
AcDbPolyline
 90
        3
 70
     0
 43
0.0
 10
-0.2099962668917054
 20
-1.646671457656344
 10
-0.2163479371246914
 20
-1.617339189975666
 10
-0.225837874301963
 20
-1.58805747759944
  0
LINE
  5
148
330
103
100
AcDbEntity
  8
AM_9
100
AcDbLine
 10
-0.225837874301963
 20
-1.58805747759944
 30
0.0
 11
-0.2360765106845278
 21
-1.564965725501071
 31
0.0
  0
LWPOLYLINE
  5
149
330
103
100
AcDbEntity
  8
AM_9
100
AcDbPolyline
 90
        3
 70
     0
 43
0.0
 10
-0.2360765106845278
 20
-1.564965725501071
 10
-0.2462091938631852
 20
-1.546421611213501
 10
-0.2689146070947223
 20
-1.512514734350518
  0
LINE
  5
14A
330
103
100
AcDbEntity
  8
AM_9
100
AcDbLine
 10
-0.2689146070947223
 20
-1.512514734350518
 30
0.0
 11
-0.2987675689889719
 21
-1.519475066725467
 31
0.0
  0
LWPOLYLINE
  5
14B
330
103
100
AcDbEntity
  8
AM_9
100
AcDbPolyline
 90
        3
 70
     0
 43
0.0
 10
-0.2987675689889719
 20
-1.519475066725467
 10
-0.2912216284034025
 20
-1.547576183495197
 10
-0.28139190003636
 20
-1.575531182044589
  0
LINE
  5
14C
330
103
100
AcDbEntity
  8
AM_9
100
AcDbLine
 10
-0.28139190003636
 20
-1.575531182044589
 30
0.0
 11
-0.2711532636537957
 21
-1.598622934142958
 31
0.0
  0
LWPOLYLINE
  5
14D
330
103
100
AcDbEntity
  8
AM_9
100
AcDbPolyline
 90
        3
 70
     0
 43
0.0
 10
-0.2711532636537957
 20
-1.598622934142958
 10
-0.2561815527589922
 20
-1.626327936735335
 10
-0.2389369657326277
 20
-1.653419092407283
  0
LINE
  5
14E
330
103
100
AcDbEntity
  8
AM_9
100
AcDbLine
 10
-0.2099962668917054
 20
-1.646671457656344
 30
0.0
 11
-0.2389369657326277
 21
-1.653419092407283
 31
0.0
  0
LWPOLYLINE
  5
14F
330
103
100
AcDbEntity
  8
AM_9
100
AcDbPolyline
 90
        3
 70
     0
 43
0.0
 10
0.1079600609423497
 20
-1.174293347904895
 10
0.0546874999999999
 20
-1.148852940392517
 10
-0.0000000000000002
 20
-1.124846299848307
  0
LINE
  5
150
330
103
100
AcDbEntity
  8
AM_9
100
AcDbLine
 10
0.1093749999999998
 20
-1.175
 30
0.0
 11
0.1079600609423497
 21
-1.174293347904895
 31
0.0
  0
LWPOLYLINE
  5
151
330
103
100
AcDbEntity
  8
AM_9
100
AcDbPolyline
 90
        3
 70
     0
 43
0.0
 10
-0.0000000000000002
 20
-1.124846299848307
 10
-0.0544416102741497
 20
-1.148740567611884
 10
-0.1093750000000001
 20
-1.175
  0
LWPOLYLINE
  5
152
330
103
100
AcDbEntity
  8
AM_9
100
AcDbPolyline
 90
        3
 70
     0
 43
0.0
 10
0.1093749999999998
 20
-1.225
 10
0.1640624999999998
 20
-1.251147059607482
 10
0.2187499999999999
 20
-1.275153700151693
  0
LWPOLYLINE
  5
153
330
103
100
AcDbEntity
  8
AM_9
100
AcDbPolyline
 90
        3
 70
     0
 43
0.0
 10
-0.2187500000000001
 20
-1.275153700151693
 10
-0.1643083897258505
 20
-1.251259432388115
 10
-0.1093750000000001
 20
-1.225
  0
LINE
  5
154
330
103
100
AcDbEntity
  8
AM_9
100
AcDbLine
 10
-0.0000000000000002
 20
-1.165778700151693
 30
0.0
 11
-0.0000000000000002
 21
-1.124846299848307
 31
0.0
  0
LWPOLYLINE
  5
155
330
103
100
AcDbEntity
  8
AM_9
100
AcDbPolyline
 90
        3
 70
     0
 43
0.0
 10
-0.1107530746303844
 20
-1.17568981270996
 10
-0.1640625000000001
 20
-1.203540440392517
 10
-0.2187500000000001
 20
-1.234221299848307
  0
LINE
  5
156
330
103
100
AcDbEntity
  8
AM_9
100
AcDbLine
 10
-0.1093750000000001
 20
-1.175
 30
0.0
 11
-0.1107530746303844
 21
-1.17568981270996
 31
0.0
  0
LWPOLYLINE
  5
157
330
103
100
AcDbEntity
  8
AM_9
100
AcDbPolyline
 90
        3
 70
     0
 43
0.0
 10
0.2187499999999999
 20
-1.234221299848307
 10
0.1643083897258503
 20
-1.203673957337735
 10
0.1093749999999998
 20
-1.175
  0
ELLIPSE
  5
158
330
103
100
AcDbEntity
  8
AM_9
100
AcDbEllipse
 10
-0.0000000000000002
 20
-1.4625
 30
0.0
 11
-0.2000000000000001
 21
2.449293598294707E-17
 31
0.0
210
0.0
220
0.0
230
1.0
 40
0.8660254037844392
 41
0.4619460205669679
 42
5.821239286612622
  0
LWPOLYLINE
  5
159
330
103
100
AcDbEntity
  8
AM_9
100
AcDbPolyline
 90
        7
 70
     0
 43
0.0
 10
-0.1790373738501785
 20
-1.539695945966246
 10
-0.1842628795203942
 20
-1.523701216295605
 10
-0.1891729979031394
 20
-1.507644458256412
 10
-0.1936098952159724
 20
-1.490877825105295
 10
-0.1971856748420372
 20
-1.473429808725254
 10
-0.1994144431868155
 20
-1.455957633207593
 10
-0.1999999999699529
 20
-1.44225755900097
  0
LINE
  5
15A
330
103
100
AcDbEntity
  8
AM_9
100
AcDbLine
 10
0.1999999999999998
 20
-1.4625
 30
0.0
 11
0.1999999999999998
 21
-1.3890625
 31
0.0
  0
LWPOLYLINE
  5
15B
330
103
100
AcDbEntity
  8
AM_9
100
AcDbPolyline
 90
        8
 70
     0
 43
0.0
 10
-0.1999999999699529
 20
-1.44225755900097
 10
-0.1999786710855128
 20
-1.439747492794571
 10
-0.1988321115509054
 20
-1.424477046299115
 10
-0.196164942998426
 20
-1.411547828583382
 10
-0.1920694300574959
 20
-1.400495849846331
 10
-0.1870948030566196
 20
-1.392226804053058
 10
-0.1815005947613931
 20
-1.386703487144151
 10
-0.1790373738501785
 20
-1.385304054033754
  0
LINE
  5
15C
330
103
100
AcDbEntity
  8
AM_9
100
AcDbLine
 10
-0.2187500000000001
 20
-1.493903700151693
 30
0.0
 11
-0.2187500000000001
 21
-1.234221299848307
 31
0.0
  0
LWPOLYLINE
  5
15D
330
103
100
AcDbEntity
  8
AM_9
100
AcDbPolyline
 90
        3
 70
     0
 43
0.0
 10
-0.1093750000000001
 20
-1.553125
 10
-0.1640625000000001
 20
-1.524584559607483
 10
-0.2187500000000001
 20
-1.493903700151693
  0
LINE
  5
15E
330
103
100
AcDbEntity
  8
AM_9
100
AcDbLine
 10
-0.1079587001009075
 20
-1.55383233094273
 30
0.0
 11
-0.1093750000000001
 21
-1.553125
 31
0.0
  0
LWPOLYLINE
  5
15F
330
103
100
AcDbEntity
  8
AM_9
100
AcDbPolyline
 90
        3
 70
     0
 43
0.0
 10
-0.0000000000000001
 20
-1.603278700151692
 10
-0.0544416102741497
 20
-1.579384432388115
 10
-0.1079587001009075
 20
-1.55383233094273
  0
LWPOLYLINE
  5
160
330
103
100
AcDbEntity
  8
AM_9
100
AcDbPolyline
 90
        3
 70
     0
 43
0.0
 10
-0.2187500000000001
 20
-1.452971299848307
 10
-0.1643083897258505
 20
-1.476865567611884
 10
-0.1093750000000001
 20
-1.503125
  0
LWPOLYLINE
  5
161
330
103
100
AcDbEntity
  8
AM_9
100
AcDbPolyline
 90
        3
 70
     0
 43
0.0
 10
-0.1093750000000001
 20
-1.503125
 10
-0.0546875000000001
 20
-1.531665440392517
 10
-0.0000000000000001
 20
-1.562346299848307
  0
LINE
  5
162
330
103
100
AcDbEntity
  8
AM_9
100
AcDbLine
 10
-0.0000000000000001
 20
-1.603278700151692
 30
0.0
 11
-0.0000000000000001
 21
-1.562346299848307
 31
0.0
  0
LWPOLYLINE
  5
163
330
103
100
AcDbEntity
  8
AM_9
100
AcDbPolyline
 90
        3
 70
     0
 43
0.0
 10
0.1093749999999998
 20
-1.553125
 10
0.0546874999999999
 20
-1.579272059607483
 10
-0.0000000000000001
 20
-1.603278700151692
  0
LINE
  5
164
330
103
100
AcDbEntity
  8
AM_9
100
AcDbLine
 10
0.1107542101200968
 20
-1.552434618266872
 30
0.0
 11
0.1093749999999998
 21
-1.553125
 31
0.0
  0
LWPOLYLINE
  5
165
330
103
100
AcDbEntity
  8
AM_9
100
AcDbPolyline
 90
        3
 70
     0
 43
0.0
 10
0.2187499999999999
 20
-1.493903700151693
 10
0.1643083897258503
 20
-1.524451042662265
 10
0.1107542101200968
 20
-1.552434618266872
  0
LINE
  5
166
330
103
100
AcDbEntity
  8
AM_9
100
AcDbLine
 10
0.2187499999999999
 20
-1.493903700151693
 30
0.0
 11
0.2187499999999999
 21
-1.234221299848307
 31
0.0
  0
LWPOLYLINE
  5
167
330
103
100
AcDbEntity
  8
AM_9
100
AcDbPolyline
 90
        3
 70
     0
 43
0.0
 10
0.1093749999999998
 20
-1.503125
 10
0.1640624999999998
 20
-1.476977940392517
 10
0.2187499999999999
 20
-1.452971299848307
  0
LWPOLYLINE
  5
168
330
103
100
AcDbEntity
  8
AM_9
100
AcDbPolyline
 90
        3
 70
     0
 43
0.0
 10
-0.0000000000000001
 20
-1.562346299848307
 10
0.0544416102741494
 20
-1.531798957337735
 10
0.1093749999999998
 20
-1.503125
  0
LINE
  5
169
330
103
100
AcDbEntity
  8
AM_9
100
AcDbLine
 10
0.1999999999999998
 20
-1.3390625
 30
0.0
 11
0.1999999999999998
 21
-1.3
 31
0.0
  0
LINE
  5
16A
330
103
100
AcDbEntity
  8
AM_9
100
AcDbLine
 10
-0.1851454569549802
 20
-1.193809912570727
 30
0.0
 11
-0.1912304659644924
 21
-1.291022462287446
 31
0.0
  0
LINE
  5
16B
330
103
100
AcDbEntity
  8
AM_9
100
AcDbLine
 10
0.1912304659644922
 20
-1.291022462287446
 30
0.0
 11
0.1851454569549799
 21
-1.193809912570727
 31
0.0
  0
ELLIPSE
  5
16C
330
103
100
AcDbEntity
  8
AM_9
100
AcDbEllipse
 10
-0.0000000000000001
 20
-1.190625
 30
0.0
 11
0.1616637258772237
 21
0.0
 31
0.0
210
0.0
220
0.0
230
1.0
 40
0.8660254037844384
 41
0.0
 42
6.283185307179586
  0
ELLIPSE
  5
16D
330
103
100
AcDbEntity
  8
AM_9
100
AcDbEllipse
 10
-0.4687500000000009
 20
-1.565606438444093
 30
0.0
 11
-0.0234971640207466
 21
0.100779661709677
 31
0.0
210
0.0
220
0.0
230
1.0
 40
0.3659981507706671
 41
0.0
 42
6.283185307179586
  0
ELLIPSE
  5
16E
330
103
100
AcDbEntity
  8
AM_9
100
AcDbEllipse
 10
-0.3729962569746643
 20
-1.543281086609234
 30
0.0
 11
-0.03024351534849234
 21
0.1297148559307584
 31
0.0
210
0.0
220
0.0
230
1.0
 40
0.3659981507706669
 41
0.0
 42
6.283185307179586
  0
ELLIPSE
  5
16F
330
103
100
AcDbEntity
  8
AM_9
100
AcDbEllipse
 10
-0.201389202824188
 20
-1.503270244837341
 30
0.0
 11
-0.02497702053391717
 21
0.1071267867773897
 31
0.0
210
0.0
220
0.0
230
1.0
 40
0.3659981507706674
 41
0.0
 42
6.283185307179586
  0
ELLIPSE
  5
170
330
103
100
AcDbEntity
  8
AM_9
100
AcDbEllipse
 10
0.0000000000000002
 20
-1.389062499999999
 30
0.0
 11
-0.2000000000000004
 21
2.449293598294711E-17
 31
0.0
210
0.0
220
0.0
230
1.0
 40
0.8660254037844389
 41
0.0
 42
6.283185307179586
  0
ELLIPSE
  5
171
330
103
100
AcDbEntity
  8
AM_9
100
AcDbEllipse
 10
-0.0000000000165909
 20
-1.38906249998565
 30
0.0
 11
-0.2187500000330235
 21
3.259629038435412E-9
 31
0.0
210
0.0
220
0.0
230
1.0
 40
0.8660254037435164
 41
0.0
 42
6.283185307179586
  0
ELLIPSE
  5
172
330
103
100
AcDbEntity
  8
AM_9
100
AcDbEllipse
 10
0.0
 20
-1.3390625
 30
0.0
 11
-0.2187499999999999
 21
2.678914873134834E-17
 31
0.0
210
0.0
220
0.0
230
1.0
 40
0.8660254037844375
 41
0.0
 42
6.283185307179586
  0
ELLIPSE
  5
173
330
103
100
AcDbEntity
  8
AM_9
100
AcDbEllipse
 10
-0.0000000000000004
 20
-1.3390625
 30
0.0
 11
-0.1999999999999997
 21
2.449293598294703E-17
 31
0.0
210
0.0
220
0.0
230
1.0
 40
0.8660254037844395
 41
0.0
 42
6.283185307179586
  0
ELLIPSE
  5
174
330
103
100
AcDbEntity
  8
AM_9
100
AcDbEllipse
 10
0.0000000000000002
 20
-1.299999999999999
 30
0.0
 11
-0.2000000000000004
 21
2.449293598294711E-17
 31
0.0
210
0.0
220
0.0
230
1.0
 40
0.8660254037844389
 41
0.0
 42
6.283185307179586
  0
ELLIPSE
  5
175
330
103
100
AcDbEntity
  8
AM_9
100
AcDbEllipse
 10
0.0000000000000001
 20
-1.299999999999999
 30
0.0
 11
-0.1915112338502297
 21
2.345336195354440E-17
 31
0.0
210
0.0
220
0.0
230
1.0
 40
0.8660254037844398
 41
0.0
 42
6.283185307179586
  0
ELLIPSE
  5
176
330
103
100
AcDbEntity
  8
AM_9
100
AcDbEllipse
 10
-0.0000000000000001
 20
-1.202501782423881
 30
0.0
 11
-0.1854172907249857
 21
2.270706915929280E-17
 31
0.0
210
0.0
220
0.0
230
1.0
 40
0.866025403784439
 41
0.0
 42
6.283185307179586
  0
ENDBLK
  5
106
330
103
100
AcDbEntity
  8
0
100
AcDbBlockEnd
  0
BLOCK
  5
179
330
177
100
AcDbEntity
  8
0
100
AcDbBlockBegin
  2
4_131230H_0_in_131230_2
 70
     2
 10
0.0
 20
0.0
 30
0.0
  3
4_131230H_0_in_131230_2
  1

  0
ATTDEF
  5
17B
330
177
100
AcDbEntity
  8
AM_6
100
AcDbText
 10
6.25
 20
2.94
 30
0.0
 40
0.5
  1
WSTU-SXR -I-Housing
100
AcDbAttributeDefinition
  3

  2
NN
 70
     8
280
     0
  0
ATTDEF
  5
17C
330
177
100
AcDbEntity
  8
AM_6
100
AcDbText
 10
6.25
 20
2.44
 30
0.0
 40
0.5
  1
SXR Normal Duty Wide Slot Take-Up Bearings
100
AcDbAttributeDefinition
  3

  2
NT
 70
     8
280
     0
  0
ATTDEF
  5
17D
330
177
100
AcDbEntity
  8
AM_6
100
AcDbText
 10
6.25
 20
1.94
 30
0.0
 40
0.5
  1
131230H
100
AcDbAttributeDefinition
  3

  2
NB
 70
     8
280
     0
  0
ATTDEF
  5
17E
330
177
100
AcDbEntity
  8
AM_6
100
AcDbText
 10
6.25
 20
1.44
 30
0.0
 40
0.5
  1
$PN.H
100
AcDbAttributeDefinition
  3

  2
NBSYN
 70
     8
280
     0
  0
ATTDEF
  5
17F
330
177
100
AcDbEntity
  8
AM_6
100
AcDbText
 10
6.25
 20
0.94
 30
0.0
 40
0.5
  1
131230
100
AcDbAttributeDefinition
  3

  2
LINA
 70
     8
280
     0
  0
ATTDEF
  5
180
330
177
100
AcDbEntity
  8
AM_6
100
AcDbText
 10
6.25
 20
0.4399999999999999
 30
0.0
 40
0.5
  1
211
100
AcDbAttributeDefinition
  3

  2
SERIES
 70
     8
280
     0
  0
ATTDEF
  5
181
330
177
100
AcDbEntity
  8
AM_6
100
AcDbText
 10
6.25
 20
-0.0600000000000001
 30
0.0
 40
0.5
  1
2-3/16
100
AcDbAttributeDefinition
  3

  2
SS
 70
     8
280
     0
  0
ATTDEF
  5
182
330
177
100
AcDbEntity
  8
AM_6
100
AcDbText
 10
6.25
 20
-0.56
 30
0.0
 40
0.5
  1
2.187500
100
AcDbAttributeDefinition
  3

  2
SS1
 70
     8
280
     0
  0
ATTDEF
  5
183
330
177
100
AcDbEntity
  8
AM_6
100
AcDbText
 10
6.25
 20
-1.06
 30
0.0
 40
0.5
  1
131230
100
AcDbAttributeDefinition
  3

  2
PN
 70
     8
280
     0
  0
ATTDEF
  5
184
330
177
100
AcDbEntity
  8
AM_6
100
AcDbText
 10
6.25
 20
-1.56
 30
0.0
 40
0.5
  1
WSTU-SXR-203
100
AcDbAttributeDefinition
  3

  2
DESCRIPTION
 70
     8
280
     0
  0
ATTDEF
  5
185
330
177
100
AcDbEntity
  8
AM_6
100
AcDbText
 10
6.25
 20
-2.06
 30
0.0
 40
0.5
  1
RE-LUBE
100
AcDbAttributeDefinition
  3

  2
LF
 70
     8
280
     0
  0
ATTDEF
  5
186
330
177
100
AcDbEntity
  8
AM_6
100
AcDbText
 10
6.25
 20
-2.56
 30
0.0
 40
0.5
  1
3.937000
100
AcDbAttributeDefinition
  3

  2
BOD
 70
     8
280
     0
  0
ATTDEF
  5
187
330
177
100
AcDbEntity
  8
AM_6
100
AcDbText
 10
6.25
 20
-3.06
 30
0.0
 40
0.5
  1
0.944900
100
AcDbAttributeDefinition
  3

  2
BW
 70
     8
280
     0
  0
ATTDEF
  5
188
330
177
100
AcDbEntity
  8
AM_6
100
AcDbText
 10
6.25
 20
-3.56
 30
0.0
 40
0.5
  1
10.0
100
AcDbAttributeDefinition
  3

  2
W
 70
     8
280
     0
  0
ATTDEF
  5
189
330
177
100
AcDbEntity
  8
AM_6
100
AcDbText
 10
6.25
 20
-4.06
 30
0.0
 40
0.5
  1
WS502
100
AcDbAttributeDefinition
  3

  2
FS
 70
     8
280
     0
  0
ATTDEF
  5
18A
330
177
100
AcDbEntity
  8
AM_6
100
AcDbText
 10
6.25
 20
-4.56
 30
0.0
 40
0.5
  1
2.59
100
AcDbAttributeDefinition
  3

  2
A
 70
     8
280
     0
  0
ATTDEF
  5
18B
330
177
100
AcDbEntity
  8
AM_6
100
AcDbText
 10
6.25
 20
-5.06
 30
0.0
 40
0.5
  1
2.590000
100
AcDbAttributeDefinition
  3

  2
A1
 70
     8
280
     0
  0
ATTDEF
  5
18C
330
177
100
AcDbEntity
  8
AM_6
100
AcDbText
 10
6.25
 20
-5.56
 30
0.0
 40
0.5
  1
6.69
100
AcDbAttributeDefinition
  3

  2
B
 70
     8
280
     0
  0
ATTDEF
  5
18D
330
177
100
AcDbEntity
  8
AM_6
100
AcDbText
 10
6.25
 20
-6.06
 30
0.0
 40
0.5
  1
6.690000
100
AcDbAttributeDefinition
  3

  2
B1
 70
     8
280
     0
  0
ATTDEF
  5
18E
330
177
100
AcDbEntity
  8
AM_6
100
AcDbText
 10
6.25
 20
-6.56
 30
0.0
 40
0.5
  1
1.063
100
AcDbAttributeDefinition
  3

  2
C
 70
     8
280
     0
  0
ATTDEF
  5
18F
330
177
100
AcDbEntity
  8
AM_6
100
AcDbText
 10
6.25
 20
-7.06
 30
0.0
 40
0.5
  1
1.063000
100
AcDbAttributeDefinition
  3

  2
C1
 70
     8
280
     0
  0
ATTDEF
  5
190
330
177
100
AcDbEntity
  8
AM_6
100
AcDbText
 10
6.25
 20
-7.56
 30
0.0
 40
0.5
  1
3.75
100
AcDbAttributeDefinition
  3

  2
D
 70
     8
280
     0
  0
ATTDEF
  5
191
330
177
100
AcDbEntity
  8
AM_6
100
AcDbText
 10
6.25
 20
-8.06
 30
0.0
 40
0.5
  1
3.750000
100
AcDbAttributeDefinition
  3

  2
D1
 70
     8
280
     0
  0
ATTDEF
  5
192
330
177
100
AcDbEntity
  8
AM_6
100
AcDbText
 10
6.25
 20
-8.56
 30
0.0
 40
0.5
  1
4.19
100
AcDbAttributeDefinition
  3

  2
E
 70
     8
280
     0
  0
ATTDEF
  5
193
330
177
100
AcDbEntity
  8
AM_6
100
AcDbText
 10
6.25
 20
-9.06
 30
0.0
 40
0.5
  1
4.190000
100
AcDbAttributeDefinition
  3

  2
E1
 70
     8
280
     0
  0
ATTDEF
  5
194
330
177
100
AcDbEntity
  8
AM_6
100
AcDbText
 10
6.25
 20
-9.56
 30
0.0
 40
0.5
  1
1-1/4
100
AcDbAttributeDefinition
  3

  2
F
 70
     8
280
     0
  0
ATTDEF
  5
195
330
177
100
AcDbEntity
  8
AM_6
100
AcDbText
 10
6.25
 20
-10.06
 30
0.0
 40
0.5
  1
1.250000
100
AcDbAttributeDefinition
  3

  2
F1
 70
     8
280
     0
  0
ATTDEF
  5
196
330
177
100
AcDbEntity
  8
AM_6
100
AcDbText
 10
6.25
 20
-10.56
 30
0.0
 40
0.5
  1
0.75
100
AcDbAttributeDefinition
  3

  2
G
 70
     8
280
     0
  0
ATTDEF
  5
197
330
177
100
AcDbEntity
  8
AM_6
100
AcDbText
 10
6.25
 20
-11.06
 30
0.0
 40
0.5
  1
0.750000
100
AcDbAttributeDefinition
  3

  2
G1
 70
     8
280
     0
  0
ATTDEF
  5
198
330
177
100
AcDbEntity
  8
AM_6
100
AcDbText
 10
6.25
 20
-11.56
 30
0.0
 40
0.5
  1
1.00
100
AcDbAttributeDefinition
  3

  2
H
 70
     8
280
     0
  0
ATTDEF
  5
199
330
177
100
AcDbEntity
  8
AM_6
100
AcDbText
 10
6.25
 20
-12.06
 30
0.0
 40
0.5
  1
1.000000
100
AcDbAttributeDefinition
  3

  2
H1
 70
     8
280
     0
  0
ATTDEF
  5
19A
330
177
100
AcDbEntity
  8
AM_6
100
AcDbText
 10
6.25
 20
-12.56
 30
0.0
 40
0.5
  1
4.00
100
AcDbAttributeDefinition
  3

  2
J
 70
     8
280
     0
  0
ATTDEF
  5
19B
330
177
100
AcDbEntity
  8
AM_6
100
AcDbText
 10
6.25
 20
-13.06
 30
0.0
 40
0.5
  1
4.000000
100
AcDbAttributeDefinition
  3

  2
J1
 70
     8
280
     0
  0
ATTDEF
  5
19C
330
177
100
AcDbEntity
  8
AM_6
100
AcDbText
 10
6.25
 20
-13.56
 30
0.0
 40
0.5
  1
2.50
100
AcDbAttributeDefinition
  3

  2
K
 70
     8
280
     0
  0
ATTDEF
  5
19D
330
177
100
AcDbEntity
  8
AM_6
100
AcDbText
 10
6.25
 20
-14.06
 30
0.0
 40
0.5
  1
3.00
100
AcDbAttributeDefinition
  3

  2
L
 70
     8
280
     0
  0
ATTDEF
  5
19E
330
177
100
AcDbEntity
  8
AM_6
100
AcDbText
 10
6.25
 20
-14.56
 30
0.0
 40
0.5
  1
3.000000
100
AcDbAttributeDefinition
  3

  2
L1
 70
     8
280
     0
  0
ATTDEF
  5
19F
330
177
100
AcDbEntity
  8
AM_6
100
AcDbText
 10
6.25
 20
-15.06
 30
0.0
 40
0.5
  1
5.110/5.140
100
AcDbAttributeDefinition
  3

  2
M
 70
     8
280
     0
  0
ATTDEF
  5
1A0
330
177
100
AcDbEntity
  8
AM_6
100
AcDbText
 10
6.25
 20
-15.56
 30
0.0
 40
0.5
  1
5.140000
100
AcDbAttributeDefinition
  3

  2
M1
 70
     8
280
     0
  0
ATTDEF
  5
1A1
330
177
100
AcDbEntity
  8
AM_6
100
AcDbText
 10
6.25
 20
-16.06
 30
0.0
 40
0.5
  1
5.88
100
AcDbAttributeDefinition
  3

  2
N
 70
     8
280
     0
  0
ATTDEF
  5
1A2
330
177
100
AcDbEntity
  8
AM_6
100
AcDbText
 10
6.25
 20
-16.56
 30
0.0
 40
0.5
  1
5.880000
100
AcDbAttributeDefinition
  3

  2
N1
 70
     8
280
     0
  0
ATTDEF
  5
1A3
330
177
100
AcDbEntity
  8
AM_6
100
AcDbText
 10
6.25
 20
-17.06
 30
0.0
 40
0.5
  1
0.88
100
AcDbAttributeDefinition
  3

  2
R
 70
     8
280
     0
  0
ATTDEF
  5
1A4
330
177
100
AcDbEntity
  8
AM_6
100
AcDbText
 10
6.25
 20
-17.56
 30
0.0
 40
0.5
  1
0.880000
100
AcDbAttributeDefinition
  3

  2
R1
 70
     8
280
     0
  0
ATTDEF
  5
1A5
330
177
100
AcDbEntity
  8
AM_6
100
AcDbText
 10
6.25
 20
-18.06
 30
0.0
 40
0.5
  1
1.71
100
AcDbAttributeDefinition
  3

  2
S
 70
     8
280
     0
  0
ATTDEF
  5
1A6
330
177
100
AcDbEntity
  8
AM_6
100
AcDbText
 10
6.25
 20
-18.56
 30
0.0
 40
0.5
  1
1.710000
100
AcDbAttributeDefinition
  3

  2
S1
 70
     8
280
     0
  0
ATTDEF
  5
1A7
330
177
100
AcDbEntity
  8
AM_6
100
AcDbText
 10
6.25
 20
-19.06
 30
0.0
 40
0.5
  1
2.50
100
AcDbAttributeDefinition
  3

  2
T
 70
     8
280
     0
  0
ATTDEF
  5
1A8
330
177
100
AcDbEntity
  8
AM_6
100
AcDbText
 10
6.25
 20
-19.56
 30
0.0
 40
0.5
  1
5630
100
AcDbAttributeDefinition
  3

  2
CAPS
 70
     8
280
     0
  0
ATTDEF
  5
1A9
330
177
100
AcDbEntity
  8
AM_6
100
AcDbText
 10
6.25
 20
-20.06
 30
0.0
 40
0.5
  1
9975
100
AcDbAttributeDefinition
  3

  2
CAPD
 70
     8
280
     0
  0
ATTDEF
  5
1AA
330
177
100
AcDbEntity
  8
AM_6
100
AcDbText
 10
6.25
 20
-20.56
 30
0.0
 40
0.5
  1
baldor
100
AcDbAttributeDefinition
  3

  2
COMPANY
 70
     8
280
     0
  0
LWPOLYLINE
  5
1AB
330
177
100
AcDbEntity
  8
AM_9
100
AcDbPolyline
 90
        4
 70
     0
 43
0.0
 10
0.431180040108759
 20
-1.13681550261748
 10
0.4365368357338442
 20
-1.154192482005748
 10
0.4466067215940633
 20
-1.202020990241566
 10
0.4500000000000001
 20
-1.25
  0
LWPOLYLINE
  5
1AC
330
177
100
AcDbEntity
  8
AM_9
100
AcDbPolyline
 90
       27
 70
     0
 43
0.0
 10
-0.4500000000000003
 20
-1.250000000000001
 10
-0.447428388211415
 20
-1.208227497664495
 10
-0.4397770188020487
 20
-1.166493863254241
 10
-0.4265432153574474
 20
-1.12385231171949
 10
-0.4080888332453509
 20
-1.082232824408919
 10
-0.3847637734792926
 20
-1.042446808360697
 10
-0.3564169383239928
 20
-1.004569827018256
 10
-0.3235872445730981
 20
-0.969404262653206
 10
-0.2868713111202833
 20
-0.9376652011383868
 10
-0.2460343868986165
 20
-0.9094569273404915
 10
-0.2019211547682606
 20
-0.8854841778003446
 10
-0.1553534463082592
 20
-0.8662831093680908
 10
-0.1069674178738336
 20
-0.8522447710593062
 10
-0.0570394518032226
 20
-0.8433853655188013
 10
-0.006532859833981
 20
-0.8399172390529969
 10
0.0433214881899817
 20
-0.841910096797238
 10
0.0927851093676818
 20
-0.84915864934124
 10
0.140928411915187
 20
-0.8614934033240689
 10
0.1872083593436661
 20
-0.8787900099202114
 10
0.2313102893699547
 20
-0.9007625148392291
 10
0.272442867549983
 20
-0.9269348263269329
 10
0.3107031836992687
 20
-0.9574908053125815
 10
0.3451992199102454
 20
-0.991678383374289
 10
0.3753004524102854
 20
-1.028791446199141
 10
0.4008439161496013
 20
-1.068768528570083
 10
0.4213909131886711
 20
-1.110855468416802
 10
0.431180040108759
 20
-1.13681550261748
  0
ELLIPSE
  5
1AD
330
177
100
AcDbEntity
  8
AM_9
100
AcDbEllipse
 10
-0.0000000000000001
 20
-1.3
 30
0.0
 11
-0.35
 21
4.286263797015737E-17
 31
0.0
210
0.0
220
0.0
230
1.0
 40
0.8660254037844385
 41
0.0
 42
6.283185307179586
  0
ELLIPSE
  5
1AE
330
177
100
AcDbEntity
  8
AM_9
100
AcDbEllipse
 10
-0.0000000000000001
 20
-1.25
 30
0.0
 11
0.4500000000000003
 21
0.0
 31
0.0
210
0.0
220
0.0
230
1.0
 40
0.8660254037844388
 41
0.2944451561372849
 42
2.895703936381552
  0
ELLIPSE
  5
1AF
330
177
100
AcDbEntity
  8
AM_9
100
AcDbEllipse
 10
0.0000000000000013
 20
-1.249999999999998
 30
0.0
 11
0.4499999999999989
 21
0.0
 31
0.0
210
0.0
220
0.0
230
1.0
 40
0.8660254037844385
 41
0.0
 42
0.2944451561372812
  0
LINE
  5
1B0
330
177
100
AcDbEntity
  8
AM_9
100
AcDbLine
 10
0.4499837404441886
 20
-1.253433360081762
 30
0.0
 11
0.4499994157572064
 21
-1.249349173029194
 31
0.0
  0
LWPOLYLINE
  5
1B1
330
177
100
AcDbEntity
  8
AM_9
100
AcDbPolyline
 90
        3
 70
     0
 43
0.0
 10
-0.4414801600748014
 20
-1.324715080441038
 10
-0.4467073513569667
 20
-1.296762193647016
 10
-0.4500000000000003
 20
-1.250000000000001
  0
LWPOLYLINE
  5
1B2
330
177
100
AcDbEntity
  8
AM_9
100
AcDbPolyline
 90
       28
 70
     0
 43
0.0
 10
0.4500000000000001
 20
-1.25
 10
0.4471783023486731
 20
-1.293036625519473
 10
0.4388241951523653
 20
-1.335175232409137
 10
0.4251041570475877
 20
-1.37564684295486
 10
0.4060965016803195
 20
-1.414063701338288
 10
0.3820556423654091
 20
-1.450190715692539
 10
0.3534307784643737
 20
-1.48344316543823
 10
0.3200805866437464
 20
-1.513842611531076
 10
0.2826271999259742
 20
-1.54090113961761
 10
0.2417526002581021
 20
-1.564207517671834
 10
0.1974508613969316
 20
-1.583702437997223
 10
0.1504576668652122
 20
-1.59913688067515
 10
0.1016636261114872
 20
-1.610269377438722
 10
0.052059790600499
 20
-1.616927441368341
 10
0.0016259837237426
 20
-1.619266623403094
 10
-0.0486667690934702
 20
-1.617249699480873
 10
-0.0977265622197036
 20
-1.610939144199221
 10
-0.1457156008381512
 20
-1.600427985767969
 10
-0.1917497283469313
 20
-1.585876123511295
 10
-0.2356182571676714
 20
-1.567204963214321
 10
-0.2767011253949208
 20
-1.544640126181329
 10
-0.31426356568577
 20
-1.518516091777793
 10
-0.3483833854171926
 20
-1.488484606051812
 10
-0.3782275481203719
 20
-1.455132656179233
 10
-0.4032364813120439
 20
-1.418992753692208
 10
-0.4231148522979764
 20
-1.380237816703061
 10
-0.4377029843826928
 20
-1.339247963556917
 10
-0.4414801600748014
 20
-1.324715080441038
  0
ELLIPSE
  5
1B3
330
177
100
AcDbEntity
  8
AM_9
100
AcDbEllipse
 10
-0.0000000000000003
 20
-1.25
 30
0.0
 11
0.4500000000000005
 21
6.705522537231455E-9
 31
0.0
210
0.0
220
0.0
230
1.0
 40
0.8660254037844387
 41
3.488267628707447
 42
5.947165856058109
  0
LINE
  5
1B4
330
177
100
AcDbEntity
  8
AM_9
100
AcDbLine
 10
0.90355
 20
-1.576982878791016
 30
0.0
 11
0.8535500000000001
 21
-1.65359456941537
 31
0.0
  0
LINE
  5
1B5
330
177
100
AcDbEntity
  8
AM_9
100
AcDbLine
 10
-0.8535499999999996
 20
-1.65359456941537
 30
0.0
 11
-0.9035499999999993
 21
-1.576982878791014
 31
0.0
  0
LINE
  5
1B6
330
177
100
AcDbEntity
  8
AM_9
100
AcDbLine
 10
0.8535500000000001
 20
-1.65359456941537
 30
0.0
 11
-0.8535499999999996
 21
-1.65359456941537
 31
0.0
  0
LINE
  5
1B7
330
177
100
AcDbEntity
  8
AM_9
100
AcDbLine
 10
-0.8535499999999996
 20
1.65359456941537
 30
0.0
 11
0.8535500000000001
 21
1.65359456941537
 31
0.0
  0
LINE
  5
1B8
330
177
100
AcDbEntity
  8
AM_9
100
AcDbLine
 10
0.8535500000000001
 20
-1.65359456941537
 30
0.0
 11
0.8535500000000001
 21
1.65359456941537
 31
0.0
  0
LINE
  5
1B9
330
177
100
AcDbEntity
  8
AM_9
100
AcDbLine
 10
-0.8535499999999996
 20
-1.65359456941537
 30
0.0
 11
-0.8535499999999996
 21
1.65359456941537
 31
0.0
  0
LINE
  5
1BA
330
177
100
AcDbEntity
  8
AM_9
100
AcDbLine
 10
-0.9035499999999993
 20
1.576982878791015
 30
0.0
 11
-0.8535499999999996
 21
1.65359456941537
 31
0.0
  0
LINE
  5
1BB
330
177
100
AcDbEntity
  8
AM_9
100
AcDbLine
 10
0.8535500000000001
 20
1.65359456941537
 30
0.0
 11
0.9035499999999997
 21
1.576982878791015
 31
0.0
  0
LINE
  5
1BC
330
177
100
AcDbEntity
  8
AM_9
100
AcDbLine
 10
-0.4783499999999998
 20
-1.945733920105013
 30
0.0
 11
0.9035499999999997
 21
-1.945733920105013
 31
0.0
  0
LINE
  5
1BD
330
177
100
AcDbEntity
  8
AM_9
100
AcDbLine
 10
-0.4783499999999998
 20
-2.077875
 30
0.0
 11
0.9035499999999994
 21
-2.077875
 31
0.0
  0
LINE
  5
1BE
330
177
100
AcDbEntity
  8
AM_9
100
AcDbLine
 10
-0.4783499999999998
 20
-2.077875
 30
0.0
 11
-0.4783499999999998
 21
-1.82847155357206
 31
0.0
  0
LINE
  5
1BF
330
177
100
AcDbEntity
  8
AM_9
100
AcDbLine
 10
-0.4783499999999998
 20
1.82847155357206
 30
0.0
 11
-0.4783499999999998
 21
2.077875
 31
0.0
  0
LINE
  5
1C0
330
177
100
AcDbEntity
  8
AM_9
100
AcDbLine
 10
-0.4783499999999998
 20
1.945733920105013
 30
0.0
 11
0.9035499999999997
 21
1.945733920105013
 31
0.0
  0
LINE
  5
1C1
330
177
100
AcDbEntity
  8
AM_9
100
AcDbLine
 10
0.90355
 20
2.077875
 30
0.0
 11
-0.4783499999999998
 21
2.077875
 31
0.0
  0
LINE
  5
1C2
330
177
100
AcDbEntity
  8
AM_9
100
AcDbLine
 10
-0.4783499999999998
 20
1.82847155357206
 30
0.0
 11
0.9035499999999999
 21
1.82847155357206
 31
0.0
  0
LINE
  5
1C3
330
177
100
AcDbEntity
  8
AM_9
100
AcDbLine
 10
0.9035499999999999
 20
-1.82847155357206
 30
0.0
 11
-0.4783499999999998
 21
-1.82847155357206
 31
0.0
  0
LINE
  5
1C4
330
177
100
AcDbEntity
  8
AM_9
100
AcDbLine
 10
-0.9035500000000003
 20
-1.9685
 30
0.0
 11
-0.4783499999999998
 21
-1.9685
 31
0.0
  0
LINE
  5
1C5
330
177
100
AcDbEntity
  8
AM_9
100
AcDbLine
 10
-0.4783499999999998
 20
1.9685
 30
0.0
 11
-0.90355
 21
1.9685
 31
0.0
  0
LINE
  5
1C6
330
177
100
AcDbEntity
  8
AM_9
100
AcDbLine
 10
0.9035499999999999
 20
-0.8637692964559465
 30
0.0
 11
0.90355
 21
0.8637692964559454
 31
0.0
  0
LINE
  5
1C7
330
177
100
AcDbEntity
  8
AM_9
100
AcDbLine
 10
-0.90355
 20
0.8637692964559459
 30
0.0
 11
-0.90355
 21
-0.8637692964559459
 31
0.0
  0
LINE
  5
1C8
330
177
100
AcDbEntity
  8
AM_9
100
AcDbLine
 10
-0.9035499999999997
 20
1.1437
 30
0.0
 11
0.9035500000000001
 21
1.1437
 31
0.0
  0
LINE
  5
1C9
330
177
100
AcDbEntity
  8
AM_9
100
AcDbLine
 10
-0.9035499999999999
 20
1.25
 30
0.0
 11
0.90355
 21
1.25
 31
0.0
  0
LINE
  5
1CA
330
177
100
AcDbEntity
  8
AM_9
100
AcDbLine
 10
-0.9035500000000001
 20
-1.25
 30
0.0
 11
0.9035499999999997
 21
-1.25
 31
0.0
  0
LINE
  5
1CB
330
177
100
AcDbEntity
  8
AM_9
100
AcDbLine
 10
-0.9035499999999999
 20
-1.143699999999999
 30
0.0
 11
0.9035500000000001
 21
-1.143699999999999
 31
0.0
  0
LINE
  5
1CC
330
177
100
AcDbEntity
  8
AM_7
100
AcDbLine
 10
0.0000000000000003
 20
-0.65625
 30
0.0
 11
0.0000000000000003
 21
0.65625
 31
0.0
  0
LINE
  5
1CD
330
177
100
AcDbEntity
  8
AM_7
100
AcDbLine
 10
1.1693
 20
0.0
 30
0.0
 11
-1.8395
 21
0.0
 31
0.0
  0
LWPOLYLINE
  5
1CE
330
177
100
AcDbEntity
  8
AM_4
100
AcDbPolyline
 90
       19
 70
     0
 43
0.0
 10
0.9566999999999998
 20
2.94
 10
0.965964655454076
 20
2.939595496407152
 10
0.9751588012859945
 20
2.938385064145197
 10
0.9842124644943978
 20
2.936377915334528
 10
0.9930567412355183
 20
2.933589325589542
 10
1.001624321223036
 20
2.930040517761995
 10
1.00985
 20
2.925758500422286
 10
1.017671175184116
 20
2.920775862307919
 10
1.025028322909679
 20
2.915130524303547
 10
1.03186545084013
 20
2.90886545084013
 10
1.038130524303547
 20
2.902028322909679
 10
1.04377586230792
 20
2.894671175184116
 10
1.048758500422286
 20
2.88685
 10
1.053040517761996
 20
2.878624321223036
 10
1.056589325589542
 20
2.870056741235518
 10
1.059377915334528
 20
2.861212464494397
 10
1.061385064145198
 20
2.852158801285994
 10
1.062595496407153
 20
2.842964655454076
 10
1.063
 20
2.833699999999999
  0
LINE
  5
1CF
330
177
100
AcDbEntity
  8
AM_4
100
AcDbLine
 10
0.5315000000000001
 20
2.57
 30
0.0
 11
0.5315000000000002
 21
2.94
 31
0.0
  0
LINE
  5
1D0
330
177
100
AcDbEntity
  8
AM_4
100
AcDbLine
 10
0.5315000000000002
 20
2.94
 30
0.0
 11
0.9566999999999998
 21
2.94
 31
0.0
  0
LWPOLYLINE
  5
1D1
330
177
100
AcDbEntity
  8
AM_4
100
AcDbPolyline
 90
       19
 70
     0
 43
0.0
 10
-1.063
 20
2.8337
 10
-1.062595496407152
 20
2.842964655454076
 10
-1.061385064145198
 20
2.852158801285995
 10
-1.059377915334528
 20
2.861212464494398
 10
-1.056589325589542
 20
2.870056741235518
 10
-1.053040517761996
 20
2.878624321223036
 10
-1.048758500422286
 20
2.88685
 10
-1.04377586230792
 20
2.894671175184116
 10
-1.038130524303547
 20
2.902028322909679
 10
-1.03186545084013
 20
2.90886545084013
 10
-1.025028322909679
 20
2.915130524303547
 10
-1.017671175184116
 20
2.92077586230792
 10
-1.00985
 20
2.925758500422286
 10
-1.001624321223036
 20
2.930040517761995
 10
-0.9930567412355186
 20
2.933589325589542
 10
-0.9842124644943979
 20
2.936377915334528
 10
-0.9751588012859946
 20
2.938385064145197
 10
-0.9659646554540761
 20
2.939595496407152
 10
-0.9567000000000001
 20
2.94
  0
LINE
  5
1D2
330
177
100
AcDbEntity
  8
AM_4
100
AcDbLine
 10
-0.5315
 20
2.94
 30
0.0
 11
-0.5314999999999999
 21
2.57
 31
0.0
  0
LINE
  5
1D3
330
177
100
AcDbEntity
  8
AM_4
100
AcDbLine
 10
-0.9566999999999998
 20
2.94
 30
0.0
 11
-0.5315
 21
2.94
 31
0.0
  0
LINE
  5
1D4
330
177
100
AcDbEntity
  8
AM_4
100
AcDbLine
 10
0.5315
 20
-2.94
 30
0.0
 11
0.5314999999999998
 21
-2.57
 31
0.0
  0
LINE
  5
1D5
330
177
100
AcDbEntity
  8
AM_4
100
AcDbLine
 10
0.5315
 20
-2.94
 30
0.0
 11
0.9566999999999998
 21
-2.94
 31
0.0
  0
LWPOLYLINE
  5
1D6
330
177
100
AcDbEntity
  8
AM_4
100
AcDbPolyline
 90
       19
 70
     0
 43
0.0
 10
1.063
 20
-2.833699996120024
 10
1.062595496745314
 20
-2.842964651588865
 10
1.061385064818948
 20
-2.852158797464964
 10
1.059377916338739
 20
-2.861212460746629
 10
1.056589326916572
 20
-2.870056737589534
 10
1.053040519401744
 20
-2.878624317706584
 10
1.048758502362273
 20
-2.886849996639842
 10
1.043775864533382
 20
-2.894671172005826
 10
1.038130526797547
 20
-2.902028319937445
 10
1.031865453583687
 20
-2.908865448096572
 10
1.025028325881913
 20
-2.915130521809547
 10
1.017671178362406
 20
-2.920775860082457
 10
1.009850003360157
 20
-2.925758498482298
 10
1.001624324739488
 20
-2.930040516122247
 10
0.993056744881503
 20
-2.933589324262512
 10
0.9842124682421665
 20
-2.936377914330316
 10
0.9751588051070248
 20
-2.938385063471447
 10
0.9659646593192872
 20
-2.93959549606899
 10
0.9567000038799757
 20
-2.94
  0
LINE
  5
1D7
330
177
100
AcDbEntity
  8
AM_4
100
AcDbLine
 10
-0.5315000000000002
 20
-2.57
 30
0.0
 11
-0.5315000000000002
 21
-2.94
 31
0.0
  0
LWPOLYLINE
  5
1D8
330
177
100
AcDbEntity
  8
AM_4
100
AcDbPolyline
 90
       19
 70
     0
 43
0.0
 10
-0.9567000000000007
 20
-2.94
 10
-0.9659646554540766
 20
-2.939595496407152
 10
-0.9751588012859952
 20
-2.938385064145197
 10
-0.9842124644943985
 20
-2.936377915334528
 10
-0.9930567412355191
 20
-2.933589325589542
 10
-1.001624321223037
 20
-2.930040517761995
 10
-1.00985
 20
-2.925758500422286
 10
-1.017671175184117
 20
-2.920775862307919
 10
-1.025028322909679
 20
-2.915130524303547
 10
-1.03186545084013
 20
-2.90886545084013
 10
-1.038130524303548
 20
-2.902028322909679
 10
-1.04377586230792
 20
-2.894671175184116
 10
-1.048758500422286
 20
-2.88685
 10
-1.053040517761996
 20
-2.878624321223036
 10
-1.056589325589542
 20
-2.870056741235519
 10
-1.059377915334528
 20
-2.861212464494398
 10
-1.061385064145198
 20
-2.852158801285995
 10
-1.062595496407153
 20
-2.842964655454076
 10
-1.063
 20
-2.833700001583993
  0
LINE
  5
1D9
330
177
100
AcDbEntity
  8
AM_4
100
AcDbLine
 10
-0.9567000000000008
 20
-2.94
 30
0.0
 11
-0.5315000000000002
 21
-2.94
 31
0.0
  0
LINE
  5
1DA
330
177
100
AcDbEntity
  8
AM_4
100
AcDbLine
 10
0.9035499999999997
 20
-2.384999999999999
 30
0.0
 11
0.90355
 21
-0.8637692964559465
 31
0.0
  0
LINE
  5
1DB
330
177
100
AcDbEntity
  8
AM_4
100
AcDbLine
 10
-0.9035499999999997
 20
-0.863769296455945
 30
0.0
 11
-0.9035500000000001
 21
-2.384999999999999
 31
0.0
  0
LINE
  5
1DC
330
177
100
AcDbEntity
  8
AM_4
100
AcDbLine
 10
0.5314999999999998
 20
-2.57
 30
0.0
 11
-0.5315000000000002
 21
-2.57
 31
0.0
  0
LINE
  5
1DD
330
177
100
AcDbEntity
  8
AM_4
100
AcDbLine
 10
-0.9035500000000001
 20
-2.384999999999999
 30
0.0
 11
-1.063
 21
-2.54445
 31
0.0
  0
LINE
  5
1DE
330
177
100
AcDbEntity
  8
AM_4
100
AcDbLine
 10
-1.063
 20
-2.54445
 30
0.0
 11
-1.063
 21
-2.8337
 31
0.0
  0
LINE
  5
1DF
330
177
100
AcDbEntity
  8
AM_4
100
AcDbLine
 10
-0.5315000000000002
 20
-2.8337
 30
0.0
 11
-1.063
 21
-2.8337
 31
0.0
  0
LINE
  5
1E0
330
177
100
AcDbEntity
  8
AM_4
100
AcDbLine
 10
1.063
 20
-2.8337
 30
0.0
 11
0.5314999999999998
 21
-2.8337
 31
0.0
  0
LINE
  5
1E1
330
177
100
AcDbEntity
  8
AM_4
100
AcDbLine
 10
1.063
 20
-2.8337
 30
0.0
 11
1.063
 21
-2.54445
 31
0.0
  0
LINE
  5
1E2
330
177
100
AcDbEntity
  8
AM_4
100
AcDbLine
 10
1.063
 20
-2.54445
 30
0.0
 11
0.9035499999999997
 21
-2.384999999999999
 31
0.0
  0
LINE
  5
1E3
330
177
100
AcDbEntity
  8
AM_4
100
AcDbLine
 10
0.9035500000000003
 20
0.8637692964559461
 30
0.0
 11
0.9035500000000001
 21
2.384999999999999
 31
0.0
  0
LINE
  5
1E4
330
177
100
AcDbEntity
  8
AM_4
100
AcDbLine
 10
-0.9035499999999999
 20
2.384999999999999
 30
0.0
 11
-0.9035499999999999
 21
0.863769296455946
 31
0.0
  0
LINE
  5
1E5
330
177
100
AcDbEntity
  8
AM_4
100
AcDbLine
 10
-1.063
 20
2.54445
 30
0.0
 11
-0.9035499999999999
 21
2.384999999999999
 31
0.0
  0
LINE
  5
1E6
330
177
100
AcDbEntity
  8
AM_4
100
AcDbLine
 10
0.9035500000000001
 20
2.384999999999999
 30
0.0
 11
1.063
 21
2.54445
 31
0.0
  0
LINE
  5
1E7
330
177
100
AcDbEntity
  8
AM_4
100
AcDbLine
 10
1.063
 20
2.54445
 30
0.0
 11
1.063
 21
2.8337
 31
0.0
  0
LINE
  5
1E8
330
177
100
AcDbEntity
  8
AM_4
100
AcDbLine
 10
1.063
 20
2.8337
 30
0.0
 11
0.5315000000000002
 21
2.833699999999999
 31
0.0
  0
LINE
  5
1E9
330
177
100
AcDbEntity
  8
AM_4
100
AcDbLine
 10
-0.5314999999999999
 20
2.57
 30
0.0
 11
0.5315000000000001
 21
2.57
 31
0.0
  0
LINE
  5
1EA
330
177
100
AcDbEntity
  8
AM_4
100
AcDbLine
 10
-0.5314999999999999
 20
2.833699999999999
 30
0.0
 11
-1.063
 21
2.8337
 31
0.0
  0
LINE
  5
1EB
330
177
100
AcDbEntity
  8
AM_4
100
AcDbLine
 10
-1.063
 20
2.8337
 30
0.0
 11
-1.063
 21
2.54445
 31
0.0
  0
LINE
  5
1EC
330
177
100
AcDbEntity
  8
AM_4
100
AcDbLine
 10
-0.7972499999999996
 20
-2.0
 30
0.0
 11
0.7972499999999998
 21
-2.0
 31
0.0
  0
LWPOLYLINE
  5
1ED
330
177
100
AcDbEntity
  8
AM_4
100
AcDbPolyline
 90
       19
 70
     0
 43
0.0
 10
0.9035500000000001
 20
-1.8937
 10
0.9031454964071527
 20
-1.902964655454076
 10
0.9019350641451979
 20
-1.912158801285994
 10
0.8999279153345281
 20
-1.921212464494398
 10
0.8971393255895422
 20
-1.930056741235519
 10
0.893590517761996
 20
-1.938624321223036
 10
0.8893085004222859
 20
-1.94685
 10
0.8843258623079199
 20
-1.954671175184116
 10
0.8786805243035475
 20
-1.962028322909679
 10
0.8724154508401301
 20
-1.96886545084013
 10
0.8655783229096792
 20
-1.975130524303547
 10
0.8582211751841163
 20
-1.98077586230792
 10
0.8504
 20
-1.985758500422286
 10
0.8421743212230365
 20
-1.990040517761996
 10
0.8336067412355187
 20
-1.993589325589542
 10
0.824762464494398
 20
-1.996377915334528
 10
0.8157088012859947
 20
-1.998385064145198
 10
0.8065146554540761
 20
-1.999595496407153
 10
0.7972500000000001
 20
-2.0
  0
LWPOLYLINE
  5
1EE
330
177
100
AcDbEntity
  8
AM_4
100
AcDbPolyline
 90
       19
 70
     0
 43
0.0
 10
-0.7972499999999996
 20
-2.0
 10
-0.8065146554540756
 20
-1.999595496407153
 10
-0.8157088012859943
 20
-1.998385064145198
 10
-0.8247624644943975
 20
-1.996377915334528
 10
-0.8336067412355181
 20
-1.993589325589542
 10
-0.8421743212230359
 20
-1.990040517761996
 10
-0.8503999999999996
 20
-1.985758500422286
 10
-0.8582211751841159
 20
-1.98077586230792
 10
-0.8655783229096788
 20
-1.975130524303548
 10
-0.8724154508401296
 20
-1.96886545084013
 10
-0.878680524303547
 20
-1.962028322909679
 10
-0.8843258623079195
 20
-1.954671175184116
 10
-0.8893085004222856
 20
-1.94685
 10
-0.8935905177619956
 20
-1.938624321223036
 10
-0.8971393255895418
 20
-1.930056741235519
 10
-0.8999279153345278
 20
-1.921212464494398
 10
-0.9019350641451975
 20
-1.912158801285995
 10
-0.9031454964071524
 20
-1.902964655454076
 10
-0.9035499999999999
 20
-1.8937
  0
CIRCLE
  5
1EF
330
177
100
AcDbEntity
  8
AM_4
100
AcDbCircle
 10
0.0000000000000003
 20
0.0
 30
0.0
 40
0.625
  0
ARC
  5
1F0
330
177
100
AcDbEntity
  8
AM_4
100
AcDbCircle
 10
-0.0000000000000002
 20
-0.0000000000000001
 30
0.0
 40
1.25
100
AcDbArc
 50
316.2894566389414
 51
43.71054336105858
  0
ARC
  5
1F1
330
177
100
AcDbEntity
  8
AM_4
100
AcDbCircle
 10
-0.0000000000000009
 20
0.0000000000000005
 30
0.0
 40
1.249999999999999
100
AcDbArc
 50
136.2894566389414
 51
223.7105433610587
  0
LINE
  5
1F2
330
177
100
AcDbEntity
  8
AM_4
100
AcDbLine
 10
0.90355
 20
-1.8937
 30
0.0
 11
-0.9035499999999997
 21
-1.8937
 31
0.0
  0
LINE
  5
1F3
330
177
100
AcDbEntity
  8
AM_4
100
AcDbLine
 10
-0.7972499999999981
 20
2.0
 30
0.0
 11
0.7972500000000001
 21
2.0
 31
0.0
  0
LWPOLYLINE
  5
1F4
330
177
100
AcDbEntity
  8
AM_4
100
AcDbPolyline
 90
       19
 70
     0
 43
0.0
 10
-0.9035499999999987
 20
1.893699994746488
 10
-0.903145496865025
 20
1.902964650220556
 10
-0.9019350650574592
 20
1.912158796112296
 10
-0.8999279166942358
 20
1.921212459419895
 10
-0.8971393273863477
 20
1.930056736298832
 10
-0.8935905199822247
 20
1.938624316461738
 10
-0.8893085030490406
 20
1.946849995450325
 10
-0.8843258653212094
 20
1.954671170880691
 10
-0.8786805276804387
 20
1.962028318885255
 10
-0.8724154545549229
 20
1.968865447125336
 10
-0.8655783269341017
 20
1.975130520926655
 10
-0.8582211794875403
 20
1.980775859294629
 10
-0.8504000045496739
 20
1.98575849779553
 10
-0.8421743259843342
 20
1.990040515541766
 10
-0.8336067461722042
 20
1.993589323792735
 10
-0.8247624695689
 20
1.996377913974819
 10
-0.8157088064596932
 20
1.998385063232935
 10
-0.8065146606875961
 20
1.999595495949279
 10
-0.7972500052535114
 20
2.0
  0
LINE
  5
1F5
330
177
100
AcDbEntity
  8
AM_4
100
AcDbLine
 10
0.9035500000000003
 20
1.893700000000001
 30
0.0
 11
-0.9035499999999994
 21
1.8937
 31
0.0
  0
LWPOLYLINE
  5
1F6
330
177
100
AcDbEntity
  8
AM_4
100
AcDbPolyline
 90
       19
 70
     0
 43
0.0
 10
0.7972499999999996
 20
2.0
 10
0.8065146554540755
 20
1.999595496407153
 10
0.8157088012859941
 20
1.998385064145198
 10
0.8247624644943974
 20
1.996377915334528
 10
0.833606741235518
 20
1.993589325589542
 10
0.8421743212230358
 20
1.990040517761996
 10
0.8503999999999994
 20
1.985758500422286
 10
0.8582211751841156
 20
1.98077586230792
 10
0.8655783229096785
 20
1.975130524303548
 10
0.8724154508401294
 20
1.96886545084013
 10
0.8786805243035467
 20
1.96202832290968
 10
0.8843258623079192
 20
1.954671175184117
 10
0.8893085004222852
 20
1.946850000000001
 10
0.8935905177619953
 20
1.938624321223037
 10
0.8971393255895415
 20
1.930056741235519
 10
0.8999279153345275
 20
1.921212464494399
 10
0.9019350641451973
 20
1.912158801285996
 10
0.9031454964071521
 20
1.902964655454077
 10
0.9035499999999997
 20
1.893700000000001
  0
ENDBLK
  5
17A
330
177
100
AcDbEntity
  8
0
100
AcDbBlockEnd
  0
ENDSEC
  0
SECTION
  2
ENTITIES
  0
INSERT
  5
6F
330
1F
100
AcDbEntity
  8
0
100
AcDbBlockReference
  2
1_131230_2
 10
0.0
 20
0.0
 30
0.0
  0
POINT
  5
1F8
330
1F
100
AcDbEntity
  8
ConnectionPoints
100
AcDbPoint
 10
-0.0000000000000001
 20
-1.3
 30
-2.251666049839541
  0
POINT
  5
1F9
330
1F
100
AcDbEntity
  8
ConnectionPoints
100
AcDbPoint
 10
-0.0000000000000001
 20
-1.3
 30
-2.251666049839541
  0
POINT
  5
1FA
330
1F
100
AcDbEntity
  8
ConnectionPoints
100
AcDbPoint
 10
-1.71
 20
0.0
 30
0.0000000000000001
  0
ENDSEC
  0
SECTION
  2
OBJECTS
  0
DICTIONARY
  5
C
330
0
100
AcDbDictionary
281
     1
  3
ACAD_DETAILVIEWSTYLE
350
202
  3
ACAD_GROUP
350
D
  3
ACAD_LAYOUT
350
1A
  3
ACAD_MATERIAL
350
43
  3
ACAD_MLEADERSTYLE
350
6B
  3
ACAD_MLINESTYLE
350
17
  3
ACAD_PLOTSETTINGS
350
19
  3
ACAD_PLOTSTYLENAME
350
E
  3
ACAD_SCALELIST
350
47
  3
ACAD_SECTIONVIEWSTYLE
350
203
  3
ACAD_TABLESTYLE
350
69
  3
ACAD_VISUALSTYLE
350
2A
  3
ACDB_RECOMPOSE_DATA
350
1FF
  3
AcDbVariableDictionary
350
1FB
  0
SUN
  5
6D
330
29
100
AcDbSun
 90
        1
290
     0
 63
     7
421
 16777215
 40
1.0
291
     1
 91
  2455826
 92
 54000000
292
     0
 70
     2
 71
   256
280
     1
  0
DICTIONARY
  5
202
102
{ACAD_REACTORS
330
C
102
}
330
C
100
AcDbDictionary
281
     1
  0
DICTIONARY
  5
D
102
{ACAD_REACTORS
330
C
102
}
330
C
100
AcDbDictionary
281
     1
  0
DICTIONARY
  5
1A
102
{ACAD_REACTORS
330
C
102
}
330
C
100
AcDbDictionary
281
     1
  3
Layout1
350
1E
  3
Layout2
350
26
  3
Model
350
22
  0
DICTIONARY
  5
43
102
{ACAD_REACTORS
330
C
102
}
330
C
100
AcDbDictionary
281
     1
  3
ByBlock
350
45
  3
ByLayer
350
44
  3
Global
350
46
  0
DICTIONARY
  5
6B
102
{ACAD_REACTORS
330
C
102
}
330
C
100
AcDbDictionary
281
     1
  3
Standard
350
6C
  0
DICTIONARY
  5
17
102
{ACAD_REACTORS
330
C
102
}
330
C
100
AcDbDictionary
281
     1
  3
Standard
350
18
  0
DICTIONARY
  5
19
102
{ACAD_REACTORS
330
C
102
}
330
C
100
AcDbDictionary
281
     1
  0
ACDBDICTIONARYWDFLT
  5
E
102
{ACAD_REACTORS
330
C
102
}
330
C
100
AcDbDictionary
281
     1
  3
Normal
350
F
100
AcDbDictionaryWithDefault
340
F
  0
DICTIONARY
  5
47
102
{ACAD_REACTORS
330
C
102
}
330
C
100
AcDbDictionary
281
     1
  3
A0
350
48
  3
A1
350
49
  3
A2
350
4A
  3
A3
350
4B
  3
A4
350
4C
  3
A5
350
4D
  3
A6
350
4E
  3
A7
350
4F
  3
A8
350
50
  3
A9
350
51
  3
B0
350
52
  3
B1
350
53
  3
B2
350
54
  3
B3
350
55
  3
B4
350
56
  3
B5
350
57
  3
B6
350
58
  3
B7
350
59
  3
B8
350
5A
  3
B9
350
5B
  3
C0
350
5C
  3
C1
350
5D
  3
C2
350
5E
  3
C3
350
5F
  3
C4
350
60
  3
C5
350
61
  3
C6
350
62
  3
C7
350
63
  3
C8
350
64
  3
C9
350
65
  3
D0
350
66
  3
D1
350
67
  3
D2
350
68
  0
DICTIONARY
  5
203
102
{ACAD_REACTORS
330
C
102
}
330
C
100
AcDbDictionary
281
     1
  0
DICTIONARY
  5
69
102
{ACAD_REACTORS
330
C
102
}
330
C
100
AcDbDictionary
281
     1
  3
Standard
350
6A
  0
DICTIONARY
  5
2A
102
{ACAD_REACTORS
330
C
102
}
330
C
100
AcDbDictionary
281
     1
  3
2dWireframe
350
2F
  3
Basic
350
32
  3
Brighten
350
36
  3
ColorChange
350
3A
  3
Conceptual
350
34
  3
Dim
350
35
  3
EdgeColorOff
350
3D
  3
Facepattern
350
39
  3
Flat
350
2B
  3
FlatWithEdges
350
2C
  3
Gouraud
350
2D
  3
GouraudWithEdges
350
2E
  3
Hidden
350
31
  3
JitterOff
350
3B
  3
Linepattern
350
38
  3
OverhangOff
350
3C
  3
Realistic
350
33
  3
Shaded
350
42
  3
Shaded with edges
350
41
  3
Shades of Gray
350
3E
  3
Sketchy
350
3F
  3
Thicken
350
37
  3
Wireframe
350
30
  3
X-Ray
350
40
  0
XRECORD
  5
1FF
102
{ACAD_REACTORS
330
C
102
}
330
C
100
AcDbXrecord
280
     1
 90
        1
330
6A
  0
DICTIONARY
  5
1FB
102
{ACAD_REACTORS
330
C
102
}
330
C
100
AcDbDictionary
281
     1
  3
CANNOSCALE
350
1FC
  3
CMLEADERSTYLE
350
201
  3
CTABLESTYLE
350
200
  0
LAYOUT
  5
1E
102
{ACAD_REACTORS
330
1A
102
}
330
1A
100
AcDbPlotSettings
  1

  2
none_device
  4

  6

 40
0.0
 41
0.0
 42
0.0
 43
0.0
 44
0.0
 45
0.0
 46
0.0
 47
0.0
 48
0.0
 49
0.0
140
0.0
141
0.0
142
1.0
143
1.0
 70
   688
 72
     0
 73
     0
 74
     5
  7

 75
    16
 76
     0
 77
     2
 78
   300
147
1.0
148
0.0
149
0.0
100
AcDbLayout
  1
Layout1
 70
     1
 71
     1
 10
0.0
 20
0.0
 11
12.0
 21
9.0
 12
0.0
 22
0.0
 32
0.0
 14
1.000000000000000E+20
 24
1.000000000000000E+20
 34
1.000000000000000E+20
 15
-1.000000000000000E+20
 25
-1.000000000000000E+20
 35
-1.000000000000000E+20
146
0.0
 13
0.0
 23
0.0
 33
0.0
 16
1.0
 26
0.0
 36
0.0
 17
0.0
 27
1.0
 37
0.0
 76
     0
330
1B
  0
LAYOUT
  5
26
102
{ACAD_REACTORS
330
1A
102
}
330
1A
100
AcDbPlotSettings
  1

  2
none_device
  4

  6

 40
0.0
 41
0.0
 42
0.0
 43
0.0
 44
0.0
 45
0.0
 46
0.0
 47
0.0
 48
0.0
 49
0.0
140
0.0
141
0.0
142
1.0
143
1.0
 70
   688
 72
     0
 73
     0
 74
     5
  7

 75
    16
 76
     0
 77
     2
 78
   300
147
1.0
148
0.0
149
0.0
100
AcDbLayout
  1
Layout2
 70
     1
 71
     2
 10
0.0
 20
0.0
 11
0.0
 21
0.0
 12
0.0
 22
0.0
 32
0.0
 14
0.0
 24
0.0
 34
0.0
 15
0.0
 25
0.0
 35
0.0
146
0.0
 13
0.0
 23
0.0
 33
0.0
 16
1.0
 26
0.0
 36
0.0
 17
0.0
 27
1.0
 37
0.0
 76
     0
330
23
  0
LAYOUT
  5
22
102
{ACAD_REACTORS
330
1A
102
}
330
1A
100
AcDbPlotSettings
  1

  2
none_device
  4
Letter_(8.50_x_11.00_Inches)
  6

 40
6.35
 41
6.35
 42
6.35000508
 43
6.35000508
 44
215.9
 45
279.4
 46
0.0
 47
0.0
 48
0.0
 49
0.0
140
0.0
141
0.0
142
1.0
143
1.0
 70
  1712
 72
     0
 73
     0
 74
     0
  7

 75
     0
 76
     0
 77
     2
 78
   300
147
1.0
148
0.0
149
0.0
100
AcDbLayout
  1
Model
 70
     1
 71
     0
 10
0.0
 20
0.0
 11
12.0
 21
9.0
 12
0.0
 22
0.0
 32
0.0
 14
1.000000000000000E+20
 24
1.000000000000000E+20
 34
1.000000000000000E+20
 15
-1.000000000000000E+20
 25
-1.000000000000000E+20
 35
-1.000000000000000E+20
146
0.0
 13
0.0
 23
0.0
 33
0.0
 16
1.0
 26
0.0
 36
0.0
 17
0.0
 27
1.0
 37
0.0
 76
     0
330
1F
331
29
  0
MATERIAL
  5
45
102
{ACAD_REACTORS
330
43
102
}
330
43
100
AcDbMaterial
  1
ByBlock
 72
     1
 94
      127
  0
MATERIAL
  5
44
102
{ACAD_REACTORS
330
43
102
}
330
43
100
AcDbMaterial
  1
ByLayer
 72
     1
 94
      127
  0
MATERIAL
  5
46
102
{ACAD_REACTORS
330
43
102
}
330
43
100
AcDbMaterial
  1
Global
 72
     1
 94
      127
  0
MLEADERSTYLE
  5
6C
102
{ACAD_REACTORS
330
6B
102
}
330
6B
100
AcDbMLeaderStyle
179
     2
170
     2
171
     1
172
     0
 90
        2
 40
0.0
 41
0.0
173
     1
 91
-1056964608
340
14
 92
       -2
290
     1
 42
0.09
291
     1
 43
0.36
  3
Standard
341
0
 44
0.18
300

342
11
174
     1
178
     6
175
     1
176
     0
 93
-1056964608
 45
0.18
292
     0
297
     0
 46
0.18
343
0
 94
-1056964608
 47
1.0
 49
1.0
140
1.0
293
     1
141
0.0
294
     1
177
     0
142
1.0
295
     0
296
     0
143
0.125
271
     0
272
     9
273
     9
298
     0
  0
MLINESTYLE
  5
18
102
{ACAD_REACTORS
330
17
102
}
330
17
100
AcDbMlineStyle
  2
Standard
 70
     0
  3

 62
   256
 51
90.0
 52
90.0
 71
     2
 49
0.5
 62
   256
  6
BYLAYER
 49
-0.5
 62
   256
  6
BYLAYER
  0
ACDBPLACEHOLDER
  5
F
102
{ACAD_REACTORS
330
E
102
}
330
E
  0
SCALE
  5
48
102
{ACAD_REACTORS
330
47
102
}
330
47
100
AcDbScale
 70
     0
300
1:1
140
1.0
141
1.0
290
     1
  0
SCALE
  5
49
102
{ACAD_REACTORS
330
47
102
}
330
47
100
AcDbScale
 70
     0
300
1:2
140
1.0
141
2.0
290
     0
  0
SCALE
  5
4A
102
{ACAD_REACTORS
330
47
102
}
330
47
100
AcDbScale
 70
     0
300
1:4
140
1.0
141
4.0
290
     0
  0
SCALE
  5
4B
102
{ACAD_REACTORS
330
47
102
}
330
47
100
AcDbScale
 70
     0
300
1:5
140
1.0
141
5.0
290
     0
  0
SCALE
  5
4C
102
{ACAD_REACTORS
330
47
102
}
330
47
100
AcDbScale
 70
     0
300
1:8
140
1.0
141
8.0
290
     0
  0
SCALE
  5
4D
102
{ACAD_REACTORS
330
47
102
}
330
47
100
AcDbScale
 70
     0
300
1:10
140
1.0
141
10.0
290
     0
  0
SCALE
  5
4E
102
{ACAD_REACTORS
330
47
102
}
330
47
100
AcDbScale
 70
     0
300
1:16
140
1.0
141
16.0
290
     0
  0
SCALE
  5
4F
102
{ACAD_REACTORS
330
47
102
}
330
47
100
AcDbScale
 70
     0
300
1:20
140
1.0
141
20.0
290
     0
  0
SCALE
  5
50
102
{ACAD_REACTORS
330
47
102
}
330
47
100
AcDbScale
 70
     0
300
1:30
140
1.0
141
30.0
290
     0
  0
SCALE
  5
51
102
{ACAD_REACTORS
330
47
102
}
330
47
100
AcDbScale
 70
     0
300
1:40
140
1.0
141
40.0
290
     0
  0
SCALE
  5
52
102
{ACAD_REACTORS
330
47
102
}
330
47
100
AcDbScale
 70
     0
300
1:50
140
1.0
141
50.0
290
     0
  0
SCALE
  5
53
102
{ACAD_REACTORS
330
47
102
}
330
47
100
AcDbScale
 70
     0
300
1:100
140
1.0
141
100.0
290
     0
  0
SCALE
  5
54
102
{ACAD_REACTORS
330
47
102
}
330
47
100
AcDbScale
 70
     0
300
2:1
140
2.0
141
1.0
290
     0
  0
SCALE
  5
55
102
{ACAD_REACTORS
330
47
102
}
330
47
100
AcDbScale
 70
     0
300
4:1
140
4.0
141
1.0
290
     0
  0
SCALE
  5
56
102
{ACAD_REACTORS
330
47
102
}
330
47
100
AcDbScale
 70
     0
300
8:1
140
8.0
141
1.0
290
     0
  0
SCALE
  5
57
102
{ACAD_REACTORS
330
47
102
}
330
47
100
AcDbScale
 70
     0
300
10:1
140
10.0
141
1.0
290
     0
  0
SCALE
  5
58
102
{ACAD_REACTORS
330
47
102
}
330
47
100
AcDbScale
 70
     0
300
100:1
140
100.0
141
1.0
290
     0
  0
SCALE
  5
59
102
{ACAD_REACTORS
330
47
102
}
330
47
100
AcDbScale
 70
     0
300
1/128" = 1'-0"
140
0.0078125
141
12.0
290
     0
  0
SCALE
  5
5A
102
{ACAD_REACTORS
330
47
102
}
330
47
100
AcDbScale
 70
     0
300
1/64" = 1'-0"
140
0.015625
141
12.0
290
     0
  0
SCALE
  5
5B
102
{ACAD_REACTORS
330
47
102
}
330
47
100
AcDbScale
 70
     0
300
1/32" = 1'-0"
140
0.03125
141
12.0
290
     0
  0
SCALE
  5
5C
102
{ACAD_REACTORS
330
47
102
}
330
47
100
AcDbScale
 70
     0
300
1/16" = 1'-0"
140
0.0625
141
12.0
290
     0
  0
SCALE
  5
5D
102
{ACAD_REACTORS
330
47
102
}
330
47
100
AcDbScale
 70
     0
300
3/32" = 1'-0"
140
0.09375
141
12.0
290
     0
  0
SCALE
  5
5E
102
{ACAD_REACTORS
330
47
102
}
330
47
100
AcDbScale
 70
     0
300
1/8" = 1'-0"
140
0.125
141
12.0
290
     0
  0
SCALE
  5
5F
102
{ACAD_REACTORS
330
47
102
}
330
47
100
AcDbScale
 70
     0
300
3/16" = 1'-0"
140
0.1875
141
12.0
290
     0
  0
SCALE
  5
60
102
{ACAD_REACTORS
330
47
102
}
330
47
100
AcDbScale
 70
     0
300
1/4" = 1'-0"
140
0.25
141
12.0
290
     0
  0
SCALE
  5
61
102
{ACAD_REACTORS
330
47
102
}
330
47
100
AcDbScale
 70
     0
300
3/8" = 1'-0"
140
0.375
141
12.0
290
     0
  0
SCALE
  5
62
102
{ACAD_REACTORS
330
47
102
}
330
47
100
AcDbScale
 70
     0
300
1/2" = 1'-0"
140
0.5
141
12.0
290
     0
  0
SCALE
  5
63
102
{ACAD_REACTORS
330
47
102
}
330
47
100
AcDbScale
 70
     0
300
3/4" = 1'-0"
140
0.75
141
12.0
290
     0
  0
SCALE
  5
64
102
{ACAD_REACTORS
330
47
102
}
330
47
100
AcDbScale
 70
     0
300
1" = 1'-0"
140
1.0
141
12.0
290
     0
  0
SCALE
  5
65
102
{ACAD_REACTORS
330
47
102
}
330
47
100
AcDbScale
 70
     0
300
1-1/2" = 1'-0"
140
1.5
141
12.0
290
     0
  0
SCALE
  5
66
102
{ACAD_REACTORS
330
47
102
}
330
47
100
AcDbScale
 70
     0
300
3" = 1'-0"
140
3.0
141
12.0
290
     0
  0
SCALE
  5
67
102
{ACAD_REACTORS
330
47
102
}
330
47
100
AcDbScale
 70
     0
300
6" = 1'-0"
140
6.0
141
12.0
290
     0
  0
SCALE
  5
68
102
{ACAD_REACTORS
330
47
102
}
330
47
100
AcDbScale
 70
     0
300
1'-0" = 1'-0"
140
12.0
141
12.0
290
     0
  0
TABLESTYLE
  5
6A
102
{ACAD_REACTORS
330
69
102
}
102
{ACAD_XDICTIONARY
360
1FD
102
}
330
69
100
AcDbTableStyle
  3
Standard
 70
     0
 71
     0
 40
0.06
 41
0.06
280
     0
281
     0
  7
Standard
140
0.18
170
     2
 62
     0
 63
   257
283
     0
 90
        4
 91
        0
  1

274
    -2
284
     1
 64
     0
275
    -2
285
     1
 65
     0
276
    -2
286
     1
 66
     0
277
    -2
287
     1
 67
     0
278
    -2
288
     1
 68
     0
279
    -2
289
     1
 69
     0
  7
Standard
140
0.25
170
     5
 62
     0
 63
   257
283
     0
 90
        4
 91
        0
  1

274
    -2
284
     1
 64
     0
275
    -2
285
     1
 65
     0
276
    -2
286
     1
 66
     0
277
    -2
287
     1
 67
     0
278
    -2
288
     1
 68
     0
279
    -2
289
     1
 69
     0
  7
Standard
140
0.18
170
     5
 62
     0
 63
   257
283
     0
 90
        4
 91
        0
  1

274
    -2
284
     1
 64
     0
275
    -2
285
     1
 65
     0
276
    -2
286
     1
 66
     0
277
    -2
287
     1
 67
     0
278
    -2
288
     1
 68
     0
279
    -2
289
     1
 69
     0
  0
VISUALSTYLE
  5
2F
102
{ACAD_REACTORS
330
2A
102
}
330
2A
100
AcDbVisualStyle
  2
2dWireframe
 70
     4
177
     3
291
     0
 70
    58
 90
        0
176
     1
 90
        2
176
     1
 90
        0
176
     1
 90
        0
176
     1
 40
0.6
176
     1
 40
30.0
176
     1
 62
     7
420
 16777215
176
     1
 90
        1
176
     1
 90
        4
176
     1
 62
     7
176
     1
 62
   257
176
     1
 90
        1
176
     1
 90
        1
176
     1
 40
1.0
176
     1
 90
        0
176
     1
 62
   257
176
     1
 40
1.0
176
     1
 90
        1
176
     1
 90
        6
176
     1
 90
        2
176
     1
 62
     7
176
     1
 90
        5
176
     1
 90
        0
176
     1
 90
        0
176
     1
290
     0
176
     1
 90
        1
176
     1
 40
0.0
176
     1
 90
        0
176
     1
290
     1
176
     1
290
     1
176
     1
290
     0
176
     1
290
     0
176
     1
290
     0
176
     1
290
     0
176
     1
290
     0
176
     1
290
     0
176
     1
290
     0
176
     1
 90
       50
176
     1
 40
0.0
176
     1
 40
1.0
176
     1
 90
        0
176
     1
 62
    18
420
        0
176
     1
 90
       50
176
     1
 90
        3
176
     1
 62
     5
420
      255
176
     1
290
     0
176
     1
 90
       50
176
     1
 90
       50
176
     1
 90
       50
176
     1
290
     0
176
     1
 90
       50
176
     1
 62
   256
176
     0
 40
1.0
176
     0
 90
        2
176
     1
  1
strokes_ogs.tif
176
     1
290
     0
176
     1
 40
1.0
176
     1
 40
1.0
176
     1
  0
VISUALSTYLE
  5
32
102
{ACAD_REACTORS
330
2A
102
}
330
2A
100
AcDbVisualStyle
  2
Basic
 70
     7
177
     3
291
     1
 70
    58
 90
        1
176
     1
 90
        0
176
     1
 90
        1
176
     1
 90
        0
176
     1
 40
0.6
176
     1
 40
30.0
176
     1
 62
     7
420
 16777215
176
     1
 90
        0
176
     1
 90
        4
176
     1
 62
     7
176
     1
 62
   257
176
     1
 90
        1
176
     1
 90
        1
176
     1
 40
1.0
176
     1
 90
        8
176
     1
 62
     7
176
     1
 40
1.0
176
     1
 90
        1
176
     1
 90
        6
176
     1
 90
        2
176
     1
 62
     7
176
     1
 90
        5
176
     1
 90
        0
176
     1
 90
        0
176
     1
290
     0
176
     1
 90
        1
176
     1
 40
0.0
176
     1
 90
        0
176
     1
290
     0
176
     1
290
     1
176
     1
290
     1
176
     1
290
     0
176
     1
290
     0
176
     1
290
     0
176
     1
290
     0
176
     1
290
     0
176
     1
290
     0
176
     1
 90
       50
176
     1
 40
0.0
176
     1
 40
1.0
176
     1
 90
        0
176
     1
 62
    18
420
        0
176
     1
 90
       50
176
     1
 90
        3
176
     1
 62
     5
420
      255
176
     1
290
     0
176
     1
 90
       50
176
     1
 90
       50
176
     1
 90
       50
176
     1
290
     0
176
     1
 90
       50
176
     1
 62
   256
176
     0
 40
1.0
176
     0
 90
        2
176
     1
  1
strokes_ogs.tif
176
     1
290
     0
176
     1
 40
1.0
176
     1
 40
1.0
176
     1
  0
VISUALSTYLE
  5
36
102
{ACAD_REACTORS
330
2A
102
}
330
2A
100
AcDbVisualStyle
  2
Brighten
 70
    12
177
     3
291
     1
 70
    58
 90
        2
176
     1
 90
        2
176
     1
 90
        0
176
     1
 90
        0
176
     1
 40
0.6
176
     1
 40
30.0
176
     1
 62
     7
420
 16777215
176
     1
 90
        1
176
     1
 90
        4
176
     1
 62
     7
176
     1
 62
   257
176
     1
 90
        1
176
     1
 90
        1
176
     1
 40
1.0
176
     1
 90
        8
176
     1
 62
     7
176
     1
 40
1.0
176
     1
 90
        1
176
     1
 90
        6
176
     1
 90
        2
176
     1
 62
     7
176
     1
 90
        5
176
     1
 90
        0
176
     1
 90
        0
176
     1
290
     0
176
     1
 90
        1
176
     1
 40
50.0
176
     1
 90
        0
176
     1
290
     0
176
     1
290
     1
176
     1
290
     1
176
     1
290
     0
176
     1
290
     0
176
     1
290
     0
176
     1
290
     0
176
     1
290
     0
176
     1
290
     0
176
     1
 90
       50
176
     1
 40
0.0
176
     1
 40
1.0
176
     1
 90
        0
176
     1
 62
    18
420
        0
176
     1
 90
       50
176
     1
 90
        3
176
     1
 62
     5
420
      255
176
     1
290
     0
176
     1
 90
       50
176
     1
 90
       50
176
     1
 90
       50
176
     1
290
     0
176
     1
 90
       50
176
     1
 62
   256
176
     0
 40
1.0
176
     0
 90
        2
176
     1
  1
strokes_ogs.tif
176
     1
290
     0
176
     1
 40
1.0
176
     1
 40
1.0
176
     1
  0
VISUALSTYLE
  5
3A
102
{ACAD_REACTORS
330
2A
102
}
330
2A
100
AcDbVisualStyle
  2
ColorChange
 70
    16
177
     3
291
     1
 70
    58
 90
        2
176
     1
 90
        2
176
     1
 90
        3
176
     1
 90
        0
176
     1
 40
0.6
176
     1
 40
30.0
176
     1
 62
     8
420
  8421504
176
     1
 90
        1
176
     1
 90
        4
176
     1
 62
     7
176
     1
 62
   257
176
     1
 90
        1
176
     1
 90
        1
176
     1
 40
1.0
176
     1
 90
        8
176
     1
 62
     8
420
  8421504
176
     1
 40
1.0
176
     1
 90
        1
176
     1
 90
        6
176
     1
 90
        2
176
     1
 62
     7
176
     1
 90
        5
176
     1
 90
        0
176
     1
 90
        0
176
     1
290
     0
176
     1
 90
        1
176
     1
 40
0.0
176
     1
 90
        0
176
     1
290
     0
176
     1
290
     1
176
     1
290
     1
176
     1
290
     0
176
     1
290
     0
176
     1
290
     0
176
     1
290
     0
176
     1
290
     0
176
     1
290
     0
176
     1
 90
       50
176
     1
 40
0.0
176
     1
 40
1.0
176
     1
 90
        0
176
     1
 62
    18
420
        0
176
     1
 90
       50
176
     1
 90
        3
176
     1
 62
     5
420
      255
176
     1
290
     0
176
     1
 90
       50
176
     1
 90
       50
176
     1
 90
       50
176
     1
290
     0
176
     1
 90
       50
176
     1
 62
   256
176
     0
 40
1.0
176
     0
 90
        2
176
     1
  1
strokes_ogs.tif
176
     1
290
     0
176
     1
 40
1.0
176
     1
 40
1.0
176
     1
  0
VISUALSTYLE
  5
34
102
{ACAD_REACTORS
330
2A
102
}
330
2A
100
AcDbVisualStyle
  2
Conceptual
 70
     9
177
     3
291
     0
 70
    58
 90
        3
176
     1
 90
        2
176
     1
 90
        0
176
     1
 90
        0
176
     1
 40
0.6
176
     1
 40
30.0
176
     1
 62
     7
420
 16777215
176
     1
 90
        2
176
     1
 90
        2
176
     1
 62
     7
176
     1
 62
   257
176
     1
 90
        1
176
     1
 90
        1
176
     1
 40
179.0
176
     1
 90
        8
176
     1
 62
     7
176
     1
 40
1.0
176
     1
 90
        1
176
     1
 90
        6
176
     1
 90
        2
176
     1
 62
     7
176
     1
 90
        3
176
     1
 90
        0
176
     1
 90
        0
176
     1
290
     0
176
     1
 90
        1
176
     1
 40
0.0
176
     1
 90
        0
176
     1
290
     0
176
     1
290
     1
176
     1
290
     1
176
     1
290
     0
176
     1
290
     0
176
     1
290
     0
176
     1
290
     0
176
     1
290
     0
176
     1
290
     0
176
     1
 90
       50
176
     1
 40
0.0
176
     1
 40
1.0
176
     1
 90
        0
176
     1
 62
    18
420
        0
176
     1
 90
       50
176
     1
 90
        3
176
     1
 62
     5
420
      255
176
     1
290
     0
176
     1
 90
       50
176
     1
 90
       50
176
     1
 90
       50
176
     1
290
     0
176
     1
 90
       50
176
     1
 62
   256
176
     0
 40
1.0
176
     0
 90
        2
176
     1
  1
strokes_ogs.tif
176
     1
290
     0
176
     1
 40
1.0
176
     1
 40
1.0
176
     1
  0
VISUALSTYLE
  5
35
102
{ACAD_REACTORS
330
2A
102
}
330
2A
100
AcDbVisualStyle
  2
Dim
 70
    11
177
     3
291
     1
 70
    58
 90
        2
176
     1
 90
        2
176
     1
 90
        0
176
     1
 90
        0
176
     1
 40
0.6
176
     1
 40
30.0
176
     1
 62
     7
420
 16777215
176
     1
 90
        1
176
     1
 90
        4
176
     1
 62
     7
176
     1
 62
   257
176
     1
 90
        1
176
     1
 90
        1
176
     1
 40
1.0
176
     1
 90
        8
176
     1
 62
     7
176
     1
 40
1.0
176
     1
 90
        1
176
     1
 90
        6
176
     1
 90
        2
176
     1
 62
     7
176
     1
 90
        5
176
     1
 90
        0
176
     1
 90
        0
176
     1
290
     0
176
     1
 90
        1
176
     1
 40
-50.0
176
     1
 90
        0
176
     1
290
     0
176
     1
290
     1
176
     1
290
     1
176
     1
290
     0
176
     1
290
     0
176
     1
290
     0
176
     1
290
     0
176
     1
290
     0
176
     1
290
     0
176
     1
 90
       50
176
     1
 40
0.0
176
     1
 40
1.0
176
     1
 90
        0
176
     1
 62
    18
420
        0
176
     1
 90
       50
176
     1
 90
        3
176
     1
 62
     5
420
      255
176
     1
290
     0
176
     1
 90
       50
176
     1
 90
       50
176
     1
 90
       50
176
     1
290
     0
176
     1
 90
       50
176
     1
 62
   256
176
     0
 40
1.0
176
     0
 90
        2
176
     1
  1
strokes_ogs.tif
176
     1
290
     0
176
     1
 40
1.0
176
     1
 40
1.0
176
     1
  0
VISUALSTYLE
  5
3D
102
{ACAD_REACTORS
330
2A
102
}
330
2A
100
AcDbVisualStyle
  2
EdgeColorOff
 70
    22
177
     3
291
     1
 70
    58
 90
        2
176
     0
 90
        2
176
     0
 90
        0
176
     0
 90
        0
176
     0
 40
0.6
176
     0
 40
30.0
176
     0
 62
     7
420
 16777215
176
     0
 90
        1
176
     0
 90
        4
176
     0
 62
     7
176
     0
 62
   257
176
     0
 90
        1
176
     0
 90
        1
176
     0
 40
1.0
176
     0
 90
        8
176
     2
 62
     7
176
     0
 40
1.0
176
     0
 90
        1
176
     0
 90
        6
176
     0
 90
        2
176
     0
 62
     7
176
     0
 90
        5
176
     0
 90
        0
176
     0
 90
        0
176
     0
290
     0
176
     0
 90
        1
176
     0
 40
0.0
176
     0
 90
        0
176
     0
290
     0
176
     0
290
     1
176
     0
290
     1
176
     0
290
     0
176
     0
290
     0
176
     0
290
     0
176
     0
290
     0
176
     0
290
     0
176
     0
290
     0
176
     0
 90
       50
176
     0
 40
0.0
176
     0
 40
1.0
176
     0
 90
        0
176
     0
 62
    18
420
        0
176
     0
 90
       50
176
     0
 90
        3
176
     0
 62
     5
420
      255
176
     0
290
     0
176
     0
 90
       50
176
     0
 90
       50
176
     0
 90
       50
176
     0
290
     0
176
     0
 90
       50
176
     0
 62
   256
176
     0
 40
1.0
176
     0
 90
        2
176
     0
  1
strokes_ogs.tif
176
     0
290
     0
176
     0
 40
1.0
176
     0
 40
1.0
176
     0
  0
VISUALSTYLE
  5
39
102
{ACAD_REACTORS
330
2A
102
}
330
2A
100
AcDbVisualStyle
  2
Facepattern
 70
    15
177
     3
291
     1
 70
    58
 90
        2
176
     1
 90
        2
176
     1
 90
        0
176
     1
 90
        0
176
     1
 40
0.6
176
     1
 40
30.0
176
     1
 62
     7
420
 16777215
176
     1
 90
        1
176
     1
 90
        4
176
     1
 62
     7
176
     1
 62
   257
176
     1
 90
        1
176
     1
 90
        1
176
     1
 40
1.0
176
     1
 90
        8
176
     1
 62
     7
176
     1
 40
1.0
176
     1
 90
        1
176
     1
 90
        6
176
     1
 90
        2
176
     1
 62
     7
176
     1
 90
        5
176
     1
 90
        0
176
     1
 90
        0
176
     1
290
     0
176
     1
 90
        1
176
     1
 40
0.0
176
     1
 90
        0
176
     1
290
     0
176
     1
290
     1
176
     1
290
     1
176
     1
290
     0
176
     1
290
     0
176
     1
290
     0
176
     1
290
     0
176
     1
290
     0
176
     1
290
     0
176
     1
 90
       50
176
     1
 40
0.0
176
     1
 40
1.0
176
     1
 90
        0
176
     1
 62
    18
420
        0
176
     1
 90
       50
176
     1
 90
        3
176
     1
 62
     5
420
      255
176
     1
290
     0
176
     1
 90
       50
176
     1
 90
       50
176
     1
 90
       50
176
     1
290
     0
176
     1
 90
       50
176
     1
 62
   256
176
     0
 40
1.0
176
     0
 90
        2
176
     1
  1
strokes_ogs.tif
176
     1
290
     0
176
     1
 40
1.0
176
     1
 40
1.0
176
     1
  0
VISUALSTYLE
  5
2B
102
{ACAD_REACTORS
330
2A
102
}
330
2A
100
AcDbVisualStyle
  2
Flat
 70
     0
177
     3
291
     1
 70
    58
 90
        2
176
     1
 90
        1
176
     1
 90
        1
176
     1
 90
        2
176
     1
 40
0.6
176
     1
 40
30.0
176
     1
 62
     7
420
 16777215
176
     1
 90
        0
176
     1
 90
        0
176
     1
 62
     7
176
     1
 62
   257
176
     1
 90
        1
176
     1
 90
        1
176
     1
 40
1.0
176
     1
 90
        8
176
     1
 62
     7
176
     1
 40
1.0
176
     1
 90
        1
176
     1
 90
        6
176
     1
 90
        2
176
     1
 62
     7
176
     1
 90
        5
176
     1
 90
        0
176
     1
 90
        0
176
     1
290
     0
176
     1
 90
       13
176
     1
 40
0.0
176
     1
 90
        0
176
     1
290
     0
176
     1
290
     1
176
     1
290
     1
176
     1
290
     0
176
     1
290
     0
176
     1
290
     0
176
     1
290
     0
176
     1
290
     0
176
     1
290
     0
176
     1
 90
       50
176
     1
 40
0.0
176
     1
 40
1.0
176
     1
 90
        0
176
     1
 62
    18
420
        0
176
     1
 90
       50
176
     1
 90
        3
176
     1
 62
     5
420
      255
176
     1
290
     0
176
     1
 90
       50
176
     1
 90
       50
176
     1
 90
       50
176
     1
290
     0
176
     1
 90
       50
176
     1
 62
   256
176
     0
 40
1.0
176
     0
 90
        2
176
     1
  1
strokes_ogs.tif
176
     1
290
     0
176
     1
 40
1.0
176
     1
 40
1.0
176
     1
  0
VISUALSTYLE
  5
2C
102
{ACAD_REACTORS
330
2A
102
}
330
2A
100
AcDbVisualStyle
  2
FlatWithEdges
 70
     1
177
     3
291
     1
 70
    58
 90
        2
176
     1
 90
        1
176
     1
 90
        1
176
     1
 90
        2
176
     1
 40
0.6
176
     1
 40
30.0
176
     1
 62
     7
420
 16777215
176
     1
 90
        1
176
     1
 90
        0
176
     1
 62
     7
176
     1
 62
   257
176
     1
 90
        1
176
     1
 90
        1
176
     1
 40
1.0
176
     1
 90
        0
176
     1
 62
   257
176
     1
 40
1.0
176
     1
 90
        1
176
     1
 90
        6
176
     1
 90
        2
176
     1
 62
     7
176
     1
 90
        5
176
     1
 90
        0
176
     1
 90
        0
176
     1
290
     0
176
     1
 90
       13
176
     1
 40
0.0
176
     1
 90
        0
176
     1
290
     0
176
     1
290
     1
176
     1
290
     1
176
     1
290
     0
176
     1
290
     0
176
     1
290
     0
176
     1
290
     0
176
     1
290
     0
176
     1
290
     0
176
     1
 90
       50
176
     1
 40
0.0
176
     1
 40
1.0
176
     1
 90
        0
176
     1
 62
    18
420
        0
176
     1
 90
       50
176
     1
 90
        3
176
     1
 62
     5
420
      255
176
     1
290
     0
176
     1
 90
       50
176
     1
 90
       50
176
     1
 90
       50
176
     1
290
     0
176
     1
 90
       50
176
     1
 62
   256
176
     0
 40
1.0
176
     0
 90
        2
176
     1
  1
strokes_ogs.tif
176
     1
290
     0
176
     1
 40
1.0
176
     1
 40
1.0
176
     1
  0
VISUALSTYLE
  5
2D
102
{ACAD_REACTORS
330
2A
102
}
330
2A
100
AcDbVisualStyle
  2
Gouraud
 70
     2
177
     3
291
     1
 70
    58
 90
        2
176
     1
 90
        2
176
     1
 90
        1
176
     1
 90
        2
176
     1
 40
0.6
176
     1
 40
30.0
176
     1
 62
     7
420
 16777215
176
     1
 90
        0
176
     1
 90
        0
176
     1
 62
     7
176
     1
 62
   257
176
     1
 90
        1
176
     1
 90
        1
176
     1
 40
1.0
176
     1
 90
        0
176
     1
 62
     7
176
     1
 40
1.0
176
     1
 90
        1
176
     1
 90
        6
176
     1
 90
        2
176
     1
 62
     7
176
     1
 90
        5
176
     1
 90
        0
176
     1
 90
        0
176
     1
290
     0
176
     1
 90
       13
176
     1
 40
0.0
176
     1
 90
        0
176
     1
290
     0
176
     1
290
     1
176
     1
290
     1
176
     1
290
     0
176
     1
290
     0
176
     1
290
     0
176
     1
290
     0
176
     1
290
     0
176
     1
290
     0
176
     1
 90
       50
176
     1
 40
0.0
176
     1
 40
1.0
176
     1
 90
        0
176
     1
 62
    18
420
        0
176
     1
 90
       50
176
     1
 90
        3
176
     1
 62
     5
420
      255
176
     1
290
     0
176
     1
 90
       50
176
     1
 90
       50
176
     1
 90
       50
176
     1
290
     0
176
     1
 90
       50
176
     1
 62
   256
176
     0
 40
1.0
176
     0
 90
        2
176
     1
  1
strokes_ogs.tif
176
     1
290
     0
176
     1
 40
1.0
176
     1
 40
1.0
176
     1
  0
VISUALSTYLE
  5
2E
102
{ACAD_REACTORS
330
2A
102
}
330
2A
100
AcDbVisualStyle
  2
GouraudWithEdges
 70
     3
177
     3
291
     1
 70
    58
 90
        2
176
     1
 90
        2
176
     1
 90
        1
176
     1
 90
        2
176
     1
 40
0.6
176
     1
 40
30.0
176
     1
 62
     7
420
 16777215
176
     1
 90
        1
176
     1
 90
        0
176
     1
 62
     7
176
     1
 62
   257
176
     1
 90
        1
176
     1
 90
        1
176
     1
 40
1.0
176
     1
 90
        0
176
     1
 62
   257
176
     1
 40
1.0
176
     1
 90
        1
176
     1
 90
        6
176
     1
 90
        2
176
     1
 62
     7
176
     1
 90
        5
176
     1
 90
        0
176
     1
 90
        0
176
     1
290
     0
176
     1
 90
       13
176
     1
 40
0.0
176
     1
 90
        0
176
     1
290
     0
176
     1
290
     1
176
     1
290
     1
176
     1
290
     0
176
     1
290
     0
176
     1
290
     0
176
     1
290
     0
176
     1
290
     0
176
     1
290
     0
176
     1
 90
       50
176
     1
 40
0.0
176
     1
 40
1.0
176
     1
 90
        0
176
     1
 62
    18
420
        0
176
     1
 90
       50
176
     1
 90
        3
176
     1
 62
     5
420
      255
176
     1
290
     0
176
     1
 90
       50
176
     1
 90
       50
176
     1
 90
       50
176
     1
290
     0
176
     1
 90
       50
176
     1
 62
   256
176
     0
 40
1.0
176
     0
 90
        2
176
     1
  1
strokes_ogs.tif
176
     1
290
     0
176
     1
 40
1.0
176
     1
 40
1.0
176
     1
  0
VISUALSTYLE
  5
31
102
{ACAD_REACTORS
330
2A
102
}
330
2A
100
AcDbVisualStyle
  2
Hidden
 70
     6
177
     3
291
     0
 70
    58
 90
        1
176
     1
 90
        2
176
     1
 90
        2
176
     1
 90
        0
176
     1
 40
0.6
176
     1
 40
30.0
176
     1
 62
     7
420
 16777215
176
     1
 90
        2
176
     1
 90
        2
176
     1
 62
     7
176
     1
 62
   257
176
     1
 90
        2
176
     1
 90
        1
176
     1
 40
40.0
176
     1
 90
        0
176
     1
 62
   257
176
     1
 40
1.0
176
     1
 90
        1
176
     1
 90
        6
176
     1
 90
        2
176
     1
 62
     7
176
     1
 90
        3
176
     1
 90
        0
176
     1
 90
        0
176
     1
290
     0
176
     1
 90
        1
176
     1
 40
0.0
176
     1
 90
        0
176
     1
290
     0
176
     1
290
     1
176
     1
290
     1
176
     1
290
     0
176
     1
290
     0
176
     1
290
     0
176
     1
290
     0
176
     1
290
     0
176
     1
290
     0
176
     1
 90
       50
176
     1
 40
0.0
176
     1
 40
1.0
176
     1
 90
        0
176
     1
 62
    18
420
        0
176
     1
 90
       50
176
     1
 90
        3
176
     1
 62
     5
420
      255
176
     1
290
     0
176
     1
 90
       50
176
     1
 90
       50
176
     1
 90
       50
176
     1
290
     0
176
     1
 90
       50
176
     1
 62
   256
176
     0
 40
1.0
176
     0
 90
        2
176
     1
  1
strokes_ogs.tif
176
     1
290
     0
176
     1
 40
1.0
176
     1
 40
1.0
176
     1
  0
VISUALSTYLE
  5
3B
102
{ACAD_REACTORS
330
2A
102
}
330
2A
100
AcDbVisualStyle
  2
JitterOff
 70
    20
177
     3
291
     1
 70
    58
 90
        2
176
     0
 90
        2
176
     0
 90
        0
176
     0
 90
        0
176
     0
 40
0.6
176
     0
 40
30.0
176
     0
 62
     7
420
 16777215
176
     0
 90
        1
176
     0
 90
        4
176
     0
 62
     7
176
     0
 62
   257
176
     0
 90
        1
176
     0
 90
        1
176
     0
 40
1.0
176
     0
 90
       10
176
     2
 62
     7
176
     0
 40
1.0
176
     0
 90
        1
176
     0
 90
        6
176
     0
 90
        2
176
     0
 62
     7
176
     0
 90
        5
176
     0
 90
        0
176
     0
 90
        0
176
     0
290
     0
176
     0
 90
        1
176
     0
 40
0.0
176
     0
 90
        0
176
     0
290
     0
176
     0
290
     1
176
     0
290
     1
176
     0
290
     0
176
     0
290
     0
176
     0
290
     0
176
     0
290
     0
176
     0
290
     0
176
     0
290
     0
176
     0
 90
       50
176
     0
 40
0.0
176
     0
 40
1.0
176
     0
 90
        0
176
     0
 62
    18
420
        0
176
     0
 90
       50
176
     0
 90
        3
176
     0
 62
     5
420
      255
176
     0
290
     0
176
     0
 90
       50
176
     0
 90
       50
176
     0
 90
       50
176
     0
290
     0
176
     0
 90
       50
176
     0
 62
   256
176
     0
 40
1.0
176
     0
 90
        2
176
     0
  1
strokes_ogs.tif
176
     0
290
     0
176
     0
 40
1.0
176
     0
 40
1.0
176
     0
  0
VISUALSTYLE
  5
38
102
{ACAD_REACTORS
330
2A
102
}
330
2A
100
AcDbVisualStyle
  2
Linepattern
 70
    14
177
     3
291
     1
 70
    58
 90
        2
176
     1
 90
        2
176
     1
 90
        0
176
     1
 90
        0
176
     1
 40
0.6
176
     1
 40
30.0
176
     1
 62
     7
420
 16777215
176
     1
 90
        1
176
     1
 90
        4
176
     1
 62
     7
176
     1
 62
   257
176
     1
 90
        7
176
     1
 90
        7
176
     1
 40
1.0
176
     1
 90
        8
176
     1
 62
     7
176
     1
 40
1.0
176
     1
 90
        1
176
     1
 90
        6
176
     1
 90
        2
176
     1
 62
     7
176
     1
 90
        5
176
     1
 90
        0
176
     1
 90
        0
176
     1
290
     0
176
     1
 90
        1
176
     1
 40
0.0
176
     1
 90
        0
176
     1
290
     0
176
     1
290
     1
176
     1
290
     1
176
     1
290
     0
176
     1
290
     0
176
     1
290
     0
176
     1
290
     0
176
     1
290
     0
176
     1
290
     0
176
     1
 90
       50
176
     1
 40
0.0
176
     1
 40
1.0
176
     1
 90
        0
176
     1
 62
    18
420
        0
176
     1
 90
       50
176
     1
 90
        3
176
     1
 62
     5
420
      255
176
     1
290
     0
176
     1
 90
       50
176
     1
 90
       50
176
     1
 90
       50
176
     1
290
     0
176
     1
 90
       50
176
     1
 62
   256
176
     0
 40
1.0
176
     0
 90
        2
176
     1
  1
strokes_ogs.tif
176
     1
290
     0
176
     1
 40
1.0
176
     1
 40
1.0
176
     1
  0
VISUALSTYLE
  5
3C
102
{ACAD_REACTORS
330
2A
102
}
330
2A
100
AcDbVisualStyle
  2
OverhangOff
 70
    21
177
     3
291
     1
 70
    58
 90
        2
176
     0
 90
        2
176
     0
 90
        0
176
     0
 90
        0
176
     0
 40
0.6
176
     0
 40
30.0
176
     0
 62
     7
420
 16777215
176
     0
 90
        1
176
     0
 90
        4
176
     0
 62
     7
176
     0
 62
   257
176
     0
 90
        1
176
     0
 90
        1
176
     0
 40
1.0
176
     0
 90
        9
176
     2
 62
     7
176
     0
 40
1.0
176
     0
 90
        1
176
     0
 90
        6
176
     0
 90
        2
176
     0
 62
     7
176
     0
 90
        5
176
     0
 90
        0
176
     0
 90
        0
176
     0
290
     0
176
     0
 90
        1
176
     0
 40
0.0
176
     0
 90
        0
176
     0
290
     0
176
     0
290
     1
176
     0
290
     1
176
     0
290
     0
176
     0
290
     0
176
     0
290
     0
176
     0
290
     0
176
     0
290
     0
176
     0
290
     0
176
     0
 90
       50
176
     0
 40
0.0
176
     0
 40
1.0
176
     0
 90
        0
176
     0
 62
    18
420
        0
176
     0
 90
       50
176
     0
 90
        3
176
     0
 62
     5
420
      255
176
     0
290
     0
176
     0
 90
       50
176
     0
 90
       50
176
     0
 90
       50
176
     0
290
     0
176
     0
 90
       50
176
     0
 62
   256
176
     0
 40
1.0
176
     0
 90
        2
176
     0
  1
strokes_ogs.tif
176
     0
290
     0
176
     0
 40
1.0
176
     0
 40
1.0
176
     0
  0
VISUALSTYLE
  5
33
102
{ACAD_REACTORS
330
2A
102
}
330
2A
100
AcDbVisualStyle
  2
Realistic
 70
     8
177
     3
291
     0
 70
    58
 90
        2
176
     1
 90
        3
176
     1
 90
        0
176
     1
 90
        2
176
     1
 40
0.6
176
     1
 40
30.0
176
     1
 62
     7
420
 16777215
176
     1
 90
        0
176
     1
 90
        0
176
     1
 62
     7
176
     1
 62
   257
176
     1
 90
        1
176
     1
 90
        1
176
     1
 40
1.0
176
     1
 90
        8
176
     1
 62
   257
176
     1
 40
1.0
176
     1
 90
        1
176
     1
 90
        6
176
     1
 90
        2
176
     1
 62
     7
176
     1
 90
        3
176
     1
 90
        0
176
     1
 90
        0
176
     1
290
     0
176
     1
 90
       13
176
     1
 40
0.0
176
     1
 90
        0
176
     1
290
     0
176
     1
290
     1
176
     1
290
     1
176
     1
290
     0
176
     1
290
     0
176
     1
290
     0
176
     1
290
     0
176
     1
290
     0
176
     1
290
     0
176
     1
 90
       50
176
     1
 40
0.0
176
     1
 40
1.0
176
     1
 90
        0
176
     1
 62
    18
420
        0
176
     1
 90
       50
176
     1
 90
        3
176
     1
 62
     5
420
      255
176
     1
290
     0
176
     1
 90
       50
176
     1
 90
       50
176
     1
 90
       50
176
     1
290
     0
176
     1
 90
       50
176
     1
 62
   256
176
     0
 40
1.0
176
     0
 90
        2
176
     1
  1
strokes_ogs.tif
176
     1
290
     0
176
     1
 40
1.0
176
     1
 40
1.0
176
     1
  0
VISUALSTYLE
  5
42
102
{ACAD_REACTORS
330
2A
102
}
330
2A
100
AcDbVisualStyle
  2
Shaded
 70
    27
177
     3
291
     0
 70
    58
 90
        2
176
     1
 90
        2
176
     1
 90
        1
176
     1
 90
        2
176
     1
 40
0.6
176
     1
 40
30.0
176
     1
 62
     7
420
 16777215
176
     1
 90
        0
176
     1
 90
        4
176
     1
 62
     7
176
     1
 62
   257
176
     1
 90
        1
176
     1
 90
        1
176
     1
 40
1.0
176
     1
 90
        8
176
     1
 62
   257
176
     1
 40
1.0
176
     1
 90
        1
176
     1
 90
        6
176
     1
 90
        2
176
     1
 62
     8
420
  7895160
176
     1
 90
        3
176
     1
 90
        0
176
     1
 90
        0
176
     1
290
     0
176
     1
 90
        5
176
     1
 40
0.0
176
     1
 90
        0
176
     1
290
     0
176
     1
290
     1
176
     1
290
     1
176
     1
290
     0
176
     1
290
     0
176
     1
290
     0
176
     1
290
     0
176
     1
290
     0
176
     1
290
     0
176
     1
 90
       50
176
     1
 40
0.0
176
     1
 40
1.0
176
     1
 90
        0
176
     1
 62
    18
420
        0
176
     1
 90
       50
176
     1
 90
        3
176
     1
 62
     5
420
      255
176
     1
290
     0
176
     1
 90
       50
176
     1
 90
       50
176
     1
 90
       50
176
     1
290
     0
176
     1
 90
       50
176
     1
 62
   256
176
     0
 40
1.0
176
     0
 90
        2
176
     1
  1
strokes_ogs.tif
176
     1
290
     0
176
     1
 40
1.0
176
     1
 40
1.0
176
     1
  0
VISUALSTYLE
  5
41
102
{ACAD_REACTORS
330
2A
102
}
330
2A
100
AcDbVisualStyle
  2
Shaded with edges
 70
    26
177
     3
291
     0
 70
    58
 90
        2
176
     1
 90
        2
176
     1
 90
        1
176
     1
 90
        2
176
     1
 40
0.6
176
     1
 40
30.0
176
     1
 62
     7
420
 16777215
176
     1
 90
        1
176
     1
 90
       10
176
     1
 62
     7
176
     1
 62
   257
176
     1
 90
        2
176
     1
 90
        1
176
     1
 40
1.0
176
     1
 90
        8
176
     1
 62
   257
176
     1
 40
1.0
176
     1
 90
        1
176
     1
 90
        6
176
     1
 90
        2
176
     1
 62
     7
176
     1
 90
        3
176
     1
 90
        0
176
     1
 90
        0
176
     1
290
     0
176
     1
 90
        5
176
     1
 40
0.0
176
     1
 90
        0
176
     1
290
     0
176
     1
290
     1
176
     1
290
     1
176
     1
290
     0
176
     1
290
     0
176
     1
290
     0
176
     1
290
     0
176
     1
290
     0
176
     1
290
     0
176
     1
 90
       50
176
     1
 40
0.0
176
     1
 40
1.0
176
     1
 90
        0
176
     1
 62
    18
420
        0
176
     1
 90
       50
176
     1
 90
        3
176
     1
 62
     5
420
      255
176
     1
290
     0
176
     1
 90
       50
176
     1
 90
       50
176
     1
 90
       50
176
     1
290
     0
176
     1
 90
       50
176
     1
 62
   256
176
     0
 40
1.0
176
     0
 90
        2
176
     1
  1
strokes_ogs.tif
176
     1
290
     0
176
     1
 40
1.0
176
     1
 40
1.0
176
     1
  0
VISUALSTYLE
  5
3E
102
{ACAD_REACTORS
330
2A
102
}
330
2A
100
AcDbVisualStyle
  2
Shades of Gray
 70
    23
177
     3
291
     0
 70
    58
 90
        2
176
     1
 90
        2
176
     1
 90
        3
176
     1
 90
        0
176
     1
 40
0.6
176
     1
 40
30.0
176
     1
 62
     7
420
 16777215
176
     1
 90
        2
176
     1
 90
        2
176
     1
 62
     7
176
     1
 62
     7
176
     1
 90
        1
176
     1
 90
        1
176
     1
 40
40.0
176
     1
 90
        8
176
     1
 62
     7
176
     1
 40
1.0
176
     1
 90
        1
176
     1
 90
        6
176
     1
 90
        2
176
     1
 62
     7
176
     1
 90
        3
176
     1
 90
        0
176
     1
 90
        0
176
     1
290
     0
176
     1
 90
        1
176
     1
 40
0.0
176
     1
 90
        0
176
     1
290
     0
176
     1
290
     1
176
     1
290
     1
176
     1
290
     0
176
     1
290
     0
176
     1
290
     0
176
     1
290
     0
176
     1
290
     0
176
     1
290
     0
176
     1
 90
       50
176
     1
 40
0.0
176
     1
 40
1.0
176
     1
 90
        0
176
     1
 62
    18
420
        0
176
     1
 90
       50
176
     1
 90
        3
176
     1
 62
     5
420
      255
176
     1
290
     0
176
     1
 90
       50
176
     1
 90
       50
176
     1
 90
       50
176
     1
290
     0
176
     1
 90
       50
176
     1
 62
   256
176
     0
 40
1.0
176
     0
 90
        2
176
     1
  1
strokes_ogs.tif
176
     1
290
     0
176
     1
 40
1.0
176
     1
 40
1.0
176
     1
  0
VISUALSTYLE
  5
3F
102
{ACAD_REACTORS
330
2A
102
}
330
2A
100
AcDbVisualStyle
  2
Sketchy
 70
    24
177
     3
291
     0
 70
    58
 90
        1
176
     1
 90
        2
176
     1
 90
        2
176
     1
 90
        0
176
     1
 40
0.6
176
     1
 40
30.0
176
     1
 62
     7
420
 16777215
176
     1
 90
        2
176
     1
 90
        2
176
     1
 62
     7
176
     1
 62
     7
176
     1
 90
        1
176
     1
 90
        1
176
     1
 40
40.0
176
     1
 90
       11
176
     1
 62
     7
176
     1
 40
1.0
176
     1
 90
        1
176
     1
 90
        6
176
     1
 90
        2
176
     1
 62
     7
176
     1
 90
        6
176
     1
 90
        0
176
     1
 90
        0
176
     1
290
     0
176
     1
 90
        1
176
     1
 40
0.0
176
     1
 90
        0
176
     1
290
     0
176
     1
290
     1
176
     1
290
     1
176
     1
290
     0
176
     1
290
     0
176
     1
290
     0
176
     1
290
     0
176
     1
290
     0
176
     1
290
     0
176
     1
 90
       50
176
     1
 40
0.0
176
     1
 40
1.0
176
     1
 90
        0
176
     1
 62
    18
420
        0
176
     1
 90
       50
176
     1
 90
        3
176
     1
 62
     5
420
      255
176
     1
290
     0
176
     1
 90
       50
176
     1
 90
       50
176
     1
 90
       50
176
     1
290
     0
176
     1
 90
       50
176
     1
 62
   256
176
     0
 40
1.0
176
     0
 90
        2
176
     1
  1
strokes_ogs.tif
176
     1
290
     0
176
     1
 40
1.0
176
     1
 40
1.0
176
     1
  0
VISUALSTYLE
  5
37
102
{ACAD_REACTORS
330
2A
102
}
330
2A
100
AcDbVisualStyle
  2
Thicken
 70
    13
177
     3
291
     1
 70
    58
 90
        2
176
     1
 90
        2
176
     1
 90
        0
176
     1
 90
        0
176
     1
 40
0.6
176
     1
 40
30.0
176
     1
 62
     7
420
 16777215
176
     1
 90
        1
176
     1
 90
        4
176
     1
 62
     7
176
     1
 62
   257
176
     1
 90
        1
176
     1
 90
        1
176
     1
 40
1.0
176
     1
 90
       12
176
     1
 62
     7
176
     1
 40
1.0
176
     1
 90
        1
176
     1
 90
        6
176
     1
 90
        2
176
     1
 62
     7
176
     1
 90
        5
176
     1
 90
        0
176
     1
 90
        0
176
     1
290
     0
176
     1
 90
        1
176
     1
 40
0.0
176
     1
 90
        0
176
     1
290
     0
176
     1
290
     1
176
     1
290
     1
176
     1
290
     0
176
     1
290
     0
176
     1
290
     0
176
     1
290
     0
176
     1
290
     0
176
     1
290
     0
176
     1
 90
       50
176
     1
 40
0.0
176
     1
 40
1.0
176
     1
 90
        0
176
     1
 62
    18
420
        0
176
     1
 90
       50
176
     1
 90
        3
176
     1
 62
     5
420
      255
176
     1
290
     0
176
     1
 90
       50
176
     1
 90
       50
176
     1
 90
       50
176
     1
290
     0
176
     1
 90
       50
176
     1
 62
   256
176
     0
 40
1.0
176
     0
 90
        2
176
     1
  1
strokes_ogs.tif
176
     1
290
     0
176
     1
 40
1.0
176
     1
 40
1.0
176
     1
  0
VISUALSTYLE
  5
30
102
{ACAD_REACTORS
330
2A
102
}
330
2A
100
AcDbVisualStyle
  2
Wireframe
 70
     5
177
     3
291
     0
 70
    58
 90
        0
176
     1
 90
        2
176
     1
 90
        0
176
     1
 90
        0
176
     1
 40
0.6
176
     1
 40
30.0
176
     1
 62
     7
420
 16777215
176
     1
 90
        1
176
     1
 90
        4
176
     1
 62
     7
176
     1
 62
   257
176
     1
 90
        1
176
     1
 90
        1
176
     1
 40
1.0
176
     1
 90
        0
176
     1
 62
   257
176
     1
 40
1.0
176
     1
 90
        1
176
     1
 90
        6
176
     1
 90
        2
176
     1
 62
     7
176
     1
 90
        3
176
     1
 90
        0
176
     1
 90
        0
176
     1
290
     0
176
     1
 90
        1
176
     1
 40
0.0
176
     1
 90
        0
176
     1
290
     0
176
     1
290
     1
176
     1
290
     1
176
     1
290
     0
176
     1
290
     0
176
     1
290
     0
176
     1
290
     0
176
     1
290
     0
176
     1
290
     0
176
     1
 90
       50
176
     1
 40
0.0
176
     1
 40
1.0
176
     1
 90
        0
176
     1
 62
    18
420
        0
176
     1
 90
       50
176
     1
 90
        3
176
     1
 62
     5
420
      255
176
     1
290
     0
176
     1
 90
       50
176
     1
 90
       50
176
     1
 90
       50
176
     1
290
     0
176
     1
 90
       50
176
     1
 62
   256
176
     0
 40
1.0
176
     0
 90
        2
176
     1
  1
strokes_ogs.tif
176
     1
290
     0
176
     1
 40
1.0
176
     1
 40
1.0
176
     1
  0
VISUALSTYLE
  5
40
102
{ACAD_REACTORS
330
2A
102
}
330
2A
100
AcDbVisualStyle
  2
X-Ray
 70
    25
177
     3
291
     0
 70
    58
 90
        2
176
     1
 90
        2
176
     1
 90
        1
176
     1
 90
        1
176
     1
 40
0.5
176
     1
 40
30.0
176
     1
 62
     7
420
 16777215
176
     1
 90
        1
176
     1
 90
        0
176
     1
 62
     7
176
     1
 62
   257
176
     1
 90
        1
176
     1
 90
        1
176
     1
 40
1.0
176
     1
 90
        8
176
     1
 62
     7
176
     1
 40
1.0
176
     1
 90
        1
176
     1
 90
        6
176
     1
 90
        2
176
     1
 62
     7
176
     1
 90
        3
176
     1
 90
        0
176
     1
 90
        0
176
     1
290
     0
176
     1
 90
       13
176
     1
 40
0.0
176
     1
 90
        0
176
     1
290
     0
176
     1
290
     1
176
     1
290
     1
176
     1
290
     0
176
     1
290
     0
176
     1
290
     0
176
     1
290
     0
176
     1
290
     0
176
     1
290
     0
176
     1
 90
       50
176
     1
 40
0.0
176
     1
 40
1.0
176
     1
 90
        0
176
     1
 62
    18
420
        0
176
     1
 90
       50
176
     1
 90
        3
176
     1
 62
     5
420
      255
176
     1
290
     0
176
     1
 90
       50
176
     1
 90
       50
176
     1
 90
       50
176
     1
290
     0
176
     1
 90
       50
176
     1
 62
   256
176
     0
 40
1.0
176
     0
 90
        2
176
     1
  1
strokes_ogs.tif
176
     1
290
     0
176
     1
 40
1.0
176
     1
 40
1.0
176
     1
  0
DICTIONARYVAR
  5
1FC
102
{ACAD_REACTORS
330
1FB
102
}
330
1FB
100
DictionaryVariables
280
     0
  1
1:1
  0
DICTIONARYVAR
  5
201
102
{ACAD_REACTORS
330
1FB
102
}
330
1FB
100
DictionaryVariables
280
     0
  1
Standard
  0
DICTIONARYVAR
  5
200
102
{ACAD_REACTORS
330
1FB
102
}
330
1FB
100
DictionaryVariables
280
     0
  1
Standard
  0
DICTIONARY
  5
1FD
330
6A
100
AcDbDictionary
280
     1
281
     1
  3
ACAD_ROUNDTRIP_2008_TABLESTYLE_CELLSTYLEMAP
360
1FE
  0
CELLSTYLEMAP
  5
1FE
102
{ACAD_REACTORS
330
1FD
102
}
330
1FD
100
AcDbCellStyleMap
 90
        3
300
CELLSTYLE
  1
TABLEFORMAT_BEGIN
 90
        5
170
     1
 91
        0
 92
    32768
 62
   257
 93
        1
300
CONTENTFORMAT
  1
CONTENTFORMAT_BEGIN
 90
        0
 91
        0
 92
        4
 93
        0
300

 40
0.0
140
1.0
 94
        5
 62
     0
340
11
144
0.25
309
CONTENTFORMAT_END
171
     1
301
MARGIN
  1
CELLMARGIN_BEGIN
 40
0.06
 40
0.06
 40
0.06
 40
0.06
 40
0.06
 40
0.06
309
CELLMARGIN_END
 94
        6
 95
        1
302
GRIDFORMAT
  1
GRIDFORMAT_BEGIN
 90
        0
 91
        1
 62
     0
 92
       -2
340
14
 93
        0
 40
0.045
309
GRIDFORMAT_END
 95
        2
302
GRIDFORMAT
  1
GRIDFORMAT_BEGIN
 90
        0
 91
        1
 62
     0
 92
       -2
340
14
 93
        0
 40
0.045
309
GRIDFORMAT_END
 95
        4
302
GRIDFORMAT
  1
GRIDFORMAT_BEGIN
 90
        0
 91
        1
 62
     0
 92
       -2
340
14
 93
        0
 40
0.045
309
GRIDFORMAT_END
 95
        8
302
GRIDFORMAT
  1
GRIDFORMAT_BEGIN
 90
        0
 91
        1
 62
     0
 92
       -2
340
14
 93
        0
 40
0.045
309
GRIDFORMAT_END
 95
       16
302
GRIDFORMAT
  1
GRIDFORMAT_BEGIN
 90
        0
 91
        1
 62
     0
 92
       -2
340
14
 93
        0
 40
0.045
309
GRIDFORMAT_END
 95
       32
302
GRIDFORMAT
  1
GRIDFORMAT_BEGIN
 90
        0
 91
        1
 62
     0
 92
       -2
340
14
 93
        0
 40
0.045
309
GRIDFORMAT_END
309
TABLEFORMAT_END
  1
CELLSTYLE_BEGIN
 90
        1
 91
        1
300
_TITLE
309
CELLSTYLE_END
300
CELLSTYLE
  1
TABLEFORMAT_BEGIN
 90
        5
170
     1
 91
        0
 92
        0
 62
   257
 93
        1
300
CONTENTFORMAT
  1
CONTENTFORMAT_BEGIN
 90
        0
 91
        0
 92
        4
 93
        0
300

 40
0.0
140
1.0
 94
        5
 62
     0
340
11
144
0.18
309
CONTENTFORMAT_END
171
     1
301
MARGIN
  1
CELLMARGIN_BEGIN
 40
0.06
 40
0.06
 40
0.06
 40
0.06
 40
0.06
 40
0.06
309
CELLMARGIN_END
 94
        6
 95
        1
302
GRIDFORMAT
  1
GRIDFORMAT_BEGIN
 90
        0
 91
        1
 62
     0
 92
       -2
340
14
 93
        0
 40
0.045
309
GRIDFORMAT_END
 95
        2
302
GRIDFORMAT
  1
GRIDFORMAT_BEGIN
 90
        0
 91
        1
 62
     0
 92
       -2
340
14
 93
        0
 40
0.045
309
GRIDFORMAT_END
 95
        4
302
GRIDFORMAT
  1
GRIDFORMAT_BEGIN
 90
        0
 91
        1
 62
     0
 92
       -2
340
14
 93
        0
 40
0.045
309
GRIDFORMAT_END
 95
        8
302
GRIDFORMAT
  1
GRIDFORMAT_BEGIN
 90
        0
 91
        1
 62
     0
 92
       -2
340
14
 93
        0
 40
0.045
309
GRIDFORMAT_END
 95
       16
302
GRIDFORMAT
  1
GRIDFORMAT_BEGIN
 90
        0
 91
        1
 62
     0
 92
       -2
340
14
 93
        0
 40
0.045
309
GRIDFORMAT_END
 95
       32
302
GRIDFORMAT
  1
GRIDFORMAT_BEGIN
 90
        0
 91
        1
 62
     0
 92
       -2
340
14
 93
        0
 40
0.045
309
GRIDFORMAT_END
309
TABLEFORMAT_END
  1
CELLSTYLE_BEGIN
 90
        2
 91
        1
300
_HEADER
309
CELLSTYLE_END
300
CELLSTYLE
  1
TABLEFORMAT_BEGIN
 90
        5
170
     1
 91
        0
 92
        0
 62
   257
 93
        1
300
CONTENTFORMAT
  1
CONTENTFORMAT_BEGIN
 90
        0
 91
        0
 92
        4
 93
        0
300

 40
0.0
140
1.0
 94
        2
 62
     0
340
11
144
0.18
309
CONTENTFORMAT_END
171
     1
301
MARGIN
  1
CELLMARGIN_BEGIN
 40
0.06
 40
0.06
 40
0.06
 40
0.06
 40
0.06
 40
0.06
309
CELLMARGIN_END
 94
        6
 95
        1
302
GRIDFORMAT
  1
GRIDFORMAT_BEGIN
 90
        0
 91
        1
 62
     0
 92
       -2
340
14
 93
        0
 40
0.045
309
GRIDFORMAT_END
 95
        2
302
GRIDFORMAT
  1
GRIDFORMAT_BEGIN
 90
        0
 91
        1
 62
     0
 92
       -2
340
14
 93
        0
 40
0.045
309
GRIDFORMAT_END
 95
        4
302
GRIDFORMAT
  1
GRIDFORMAT_BEGIN
 90
        0
 91
        1
 62
     0
 92
       -2
340
14
 93
        0
 40
0.045
309
GRIDFORMAT_END
 95
        8
302
GRIDFORMAT
  1
GRIDFORMAT_BEGIN
 90
        0
 91
        1
 62
     0
 92
       -2
340
14
 93
        0
 40
0.045
309
GRIDFORMAT_END
 95
       16
302
GRIDFORMAT
  1
GRIDFORMAT_BEGIN
 90
        0
 91
        1
 62
     0
 92
       -2
340
14
 93
        0
 40
0.045
309
GRIDFORMAT_END
 95
       32
302
GRIDFORMAT
  1
GRIDFORMAT_BEGIN
 90
        0
 91
        1
 62
     0
 92
       -2
340
14
 93
        0
 40
0.045
309
GRIDFORMAT_END
309
TABLEFORMAT_END
  1
CELLSTYLE_BEGIN
 90
        3
 91
        2
300
_DATA
309
CELLSTYLE_END
  0
ENDSEC
  0
EOF