0
SECTION
  2
HEADER
  9
$ACADVER
  1
AC1027
  9
$ACADMAINTVER
 70
     8
  9
$DWGCODEPAGE
  3
ANSI_1252
  9
$REQUIREDVERSIONS
160
                 0
  9
$COMMENTS
  1
File was created by Cadenas
  9
$CUSTOMPROPERTYTAG
  1
NN
  9
$CUSTOMPROPERTY
  1
Eccentric Collar Wide Slot Take Up Inch Bore
  9
$CUSTOMPROPERTYTAG
  1
NT
  9
$CUSTOMPROPERTY
  1
SXR Normal Duty Wide Slot Take-Up Bearings
  9
$CUSTOMPROPERTYTAG
  1
NB
  9
$CUSTOMPROPERTY
  1
131227
  9
$CUSTOMPROPERTYTAG
  1
NBSYN
  9
$CUSTOMPROPERTY
  1
$PN.
  9
$CUSTOMPROPERTYTAG
  1
LINA
  9
$CUSTOMPROPERTY
  1
131227
  9
$CUSTOMPROPERTYTAG
  1
SERIES
  9
$CUSTOMPROPERTY
  1
210
  9
$CUSTOMPROPERTYTAG
  1
SS
  9
$CUSTOMPROPERTY
  1
2
  9
$CUSTOMPROPERTYTAG
  1
PN
  9
$CUSTOMPROPERTY
  1
131227
  9
$CUSTOMPROPERTYTAG
  1
DESCRIPTION
  9
$CUSTOMPROPERTY
  1
WSTU-SXR-200
  9
$CUSTOMPROPERTYTAG
  1
LF
  9
$CUSTOMPROPERTY
  1
RE-LUBE
  9
$CUSTOMPROPERTYTAG
  1
W
  9
$CUSTOMPROPERTY
  1
6.8
  9
$CUSTOMPROPERTYTAG
  1
FS
  9
$CUSTOMPROPERTY
  1
WS400
  9
$CUSTOMPROPERTYTAG
  1
A
  9
$CUSTOMPROPERTY
  1
2.25
  9
$CUSTOMPROPERTYTAG
  1
B
  9
$CUSTOMPROPERTY
  1
5.82
  9
$CUSTOMPROPERTYTAG
  1
C
  9
$CUSTOMPROPERTY
  1
0.688
  9
$CUSTOMPROPERTYTAG
  1
D
  9
$CUSTOMPROPERTY
  1
3.38
  9
$CUSTOMPROPERTYTAG
  1
E
  9
$CUSTOMPROPERTY
  1
3.56
  9
$CUSTOMPROPERTYTAG
  1
F
  9
$CUSTOMPROPERTY
  1
1
  9
$CUSTOMPROPERTYTAG
  1
G
  9
$CUSTOMPROPERTY
  1
0.63
  9
$CUSTOMPROPERTYTAG
  1
H
  9
$CUSTOMPROPERTY
  1
0.75
  9
$CUSTOMPROPERTYTAG
  1
J
  9
$CUSTOMPROPERTY
  1
3.25
  9
$CUSTOMPROPERTYTAG
  1
K
  9
$CUSTOMPROPERTY
  1
1.94
  9
$CUSTOMPROPERTYTAG
  1
L
  9
$CUSTOMPROPERTY
  1
2.75
  9
$CUSTOMPROPERTYTAG
  1
M
  9
$CUSTOMPROPERTY
  1
3.985/4.015
  9
$CUSTOMPROPERTYTAG
  1
N
  9
$CUSTOMPROPERTY
  1
4.75
  9
$CUSTOMPROPERTYTAG
  1
R
  9
$CUSTOMPROPERTY
  1
0.75
  9
$CUSTOMPROPERTYTAG
  1
S
  9
$CUSTOMPROPERTY
  1
1.50
  9
$CUSTOMPROPERTYTAG
  1
T
  9
$CUSTOMPROPERTY
  1
1.94
  9
$CUSTOMPROPERTYTAG
  1
COMPANY
  9
$CUSTOMPROPERTY
  1
baldor
  9
$INSBASE
 10
0.0
 20
0.0
 30
0.0
  9
$EXTMIN
 10
1.000000000000000E+20
 20
1.000000000000000E+20
 30
1.000000000000000E+20
  9
$EXTMAX
 10
-1.000000000000000E+20
 20
-1.000000000000000E+20
 30
-1.000000000000000E+20
  9
$LIMMIN
 10
0.0
 20
0.0
  9
$LIMMAX
 10
12.0
 20
9.0
  9
$ORTHOMODE
 70
     0
  9
$REGENMODE
 70
     1
  9
$FILLMODE
 70
     1
  9
$QTEXTMODE
 70
     0
  9
$MIRRTEXT
 70
     1
  9
$LTSCALE
 40
1.0
  9
$ATTMODE
 70
     1
  9
$TEXTSIZE
 40
0.2
  9
$TRACEWID
 40
0.05
  9
$TEXTSTYLE
  7
Standard
  9
$CLAYER
  8
0
  9
$CELTYPE
  6
ByLayer
  9
$CECOLOR
 62
   256
  9
$CELTSCALE
 40
1.0
  9
$DISPSILH
 70
     0
  9
$DIMSCALE
 40
1.0
  9
$DIMASZ
 40
0.18
  9
$DIMEXO
 40
0.0625
  9
$DIMDLI
 40
0.38
  9
$DIMRND
 40
0.0
  9
$DIMDLE
 40
0.0
  9
$DIMEXE
 40
0.18
  9
$DIMTP
 40
0.0
  9
$DIMTM
 40
0.0
  9
$DIMTXT
 40
0.18
  9
$DIMCEN
 40
0.09
  9
$DIMTSZ
 40
0.0
  9
$DIMTOL
 70
     0
  9
$DIMLIM
 70
     0
  9
$DIMTIH
 70
     1
  9
$DIMTOH
 70
     1
  9
$DIMSE1
 70
     0
  9
$DIMSE2
 70
     0
  9
$DIMTAD
 70
     0
  9
$DIMZIN
 70
     0
  9
$DIMBLK
  1

  9
$DIMASO
 70
     1
  9
$DIMSHO
 70
     1
  9
$DIMPOST
  1

  9
$DIMAPOST
  1

  9
$DIMALT
 70
     0
  9
$DIMALTD
 70
     2
  9
$DIMALTF
 40
25.4
  9
$DIMLFAC
 40
1.0
  9
$DIMTOFL
 70
     0
  9
$DIMTVP
 40
0.0
  9
$DIMTIX
 70
     0
  9
$DIMSOXD
 70
     0
  9
$DIMSAH
 70
     0
  9
$DIMBLK1
  1

  9
$DIMBLK2
  1

  9
$DIMSTYLE
  2
Standard
  9
$DIMCLRD
 70
     0
  9
$DIMCLRE
 70
     0
  9
$DIMCLRT
 70
     0
  9
$DIMTFAC
 40
1.0
  9
$DIMGAP
 40
0.09
  9
$DIMJUST
 70
     0
  9
$DIMSD1
 70
     0
  9
$DIMSD2
 70
     0
  9
$DIMTOLJ
 70
     1
  9
$DIMTZIN
 70
     0
  9
$DIMALTZ
 70
     0
  9
$DIMALTTZ
 70
     0
  9
$DIMUPT
 70
     0
  9
$DIMDEC
 70
     4
  9
$DIMTDEC
 70
     4
  9
$DIMALTU
 70
     2
  9
$DIMALTTD
 70
     2
  9
$DIMTXSTY
  7
Standard
  9
$DIMAUNIT
 70
     0
  9
$DIMADEC
 70
     0
  9
$DIMALTRND
 40
0.0
  9
$DIMAZIN
 70
     0
  9
$DIMDSEP
 70
    46
  9
$DIMATFIT
 70
     3
  9
$DIMFRAC
 70
     0
  9
$DIMLDRBLK
  1

  9
$DIMLUNIT
 70
     2
  9
$DIMLWD
 70
    -2
  9
$DIMLWE
 70
    -2
  9
$DIMTMOVE
 70
     0
  9
$DIMFXL
 40
1.0
  9
$DIMFXLON
 70
     0
  9
$DIMJOGANG
 40
0.7853981633974483
  9
$DIMTFILL
 70
     0
  9
$DIMTFILLCLR
 70
     0
  9
$DIMARCSYM
 70
     0
  9
$DIMLTYPE
  6

  9
$DIMLTEX1
  6

  9
$DIMLTEX2
  6

  9
$DIMTXTDIRECTION
 70
     0
  9
$LUNITS
 70
     2
  9
$LUPREC
 70
     4
  9
$SKETCHINC
 40
0.1
  9
$FILLETRAD
 40
0.5
  9
$AUNITS
 70
     0
  9
$AUPREC
 70
     0
  9
$MENU
  1
.
  9
$ELEVATION
 40
0.0
  9
$PELEVATION
 40
0.0
  9
$THICKNESS
 40
0.0
  9
$LIMCHECK
 70
     0
  9
$CHAMFERA
 40
0.0
  9
$CHAMFERB
 40
0.0
  9
$CHAMFERC
 40
0.0
  9
$CHAMFERD
 40
0.0
  9
$SKPOLY
 70
     0
  9
$TDCREATE
 40
2458168.980166956
  9
$TDUCREATE
 40
2458168.938500289
  9
$TDUPDATE
 40
2458168.98016713
  9
$TDUUPDATE
 40
2458168.938500463
  9
$TDINDWG
 40
0.0000000116
  9
$TDUSRTIMER
 40
0.0000000116
  9
$USRTIMER
 70
     1
  9
$ANGBASE
 50
0.0
  9
$ANGDIR
 70
     0
  9
$PDMODE
 70
     0
  9
$PDSIZE
 40
0.0
  9
$PLINEWID
 40
0.0
  9
$SPLFRAME
 70
     0
  9
$SPLINETYPE
 70
     6
  9
$SPLINESEGS
 70
     8
  9
$HANDSEED
  5
1FE
  9
$SURFTAB1
 70
     6
  9
$SURFTAB2
 70
     6
  9
$SURFTYPE
 70
     6
  9
$SURFU
 70
     6
  9
$SURFV
 70
     6
  9
$UCSBASE
  2

  9
$UCSNAME
  2

  9
$UCSORG
 10
0.0
 20
0.0
 30
0.0
  9
$UCSXDIR
 10
1.0
 20
0.0
 30
0.0
  9
$UCSYDIR
 10
0.0
 20
1.0
 30
0.0
  9
$UCSORTHOREF
  2

  9
$UCSORTHOVIEW
 70
     0
  9
$UCSORGTOP
 10
0.0
 20
0.0
 30
0.0
  9
$UCSORGBOTTOM
 10
0.0
 20
0.0
 30
0.0
  9
$UCSORGLEFT
 10
0.0
 20
0.0
 30
0.0
  9
$UCSORGRIGHT
 10
0.0
 20
0.0
 30
0.0
  9
$UCSORGFRONT
 10
0.0
 20
0.0
 30
0.0
  9
$UCSORGBACK
 10
0.0
 20
0.0
 30
0.0
  9
$PUCSBASE
  2

  9
$PUCSNAME
  2

  9
$PUCSORG
 10
0.0
 20
0.0
 30
0.0
  9
$PUCSXDIR
 10
1.0
 20
0.0
 30
0.0
  9
$PUCSYDIR
 10
0.0
 20
1.0
 30
0.0
  9
$PUCSORTHOREF
  2

  9
$PUCSORTHOVIEW
 70
     0
  9
$PUCSORGTOP
 10
0.0
 20
0.0
 30
0.0
  9
$PUCSORGBOTTOM
 10
0.0
 20
0.0
 30
0.0
  9
$PUCSORGLEFT
 10
0.0
 20
0.0
 30
0.0
  9
$PUCSORGRIGHT
 10
0.0
 20
0.0
 30
0.0
  9
$PUCSORGFRONT
 10
0.0
 20
0.0
 30
0.0
  9
$PUCSORGBACK
 10
0.0
 20
0.0
 30
0.0
  9
$USERI1
 70
     0
  9
$USERI2
 70
     0
  9
$USERI3
 70
     0
  9
$USERI4
 70
     0
  9
$USERI5
 70
     0
  9
$USERR1
 40
0.0
  9
$USERR2
 40
0.0
  9
$USERR3
 40
0.0
  9
$USERR4
 40
0.0
  9
$USERR5
 40
0.0
  9
$WORLDVIEW
 70
     1
  9
$SHADEDGE
 70
     3
  9
$SHADEDIF
 70
    70
  9
$TILEMODE
 70
     1
  9
$MAXACTVP
 70
    64
  9
$PINSBASE
 10
0.0
 20
0.0
 30
0.0
  9
$PLIMCHECK
 70
     0
  9
$PEXTMIN
 10
1.000000000000000E+20
 20
1.000000000000000E+20
 30
1.000000000000000E+20
  9
$PEXTMAX
 10
-1.000000000000000E+20
 20
-1.000000000000000E+20
 30
-1.000000000000000E+20
  9
$PLIMMIN
 10
0.0
 20
0.0
  9
$PLIMMAX
 10
12.0
 20
9.0
  9
$UNITMODE
 70
     0
  9
$VISRETAIN
 70
     1
  9
$PLINEGEN
 70
     0
  9
$PSLTSCALE
 70
     1
  9
$TREEDEPTH
 70
  3020
  9
$CMLSTYLE
  2
Standard
  9
$CMLJUST
 70
     0
  9
$CMLSCALE
 40
1.0
  9
$PROXYGRAPHICS
 70
     1
  9
$MEASUREMENT
 70
     0
  9
$CELWEIGHT
370
    -1
  9
$ENDCAPS
280
     0
  9
$JOINSTYLE
280
     0
  9
$LWDISPLAY
290
     0
  9
$INSUNITS
 70
     1
  9
$HYPERLINKBASE
  1

  9
$STYLESHEET
  1

  9
$XEDIT
290
     1
  9
$CEPSNTYPE
380
     0
  9
$PSTYLEMODE
290
     1
  9
$FINGERPRINTGUID
  2
{24BA43FA-EF05-4DBA-AD18-B6996FB568DE}
  9
$VERSIONGUID
  2
{FAEB1C32-E019-11D5-929B-00C0DF256EC4}
  9
$EXTNAMES
290
     1
  9
$PSVPSCALE
 40
0.0
  9
$OLESTARTUP
290
     0
  9
$SORTENTS
280
   127
  9
$INDEXCTL
280
     0
  9
$HIDETEXT
280
     1
  9
$XCLIPFRAME
280
     2
  9
$HALOGAP
280
     0
  9
$OBSCOLOR
 70
   257
  9
$OBSLTYPE
280
     0
  9
$INTERSECTIONDISPLAY
280
     0
  9
$INTERSECTIONCOLOR
 70
   257
  9
$DIMASSOC
280
     2
  9
$PROJECTNAME
  1

  9
$CAMERADISPLAY
290
     0
  9
$LENSLENGTH
 40
50.0
  9
$CAMERAHEIGHT
 40
0.0
  9
$STEPSPERSEC
 40
2.0
  9
$STEPSIZE
 40
6.0
  9
$3DDWFPREC
 40
2.0
  9
$PSOLWIDTH
 40
0.25
  9
$PSOLHEIGHT
 40
4.0
  9
$LOFTANG1
 40
1.570796326794897
  9
$LOFTANG2
 40
1.570796326794897
  9
$LOFTMAG1
 40
0.0
  9
$LOFTMAG2
 40
0.0
  9
$LOFTPARAM
 70
     7
  9
$LOFTNORMALS
280
     1
  9
$LATITUDE
 40
37.795
  9
$LONGITUDE
 40
-122.394
  9
$NORTHDIRECTION
 40
0.0
  9
$TIMEZONE
 70
 -8000
  9
$LIGHTGLYPHDISPLAY
280
     1
  9
$TILEMODELIGHTSYNCH
280
     1
  9
$CMATERIAL
347
44
  9
$SOLIDHIST
280
     0
  9
$SHOWHIST
280
     1
  9
$DWFFRAME
280
     2
  9
$DGNFRAME
280
     2
  9
$REALWORLDSCALE
290
     1
  9
$INTERFERECOLOR
 62
   256
  9
$CSHADOW
280
     0
  9
$SHADOWPLANELOCATION
 40
0.0
  0
ENDSEC
  0
SECTION
  2
CLASSES
  0
CLASS
  1
ACDBDICTIONARYWDFLT
  2
AcDbDictionaryWithDefault
  3
ObjectDBX Classes
 90
        0
 91
        4
280
     0
281
     0
  0
CLASS
  1
VISUALSTYLE
  2
AcDbVisualStyle
  3
ObjectDBX Classes
 90
     4095
 91
        4
280
     0
281
     0
  0
CLASS
  1
MATERIAL
  2
AcDbMaterial
  3
ObjectDBX Classes
 90
     1153
 91
        4
280
     0
281
     0
  0
CLASS
  1
SCALE
  2
AcDbScale
  3
ObjectDBX Classes
 90
     1153
 91
        4
280
     0
281
     0
  0
CLASS
  1
TABLESTYLE
  2
AcDbTableStyle
  3
ObjectDBX Classes
 90
     4095
 91
        4
280
     0
281
     0
  0
CLASS
  1
MLEADERSTYLE
  2
AcDbMLeaderStyle
  3
ACDB_MLEADERSTYLE_CLASS
 90
     4095
 91
        4
280
     0
281
     0
  0
CLASS
  1
SUN
  2
AcDbSun
  3
SCENEOE
 90
     1153
 91
        4
280
     0
281
     0
  0
CLASS
  1
DICTIONARYVAR
  2
AcDbDictionaryVar
  3
ObjectDBX Classes
 90
        0
 91
        4
280
     0
281
     0
  0
CLASS
  1
CELLSTYLEMAP
  2
AcDbCellStyleMap
  3
ObjectDBX Classes
 90
     1152
 91
        4
280
     0
281
     0
  0
ENDSEC
  0
SECTION
  2
TABLES
  0
TABLE
  2
VPORT
  5
8
330
0
100
AcDbSymbolTable
 70
     1
  0
VPORT
  5
29
330
8
100
AcDbSymbolTableRecord
100
AcDbViewportTableRecord
  2
*Active
 70
     0
 10
0.0
 20
0.0
 11
1.0
 21
1.0
 12
0.4930761628524358
 22
-0.32125
 13
0.0
 23
0.0
 14
0.5
 24
0.5
 15
0.5
 25
0.5
 16
0.0
 26
0.0
 36
1.0
 17
0.0
 27
0.0
 37
0.0
 40
2.63415
 41
2.399553794499566
 42
50.0
 43
0.0
 44
0.0
 50
0.0
 51
0.0
 71
     0
 72
   100
 73
     1
 74
     3
 75
     0
 76
     0
 77
     0
 78
     0
281
     0
 65
     1
110
0.0
120
0.0
130
0.0
111
1.0
121
0.0
131
0.0
112
0.0
122
1.0
132
0.0
 79
     0
146
0.0
348
2F
 60
     3
 61
     5
292
     1
282
     1
141
0.0
142
0.0
 63
   250
361
6D
  0
ENDTAB
  0
TABLE
  2
LTYPE
  5
5
330
0
100
AcDbSymbolTable
 70
     3
  0
LTYPE
  5
14
330
5
100
AcDbSymbolTableRecord
100
AcDbLinetypeTableRecord
  2
ByBlock
 70
     0
  3

 72
    65
 73
     0
 40
0.0
  0
LTYPE
  5
15
330
5
100
AcDbSymbolTableRecord
100
AcDbLinetypeTableRecord
  2
ByLayer
 70
     0
  3

 72
    65
 73
     0
 40
0.0
  0
LTYPE
  5
16
330
5
100
AcDbSymbolTableRecord
100
AcDbLinetypeTableRecord
  2
Continuous
 70
     0
  3
Solid line
 72
    65
 73
     0
 40
0.0
  0
LTYPE
  5
A8
330
5
100
AcDbSymbolTableRecord
100
AcDbLinetypeTableRecord
  2
Dashed
 70
     0
  3

 72
    65
 73
     2
 40
2.0
 49
1.0
 74
     0
 49
-1.0
 74
     0
  0
LTYPE
  5
D3
330
5
100
AcDbSymbolTableRecord
100
AcDbLinetypeTableRecord
  2
Center
 70
     0
  3

 72
    65
 73
     4
 40
1.5
 49
0.45
 74
     0
 49
-0.5
 74
     0
 49
0.05
 74
     0
 49
-0.5
 74
     0
  0
ENDTAB
  0
TABLE
  2
LAYER
  5
2
330
0
100
AcDbSymbolTable
 70
     7
  0
LAYER
  5
10
330
2
100
AcDbSymbolTableRecord
100
AcDbLayerTableRecord
  2
0
 70
     0
 62
     7
  6
Continuous
370
    -3
390
F
347
46
348
0
  0
LAYER
  5
72
330
2
100
AcDbSymbolTableRecord
100
AcDbLayerTableRecord
  2
AM_6
 70
     0
 62
    -2
  6
Continuous
370
    35
390
F
347
46
348
0
  0
LAYER
  5
A9
330
2
100
AcDbSymbolTableRecord
100
AcDbLayerTableRecord
  2
AM_9
 70
     0
 62
     6
  6
Dashed
370
    25
390
F
347
46
348
0
  0
LAYER
  5
D4
330
2
100
AcDbSymbolTableRecord
100
AcDbLayerTableRecord
  2
AM_7
 70
     0
 62
     7
  6
Center
370
    25
390
F
347
46
348
0
  0
LAYER
  5
D7
330
2
100
AcDbSymbolTableRecord
100
AcDbLayerTableRecord
  2
AM_4
 70
     0
 62
     7
  6
Continuous
370
    50
390
F
347
46
348
0
  0
LAYER
  5
F6
330
2
100
AcDbSymbolTableRecord
100
AcDbLayerTableRecord
  2
AM_5
 70
     0
 62
     3
  6
Continuous
370
    25
390
F
347
46
348
0
  0
LAYER
  5
1F1
330
2
100
AcDbSymbolTableRecord
100
AcDbLayerTableRecord
  2
ConnectionPoints
 70
     0
 62
     7
  6
Continuous
370
    50
390
F
347
46
348
0
  0
ENDTAB
  0
TABLE
  2
STYLE
  5
3
330
0
100
AcDbSymbolTable
 70
     1
  0
STYLE
  5
11
330
3
100
AcDbSymbolTableRecord
100
AcDbTextStyleTableRecord
  2
Standard
 70
     0
 40
0.0
 41
1.0
 50
0.0
 71
     0
 42
0.2
  3
txt
  4

  0
ENDTAB
  0
TABLE
  2
VIEW
  5
6
330
0
100
AcDbSymbolTable
 70
     0
  0
ENDTAB
  0
TABLE
  2
UCS
  5
7
330
0
100
AcDbSymbolTable
 70
     0
  0
ENDTAB
  0
TABLE
  2
APPID
  5
9
330
0
100
AcDbSymbolTable
 70
     1
  0
APPID
  5
12
330
9
100
AcDbSymbolTableRecord
100
AcDbRegAppTableRecord
  2
ACAD
 70
     0
  0
ENDTAB
  0
TABLE
  2
DIMSTYLE
  5
A
330
0
100
AcDbSymbolTable
 70
     1
100
AcDbDimStyleTable
  0
DIMSTYLE
105
27
330
A
100
AcDbSymbolTableRecord
100
AcDbDimStyleTableRecord
  2
Standard
 70
     0
178
     0
340
11
  0
ENDTAB
  0
TABLE
  2
BLOCK_RECORD
  5
1
330
0
100
AcDbSymbolTable
 70
     5
  0
BLOCK_RECORD
  5
1F
330
1
100
AcDbSymbolTableRecord
100
AcDbBlockTableRecord
  2
*Model_Space
340
22
 70
     0
280
     1
281
     0
  0
BLOCK_RECORD
  5
1B
330
1
100
AcDbSymbolTableRecord
100
AcDbBlockTableRecord
  2
*Paper_Space
340
1E
 70
     0
280
     1
281
     0
  0
BLOCK_RECORD
  5
23
330
1
100
AcDbSymbolTableRecord
100
AcDbBlockTableRecord
  2
*Paper_Space0
340
26
 70
     0
280
     1
281
     0
  0
BLOCK_RECORD
  5
6E
330
1
100
AcDbSymbolTableRecord
100
AcDbBlockTableRecord
  2
1_131227_4
340
0
102
{BLKREFS
331
6F
102
}
 70
     0
280
     1
281
     0
  0
BLOCK_RECORD
  5
90
330
1
100
AcDbSymbolTableRecord
100
AcDbBlockTableRecord
  2
2_131924_0_in_131227_4
340
0
102
{BLKREFS
331
91
102
}
 70
     0
280
     1
281
     0
  0
BLOCK_RECORD
  5
F8
330
1
100
AcDbSymbolTableRecord
100
AcDbBlockTableRecord
  2
3_405016_Inch_0_in_131227_4
340
0
102
{BLKREFS
331
F9
102
}
 70
     0
280
     1
281
     0
  0
BLOCK_RECORD
  5
182
330
1
100
AcDbSymbolTableRecord
100
AcDbBlockTableRecord
  2
4_131227H_0_in_131227_4
340
0
102
{BLKREFS
331
183
102
}
 70
     0
280
     1
281
     0
  0
ENDTAB
  0
ENDSEC
  0
SECTION
  2
BLOCKS
  0
BLOCK
  5
20
330
1F
100
AcDbEntity
  8
0
100
AcDbBlockBegin
  2
*Model_Space
 70
     0
 10
0.0
 20
0.0
 30
0.0
  3
*Model_Space
  1

  0
ENDBLK
  5
21
330
1F
100
AcDbEntity
  8
0
100
AcDbBlockEnd
  0
BLOCK
  5
1C
330
1B
100
AcDbEntity
 67
     1
  8
0
100
AcDbBlockBegin
  2
*Paper_Space
 70
     0
 10
0.0
 20
0.0
 30
0.0
  3
*Paper_Space
  1

  0
ENDBLK
  5
1D
330
1B
100
AcDbEntity
 67
     1
  8
0
100
AcDbBlockEnd
  0
BLOCK
  5
24
330
23
100
AcDbEntity
  8
0
100
AcDbBlockBegin
  2
*Paper_Space0
 70
     0
 10
0.0
 20
0.0
 30
0.0
  3
*Paper_Space0
  1

  0
ENDBLK
  5
25
330
23
100
AcDbEntity
  8
0
100
AcDbBlockEnd
  0
BLOCK
  5
70
330
6E
100
AcDbEntity
  8
0
100
AcDbBlockBegin
  2
1_131227_4
 70
     2
 10
0.0
 20
0.0
 30
0.0
  3
1_131227_4
  1

  0
ATTDEF
  5
73
330
6E
100
AcDbEntity
  8
AM_6
100
AcDbText
 10
8.5915
 20
0.9699999999999999
 30
0.0
 40
0.5
  1
Eccentric Collar Wide Slot Take Up Inch Bore
100
AcDbAttributeDefinition
  3

  2
NN
 70
     8
280
     0
  0
ATTDEF
  5
74
330
6E
100
AcDbEntity
  8
AM_6
100
AcDbText
 10
8.5915
 20
0.4699999999999999
 30
0.0
 40
0.5
  1
SXR Normal Duty Wide Slot Take-Up Bearings
100
AcDbAttributeDefinition
  3

  2
NT
 70
     8
280
     0
  0
ATTDEF
  5
75
330
6E
100
AcDbEntity
  8
AM_6
100
AcDbText
 10
8.5915
 20
-0.0300000000000001
 30
0.0
 40
0.5
  1
131227
100
AcDbAttributeDefinition
  3

  2
NB
 70
     8
280
     0
  0
ATTDEF
  5
76
330
6E
100
AcDbEntity
  8
AM_6
100
AcDbText
 10
8.5915
 20
-0.5300000000000001
 30
0.0
 40
0.5
  1
$PN.
100
AcDbAttributeDefinition
  3

  2
NBSYN
 70
     8
280
     0
  0
ATTDEF
  5
77
330
6E
100
AcDbEntity
  8
AM_6
100
AcDbText
 10
8.5915
 20
-1.03
 30
0.0
 40
0.5
  1
131227
100
AcDbAttributeDefinition
  3

  2
LINA
 70
     8
280
     0
  0
ATTDEF
  5
78
330
6E
100
AcDbEntity
  8
AM_6
100
AcDbText
 10
8.5915
 20
-1.53
 30
0.0
 40
0.5
  1
210
100
AcDbAttributeDefinition
  3

  2
SERIES
 70
     8
280
     0
  0
ATTDEF
  5
79
330
6E
100
AcDbEntity
  8
AM_6
100
AcDbText
 10
8.5915
 20
-2.03
 30
0.0
 40
0.5
  1
2
100
AcDbAttributeDefinition
  3

  2
SS
 70
     8
280
     0
  0
ATTDEF
  5
7A
330
6E
100
AcDbEntity
  8
AM_6
100
AcDbText
 10
8.5915
 20
-2.53
 30
0.0
 40
0.5
  1
131227
100
AcDbAttributeDefinition
  3

  2
PN
 70
     8
280
     0
  0
ATTDEF
  5
7B
330
6E
100
AcDbEntity
  8
AM_6
100
AcDbText
 10
8.5915
 20
-3.03
 30
0.0
 40
0.5
  1
WSTU-SXR-200
100
AcDbAttributeDefinition
  3

  2
DESCRIPTION
 70
     8
280
     0
  0
ATTDEF
  5
7C
330
6E
100
AcDbEntity
  8
AM_6
100
AcDbText
 10
8.5915
 20
-3.53
 30
0.0
 40
0.5
  1
RE-LUBE
100
AcDbAttributeDefinition
  3

  2
LF
 70
     8
280
     0
  0
ATTDEF
  5
7D
330
6E
100
AcDbEntity
  8
AM_6
100
AcDbText
 10
8.5915
 20
-4.03
 30
0.0
 40
0.5
  1
6.8
100
AcDbAttributeDefinition
  3

  2
W
 70
     8
280
     0
  0
ATTDEF
  5
7E
330
6E
100
AcDbEntity
  8
AM_6
100
AcDbText
 10
8.5915
 20
-4.53
 30
0.0
 40
0.5
  1
WS400
100
AcDbAttributeDefinition
  3

  2
FS
 70
     8
280
     0
  0
ATTDEF
  5
7F
330
6E
100
AcDbEntity
  8
AM_6
100
AcDbText
 10
8.5915
 20
-5.03
 30
0.0
 40
0.5
  1
2.25
100
AcDbAttributeDefinition
  3

  2
A
 70
     8
280
     0
  0
ATTDEF
  5
80
330
6E
100
AcDbEntity
  8
AM_6
100
AcDbText
 10
8.5915
 20
-5.53
 30
0.0
 40
0.5
  1
5.82
100
AcDbAttributeDefinition
  3

  2
B
 70
     8
280
     0
  0
ATTDEF
  5
81
330
6E
100
AcDbEntity
  8
AM_6
100
AcDbText
 10
8.5915
 20
-6.03
 30
0.0
 40
0.5
  1
0.688
100
AcDbAttributeDefinition
  3

  2
C
 70
     8
280
     0
  0
ATTDEF
  5
82
330
6E
100
AcDbEntity
  8
AM_6
100
AcDbText
 10
8.5915
 20
-6.53
 30
0.0
 40
0.5
  1
3.38
100
AcDbAttributeDefinition
  3

  2
D
 70
     8
280
     0
  0
ATTDEF
  5
83
330
6E
100
AcDbEntity
  8
AM_6
100
AcDbText
 10
8.5915
 20
-7.03
 30
0.0
 40
0.5
  1
3.56
100
AcDbAttributeDefinition
  3

  2
E
 70
     8
280
     0
  0
ATTDEF
  5
84
330
6E
100
AcDbEntity
  8
AM_6
100
AcDbText
 10
8.5915
 20
-7.53
 30
0.0
 40
0.5
  1
1
100
AcDbAttributeDefinition
  3

  2
F
 70
     8
280
     0
  0
ATTDEF
  5
85
330
6E
100
AcDbEntity
  8
AM_6
100
AcDbText
 10
8.5915
 20
-8.030000000000001
 30
0.0
 40
0.5
  1
0.63
100
AcDbAttributeDefinition
  3

  2
G
 70
     8
280
     0
  0
ATTDEF
  5
86
330
6E
100
AcDbEntity
  8
AM_6
100
AcDbText
 10
8.5915
 20
-8.530000000000001
 30
0.0
 40
0.5
  1
0.75
100
AcDbAttributeDefinition
  3

  2
H
 70
     8
280
     0
  0
ATTDEF
  5
87
330
6E
100
AcDbEntity
  8
AM_6
100
AcDbText
 10
8.5915
 20
-9.030000000000001
 30
0.0
 40
0.5
  1
3.25
100
AcDbAttributeDefinition
  3

  2
J
 70
     8
280
     0
  0
ATTDEF
  5
88
330
6E
100
AcDbEntity
  8
AM_6
100
AcDbText
 10
8.5915
 20
-9.530000000000001
 30
0.0
 40
0.5
  1
1.94
100
AcDbAttributeDefinition
  3

  2
K
 70
     8
280
     0
  0
ATTDEF
  5
89
330
6E
100
AcDbEntity
  8
AM_6
100
AcDbText
 10
8.5915
 20
-10.03
 30
0.0
 40
0.5
  1
2.75
100
AcDbAttributeDefinition
  3

  2
L
 70
     8
280
     0
  0
ATTDEF
  5
8A
330
6E
100
AcDbEntity
  8
AM_6
100
AcDbText
 10
8.5915
 20
-10.53
 30
0.0
 40
0.5
  1
3.985/4.015
100
AcDbAttributeDefinition
  3

  2
M
 70
     8
280
     0
  0
ATTDEF
  5
8B
330
6E
100
AcDbEntity
  8
AM_6
100
AcDbText
 10
8.5915
 20
-11.03
 30
0.0
 40
0.5
  1
4.75
100
AcDbAttributeDefinition
  3

  2
N
 70
     8
280
     0
  0
ATTDEF
  5
8C
330
6E
100
AcDbEntity
  8
AM_6
100
AcDbText
 10
8.5915
 20
-11.53
 30
0.0
 40
0.5
  1
0.75
100
AcDbAttributeDefinition
  3

  2
R
 70
     8
280
     0
  0
ATTDEF
  5
8D
330
6E
100
AcDbEntity
  8
AM_6
100
AcDbText
 10
8.5915
 20
-12.03
 30
0.0
 40
0.5
  1
1.50
100
AcDbAttributeDefinition
  3

  2
S
 70
     8
280
     0
  0
ATTDEF
  5
8E
330
6E
100
AcDbEntity
  8
AM_6
100
AcDbText
 10
8.5915
 20
-12.53
 30
0.0
 40
0.5
  1
1.94
100
AcDbAttributeDefinition
  3

  2
T
 70
     8
280
     0
  0
ATTDEF
  5
8F
330
6E
100
AcDbEntity
  8
AM_6
100
AcDbText
 10
8.5915
 20
-13.03
 30
0.0
 40
0.5
  1
baldor
100
AcDbAttributeDefinition
  3

  2
COMPANY
 70
     8
280
     0
  0
INSERT
  5
91
330
6E
100
AcDbEntity
  8
0
100
AcDbBlockReference
  2
2_131924_0_in_131227_4
 10
0.0
 20
0.0
 30
0.0
  0
INSERT
  5
F9
330
6E
100
AcDbEntity
  8
0
100
AcDbBlockReference
  2
3_405016_Inch_0_in_131227_4
 10
0.0
 20
0.0
 30
0.0
  0
INSERT
  5
183
330
6E
100
AcDbEntity
  8
0
100
AcDbBlockReference
  2
4_131227H_0_in_131227_4
 10
0.0
 20
0.0
 30
0.0
  0
ENDBLK
  5
71
330
6E
100
AcDbEntity
  8
0
100
AcDbBlockEnd
  0
BLOCK
  5
92
330
90
100
AcDbEntity
  8
0
100
AcDbBlockBegin
  2
2_131924_0_in_131227_4
 70
     2
 10
0.0
 20
0.0
 30
0.0
  3
2_131924_0_in_131227_4
  1

  0
ATTDEF
  5
94
330
90
100
AcDbEntity
  8
AM_6
100
AcDbText
 10
6.9044825
 20
0.8624999999999998
 30
0.0
 40
0.5
  1
Eccentric Collar Insert Inch Bore
100
AcDbAttributeDefinition
  3

  2
NN
 70
     8
280
     0
  0
ATTDEF
  5
95
330
90
100
AcDbEntity
  8
AM_6
100
AcDbText
 10
6.9044825
 20
0.3624999999999998
 30
0.0
 40
0.5
  1
SXR Normal Duty Bearing Inserts
100
AcDbAttributeDefinition
  3

  2
NT
 70
     8
280
     0
  0
ATTDEF
  5
96
330
90
100
AcDbEntity
  8
AM_6
100
AcDbText
 10
6.9044825
 20
-0.1375000000000002
 30
0.0
 40
0.5
  1
131924
100
AcDbAttributeDefinition
  3

  2
NB
 70
     8
280
     0
  0
ATTDEF
  5
97
330
90
100
AcDbEntity
  8
AM_6
100
AcDbText
 10
6.9044825
 20
-0.6375000000000002
 30
0.0
 40
0.5
  1
$PN.
100
AcDbAttributeDefinition
  3

  2
NBSYN
 70
     8
280
     0
  0
ATTDEF
  5
98
330
90
100
AcDbEntity
  8
AM_6
100
AcDbText
 10
6.9044825
 20
-1.1375
 30
0.0
 40
0.5
  1
131924
100
AcDbAttributeDefinition
  3

  2
LINA
 70
     8
280
     0
  0
ATTDEF
  5
99
330
90
100
AcDbEntity
  8
AM_6
100
AcDbText
 10
6.9044825
 20
-1.6375
 30
0.0
 40
0.5
  1
210
100
AcDbAttributeDefinition
  3

  2
SERIES
 70
     8
280
     0
  0
ATTDEF
  5
9A
330
90
100
AcDbEntity
  8
AM_6
100
AcDbText
 10
6.9044825
 20
-2.1375
 30
0.0
 40
0.5
  1
2
100
AcDbAttributeDefinition
  3

  2
SS
 70
     8
280
     0
  0
ATTDEF
  5
9B
330
90
100
AcDbEntity
  8
AM_6
100
AcDbText
 10
6.9044825
 20
-2.6375
 30
0.0
 40
0.5
  1
131924
100
AcDbAttributeDefinition
  3

  2
PN
 70
     8
280
     0
  0
ATTDEF
  5
9C
330
90
100
AcDbEntity
  8
AM_6
100
AcDbText
 10
6.9044825
 20
-3.1375
 30
0.0
 40
0.5
  1
INS-SXR-200
100
AcDbAttributeDefinition
  3

  2
DESCRIPTION
 70
     8
280
     0
  0
ATTDEF
  5
9D
330
90
100
AcDbEntity
  8
AM_6
100
AcDbText
 10
6.9044825
 20
-3.6375
 30
0.0
 40
0.5
  1
2.0
100
AcDbAttributeDefinition
  3

  2
WEIGHT
 70
     8
280
     0
  0
ATTDEF
  5
9E
330
90
100
AcDbEntity
  8
AM_6
100
AcDbText
 10
6.9044825
 20
-4.1375
 30
0.0
 40
0.5
  1
2.25
100
AcDbAttributeDefinition
  3

  2
A
 70
     8
280
     0
  0
ATTDEF
  5
9F
330
90
100
AcDbEntity
  8
AM_6
100
AcDbText
 10
6.9044825
 20
-4.6375
 30
0.0
 40
0.5
  1
0.87
100
AcDbAttributeDefinition
  3

  2
C
 70
     8
280
     0
  0
ATTDEF
  5
A0
330
90
100
AcDbEntity
  8
AM_6
100
AcDbText
 10
6.9044825
 20
-5.1375
 30
0.0
 40
0.5
  1
3.5433
100
AcDbAttributeDefinition
  3

  2
D
 70
     8
280
     0
  0
ATTDEF
  5
A1
330
90
100
AcDbEntity
  8
AM_6
100
AcDbText
 10
6.9044825
 20
-5.6375
 30
0.0
 40
0.5
  1
0.25
100
AcDbAttributeDefinition
  3

  2
J
 70
     8
280
     0
  0
ATTDEF
  5
A2
330
90
100
AcDbEntity
  8
AM_6
100
AcDbText
 10
6.9044825
 20
-6.1375
 30
0.0
 40
0.5
  1
2.75
100
AcDbAttributeDefinition
  3

  2
L
 70
     8
280
     0
  0
ATTDEF
  5
A3
330
90
100
AcDbEntity
  8
AM_6
100
AcDbText
 10
6.9044825
 20
-6.6375
 30
0.0
 40
0.5
  1
3/8 - 24
100
AcDbAttributeDefinition
  3

  2
N
 70
     8
280
     0
  0
ATTDEF
  5
A4
330
90
100
AcDbEntity
  8
AM_6
100
AcDbText
 10
6.9044825
 20
-7.1375
 30
0.0
 40
0.5
  1
0.75
100
AcDbAttributeDefinition
  3

  2
W
 70
     8
280
     0
  0
ATTDEF
  5
A5
330
90
100
AcDbEntity
  8
AM_6
100
AcDbText
 10
6.9044825
 20
-7.6375
 30
0.0
 40
0.5
  1
1.50
100
AcDbAttributeDefinition
  3

  2
Y
 70
     8
280
     0
  0
ATTDEF
  5
A6
330
90
100
AcDbEntity
  8
AM_6
100
AcDbText
 10
6.9044825
 20
-8.1375
 30
0.0
 40
0.5
  1
2.43
100
AcDbAttributeDefinition
  3

  2
Z
 70
     8
280
     0
  0
ATTDEF
  5
A7
330
90
100
AcDbEntity
  8
AM_6
100
AcDbText
 10
6.9044825
 20
-8.6375
 30
0.0
 40
0.5
  1
baldor
100
AcDbAttributeDefinition
  3

  2
COMPANY
 70
     8
280
     0
  0
ARC
  5
AA
330
90
100
AcDbEntity
  8
AM_9
100
AcDbCircle
 10
1.746649999996014
 20
0.2499999999996723
 30
0.0
 40
0.1250000000003275
100
AcDbArc
 50
279.4227279935424
 51
90.0
  0
LINE
  5
AB
330
90
100
AcDbEntity
  8
AM_9
100
AcDbLine
 10
1.74665
 20
0.3749999999999999
 30
0.0
 11
1.731563130129858
 21
0.3749999999999999
 31
0.0
  0
LINE
  5
AC
330
90
100
AcDbEntity
  8
AM_9
100
AcDbLine
 10
1.74665
 20
0.3749999999999999
 30
0.0
 11
1.74665
 21
0.2696650000000293
 31
0.0
  0
LINE
  5
AD
330
90
100
AcDbEntity
  8
AM_9
100
AcDbLine
 10
1.0
 20
-0.9251963420073541
 30
0.0
 11
1.0
 21
0.7325999999999998
 31
0.0
  0
LINE
  5
AE
330
90
100
AcDbEntity
  8
AM_9
100
AcDbLine
 10
-1.0
 20
0.7325999999999998
 30
0.0
 11
-1.0
 21
-0.9251963420073541
 31
0.0
  0
LINE
  5
AF
330
90
100
AcDbEntity
  8
AM_9
100
AcDbLine
 10
1.0
 20
-1.4826
 30
0.0
 11
1.0
 21
-0.9498036579926465
 31
0.0
  0
LINE
  5
B0
330
90
100
AcDbEntity
  8
AM_9
100
AcDbLine
 10
-1.0
 20
-0.9498036579926465
 30
0.0
 11
-1.0
 21
-1.4826
 31
0.0
  0
LINE
  5
B1
330
90
100
AcDbEntity
  8
AM_9
100
AcDbLine
 10
-1.0
 20
-0.9251963420073541
 30
0.0
 11
1.0
 21
-0.9251963420073541
 31
0.0
  0
LINE
  5
B2
330
90
100
AcDbEntity
  8
AM_9
100
AcDbLine
 10
-1.0
 20
-0.9251963420073541
 30
0.0
 11
-1.012303657992646
 21
-0.9375
 31
0.0
  0
LINE
  5
B3
330
90
100
AcDbEntity
  8
AM_9
100
AcDbLine
 10
1.012303657992646
 20
-0.9375
 30
0.0
 11
1.0
 21
-0.9251963420073541
 31
0.0
  0
LINE
  5
B4
330
90
100
AcDbEntity
  8
AM_9
100
AcDbLine
 10
-1.012303657992646
 20
-0.9375
 30
0.0
 11
1.012303657992646
 21
-0.9375
 31
0.0
  0
LINE
  5
B5
330
90
100
AcDbEntity
  8
AM_9
100
AcDbLine
 10
-1.0
 20
-0.9498036579926465
 30
0.0
 11
1.0
 21
-0.9498036579926465
 31
0.0
  0
LINE
  5
B6
330
90
100
AcDbEntity
  8
AM_9
100
AcDbLine
 10
1.0
 20
-0.9498036579926465
 30
0.0
 11
1.012303657992646
 21
-0.9375
 31
0.0
  0
LINE
  5
B7
330
90
100
AcDbEntity
  8
AM_9
100
AcDbLine
 10
-1.012303657992646
 20
-0.9375
 30
0.0
 11
-1.0
 21
-0.9498036579926465
 31
0.0
  0
LINE
  5
B8
330
90
100
AcDbEntity
  8
AM_9
100
AcDbLine
 10
1.0
 20
0.7325999999999998
 30
0.0
 11
1.0174
 21
0.7499999999999999
 31
0.0
  0
LINE
  5
B9
330
90
100
AcDbEntity
  8
AM_9
100
AcDbLine
 10
-1.0174
 20
0.7499999999999999
 30
0.0
 11
-1.0
 21
0.7325999999999998
 31
0.0
  0
LINE
  5
BA
330
90
100
AcDbEntity
  8
AM_9
100
AcDbLine
 10
-1.0
 20
-1.4826
 30
0.0
 11
1.0
 21
-1.4826
 31
0.0
  0
LINE
  5
BB
330
90
100
AcDbEntity
  8
AM_9
100
AcDbLine
 10
-1.0
 20
-1.4826
 30
0.0
 11
-1.0174
 21
-1.5
 31
0.0
  0
LINE
  5
BC
330
90
100
AcDbEntity
  8
AM_9
100
AcDbLine
 10
1.0174
 20
-1.5
 30
0.0
 11
1.0
 21
-1.4826
 31
0.0
  0
LINE
  5
BD
330
90
100
AcDbEntity
  8
AM_9
100
AcDbLine
 10
1.215
 20
0.435
 30
0.0
 11
1.215
 21
0.6879999999999996
 31
0.0
  0
LINE
  5
BE
330
90
100
AcDbEntity
  8
AM_9
100
AcDbLine
 10
-1.215
 20
0.6879999999999996
 30
0.0
 11
-1.215
 21
0.435
 31
0.0
  0
LINE
  5
BF
330
90
100
AcDbEntity
  8
AM_9
100
AcDbLine
 10
1.215
 20
-0.6880000000000003
 30
0.0
 11
1.215
 21
-0.435
 31
0.0
  0
LINE
  5
C0
330
90
100
AcDbEntity
  8
AM_9
100
AcDbLine
 10
-1.215
 20
-0.435
 30
0.0
 11
-1.215
 21
-0.6880000000000003
 31
0.0
  0
LINE
  5
C1
330
90
100
AcDbEntity
  8
AM_9
100
AcDbLine
 10
1.687285714285714
 20
-0.2999999999999999
 30
0.0
 11
1.687285714285714
 21
-0.2
 31
0.0
  0
LINE
  5
C2
330
90
100
AcDbEntity
  8
AM_9
100
AcDbLine
 10
-1.687285714285714
 20
-0.2
 30
0.0
 11
-1.687285714285714
 21
-0.2999999999999999
 31
0.0
  0
LINE
  5
C3
330
90
100
AcDbEntity
  8
AM_9
100
AcDbLine
 10
-1.69
 20
0.435
 30
0.0
 11
1.69
 21
0.435
 31
0.0
  0
ARC
  5
C4
330
90
100
AcDbEntity
  8
AM_9
100
AcDbCircle
 10
1.690114754240078
 20
0.4002000000000004
 30
0.0
 40
0.0347999999999996
100
AcDbArc
 50
13.32163143280519
 51
90.0
  0
ARC
  5
C5
330
90
100
AcDbEntity
  8
AM_9
100
AcDbCircle
 10
-1.690114754240078
 20
0.4002
 30
0.0
 40
0.0348
100
AcDbArc
 50
90.0
 51
166.6783685671942
  0
LINE
  5
C6
330
90
100
AcDbEntity
  8
AM_9
100
AcDbLine
 10
-1.69
 20
-0.4350000000000002
 30
0.0
 11
1.69
 21
-0.4350000000000002
 31
0.0
  0
ARC
  5
C7
330
90
100
AcDbEntity
  8
AM_9
100
AcDbCircle
 10
1.690114754240078
 20
-0.4002000000000004
 30
0.0
 40
0.0347999999999997
100
AcDbArc
 50
270.0
 51
346.6783685671954
  0
ARC
  5
C8
330
90
100
AcDbEntity
  8
AM_9
100
AcDbCircle
 10
-1.690114754240078
 20
-0.4002000000000004
 30
0.0
 40
0.0347999999999997
100
AcDbArc
 50
193.3216314328045
 51
270.0
  0
LINE
  5
C9
330
90
100
AcDbEntity
  8
AM_9
100
AcDbLine
 10
-1.723978354117762
 20
-0.408218516279471
 30
0.0
 11
1.7239783541173
 21
-0.408218516279471
 31
0.0
  0
LINE
  5
CA
330
90
100
AcDbEntity
  8
AM_9
100
AcDbLine
 10
-1.746065211411074
 20
-0.2999999999999999
 30
0.0
 11
1.746065211410612
 21
-0.2999999999999999
 31
0.0
  0
ARC
  5
CB
330
90
100
AcDbEntity
  8
AM_9
100
AcDbCircle
 10
-0.000000000911752
 20
0.0000000001859874
 30
0.0
 40
1.771650000929624
100
AcDbArc
 50
346.6783685681318
 51
350.2509203899747
  0
ARC
  5
CC
330
90
100
AcDbEntity
  8
AM_9
100
AcDbCircle
 10
0.0000000009112202
 20
0.0000000001858789
 30
0.0
 40
1.771650000929081
100
AcDbArc
 50
189.7490796100247
 51
193.3216314318687
  0
LINE
  5
CD
330
90
100
AcDbEntity
  8
AM_9
100
AcDbLine
 10
-1.760324891177762
 20
-0.2000000000000005
 30
0.0
 11
1.760324891177764
 21
-0.2000000000000005
 31
0.0
  0
LINE
  5
CE
330
90
100
AcDbEntity
  8
AM_9
100
AcDbLine
 10
-1.723978354117761
 20
0.4082185162794714
 30
0.0
 11
1.723978354117764
 21
0.4082185162794714
 31
0.0
  0
LINE
  5
CF
330
90
100
AcDbEntity
  8
AM_9
100
AcDbLine
 10
1.731507644367359
 20
0.3749999999948319
 30
0.0
 11
1.767114662642156
 21
0.126686587984348
 31
0.0
  0
ARC
  5
D0
330
90
100
AcDbEntity
  8
AM_9
100
AcDbCircle
 10
-0.0000000000018561
 20
0.0000000000000518
 30
0.0
 40
1.771650000001852
100
AcDbArc
 50
353.5181126598267
 51
4.100588183115349
  0
ARC
  5
D1
330
90
100
AcDbEntity
  8
AM_9
100
AcDbCircle
 10
0.0000000000217319
 20
0.0000000000047968
 30
0.0
 40
1.77164999997775
100
AcDbArc
 50
12.20763955439646
 51
13.32163143281687
  0
ARC
  5
D2
330
90
100
AcDbEntity
  8
AM_9
100
AcDbCircle
 10
0.0000000000009208
 20
-0.0000000000000552
 30
0.0
 40
1.771650000000911
100
AcDbArc
 50
166.6783685671992
 51
186.4818873401734
  0
LINE
  5
D5
330
90
100
AcDbEntity
  8
AM_7
100
AcDbLine
 10
0.0
 20
-1.6125
 30
0.0
 11
0.0
 21
0.8624999999999998
 31
0.0
  0
LINE
  5
D6
330
90
100
AcDbEntity
  8
AM_7
100
AcDbLine
 10
1.1821675
 20
0.25
 30
0.0
 11
1.9044825
 21
0.25
 31
0.0
  0
LINE
  5
D8
330
90
100
AcDbEntity
  8
AM_4
100
AcDbLine
 10
1.157142857142857
 20
-0.8624999999999999
 30
0.0
 11
1.157142857142857
 21
-0.8250000000000001
 31
0.0
  0
LINE
  5
D9
330
90
100
AcDbEntity
  8
AM_4
100
AcDbLine
 10
-1.157142857142857
 20
-0.8250000000000001
 30
0.0
 11
-1.157142857142857
 21
-0.8624999999999999
 31
0.0
  0
LINE
  5
DA
330
90
100
AcDbEntity
  8
AM_4
100
AcDbLine
 10
-1.1976
 20
0.7499999999999999
 30
0.0
 11
1.1976
 21
0.7499999999999999
 31
0.0
  0
LINE
  5
DB
330
90
100
AcDbEntity
  8
AM_4
100
AcDbLine
 10
-1.1976
 20
0.7499999999999999
 30
0.0
 11
-1.215
 21
0.7326
 31
0.0
  0
LINE
  5
DC
330
90
100
AcDbEntity
  8
AM_4
100
AcDbLine
 10
1.215
 20
0.7326
 30
0.0
 11
1.1976
 21
0.7499999999999999
 31
0.0
  0
LINE
  5
DD
330
90
100
AcDbEntity
  8
AM_4
100
AcDbLine
 10
-1.1976
 20
-0.8250000000000001
 30
0.0
 11
1.1976
 21
-0.8250000000000001
 31
0.0
  0
LINE
  5
DE
330
90
100
AcDbEntity
  8
AM_4
100
AcDbLine
 10
1.1976
 20
-0.8250000000000001
 30
0.0
 11
1.215
 21
-0.8076000000000001
 31
0.0
  0
LINE
  5
DF
330
90
100
AcDbEntity
  8
AM_4
100
AcDbLine
 10
-1.215
 20
-0.8076000000000001
 30
0.0
 11
-1.1976
 21
-0.8250000000000001
 31
0.0
  0
LINE
  5
E0
330
90
100
AcDbEntity
  8
AM_4
100
AcDbLine
 10
-1.215
 20
0.7326
 30
0.0
 11
1.215
 21
0.7326
 31
0.0
  0
LINE
  5
E1
330
90
100
AcDbEntity
  8
AM_4
100
AcDbLine
 10
1.215
 20
0.6879999999999996
 30
0.0
 11
1.215
 21
0.7326
 31
0.0
  0
LINE
  5
E2
330
90
100
AcDbEntity
  8
AM_4
100
AcDbLine
 10
-1.215
 20
0.7326
 30
0.0
 11
-1.215
 21
0.6879999999999996
 31
0.0
  0
LINE
  5
E3
330
90
100
AcDbEntity
  8
AM_4
100
AcDbLine
 10
-1.215
 20
-0.8076000000000001
 30
0.0
 11
1.215
 21
-0.8076000000000001
 31
0.0
  0
LINE
  5
E4
330
90
100
AcDbEntity
  8
AM_4
100
AcDbLine
 10
1.215
 20
-0.8076000000000001
 30
0.0
 11
1.215
 21
-0.6880000000000003
 31
0.0
  0
LINE
  5
E5
330
90
100
AcDbEntity
  8
AM_4
100
AcDbLine
 10
-1.215
 20
-0.6880000000000003
 30
0.0
 11
-1.215
 21
-0.8076000000000001
 31
0.0
  0
ARC
  5
E6
330
90
100
AcDbEntity
  8
AM_4
100
AcDbCircle
 10
0.0
 20
-1.21875
 30
0.0
 40
0.1706000000000001
100
AcDbArc
 50
214.2855972309773
 51
325.7144027690227
  0
LWPOLYLINE
  5
E7
330
90
100
AcDbEntity
  8
AM_4
100
AcDbPolyline
 90
        8
 70
     0
 43
0.0
 10
-0.140956531234315
 20
-1.314852113932991
 10
-0.1550236006542176
 20
-1.289927765606241
 10
-0.1647619462312251
 20
-1.262997723942581
 10
-0.1698268758705891
 20
-1.234788397120287
 10
-0.1701320875021886
 20
-1.206123329728402
 10
-0.1656304246224445
 20
-1.17794405096715
 10
-0.1565320574342682
 20
-1.150911404824429
 10
-0.1409565312343151
 20
-1.122647886067009
  0
LWPOLYLINE
  5
E8
330
90
100
AcDbEntity
  8
AM_4
100
AcDbPolyline
 90
        8
 70
     0
 43
0.0
 10
0.140956531234315
 20
-1.122647886067009
 10
0.1550236006542176
 20
-1.147572234393759
 10
0.1647619462312251
 20
-1.174502276057418
 10
0.1698268758705891
 20
-1.202711602879713
 10
0.1701320875021886
 20
-1.231376670271598
 10
0.1656304246224445
 20
-1.25955594903285
 10
0.1565320574342682
 20
-1.286588595175571
 10
0.1409565312343151
 20
-1.314852113932991
  0
LWPOLYLINE
  5
E9
330
90
100
AcDbEntity
  8
AM_4
100
AcDbPolyline
 90
       13
 70
     0
 43
0.0
 10
0.140956531234315
 20
-1.314852113932991
 10
0.1193111365062983
 20
-1.343552231718564
 10
0.0973863583270547
 20
-1.363415514040545
 10
0.0714611814467705
 20
-1.379573867348971
 10
0.0454125331894851
 20
-1.38992233588706
 10
0.0170336505890711
 20
-1.395670472422162
 10
-0.0094628410523271
 20
-1.396309540731036
 10
-0.0364690196704324
 20
-1.392320472168038
 10
-0.0612342776133313
 20
-1.384265914786397
 10
-0.0849844789291969
 20
-1.371975401003641
 10
-0.1065103674510324
 20
-1.355978329653029
 10
-0.1257076656172605
 20
-1.336270496450183
 10
-0.140956531234315
 20
-1.314852113932991
  0
LINE
  5
EA
330
90
100
AcDbEntity
  8
AM_4
100
AcDbLine
 10
1.375
 20
-1.453125
 30
0.0
 11
1.375
 21
-0.9093749999999999
 31
0.0
  0
LINE
  5
EB
330
90
100
AcDbEntity
  8
AM_4
100
AcDbLine
 10
-1.375
 20
-0.9093749999999999
 30
0.0
 11
-1.375
 21
-1.453125
 31
0.0
  0
LINE
  5
EC
330
90
100
AcDbEntity
  8
AM_4
100
AcDbLine
 10
-1.328125
 20
-1.5
 30
0.0
 11
1.328124999992309
 21
-1.5
 31
0.0
  0
LINE
  5
ED
330
90
100
AcDbEntity
  8
AM_4
100
AcDbLine
 10
-1.375
 20
-1.453125
 30
0.0
 11
1.375
 21
-1.453125
 31
0.0
  0
ARC
  5
EE
330
90
100
AcDbEntity
  8
AM_4
100
AcDbCircle
 10
1.328125000000001
 20
-1.453125000000001
 30
0.0
 40
0.0468749999999991
100
AcDbArc
 50
270.0
 51
0.0
  0
ARC
  5
EF
330
90
100
AcDbEntity
  8
AM_4
100
AcDbCircle
 10
-1.328125000000001
 20
-1.453125000000001
 30
0.0
 40
0.0468749999999991
100
AcDbArc
 50
180.0
 51
270.0
  0
ARC
  5
F0
330
90
100
AcDbEntity
  8
AM_4
100
AcDbCircle
 10
0.0000000000000001
 20
-1.21875
 30
0.0
 40
0.1706000000000002
100
AcDbArc
 50
34.28559723097734
 51
145.7144027690227
  0
LWPOLYLINE
  5
F1
330
90
100
AcDbEntity
  8
AM_4
100
AcDbPolyline
 90
       13
 70
     0
 43
0.0
 10
-0.140956531234315
 20
-1.122647886067009
 10
-0.1193111365062967
 20
-1.093947768281435
 10
-0.0973863583270529
 20
-1.074084485959454
 10
-0.0714611814467686
 20
-1.057926132651027
 10
-0.0454125331894831
 20
-1.047577664112939
 10
-0.0170336505890691
 20
-1.041829527577837
 10
0.0094628410523291
 20
-1.041190459268964
 10
0.0364690196704343
 20
-1.045179527831962
 10
0.0612342776133331
 20
-1.053234085213603
 10
0.0849844789291986
 20
-1.065524598996359
 10
0.1065103674510338
 20
-1.081521670346972
 10
0.1257076656172618
 20
-1.101229503549819
 10
0.1409565312343151
 20
-1.122647886067009
  0
LINE
  5
F2
330
90
100
AcDbEntity
  8
AM_4
100
AcDbLine
 10
-1.375
 20
-0.9093749999999999
 30
0.0
 11
1.375
 21
-0.9093749999999999
 31
0.0
  0
LINE
  5
F3
330
90
100
AcDbEntity
  8
AM_4
100
AcDbLine
 10
-1.328125
 20
-0.8624999999999999
 30
0.0
 11
1.328124999992309
 21
-0.8624999999999999
 31
0.0
  0
ARC
  5
F4
330
90
100
AcDbEntity
  8
AM_4
100
AcDbCircle
 10
1.328125
 20
-0.9093750000000002
 30
0.0
 40
0.0468750000000002
100
AcDbArc
 50
0.0
 51
90.0
  0
ARC
  5
F5
330
90
100
AcDbEntity
  8
AM_4
100
AcDbCircle
 10
-1.328125
 20
-0.9093750000000002
 30
0.0
 40
0.0468750000000002
100
AcDbArc
 50
90.0
 51
180.0
  0
ARC
  5
F7
330
90
100
AcDbEntity
  8
AM_5
100
AcDbCircle
 10
0.0000000000000002
 20
-1.21875
 30
0.0
 40
0.1875
100
AcDbArc
 50
75.00000000000004
 51
15.00000000000002
  0
ENDBLK
  5
93
330
90
100
AcDbEntity
  8
0
100
AcDbBlockEnd
  0
BLOCK
  5
FA
330
F8
100
AcDbEntity
  8
0
100
AcDbBlockBegin
  2
3_405016_Inch_0_in_131227_4
 70
     2
 10
0.0
 20
0.0
 30
0.0
  3
3_405016_Inch_0_in_131227_4
  1

  0
ATTDEF
  5
FC
330
F8
100
AcDbEntity
  8
AM_6
100
AcDbText
 10
3.226454967085182
 20
0.2187500000000008
 30
0.0
 40
0.5
  1
405016 -Inch
100
AcDbAttributeDefinition
  3

  2
NN
 70
     8
280
     0
  0
ATTDEF
  5
FD
330
F8
100
AcDbEntity
  8
AM_6
100
AcDbText
 10
3.226454967085182
 20
-0.2812499999999992
 30
0.0
 40
0.5
  1
Grease Fitting
100
AcDbAttributeDefinition
  3

  2
NT
 70
     8
280
     0
  0
ATTDEF
  5
FE
330
F8
100
AcDbEntity
  8
AM_6
100
AcDbText
 10
3.226454967085182
 20
-0.7812499999999992
 30
0.0
 40
0.5
  1
405016-Inch
100
AcDbAttributeDefinition
  3

  2
NB
 70
     8
280
     0
  0
ATTDEF
  5
FF
330
F8
100
AcDbEntity
  8
AM_6
100
AcDbText
 10
3.226454967085182
 20
-1.281249999999999
 30
0.0
 40
0.5
  1
$MN.-Inch
100
AcDbAttributeDefinition
  3

  2
NBSYN
 70
     8
280
     0
  0
ATTDEF
  5
100
330
F8
100
AcDbEntity
  8
AM_6
100
AcDbText
 10
3.226454967085182
 20
-1.781249999999999
 30
0.0
 40
0.5
  1
405016
100
AcDbAttributeDefinition
  3

  2
LINA
 70
     8
280
     0
  0
ATTDEF
  5
101
330
F8
100
AcDbEntity
  8
AM_6
100
AcDbText
 10
3.226454967085182
 20
-2.281249999999999
 30
0.0
 40
0.5
  1
405016
100
AcDbAttributeDefinition
  3

  2
MN
 70
     8
280
     0
  0
ATTDEF
  5
102
330
F8
100
AcDbEntity
  8
AM_6
100
AcDbText
 10
3.226454967085182
 20
-2.781249999999999
 30
0.0
 40
0.5
  1
7/16 HEX
100
AcDbAttributeDefinition
  3

  2
H
 70
     8
280
     0
  0
ATTDEF
  5
103
330
F8
100
AcDbEntity
  8
AM_6
100
AcDbText
 10
3.226454967085182
 20
-3.281249999999999
 30
0.0
 40
0.5
  1
0.383
100
AcDbAttributeDefinition
  3

  2
NDR
 70
     8
280
     0
  0
ATTDEF
  5
104
330
F8
100
AcDbEntity
  8
AM_6
100
AcDbText
 10
3.226454967085182
 20
-3.781249999999999
 30
0.0
 40
0.5
  1
0.337
100
AcDbAttributeDefinition
  3

  2
KDR
 70
     8
280
     0
  0
ATTDEF
  5
105
330
F8
100
AcDbEntity
  8
AM_6
100
AcDbText
 10
3.226454967085182
 20
-4.281249999999999
 30
0.0
 40
0.5
  1
0.1575
100
AcDbAttributeDefinition
  3

  2
BZE
 70
     8
280
     0
  0
ATTDEF
  5
106
330
F8
100
AcDbEntity
  8
AM_6
100
AcDbText
 10
3.226454967085182
 20
-4.781249999999999
 30
0.0
 40
0.5
  1
0.4375
100
AcDbAttributeDefinition
  3

  2
HEX
 70
     8
280
     0
  0
ATTDEF
  5
107
330
F8
100
AcDbEntity
  8
AM_6
100
AcDbText
 10
3.226454967085182
 20
-5.281249999999999
 30
0.0
 40
0.5
  1
0.281250
100
AcDbAttributeDefinition
  3

  2
HEX2
 70
     8
280
     0
  0
ATTDEF
  5
108
330
F8
100
AcDbEntity
  8
AM_6
100
AcDbText
 10
3.226454967085182
 20
-5.781249999999999
 30
0.0
 40
0.5
  1
baldor
100
AcDbAttributeDefinition
  3

  2
COMPANY
 70
     8
280
     0
  0
LINE
  5
109
330
F8
100
AcDbEntity
  8
AM_9
100
AcDbLine
 10
-2.470687850745358
 20
-0.151074129835757
 30
0.0
 11
-2.482009423969235
 21
-0.1791093260592887
 31
0.0
  0
LINE
  5
10A
330
F8
100
AcDbEntity
  8
AM_9
100
AcDbLine
 10
-2.319513004706862
 20
-0.2099962668917053
 30
0.0
 11
-2.331200250926406
 21
-0.2389369657326276
 31
0.0
  0
LWPOLYLINE
  5
10B
330
F8
100
AcDbEntity
  8
AM_9
100
AcDbPolyline
 90
        3
 70
     0
 43
0.0
 10
-2.103359199441456
 20
0.1093749999999999
 10
-2.085499549457532
 20
0.0546874999999999
 10
-2.063932584906532
 20
-0.0000000000000001
  0
LWPOLYLINE
  5
10C
330
F8
100
AcDbEntity
  8
AM_9
100
AcDbPolyline
 90
        3
 70
     0
 43
0.0
 10
-2.063932584906532
 20
-0.0000000000000001
 10
-2.085410255824155
 20
-0.0544416102741497
 10
-2.103359199441456
 20
-0.109375
  0
LWPOLYLINE
  5
10D
330
F8
100
AcDbEntity
  8
AM_9
100
AcDbPolyline
 90
        3
 70
     0
 43
0.0
 10
-2.261582156284772
 20
-0.2987675689889718
 10
-2.277469440847868
 20
-0.2912216284034024
 10
-2.292679442545882
 20
-0.2813919000363599
  0
LWPOLYLINE
  5
10E
330
F8
100
AcDbEntity
  8
AM_9
100
AcDbPolyline
 90
        3
 70
     0
 43
0.0
 10
-1.993035587905321
 20
-0.0000000000000001
 10
-2.002989795334595
 20
0.0544416102741495
 10
-2.016756659063012
 20
0.1093749999999999
  0
LWPOLYLINE
  5
10F
330
F8
100
AcDbEntity
  8
AM_9
100
AcDbPolyline
 90
        3
 70
     0
 43
0.0
 10
-2.016756659063012
 20
-0.1093750000000001
 10
-2.003042466200628
 20
-0.0546875000000001
 10
-1.993035587905321
 20
-0.0000000000000001
  0
LINE
  5
110
330
F8
100
AcDbEntity
  8
AM_9
100
AcDbLine
 10
-2.259768004031835
 20
-0.2533042541277701
 30
0.0
 11
-2.249526506973793
 21
-0.2689146070947222
 31
0.0
  0
LWPOLYLINE
  5
111
330
F8
100
AcDbEntity
  8
AM_9
100
AcDbPolyline
 90
        3
 70
     0
 43
0.0
 10
-2.103359199441456
 20
-0.109375
 10
-2.11707339230384
 20
-0.1640625
 10
-2.127080270599147
 20
-0.2187500000000001
  0
LINE
  5
112
330
F8
100
AcDbEntity
  8
AM_9
100
AcDbLine
 10
-2.063932584906532
 20
-0.0000000000000001
 30
0.0
 11
-1.993035587905321
 21
-0.0000000000000001
 31
0.0
  0
LWPOLYLINE
  5
113
330
F8
100
AcDbEntity
  8
AM_9
100
AcDbPolyline
 90
        3
 70
     0
 43
0.0
 10
-2.127080270599147
 20
0.2187499999999999
 10
-2.117126063169873
 20
0.1643083897258503
 10
-2.103359199441456
 20
0.1093749999999999
  0
LINE
  5
114
330
F8
100
AcDbEntity
  8
AM_9
100
AcDbLine
 10
-2.249526506973793
 20
-0.2689146070947222
 30
0.0
 11
-2.259919231254527
 21
-0.2643339435989628
 31
0.0
  0
LINE
  5
115
330
F8
100
AcDbEntity
  8
AM_9
100
AcDbLine
 10
-2.249526506973793
 20
-0.2689146070947222
 30
0.0
 11
-2.260000000000001
 21
-0.2948497334529792
 31
0.0
  0
ELLIPSE
  5
116
330
F8
100
AcDbEntity
  8
AM_9
100
AcDbEllipse
 10
-2.503863799133862
 20
-0.4687500000000002
 30
0.0
 11
-0.09595382955731811
 21
0.03874944547499715
 31
0.0
210
0.0
220
0.0
230
1.0
 40
0.2113091308703512
 41
3.040609649696546
 42
6.384168311072825
  0
ELLIPSE
  5
117
330
F8
100
AcDbEntity
  8
AM_9
100
AcDbEllipse
 10
-2.475870136936379
 20
-0.399430321788976
 30
0.0
 11
-0.1290248947933273
 21
0.05210467522533599
 31
0.0
210
0.0
220
0.0
230
1.0
 40
0.2113091308703455
 41
3.036209245998971
 42
5.801105639492172
  0
ELLIPSE
  5
118
330
F8
100
AcDbEntity
  8
AM_9
100
AcDbEllipse
 10
-2.465195155459052
 20
-0.3729962569746391
 30
0.0
 11
-0.1235034625625739
 21
0.0498749316272124
 31
0.0
210
0.0
220
0.0
230
1.0
 40
0.2113091308703074
 41
3.391499395346013
 42
6.029777401589868
  0
LWPOLYLINE
  5
119
330
F8
100
AcDbEntity
  8
AM_9
100
AcDbPolyline
 90
        5
 70
     0
 43
0.0
 10
-2.482009423969235
 20
-0.1791093260592887
 10
-2.503871812467862
 20
-0.1842540823997054
 10
-2.524767899397855
 20
-0.1862220679364951
 10
-2.544685518952764
 20
-0.1844124966919381
 10
-2.563199305574027
 20
-0.1791093260592887
  0
LWPOLYLINE
  5
11A
330
F8
100
AcDbEntity
  8
AM_9
100
AcDbPolyline
 90
        5
 70
     0
 43
0.0
 10
-2.331200250926406
 20
-0.2389369657326276
 10
-2.370041539613835
 20
-0.2295338871417796
 10
-2.408176586325754
 20
-0.216687117104632
 10
-2.445795380686937
 20
-0.1996402057054678
 10
-2.482009423969235
 20
-0.1791093260592887
  0
LWPOLYLINE
  5
11B
330
F8
100
AcDbEntity
  8
AM_9
100
AcDbPolyline
 90
        3
 70
     0
 43
0.0
 10
-2.304700972727689
 20
-0.2711532636537956
 10
-2.318436150492262
 20
-0.2561815527589921
 10
-2.331200250926406
 20
-0.2389369657326276
  0
ELLIPSE
  5
11C
330
F8
100
AcDbEntity
  8
AM_9
100
AcDbEllipse
 10
-2.414194252195031
 20
-0.2467045921760294
 30
0.0
 11
-0.130393921019194
 21
0.05265753494274536
 31
0.0
210
0.0
220
0.0
230
1.0
 40
0.2113091308703403
 41
3.806340372003044
 42
6.919181903097251
  0
LINE
  5
11D
330
F8
100
AcDbEntity
  8
AM_9
100
AcDbLine
 10
-2.048443755591251
 20
0.2000413016192557
 30
0.0
 11
-2.056183273597936
 21
0.2187499999999999
 31
0.0
  0
LWPOLYLINE
  5
11E
330
F8
100
AcDbEntity
  8
AM_9
100
AcDbPolyline
 90
        3
 70
     0
 43
0.0
 10
-2.016756659063012
 20
0.1093749999999999
 10
-2.034616309046935
 20
0.1640624999999999
 10
-2.048443755591251
 20
0.2000413016192557
  0
LWPOLYLINE
  5
11F
330
F8
100
AcDbEntity
  8
AM_9
100
AcDbPolyline
 90
        3
 70
     0
 43
0.0
 10
-2.048443633509286
 20
-0.2000409996967266
 10
-2.034705602680313
 20
-0.1643083897258505
 10
-2.016756659063012
 20
-0.1093750000000001
  0
LINE
  5
120
330
F8
100
AcDbEntity
  8
AM_9
100
AcDbLine
 10
-2.056183273597936
 20
-0.2187500000000001
 30
0.0
 11
-2.048443633509286
 21
-0.2000409996967266
 31
0.0
  0
LINE
  5
121
330
F8
100
AcDbEntity
  8
AM_9
100
AcDbLine
 10
-2.481822651597248
 20
-0.1204089378707286
 30
0.0
 11
-2.482908096586961
 21
-0.1230967854582221
 31
0.0
  0
LINE
  5
122
330
F8
100
AcDbEntity
  8
AM_9
100
AcDbLine
 10
-2.276702423171374
 20
-0.2
 30
0.0
 11
-2.27403394382667
 21
-0.193392142543456
 31
0.0
  0
ELLIPSE
  5
123
330
F8
100
AcDbEntity
  8
AM_9
100
AcDbEllipse
 10
-2.39589434465651
 20
-0.201389202824189
 30
0.0
 11
-0.1019970226638933
 21
0.04118989399965022
 31
0.0
210
0.0
220
0.0
230
1.0
 40
0.2113091308703439
 41
3.141592653589793
 42
6.283185307179586
  0
LWPOLYLINE
  5
124
330
F8
100
AcDbEntity
  8
AM_9
100
AcDbPolyline
 90
        4
 70
     0
 43
0.0
 10
-2.481827381252268
 20
-0.1204206514110939
 10
-2.481966547236798
 20
-0.1208367673933812
 10
-2.481388963279671
 20
-0.1245107513506023
 10
-2.479483330590574
 20
-0.1273607948152615
  0
LWPOLYLINE
  5
125
330
F8
100
AcDbEntity
  8
AM_9
100
AcDbPolyline
 90
        5
 70
     0
 43
0.0
 10
-2.274032999625182
 20
-0.1933898041312626
 10
-2.274126335756333
 20
-0.1936098952159724
 10
-2.277341872708972
 20
-0.1971856748420371
 10
-2.283360235951754
 20
-0.1994144431868155
 10
-2.290224206532197
 20
-0.1999999999699529
  0
LWPOLYLINE
  5
126
330
F8
100
AcDbEntity
  8
AM_9
100
AcDbPolyline
 90
        3
 70
     0
 43
0.0
 10
-2.383521337744635
 20
-0.1745741884610188
 10
-2.356132262371204
 20
-0.1876759562813858
 10
-2.319513004706862
 20
-0.2099962668917053
  0
LWPOLYLINE
  5
127
330
F8
100
AcDbEntity
  8
AM_9
100
AcDbPolyline
 90
        3
 70
     0
 43
0.0
 10
-2.470687850745358
 20
-0.151074129835757
 10
-2.441483243245835
 20
-0.1564222384464442
 10
-2.412812744303541
 20
-0.1639312493177431
  0
LWPOLYLINE
  5
128
330
F8
100
AcDbEntity
  8
AM_9
100
AcDbPolyline
 90
        3
 70
     0
 43
0.0
 10
-2.319513004706862
 20
-0.2099962668917053
 10
-2.302539322373339
 20
-0.2163479371246913
 10
-2.286401065189156
 20
-0.2258378743019629
  0
LWPOLYLINE
  5
129
330
F8
100
AcDbEntity
  8
AM_9
100
AcDbPolyline
 90
        4
 70
     0
 43
0.0
 10
-2.507598731089854
 20
-0.141958509815605
 10
-2.503723611643805
 20
-0.1420496512545706
 10
-2.489234696529055
 20
-0.1441228263802214
 10
-2.470687850745358
 20
-0.151074129835757
  0
ELLIPSE
  5
12A
330
F8
100
AcDbEntity
  8
AM_9
100
AcDbEllipse
 10
-2.395894344656516
 20
-0.2013892028241876
 30
0.0
 11
-0.1303939210191762
 21
0.05265753494273501
 31
0.0
210
0.0
220
0.0
230
1.0
 40
0.2113091308703452
 41
3.814164134970085
 42
4.68673213109354
  0
ELLIPSE
  5
12B
330
F8
100
AcDbEntity
  8
AM_9
100
AcDbEllipse
 10
-2.395894344656515
 20
-0.2013892028241884
 30
0.0
 11
-0.1303939210191758
 21
0.05265753494273443
 31
0.0
210
0.0
220
0.0
230
1.0
 40
0.2113091308703478
 41
-1.280436294196319
 42
-0.6725714813802846
  0
LINE
  5
12C
330
F8
100
AcDbEntity
  8
AM_9
100
AcDbLine
 10
-2.292679442545882
 20
-0.2813919000363599
 30
0.0
 11
-2.304700972727689
 21
-0.2711532636537956
 31
0.0
  0
ELLIPSE
  5
12D
330
F8
100
AcDbEntity
  8
AM_9
100
AcDbEllipse
 10
-2.414194252195048
 20
-0.2467045921760218
 30
0.0
 11
-0.130393921019174
 21
0.05265753494273272
 31
0.0
210
0.0
220
0.0
230
1.0
 40
0.2113091308703505
 41
2.800469246484367
 42
3.607080702195133
  0
ELLIPSE
  5
12E
330
F8
100
AcDbEntity
  8
AM_9
100
AcDbEllipse
 10
-2.414194252206063
 20
-0.2467045921583255
 30
0.0
 11
-0.1303939210354174
 21
0.05265753495813873
 31
0.0
210
0.0
220
0.0
230
1.0
 40
0.211309130910922
 41
-3.777589249494173
 42
-3.764628581847802
  0
LWPOLYLINE
  5
12F
330
F8
100
AcDbEntity
  8
AM_9
100
AcDbPolyline
 90
       17
 70
     0
 43
0.0
 10
-2.280709108977258
 20
-0.1790373738501779
 10
-2.288676574053451
 20
-0.1733931390117467
 10
-2.299432647487632
 20
-0.1670729780242511
 10
-2.312075699010076
 20
-0.1606047421316795
 10
-2.326966122155917
 20
-0.1538031670974777
 10
-2.342867998962798
 20
-0.1472336073736393
 10
-2.360228968784516
 20
-0.1407130262602576
 10
-2.377584445914761
 20
-0.1347930597680667
 10
-2.395442157499049
 20
-0.1293028157827817
 10
-2.412271918999124
 20
-0.1247141396218192
 10
-2.428588662899829
 20
-0.1208880884981781
 10
-2.442987713759663
 20
-0.1181545989145989
 10
-2.45592006662541
 20
-0.1164278875396128
 10
-2.46627979478511
 20
-0.1158549073091554
 10
-2.474389969601807
 20
-0.1164156227038168
 10
-2.479566610792649
 20
-0.1180609686233502
 10
-2.481827381252268
 20
-0.1204206514110939
  0
LWPOLYLINE
  5
130
330
F8
100
AcDbEntity
  8
AM_9
100
AcDbPolyline
 90
        4
 70
     0
 43
0.0
 10
-2.280709108977258
 20
-0.1790373738501784
 10
-2.27575444850519
 20
-0.1842628795203941
 10
-2.273646564038447
 20
-0.1891729979031393
 10
-2.274032999625182
 20
-0.1933898041312626
  0
LINE
  5
131
330
F8
100
AcDbEntity
  8
AM_9
100
AcDbLine
 10
-2.198080727980379
 20
0.1999999999999999
 30
0.0
 11
-2.26
 21
0.1999999999999999
 31
0.0
  0
LINE
  5
132
330
F8
100
AcDbEntity
  8
AM_9
100
AcDbLine
 10
-2.260000000000001
 20
-0.2
 30
0.0
 11
-2.198080727980379
 21
-0.2
 31
0.0
  0
LINE
  5
133
330
F8
100
AcDbEntity
  8
AM_9
100
AcDbLine
 10
-2.043819952931276
 20
0.1999999999999999
 30
0.0
 11
-2.111478187601935
 21
0.1999999999999999
 31
0.0
  0
LINE
  5
134
330
F8
100
AcDbEntity
  8
AM_9
100
AcDbLine
 10
-2.111478187601935
 20
-0.2
 30
0.0
 11
-2.043819952931276
 21
-0.2
 31
0.0
  0
ELLIPSE
  5
135
330
F8
100
AcDbEntity
  8
AM_9
100
AcDbEllipse
 10
-2.043819952931276
 20
0.0000000000000001
 30
0.0
 11
1.224646799147352E-17
 21
0.1999999999999998
 31
0.0
210
0.0
220
0.0
230
1.0
 40
0.5000000000000009
 41
1.735703475720338
 42
7.732809993650921
  0
LINE
  5
136
330
F8
100
AcDbEntity
  8
AM_9
100
AcDbLine
 10
-2.253375641984378
 20
0.2187499999999999
 30
0.0
 11
-2.056183273597936
 21
0.2187499999999999
 31
0.0
  0
LINE
  5
137
330
F8
100
AcDbEntity
  8
AM_9
100
AcDbLine
 10
-2.260324394057524
 20
0.2019920893239009
 30
0.0
 11
-2.253375641984378
 21
0.2187499999999999
 31
0.0
  0
LWPOLYLINE
  5
138
330
F8
100
AcDbEntity
  8
AM_9
100
AcDbPolyline
 90
        3
 70
     0
 43
0.0
 10
-2.184606719122795
 20
0.2055287248054439
 10
-2.192432852412441
 20
0.1643083897258503
 10
-2.206199716140858
 20
0.1093749999999999
  0
LINE
  5
139
330
F8
100
AcDbEntity
  8
AM_9
100
AcDbLine
 10
-2.182478644983167
 20
0.2187499999999999
 30
0.0
 11
-2.184606719122795
 21
0.2055287248054439
 31
0.0
  0
LINE
  5
13A
330
F8
100
AcDbEntity
  8
AM_9
100
AcDbLine
 10
-2.230945339856787
 20
0.0362865903370634
 30
0.0
 11
-2.245626330675782
 21
-0.0000000000000001
 31
0.0
  0
LWPOLYLINE
  5
13B
330
F8
100
AcDbEntity
  8
AM_9
100
AcDbPolyline
 90
        3
 70
     0
 43
0.0
 10
-2.212445440468576
 20
0.0887756609403341
 10
-2.224059366124781
 20
0.0546874999999999
 10
-2.230945339856787
 20
0.0362865903370634
  0
LINE
  5
13C
330
F8
100
AcDbEntity
  8
AM_9
100
AcDbLine
 10
-2.206199716140858
 20
0.1093749999999999
 30
0.0
 11
-2.212445440468576
 21
0.0887756609403341
 31
0.0
  0
LINE
  5
13D
330
F8
100
AcDbEntity
  8
AM_9
100
AcDbLine
 10
-2.26
 20
-0.0000000000000001
 30
0.0
 11
-2.245626330675782
 21
-0.0000000000000001
 31
0.0
  0
LINE
  5
13E
330
F8
100
AcDbEntity
  8
AM_9
100
AcDbLine
 10
-2.253375641984378
 20
-0.2187500000000001
 30
0.0
 11
-2.260322068437507
 21
-0.2019978123130962
 31
0.0
  0
LINE
  5
13F
330
F8
100
AcDbEntity
  8
AM_9
100
AcDbLine
 10
-2.253375641984378
 20
-0.2187500000000001
 30
0.0
 11
-2.056183273597936
 21
-0.2187500000000001
 31
0.0
  0
LINE
  5
140
330
F8
100
AcDbEntity
  8
AM_9
100
AcDbLine
 10
-2.184444773892778
 20
-0.2064989435311898
 30
0.0
 11
-2.182478644983167
 21
-0.2187500000000001
 31
0.0
  0
LWPOLYLINE
  5
141
330
F8
100
AcDbEntity
  8
AM_9
100
AcDbPolyline
 90
        3
 70
     0
 43
0.0
 10
-2.206199716140858
 20
-0.109375
 10
-2.192485523278474
 20
-0.1640625
 10
-2.184444773892778
 20
-0.2064989435311898
  0
LWPOLYLINE
  5
142
330
F8
100
AcDbEntity
  8
AM_9
100
AcDbPolyline
 90
        3
 70
     0
 43
0.0
 10
-2.23095025480673
 20
-0.0362738285429629
 10
-2.224148659758159
 20
-0.0544416102741496
 10
-2.206199716140858
 20
-0.109375
  0
LINE
  5
143
330
F8
100
AcDbEntity
  8
AM_9
100
AcDbLine
 10
-2.245626330675782
 20
-0.0000000000000001
 30
0.0
 11
-2.23095025480673
 21
-0.0362738285429629
 31
0.0
  0
LINE
  5
144
330
F8
100
AcDbEntity
  8
AM_9
100
AcDbLine
 10
-1.873275335308873
 20
0.1853871066562612
 30
0.0
 11
-2.042092224992941
 21
0.1914800577488989
 31
0.0
  0
LINE
  5
145
330
F8
100
AcDbEntity
  8
AM_9
100
AcDbLine
 10
-2.042092224992941
 20
-0.191480057748899
 30
0.0
 11
-1.873275335308873
 21
-0.1853871066562613
 31
0.0
  0
LINE
  5
146
330
F8
100
AcDbEntity
  8
AM_9
100
AcDbLine
 10
-1.807708598026723
 20
0.1319978794387896
 30
0.0
 11
-1.821422725085791
 21
0.1513925839218323
 31
0.0
  0
LINE
  5
147
330
F8
100
AcDbEntity
  8
AM_9
100
AcDbLine
 10
-1.821422725085791
 20
-0.1513925839218325
 30
0.0
 11
-1.807708598026723
 21
-0.1319978794387897
 31
0.0
  0
ELLIPSE
  5
148
330
F8
100
AcDbEntity
  8
AM_9
100
AcDbEllipse
 10
-2.19808072798038
 20
0.0
 30
0.0
 11
1.339457436567416E-17
 21
0.2187499999999998
 31
0.0
210
0.0
220
0.0
230
1.0
 40
0.4999999999999945
 41
0.0
 42
6.283185307179586
  0
ELLIPSE
  5
149
330
F8
100
AcDbEntity
  8
AM_9
100
AcDbEllipse
 10
-2.198080727980379
 20
0.0000000000000003
 30
0.0
 11
1.224646799147355E-17
 21
0.2000000000000004
 31
0.0
210
0.0
220
0.0
230
1.0
 40
0.4999999999999996
 41
0.0
 42
6.283185307179586
  0
ELLIPSE
  5
14A
330
F8
100
AcDbEntity
  8
AM_9
100
AcDbEllipse
 10
-2.111478187601935
 20
0.0000000000000004
 30
0.0
 11
1.339457436567420E-17
 21
0.2187500000000004
 31
0.0
210
0.0
220
0.0
230
1.0
 40
0.5000000000000011
 41
0.0
 42
6.283185307179586
  0
ELLIPSE
  5
14B
330
F8
100
AcDbEntity
  8
AM_9
100
AcDbEllipse
 10
-2.111478187601935
 20
-0.0000000000000004
 30
0.0
 11
1.224646799147351E-17
 21
0.1999999999999996
 31
0.0
210
0.0
220
0.0
230
1.0
 40
0.4999999999999992
 41
0.0
 42
6.283185307179586
  0
ELLIPSE
  5
14C
330
F8
100
AcDbEntity
  8
AM_9
100
AcDbEllipse
 10
-2.043819952931276
 20
-0.0000000000000001
 30
0.0
 11
1.172668097677219E-17
 21
0.1915112338502294
 31
0.0
210
0.0
220
0.0
230
1.0
 40
0.5000000000000004
 41
0.0
 42
6.283185307179586
  0
ELLIPSE
  5
14D
330
F8
100
AcDbEntity
  8
AM_9
100
AcDbEllipse
 10
-1.874948086442032
 20
0.0000000000000001
 30
0.0
 11
1.135353457964645E-17
 21
0.1854172907249865
 31
0.0
210
0.0
220
0.0
230
1.0
 40
0.4999999999999974
 41
0.0
 42
6.283185307179586
  0
ELLIPSE
  5
14E
330
F8
100
AcDbEntity
  8
AM_9
100
AcDbEllipse
 10
-1.854376895853429
 20
0.0000000000000005
 30
0.0
 11
9.899048221688929E-18
 21
0.1616637258772249
 31
0.0
210
0.0
220
0.0
230
1.0
 40
0.4999999999999946
 41
0.0
 42
6.283185307179586
  0
LWPOLYLINE
  5
14F
330
F8
100
AcDbEntity
  8
AM_4
100
AcDbPolyline
 90
        3
 70
     0
 43
0.0
 10
-2.274379535007348
 20
-0.2360765106845277
 10
-2.265214548430791
 20
-0.2462091938631851
 10
-2.259768004031835
 20
-0.2533042541277701
  0
LWPOLYLINE
  5
150
330
F8
100
AcDbEntity
  8
AM_4
100
AcDbPolyline
 90
        3
 70
     0
 43
0.0
 10
-2.259919231254527
 20
-0.2643339435989628
 10
-2.262522394823404
 20
-0.2634308483997528
 10
-2.276736294937645
 20
-0.2602304684431305
  0
LWPOLYLINE
  5
151
330
F8
100
AcDbEntity
  8
AM_4
100
AcDbPolyline
 90
        3
 70
     0
 43
0.0
 10
-2.295036202476178
 20
-0.3055458577949631
 10
-2.2786542478572
 20
-0.3030753670497808
 10
-2.261582156284772
 20
-0.2987675689889718
  0
LINE
  5
152
330
F8
100
AcDbEntity
  8
AM_4
100
AcDbLine
 10
-2.260000000000001
 20
-0.2948497334529792
 30
0.0
 11
-2.261582156284772
 21
-0.2987675689889718
 31
0.0
  0
LINE
  5
153
330
F8
100
AcDbEntity
  8
AM_4
100
AcDbLine
 10
-2.409224257262516
 20
-0.5093460834378319
 30
0.0
 11
-2.348612506995252
 21
-0.4540180898723598
 31
0.0
  0
LINE
  5
154
330
F8
100
AcDbEntity
  8
AM_4
100
AcDbLine
 10
-2.605347674295127
 20
-0.3503396289636352
 30
0.0
 11
-2.600154252004397
 21
-0.4322420068738781
 31
0.0
  0
ELLIPSE
  5
155
330
F8
100
AcDbEntity
  8
AM_4
100
AcDbEllipse
 10
-2.503863799133862
 20
-0.4687500000000001
 30
0.0
 11
-0.0959538295573177
 21
0.03874944547499708
 31
0.0
210
0.0
220
0.0
230
1.0
 40
0.211309130870343
 41
0.1009830038932549
 42
3.040609649696535
  0
LINE
  5
156
330
F8
100
AcDbEntity
  8
AM_4
100
AcDbLine
 10
-2.55187773235015
 20
-0.151074129835757
 30
0.0
 11
-2.563199305574027
 21
-0.1791093260592887
 31
0.0
  0
LWPOLYLINE
  5
157
330
F8
100
AcDbEntity
  8
AM_4
100
AcDbPolyline
 90
        8
 70
     0
 43
0.0
 10
-2.581613865641245
 20
-0.3180117011536489
 10
-2.584140933400209
 20
-0.3188797758656458
 10
-2.590146411958252
 20
-0.3217856920083615
 10
-2.595503615382472
 20
-0.3257920705505262
 10
-2.599989974325687
 20
-0.330934646637505
 10
-2.603269774383797
 20
-0.3370473789205564
 10
-2.605123387272583
 20
-0.3441061632037418
 10
-2.605339144808277
 20
-0.3504699322607516
  0
LWPOLYLINE
  5
158
330
F8
100
AcDbEntity
  8
AM_4
100
AcDbPolyline
 90
        8
 70
     0
 43
0.0
 10
-2.349026507791112
 20
-0.4543894655775398
 10
-2.345143605273353
 20
-0.4502960402863183
 10
-2.341499986773321
 20
-0.4444216592167112
 10
-2.339176812379328
 20
-0.4373598365959334
 10
-2.33860781869426
 20
-0.4304772433097767
 10
-2.339437866390695
 20
-0.4240608140700458
 10
-2.341377153318498
 20
-0.4181065593755628
 10
-2.343080028225075
 20
-0.4145702135840744
  0
ELLIPSE
  5
159
330
F8
100
AcDbEntity
  8
AM_4
100
AcDbEllipse
 10
-2.475870136936379
 20
-0.3994303217889759
 30
0.0
 11
-0.1290248947933277
 21
0.05210467522533601
 31
0.0
210
0.0
220
0.0
230
1.0
 40
0.2113091308703576
 41
0.1019632297805693
 42
3.036209245998971
  0
LWPOLYLINE
  5
15A
330
F8
100
AcDbEntity
  8
AM_4
100
AcDbPolyline
 90
        3
 70
     0
 43
0.0
 10
-2.342772037889563
 20
-0.2987675689889718
 10
-2.329238772389173
 20
-0.3030606061861223
 10
-2.315679487764188
 20
-0.305456396233367
  0
ELLIPSE
  5
15B
330
F8
100
AcDbEntity
  8
AM_4
100
AcDbEllipse
 10
-2.41419425219505
 20
-0.2467045921760186
 30
0.0
 11
-0.1303939210191772
 21
0.05265753494273541
 31
0.0
210
0.0
220
0.0
230
1.0
 40
0.2113091308703559
 41
1.711945269609645
 42
2.505596057672102
  0
LWPOLYLINE
  5
15C
330
F8
100
AcDbEntity
  8
AM_4
100
AcDbPolyline
 90
        4
 70
     0
 43
0.0
 10
-2.563199305574027
 20
-0.1791093260592887
 10
-2.548322187530951
 20
-0.1988355121406939
 10
-2.531892915288277
 20
-0.2156330920108724
 10
-2.526395896676933
 20
-0.2201680623457972
  0
LWPOLYLINE
  5
15D
330
F8
100
AcDbEntity
  8
AM_4
100
AcDbPolyline
 90
        3
 70
     0
 43
0.0
 10
-2.526395896676933
 20
-0.2201680623457972
 10
-2.513455375078306
 20
-0.2290462109660021
 10
-2.493580014135989
 20
-0.2389369657326276
  0
LWPOLYLINE
  5
15E
330
F8
100
AcDbEntity
  8
AM_4
100
AcDbPolyline
 90
        3
 70
     0
 43
0.0
 10
-2.296492694890913
 20
-0.2602304684431209
 10
-2.305741330304807
 20
-0.2616913382589203
 10
-2.330716388578584
 20
-0.2689146070947222
  0
LINE
  5
15F
330
F8
100
AcDbEntity
  8
AM_4
100
AcDbLine
 10
-2.482908096586961
 20
-0.1230967854582221
 30
0.0
 11
-2.497891367320403
 21
-0.1601993088245384
 31
0.0
  0
LINE
  5
160
330
F8
100
AcDbEntity
  8
AM_4
100
AcDbLine
 10
-2.293897321992628
 20
-0.2425790968238377
 30
0.0
 11
-2.276702423171374
 21
-0.2
 31
0.0
  0
ELLIPSE
  5
161
330
F8
100
AcDbEntity
  8
AM_4
100
AcDbEllipse
 10
-2.395894344656515
 20
-0.201389202824188
 30
0.0
 11
-0.1019970226638876
 21
0.04118989399964953
 31
0.0
210
0.0
220
0.0
230
1.0
 40
0.2113091308703504
 41
0.0
 42
3.141592653589793
  0
LWPOLYLINE
  5
162
330
F8
100
AcDbEntity
  8
AM_4
100
AcDbPolyline
 90
        4
 70
     0
 43
0.0
 10
-2.55187773235015
 20
-0.151074129835757
 10
-2.535261890362621
 20
-0.145877822676052
 10
-2.519207277707488
 20
-0.1427138007556462
 10
-2.507598731089854
 20
-0.141958509815605
  0
LWPOLYLINE
  5
163
330
F8
100
AcDbEntity
  8
AM_4
100
AcDbPolyline
 90
        6
 70
     0
 43
0.0
 10
-2.481892767916444
 20
-0.2099962668917053
 10
-2.492201904273773
 20
-0.1943573015029059
 10
-2.503545731107983
 20
-0.1805491420332303
 10
-2.51625970568479
 20
-0.1688997677199809
 10
-2.530155631874482
 20
-0.1598729403210871
 10
-2.55187773235015
 20
-0.151074129835757
  0
LINE
  5
164
330
F8
100
AcDbEntity
  8
AM_4
100
AcDbLine
 10
-2.506268877547024
 20
-0.1419585097669023
 30
0.0
 11
-2.507707354195178
 21
-0.1419585097669023
 31
0.0
  0
ELLIPSE
  5
165
330
F8
100
AcDbEntity
  8
AM_4
100
AcDbEllipse
 10
-2.395894344656568
 20
-0.2013892028241213
 30
0.0
 11
-0.1303939210191025
 21
0.05265753494267496
 31
0.0
210
0.0
220
0.0
230
1.0
 40
0.2113091308702268
 41
5.610613825799214
 42
7.795870906982114
  0
ELLIPSE
  5
166
330
F8
100
AcDbEntity
  8
AM_4
100
AcDbEllipse
 10
-2.414194252195049
 20
-0.2467045921760217
 30
0.0
 11
-0.1303939210191758
 21
0.05265753494273486
 31
0.0
210
0.0
220
0.0
230
1.0
 40
0.211309130870342
 41
0.635996595917689
 42
1.512685599801934
  0
LWPOLYLINE
  5
167
330
F8
100
AcDbEntity
  8
AM_4
100
AcDbPolyline
 90
        3
 70
     0
 43
0.0
 10
-2.314792602429448
 20
-0.3055458577949631
 10
-2.305342403543139
 20
-0.3064767622622302
 10
-2.295036202476178
 20
-0.3055458577949631
  0
LWPOLYLINE
  5
168
330
F8
100
AcDbEntity
  8
AM_4
100
AcDbPolyline
 90
       17
 70
     0
 43
0.0
 10
-2.342862422243976
 20
-0.414976448418111
 10
-2.34288915072805
 20
-0.4149248896674567
 10
-2.345536321035592
 20
-0.4091171140788071
 10
-2.34803105348772
 20
-0.4016679984577864
 10
-2.349914101910196
 20
-0.3926806953073885
 10
-2.350726242877355
 20
-0.3825171987369782
 10
-2.350139689772428
 20
-0.3716837545039501
 10
-2.347999847795574
 20
-0.3606763463400928
 10
-2.34391521900013
 20
-0.3490491890821236
 10
-2.338343676516338
 20
-0.3385422593281132
 10
-2.331669526541451
 20
-0.3294205177718368
 10
-2.324297334697981
 20
-0.3218081225387356
 10
-2.316684357513204
 20
-0.3157651928275382
 10
-2.309343175623435
 20
-0.311273169975938
 10
-2.302768205247243
 20
-0.3081947159401459
 10
-2.297311238405007
 20
-0.3062728754105127
 10
-2.293182241803434
 20
-0.3052107477916607
  0
LWPOLYLINE
  5
169
330
F8
100
AcDbEntity
  8
AM_4
100
AcDbPolyline
 90
       17
 70
     0
 43
0.0
 10
-2.541910668549141
 20
-0.2047527182093476
 10
-2.541166545206907
 20
-0.2058892844079959
 10
-2.538736990732973
 20
-0.2101185924810469
 10
-2.536090693154463
 20
-0.2158985964587355
 10
-2.533589662242757
 20
-0.223319635983237
 10
-2.531692011517393
 20
-0.2322828888374537
 10
-2.53085819605472
 20
-0.2424302987150751
 10
-2.531418938763793
 20
-0.2532565840216111
 10
-2.533531630565802
 20
-0.2642648293796528
 10
-2.537590486016621
 20
-0.2759068338482316
 10
-2.543141813362624
 20
-0.2864337913013333
 10
-2.54980181778628
 20
-0.2955782315516968
 10
-2.557166483197105
 20
-0.3032147234049051
 10
-2.564779542517211
 20
-0.3092821809796221
 10
-2.572128947443852
 20
-0.3137976256677872
 10
-2.57871903083788
 20
-0.3168963487026486
 10
-2.582356901003758
 20
-0.3182477654820749
  0
ELLIPSE
  5
16A
330
F8
100
AcDbEntity
  8
AM_4
100
AcDbEllipse
 10
-2.465195155459034
 20
-0.3729962569746643
 30
0.0
 11
-0.1235034625625953
 21
0.04987493162723557
 31
0.0
210
0.0
220
0.0
230
1.0
 40
0.2113091308703502
 41
6.041042054787719
 42
9.666740329180776
  0
ELLIPSE
  5
16B
330
F8
100
AcDbEntity
  8
AM_4
100
AcDbEllipse
 10
-2.395894344656516
 20
-0.2013892028241893
 30
0.0
 11
-0.1303939210191812
 21
0.05265753494271964
 31
0.0
210
0.0
220
0.0
230
1.0
 40
0.2113091308703544
 41
1.711945269609612
 42
2.518556725320341
  0
LINE
  5
16C
330
F8
100
AcDbEntity
  8
AM_4
100
AcDbLine
 10
-2.276736294937645
 20
-0.2602304684431305
 30
0.0
 11
-2.296492694890913
 21
-0.2602304684431209
 31
0.0
  0
ELLIPSE
  5
16D
330
F8
100
AcDbEntity
  8
AM_4
100
AcDbEllipse
 10
-2.395894344656516
 20
-0.2013892028241872
 30
0.0
 11
-0.1303939210191749
 21
0.05265753494273483
 31
0.0
210
0.0
220
0.0
230
1.0
 40
0.2113091308703497
 41
2.800469246484377
 42
3.607080702195122
  0
LINE
  5
16E
330
F8
100
AcDbEntity
  8
AM_4
100
AcDbLine
 10
-2.286401065189156
 20
-0.2258378743019629
 30
0.0
 11
-2.274379535007348
 21
-0.2360765106845277
 31
0.0
  0
LWPOLYLINE
  5
16F
330
F8
100
AcDbEntity
  8
AM_4
100
AcDbPolyline
 90
        3
 70
     0
 43
0.0
 10
-2.330716388578584
 20
-0.2689146070947222
 10
-2.358778688547428
 20
-0.251275593729576
 10
-2.388566793385415
 20
-0.2360765106845275
  0
LINE
  5
170
330
F8
100
AcDbEntity
  8
AM_4
100
AcDbLine
 10
-2.388566793385415
 20
-0.2360765106845275
 30
0.0
 11
-2.414575602411399
 21
-0.2258378743019627
 31
0.0
  0
LWPOLYLINE
  5
171
330
F8
100
AcDbEntity
  8
AM_4
100
AcDbPolyline
 90
        3
 70
     0
 43
0.0
 10
-2.414575602411399
 20
-0.2258378743019627
 10
-2.437565637103639
 20
-0.2189176876709014
 10
-2.481892767916444
 20
-0.2099962668917053
  0
LINE
  5
172
330
F8
100
AcDbEntity
  8
AM_4
100
AcDbLine
 10
-2.481892767916444
 20
-0.2099962668917053
 30
0.0
 11
-2.493580014135989
 21
-0.2389369657326276
 31
0.0
  0
LWPOLYLINE
  5
173
330
F8
100
AcDbEntity
  8
AM_4
100
AcDbPolyline
 90
        3
 70
     0
 43
0.0
 10
-2.493580014135989
 20
-0.2389369657326276
 10
-2.463900192902187
 20
-0.2560939713202353
 10
-2.432875509949931
 20
-0.2711532636537956
  0
LINE
  5
174
330
F8
100
AcDbEntity
  8
AM_4
100
AcDbLine
 10
-2.432875509949931
 20
-0.2711532636537956
 30
0.0
 11
-2.406866700923948
 21
-0.2813919000363599
 31
0.0
  0
LWPOLYLINE
  5
175
330
F8
100
AcDbEntity
  8
AM_4
100
AcDbPolyline
 90
        3
 70
     0
 43
0.0
 10
-2.406866700923948
 20
-0.2813919000363599
 10
-2.375216150069924
 20
-0.2911775952746243
 10
-2.342772037889563
 20
-0.2987675689889718
  0
LINE
  5
176
330
F8
100
AcDbEntity
  8
AM_4
100
AcDbLine
 10
-2.330716388578584
 20
-0.2689146070947222
 30
0.0
 11
-2.342772037889563
 21
-0.2987675689889718
 31
0.0
  0
ARC
  5
177
330
F8
100
AcDbEntity
  8
AM_4
100
AcDbCircle
 10
-2.325278209161219
 20
0.0000000000000002
 30
0.0
 40
0.1999999999999997
100
AcDbArc
 50
90.0
 51
219.6381441806988
  0
LWPOLYLINE
  5
178
330
F8
100
AcDbEntity
  8
AM_4
100
AcDbPolyline
 90
       10
 70
     0
 43
0.0
 10
-2.479483330590574
 20
-0.1273607948152615
 10
-2.477817259470547
 20
-0.1291842652280562
 10
-2.471539712202884
 20
-0.1344729790611519
 10
-2.462382113140163
 20
-0.1405186270901959
 10
-2.451085923978151
 20
-0.1468270783017121
 10
-2.437344772837402
 20
-0.1535654953592165
 10
-2.42228328309792
 20
-0.1601799433259583
 10
-2.40548986027826
 20
-0.1668493358980661
 10
-2.388090524124264
 20
-0.1731116383367606
 10
-2.369847309345161
 20
-0.1790373738502115
  0
ELLIPSE
  5
179
330
F8
100
AcDbEntity
  8
AM_4
100
AcDbEllipse
 10
-2.325278209161218
 20
-0.0000000000000001
 30
0.0
 11
1.224646799147353E-17
 21
0.2
 31
0.0
210
0.0
220
0.0
230
1.0
 40
0.5000000000000004
 41
0.0
 42
2.679646633022825
  0
LINE
  5
17A
330
F8
100
AcDbEntity
  8
AM_4
100
AcDbLine
 10
-2.260770029830435
 20
0.1999999999999999
 30
0.0
 11
-2.325278209161218
 21
0.1999999999999999
 31
0.0
  0
LINE
  5
17B
330
F8
100
AcDbEntity
  8
AM_4
100
AcDbLine
 10
-2.290371990759104
 20
-0.2
 30
0.0
 11
-2.260772673917811
 21
-0.2
 31
0.0
  0
LWPOLYLINE
  5
17C
330
F8
100
AcDbEntity
  8
AM_4
100
AcDbPolyline
 90
        8
 70
     0
 43
0.0
 10
-2.290224206532197
 20
-0.1999999999699529
 10
-2.291711323771501
 20
-0.1999786710855128
 10
-2.30258492424825
 20
-0.1988321115509053
 10
-2.314983245962232
 20
-0.1961649429984259
 10
-2.329406676328224
 20
-0.1920694300574958
 10
-2.344919656189042
 20
-0.1870948030566195
 10
-2.362013059976012
 20
-0.181500594761393
 10
-2.369847309345178
 20
-0.1790373738501784
  0
LWPOLYLINE
  5
17D
330
F8
100
AcDbEntity
  8
AM_4
100
AcDbPolyline
 90
        3
 70
     0
 43
0.0
 10
-2.292802256519302
 20
0.1093749999999999
 10
-2.274942606535379
 20
0.1640624999999999
 10
-2.260324394057524
 20
0.2019920893239009
  0
LWPOLYLINE
  5
17E
330
F8
100
AcDbEntity
  8
AM_4
100
AcDbPolyline
 90
        3
 70
     0
 43
0.0
 10
-2.316523327676993
 20
-0.0000000000000001
 10
-2.306569120247719
 20
0.0544416102741495
 10
-2.292802256519302
 20
0.1093749999999999
  0
LINE
  5
17F
330
F8
100
AcDbEntity
  8
AM_4
100
AcDbLine
 10
-2.316523327676993
 20
-0.0000000000000001
 30
0.0
 11
-2.26
 21
-0.0000000000000001
 31
0.0
  0
LWPOLYLINE
  5
180
330
F8
100
AcDbEntity
  8
AM_4
100
AcDbPolyline
 90
        3
 70
     0
 43
0.0
 10
-2.292802256519302
 20
-0.109375
 10
-2.306516449381686
 20
-0.0546875
 10
-2.316523327676993
 20
-0.0000000000000001
  0
LWPOLYLINE
  5
181
330
F8
100
AcDbEntity
  8
AM_4
100
AcDbPolyline
 90
        3
 70
     0
 43
0.0
 10
-2.260322068437507
 20
-0.2019978123130962
 10
-2.274853312902001
 20
-0.1643083897258504
 10
-2.292802256519302
 20
-0.109375
  0
ENDBLK
  5
FB
330
F8
100
AcDbEntity
  8
0
100
AcDbBlockEnd
  0
BLOCK
  5
184
330
182
100
AcDbEntity
  8
0
100
AcDbBlockBegin
  2
4_131227H_0_in_131227_4
 70
     2
 10
0.0
 20
0.0
 30
0.0
  3
4_131227H_0_in_131227_4
  1

  0
ATTDEF
  5
186
330
182
100
AcDbEntity
  8
AM_6
100
AcDbText
 10
8.5915
 20
0.9699999999999999
 30
0.0
 40
0.5
  1
WSTU-SXR -I-Housing
100
AcDbAttributeDefinition
  3

  2
NN
 70
     8
280
     0
  0
ATTDEF
  5
187
330
182
100
AcDbEntity
  8
AM_6
100
AcDbText
 10
8.5915
 20
0.4699999999999999
 30
0.0
 40
0.5
  1
SXR Normal Duty Wide Slot Take-Up Bearings
100
AcDbAttributeDefinition
  3

  2
NT
 70
     8
280
     0
  0
ATTDEF
  5
188
330
182
100
AcDbEntity
  8
AM_6
100
AcDbText
 10
8.5915
 20
-0.0300000000000001
 30
0.0
 40
0.5
  1
131227H
100
AcDbAttributeDefinition
  3

  2
NB
 70
     8
280
     0
  0
ATTDEF
  5
189
330
182
100
AcDbEntity
  8
AM_6
100
AcDbText
 10
8.5915
 20
-0.5300000000000001
 30
0.0
 40
0.5
  1
$PN.H
100
AcDbAttributeDefinition
  3

  2
NBSYN
 70
     8
280
     0
  0
ATTDEF
  5
18A
330
182
100
AcDbEntity
  8
AM_6
100
AcDbText
 10
8.5915
 20
-1.03
 30
0.0
 40
0.5
  1
131227
100
AcDbAttributeDefinition
  3

  2
LINA
 70
     8
280
     0
  0
ATTDEF
  5
18B
330
182
100
AcDbEntity
  8
AM_6
100
AcDbText
 10
8.5915
 20
-1.53
 30
0.0
 40
0.5
  1
210
100
AcDbAttributeDefinition
  3

  2
SERIES
 70
     8
280
     0
  0
ATTDEF
  5
18C
330
182
100
AcDbEntity
  8
AM_6
100
AcDbText
 10
8.5915
 20
-2.03
 30
0.0
 40
0.5
  1
2
100
AcDbAttributeDefinition
  3

  2
SS
 70
     8
280
     0
  0
ATTDEF
  5
18D
330
182
100
AcDbEntity
  8
AM_6
100
AcDbText
 10
8.5915
 20
-2.53
 30
0.0
 40
0.5
  1
2.000000
100
AcDbAttributeDefinition
  3

  2
SS1
 70
     8
280
     0
  0
ATTDEF
  5
18E
330
182
100
AcDbEntity
  8
AM_6
100
AcDbText
 10
8.5915
 20
-3.03
 30
0.0
 40
0.5
  1
131227
100
AcDbAttributeDefinition
  3

  2
PN
 70
     8
280
     0
  0
ATTDEF
  5
18F
330
182
100
AcDbEntity
  8
AM_6
100
AcDbText
 10
8.5915
 20
-3.53
 30
0.0
 40
0.5
  1
WSTU-SXR-200
100
AcDbAttributeDefinition
  3

  2
DESCRIPTION
 70
     8
280
     0
  0
ATTDEF
  5
190
330
182
100
AcDbEntity
  8
AM_6
100
AcDbText
 10
8.5915
 20
-4.03
 30
0.0
 40
0.5
  1
RE-LUBE
100
AcDbAttributeDefinition
  3

  2
LF
 70
     8
280
     0
  0
ATTDEF
  5
191
330
182
100
AcDbEntity
  8
AM_6
100
AcDbText
 10
8.5915
 20
-4.53
 30
0.0
 40
0.5
  1
3.543300
100
AcDbAttributeDefinition
  3

  2
BOD
 70
     8
280
     0
  0
ATTDEF
  5
192
330
182
100
AcDbEntity
  8
AM_6
100
AcDbText
 10
8.5915
 20
-5.03
 30
0.0
 40
0.5
  1
0.866100
100
AcDbAttributeDefinition
  3

  2
BW
 70
     8
280
     0
  0
ATTDEF
  5
193
330
182
100
AcDbEntity
  8
AM_6
100
AcDbText
 10
8.5915
 20
-5.53
 30
0.0
 40
0.5
  1
6.8
100
AcDbAttributeDefinition
  3

  2
W
 70
     8
280
     0
  0
ATTDEF
  5
194
330
182
100
AcDbEntity
  8
AM_6
100
AcDbText
 10
8.5915
 20
-6.03
 30
0.0
 40
0.5
  1
WS400
100
AcDbAttributeDefinition
  3

  2
FS
 70
     8
280
     0
  0
ATTDEF
  5
195
330
182
100
AcDbEntity
  8
AM_6
100
AcDbText
 10
8.5915
 20
-6.53
 30
0.0
 40
0.5
  1
2.25
100
AcDbAttributeDefinition
  3

  2
A
 70
     8
280
     0
  0
ATTDEF
  5
196
330
182
100
AcDbEntity
  8
AM_6
100
AcDbText
 10
8.5915
 20
-7.03
 30
0.0
 40
0.5
  1
2.250000
100
AcDbAttributeDefinition
  3

  2
A1
 70
     8
280
     0
  0
ATTDEF
  5
197
330
182
100
AcDbEntity
  8
AM_6
100
AcDbText
 10
8.5915
 20
-7.53
 30
0.0
 40
0.5
  1
5.82
100
AcDbAttributeDefinition
  3

  2
B
 70
     8
280
     0
  0
ATTDEF
  5
198
330
182
100
AcDbEntity
  8
AM_6
100
AcDbText
 10
8.5915
 20
-8.030000000000001
 30
0.0
 40
0.5
  1
5.820000
100
AcDbAttributeDefinition
  3

  2
B1
 70
     8
280
     0
  0
ATTDEF
  5
199
330
182
100
AcDbEntity
  8
AM_6
100
AcDbText
 10
8.5915
 20
-8.530000000000001
 30
0.0
 40
0.5
  1
0.688
100
AcDbAttributeDefinition
  3

  2
C
 70
     8
280
     0
  0
ATTDEF
  5
19A
330
182
100
AcDbEntity
  8
AM_6
100
AcDbText
 10
8.5915
 20
-9.030000000000001
 30
0.0
 40
0.5
  1
0.688000
100
AcDbAttributeDefinition
  3

  2
C1
 70
     8
280
     0
  0
ATTDEF
  5
19B
330
182
100
AcDbEntity
  8
AM_6
100
AcDbText
 10
8.5915
 20
-9.530000000000001
 30
0.0
 40
0.5
  1
3.38
100
AcDbAttributeDefinition
  3

  2
D
 70
     8
280
     0
  0
ATTDEF
  5
19C
330
182
100
AcDbEntity
  8
AM_6
100
AcDbText
 10
8.5915
 20
-10.03
 30
0.0
 40
0.5
  1
3.380000
100
AcDbAttributeDefinition
  3

  2
D1
 70
     8
280
     0
  0
ATTDEF
  5
19D
330
182
100
AcDbEntity
  8
AM_6
100
AcDbText
 10
8.5915
 20
-10.53
 30
0.0
 40
0.5
  1
3.56
100
AcDbAttributeDefinition
  3

  2
E
 70
     8
280
     0
  0
ATTDEF
  5
19E
330
182
100
AcDbEntity
  8
AM_6
100
AcDbText
 10
8.5915
 20
-11.03
 30
0.0
 40
0.5
  1
3.560000
100
AcDbAttributeDefinition
  3

  2
E1
 70
     8
280
     0
  0
ATTDEF
  5
19F
330
182
100
AcDbEntity
  8
AM_6
100
AcDbText
 10
8.5915
 20
-11.53
 30
0.0
 40
0.5
  1
1
100
AcDbAttributeDefinition
  3

  2
F
 70
     8
280
     0
  0
ATTDEF
  5
1A0
330
182
100
AcDbEntity
  8
AM_6
100
AcDbText
 10
8.5915
 20
-12.03
 30
0.0
 40
0.5
  1
1.000000
100
AcDbAttributeDefinition
  3

  2
F1
 70
     8
280
     0
  0
ATTDEF
  5
1A1
330
182
100
AcDbEntity
  8
AM_6
100
AcDbText
 10
8.5915
 20
-12.53
 30
0.0
 40
0.5
  1
0.63
100
AcDbAttributeDefinition
  3

  2
G
 70
     8
280
     0
  0
ATTDEF
  5
1A2
330
182
100
AcDbEntity
  8
AM_6
100
AcDbText
 10
8.5915
 20
-13.03
 30
0.0
 40
0.5
  1
0.630000
100
AcDbAttributeDefinition
  3

  2
G1
 70
     8
280
     0
  0
ATTDEF
  5
1A3
330
182
100
AcDbEntity
  8
AM_6
100
AcDbText
 10
8.5915
 20
-13.53
 30
0.0
 40
0.5
  1
0.75
100
AcDbAttributeDefinition
  3

  2
H
 70
     8
280
     0
  0
ATTDEF
  5
1A4
330
182
100
AcDbEntity
  8
AM_6
100
AcDbText
 10
8.5915
 20
-14.03
 30
0.0
 40
0.5
  1
0.750000
100
AcDbAttributeDefinition
  3

  2
H1
 70
     8
280
     0
  0
ATTDEF
  5
1A5
330
182
100
AcDbEntity
  8
AM_6
100
AcDbText
 10
8.5915
 20
-14.53
 30
0.0
 40
0.5
  1
3.25
100
AcDbAttributeDefinition
  3

  2
J
 70
     8
280
     0
  0
ATTDEF
  5
1A6
330
182
100
AcDbEntity
  8
AM_6
100
AcDbText
 10
8.5915
 20
-15.03
 30
0.0
 40
0.5
  1
3.250000
100
AcDbAttributeDefinition
  3

  2
J1
 70
     8
280
     0
  0
ATTDEF
  5
1A7
330
182
100
AcDbEntity
  8
AM_6
100
AcDbText
 10
8.5915
 20
-15.53
 30
0.0
 40
0.5
  1
1.94
100
AcDbAttributeDefinition
  3

  2
K
 70
     8
280
     0
  0
ATTDEF
  5
1A8
330
182
100
AcDbEntity
  8
AM_6
100
AcDbText
 10
8.5915
 20
-16.03
 30
0.0
 40
0.5
  1
2.75
100
AcDbAttributeDefinition
  3

  2
L
 70
     8
280
     0
  0
ATTDEF
  5
1A9
330
182
100
AcDbEntity
  8
AM_6
100
AcDbText
 10
8.5915
 20
-16.53
 30
0.0
 40
0.5
  1
2.750000
100
AcDbAttributeDefinition
  3

  2
L1
 70
     8
280
     0
  0
ATTDEF
  5
1AA
330
182
100
AcDbEntity
  8
AM_6
100
AcDbText
 10
8.5915
 20
-17.03
 30
0.0
 40
0.5
  1
3.985/4.015
100
AcDbAttributeDefinition
  3

  2
M
 70
     8
280
     0
  0
ATTDEF
  5
1AB
330
182
100
AcDbEntity
  8
AM_6
100
AcDbText
 10
8.5915
 20
-17.53
 30
0.0
 40
0.5
  1
4.015000
100
AcDbAttributeDefinition
  3

  2
M1
 70
     8
280
     0
  0
ATTDEF
  5
1AC
330
182
100
AcDbEntity
  8
AM_6
100
AcDbText
 10
8.5915
 20
-18.03
 30
0.0
 40
0.5
  1
4.75
100
AcDbAttributeDefinition
  3

  2
N
 70
     8
280
     0
  0
ATTDEF
  5
1AD
330
182
100
AcDbEntity
  8
AM_6
100
AcDbText
 10
8.5915
 20
-18.53
 30
0.0
 40
0.5
  1
4.750000
100
AcDbAttributeDefinition
  3

  2
N1
 70
     8
280
     0
  0
ATTDEF
  5
1AE
330
182
100
AcDbEntity
  8
AM_6
100
AcDbText
 10
8.5915
 20
-19.03
 30
0.0
 40
0.5
  1
0.75
100
AcDbAttributeDefinition
  3

  2
R
 70
     8
280
     0
  0
ATTDEF
  5
1AF
330
182
100
AcDbEntity
  8
AM_6
100
AcDbText
 10
8.5915
 20
-19.53
 30
0.0
 40
0.5
  1
0.750000
100
AcDbAttributeDefinition
  3

  2
R1
 70
     8
280
     0
  0
ATTDEF
  5
1B0
330
182
100
AcDbEntity
  8
AM_6
100
AcDbText
 10
8.5915
 20
-20.03
 30
0.0
 40
0.5
  1
1.50
100
AcDbAttributeDefinition
  3

  2
S
 70
     8
280
     0
  0
ATTDEF
  5
1B1
330
182
100
AcDbEntity
  8
AM_6
100
AcDbText
 10
8.5915
 20
-20.53
 30
0.0
 40
0.5
  1
1.500000
100
AcDbAttributeDefinition
  3

  2
S1
 70
     8
280
     0
  0
ATTDEF
  5
1B2
330
182
100
AcDbEntity
  8
AM_6
100
AcDbText
 10
8.5915
 20
-21.03
 30
0.0
 40
0.5
  1
1.94
100
AcDbAttributeDefinition
  3

  2
T
 70
     8
280
     0
  0
ATTDEF
  5
1B3
330
182
100
AcDbEntity
  8
AM_6
100
AcDbText
 10
8.5915
 20
-21.53
 30
0.0
 40
0.5
  1
4450
100
AcDbAttributeDefinition
  3

  2
CAPS
 70
     8
280
     0
  0
ATTDEF
  5
1B4
330
182
100
AcDbEntity
  8
AM_6
100
AcDbText
 10
8.5915
 20
-22.03
 30
0.0
 40
0.5
  1
7891
100
AcDbAttributeDefinition
  3

  2
CAPD
 70
     8
280
     0
  0
ATTDEF
  5
1B5
330
182
100
AcDbEntity
  8
AM_6
100
AcDbText
 10
8.5915
 20
-22.53
 30
0.0
 40
0.5
  1
baldor
100
AcDbAttributeDefinition
  3

  2
COMPANY
 70
     8
280
     0
  0
ELLIPSE
  5
1B6
330
182
100
AcDbEntity
  8
AM_9
100
AcDbEllipse
 10
-2.043819952931276
 20
-0.0000000000000001
 30
0.0
 11
2.143131898507868E-17
 21
0.35
 31
0.0
210
0.0
220
0.0
230
1.0
 40
0.5000000000000001
 41
0.0
 42
6.283185307179586
  0
LINE
  5
1B7
330
182
100
AcDbEntity
  8
AM_9
100
AcDbLine
 10
-1.959838542602867
 20
-0.4499816785575371
 30
0.0
 11
-1.957134234682755
 21
-0.4499999815505111
 31
0.0
  0
LWPOLYLINE
  5
1B8
330
182
100
AcDbEntity
  8
AM_9
100
AcDbPolyline
 90
       26
 70
     0
 43
0.0
 10
-2.232217412552831
 20
-0.0000000000000001
 10
-2.232076471443965
 20
-0.0150144520111687
 10
-2.231059319163509
 20
-0.0429894121940877
 10
-2.229060393201865
 20
-0.0708176561686149
 10
-2.226079769516257
 20
-0.0984071206236502
 10
-2.222116302843533
 20
-0.1256710269212981
 10
-2.217167120636339
 20
-0.152524460017057
 10
-2.211226868347296
 20
-0.1788844453571958
 10
-2.20428682653613
 20
-0.2046696080894464
 10
-2.196334026652321
 20
-0.2297991660480991
 10
-2.187350640410711
 20
-0.2541909074300112
 10
-2.177314180719715
 20
-0.2777577111510626
 10
-2.166199461442193
 20
-0.3004021912174072
 10
-2.153983745314727
 20
-0.3220094563684287
 10
-2.140658821444593
 20
-0.3424361756269185
 10
-2.126268497401602
 20
-0.3614805596330092
 10
-2.110888632908237
 20
-0.3789476716986911
 10
-2.094641446615874
 20
-0.3946519005813691
 10
-2.077679983054735
 20
-0.4084493098922021
 10
-2.060162401954245
 20
-0.4202575324925382
 10
-2.042232063870434
 20
-0.4300526021087764
 10
-2.024011989539239
 20
-0.4378503041456797
 10
-2.005609672556092
 20
-0.4436865810051058
 10
-1.987123978376271
 20
-0.4476050111549373
 10
-1.968649113650496
 20
-0.4496512992179008
 10
-1.959838542602867
 20
-0.4499816785575371
  0
LWPOLYLINE
  5
1B9
330
182
100
AcDbEntity
  8
AM_9
100
AcDbPolyline
 90
       27
 70
     0
 43
0.0
 10
-1.958587630009487
 20
0.4499949933008743
 10
-1.963530365577758
 20
0.4498937047489585
 10
-1.981728807754605
 20
0.448393378125441
 10
-1.999645099948064
 20
0.4451593196924437
 10
-2.017216349282179
 20
0.4402369667110639
 10
-2.034399277637525
 20
0.4336603867389898
 10
-2.051163345590665
 20
0.425448617233992
 10
-2.06748701700896
 20
0.4156032647900857
 10
-2.083351302683011
 20
0.4041094282888904
 10
-2.098731014721567
 20
0.3909420885202698
 10
-2.113585298200186
 20
0.3760795342105505
 10
-2.127850712299395
 20
0.3595228899004599
 10
-2.141441340279629
 20
0.3413159987383195
 10
-2.15425875368185
 20
0.3215556056585079
 10
-2.166208991548843
 20
0.3003840919444782
 10
-2.177218140526493
 20
0.2779676477038011
 10
-2.187228891286132
 20
0.2544979386099488
 10
-2.196224746606881
 20
0.2301186960821726
 10
-2.204204253805714
 20
0.2049518960736416
 10
-2.211172465755649
 20
0.1791047009815836
 10
-2.217136396238947
 20
0.152674624715892
 10
-2.222102671986448
 20
0.1257538181687766
 10
-2.226076620502539
 20
0.098432007485534
 10
-2.229062136564502
 20
0.0707982405995613
 10
-2.231061892342508
 20
0.0429417517400246
 10
-2.232077637588071
 20
0.0149522281017128
 10
-2.232217412552831
 20
-0.0000000000000001
  0
LINE
  5
1BA
330
182
100
AcDbEntity
  8
AM_9
100
AcDbLine
 10
-1.957298997644718
 20
0.4499999822503266
 30
0.0
 11
-1.958587630009487
 21
0.4499949933008743
 31
0.0
  0
LINE
  5
1BB
330
182
100
AcDbEntity
  8
AM_9
100
AcDbLine
 10
2.93
 20
-0.5
 30
0.0
 11
3.56
 21
-0.5
 31
0.0
  0
LINE
  5
1BC
330
182
100
AcDbEntity
  8
AM_9
100
AcDbLine
 10
3.56
 20
0.5
 30
0.0
 11
2.93
 21
0.5
 31
0.0
  0
LINE
  5
1BD
330
182
100
AcDbEntity
  8
AM_9
100
AcDbLine
 10
2.861199999999999
 20
-0.5848
 30
0.0
 11
2.861199999999999
 21
0.5848000000000001
 31
0.0
  0
LINE
  5
1BE
330
182
100
AcDbEntity
  8
AM_9
100
AcDbLine
 10
2.93
 20
-0.5848
 30
0.0
 11
2.93
 21
0.5848000000000001
 31
0.0
  0
LINE
  5
1BF
330
182
100
AcDbEntity
  8
AM_9
100
AcDbLine
 10
2.248800000000001
 20
-0.5848
 30
0.0
 11
2.2488
 21
0.5848000000000001
 31
0.0
  0
LINE
  5
1C0
330
182
100
AcDbEntity
  8
AM_9
100
AcDbLine
 10
2.18
 20
-0.5848
 30
0.0
 11
2.18
 21
0.5848000000000001
 31
0.0
  0
LWPOLYLINE
  5
1C1
330
182
100
AcDbEntity
  8
AM_9
100
AcDbPolyline
 90
       38
 70
     0
 43
0.0
 10
-1.957217412552831
 20
0.4499999999999998
 10
-1.938477084057922
 20
0.4484772106754646
 10
-1.919351572079114
 20
0.4439316645185701
 10
-1.899415954086009
 20
0.4361209353537959
 10
-1.879403138418592
 20
0.425207350652495
 10
-1.860062294947648
 20
0.4117072251277151
 10
-1.840992239790444
 20
0.3954577120719283
 10
-1.821848288113393
 20
0.3759904163505251
 10
-1.803367378317148
 20
0.353876719590078
 10
-1.786016137564837
 20
0.3296756627808863
 10
-1.769669883318688
 20
0.3032236213267458
 10
-1.754092461587038
 20
0.2738445051608036
 10
-1.739942821437624
 20
0.2424713225338224
 10
-1.727626596058224
 20
0.2099790554812158
 10
-1.716994931829129
 20
0.1759971130481071
 10
-1.707954291507743
 20
0.1396842084911788
 10
-1.70096330248722
 20
0.1023050024199555
 10
-1.696287518974691
 20
0.0657413350315371
 10
-1.693645940578665
 20
0.0287116632349716
 10
-1.693098833362308
 20
-0.0096392877257057
 10
-1.694754435322185
 20
-0.047917531080034
 10
-1.698389354679901
 20
-0.0842111103992657
 10
-1.703973474328371
 20
-0.1199259932219857
 10
-1.711685410819035
 20
-0.1558046458918929
 10
-1.721284015609773
 20
-0.1905639094691668
 10
-1.732398179120114
 20
-0.2232723373354418
 10
-1.745073131517396
 20
-0.2544652952382446
 10
-1.759584259228776
 20
-0.2847367864863598
 10
-1.775424236470305
 20
-0.3129911047540434
 10
-1.792239386912324
 20
-0.3387742763927039
 10
-1.810004301598041
 20
-0.3622229543213865
 10
-1.829084949552869
 20
-0.3837379272250293
 10
-1.848776521419123
 20
-0.4024552993122349
 10
-1.868327933885478
 20
-0.4178349579856763
 10
-1.88808307801213
 20
-0.4303197390633577
 10
-1.908454305337992
 20
-0.4400421084723746
 10
-1.928662907916406
 20
-0.4465131206157014
 10
-1.957217412552832
 20
-0.4499999999999999
  0
LWPOLYLINE
  5
1C2
330
182
100
AcDbEntity
  8
AM_9
100
AcDbPolyline
 90
       29
 70
     0
 43
0.0
 10
-1.957217412552832
 20
-0.4499999999999999
 10
-1.980320273740427
 20
-0.4475253298690045
 10
-2.002331053928566
 20
-0.4401612021270727
 10
-2.024064913739676
 20
-0.4271786091386249
 10
-2.04423973026672
 20
-0.4090090862133403
 10
-2.062595052908307
 20
-0.3859981647853644
 10
-2.079252645359013
 20
-0.3579369592750226
 10
-2.094010985125932
 20
-0.325398239143456
 10
-2.106763054841992
 20
-0.2889690146929869
 10
-2.117679035348389
 20
-0.2482895216151622
 10
-2.126633177248125
 20
-0.2042960627030098
 10
-2.133600503080876
 20
-0.1578054885897531
 10
-2.138600504900162
 20
-0.1094802454387362
 10
-2.141733056015126
 20
-0.0595700143103842
 10
-2.142996880128697
 20
-0.0090432763029901
 10
-2.142422151930642
 20
0.0406938897792076
 10
-2.140052095026171
 20
0.0900725777081146
 10
-2.135887313376287
 20
0.1381638890131132
 10
-2.129895912233095
 20
0.1843909015540489
 10
-2.122034596767049
 20
0.2284816542853904
 10
-2.112320339046658
 20
0.2696530264208481
 10
-2.100461758343957
 20
0.3081203609067591
 10
-2.08657652699498
 20
0.3428637211834714
 10
-2.070754412325596
 20
0.3732530987712349
 10
-2.052758193965869
 20
0.3991795178210189
 10
-2.03279052902511
 20
0.4201251151781963
 10
-2.011105732953888
 20
0.4356740074041974
 10
-1.984988958004973
 20
0.4463868288466252
 10
-1.957217412552831
 20
0.4499999999999998
  0
LINE
  5
1C3
330
182
100
AcDbEntity
  8
AM_9
100
AcDbLine
 10
-0.6666666666666666
 20
-0.3096
 30
0.0
 11
-0.6666666666666666
 21
0.5848
 31
0.0
  0
LINE
  5
1C4
330
182
100
AcDbEntity
  8
AM_9
100
AcDbLine
 10
0.6666666666666666
 20
-0.3096
 30
0.0
 11
0.6666666666666666
 21
0.5848
 31
0.0
  0
LINE
  5
1C5
330
182
100
AcDbEntity
  8
AM_9
100
AcDbLine
 10
1.77165
 20
-0.5848000000000001
 30
0.0
 11
1.77165
 21
0.5847999999999998
 31
0.0
  0
LINE
  5
1C6
330
182
100
AcDbEntity
  8
AM_9
100
AcDbLine
 10
-1.77165
 20
0.5847999999999998
 30
0.0
 11
-1.77165
 21
-0.5848000000000001
 31
0.0
  0
LINE
  5
1C7
330
182
100
AcDbEntity
  8
AM_9
100
AcDbLine
 10
1.69
 20
0.5848000000000001
 30
0.0
 11
0.4207251596945489
 21
0.5848000000000001
 31
0.0
  0
LINE
  5
1C8
330
182
100
AcDbEntity
  8
AM_9
100
AcDbLine
 10
1.69
 20
-0.5847999999999999
 30
0.0
 11
-1.69
 21
-0.5847999999999999
 31
0.0
  0
LINE
  5
1C9
330
182
100
AcDbEntity
  8
AM_9
100
AcDbLine
 10
-0.4207251596945484
 20
0.5848000000000001
 30
0.0
 11
-1.69
 21
0.5848000000000001
 31
0.0
  0
LINE
  5
1CA
330
182
100
AcDbEntity
  8
AM_9
100
AcDbLine
 10
0.6666666666666666
 20
-0.3096
 30
0.0
 11
-0.6666666666666666
 21
-0.3096
 31
0.0
  0
LWPOLYLINE
  5
1CB
330
182
100
AcDbEntity
  8
AM_9
100
AcDbPolyline
 90
        7
 70
     0
 43
0.0
 10
-0.420725159694549
 20
0.5848000000000003
 10
-0.2601738876054715
 20
0.6145286944306261
 10
-0.0976425351344278
 20
0.6301512968356008
 10
0.0656319359871636
 20
0.6315489097774369
 10
0.2284069084462461
 20
0.6187108965777451
 10
0.3894435664161908
 20
0.5917349622687796
 10
0.4207251596945488
 20
0.5848000000000003
  0
ELLIPSE
  5
1CC
330
182
100
AcDbEntity
  8
AM_9
100
AcDbEllipse
 10
-1.957217412552832
 20
0.0
 30
0.0
 11
-8.266365894244633E-17
 21
-0.45
 31
0.0
210
0.0
220
0.0
230
1.0
 40
0.5000000000000002
 41
0.0
 42
6.283185307179586
  0
LINE
  5
1CD
330
182
100
AcDbEntity
  8
AM_7
100
AcDbLine
 10
3.5915
 20
0.0
 30
0.0
 11
2.8985
 21
0.0
 31
0.0
  0
LINE
  5
1CE
330
182
100
AcDbEntity
  8
AM_4
100
AcDbLine
 10
2.93
 20
-0.5847999999999998
 30
0.0
 11
2.93
 21
-0.9699999999999999
 31
0.0
  0
LINE
  5
1CF
330
182
100
AcDbEntity
  8
AM_4
100
AcDbLine
 10
2.93
 20
-0.9699999999999999
 30
0.0
 11
3.56
 21
-0.9699999999999999
 31
0.0
  0
LINE
  5
1D0
330
182
100
AcDbEntity
  8
AM_4
100
AcDbLine
 10
3.56
 20
0.9699999999999999
 30
0.0
 11
2.93
 21
0.9699999999999999
 31
0.0
  0
LINE
  5
1D1
330
182
100
AcDbEntity
  8
AM_4
100
AcDbLine
 10
2.93
 20
0.9699999999999999
 30
0.0
 11
2.93
 21
0.5847999999999999
 31
0.0
  0
LINE
  5
1D2
330
182
100
AcDbEntity
  8
AM_4
100
AcDbLine
 10
3.56
 20
0.9699999999999999
 30
0.0
 11
3.56
 21
-0.9699999999999999
 31
0.0
  0
LINE
  5
1D3
330
182
100
AcDbEntity
  8
AM_4
100
AcDbLine
 10
-2.26
 20
-0.5459999999999997
 30
0.0
 11
-2.2212
 21
-0.5847999999999995
 31
0.0
  0
LINE
  5
1D4
330
182
100
AcDbEntity
  8
AM_4
100
AcDbLine
 10
-2.2212
 20
-0.5847999999999995
 30
0.0
 11
-1.69
 21
-0.5847999999999995
 31
0.0
  0
LINE
  5
1D5
330
182
100
AcDbEntity
  8
AM_4
100
AcDbLine
 10
-2.2212
 20
0.5848000000000001
 30
0.0
 11
-2.26
 21
0.5460000000000002
 31
0.0
  0
LINE
  5
1D6
330
182
100
AcDbEntity
  8
AM_4
100
AcDbLine
 10
-2.2212
 20
0.5848000000000001
 30
0.0
 11
-1.69
 21
0.5848000000000001
 31
0.0
  0
LINE
  5
1D7
330
182
100
AcDbEntity
  8
AM_4
100
AcDbLine
 10
-2.26
 20
0.5460000000000002
 30
0.0
 11
-2.260000000000001
 21
-0.5459999999999997
 31
0.0
  0
LINE
  5
1D8
330
182
100
AcDbEntity
  8
AM_4
100
AcDbLine
 10
-2.26
 20
0.5460000000000002
 30
0.0
 11
-1.69
 21
0.5460000000000002
 31
0.0
  0
LINE
  5
1D9
330
182
100
AcDbEntity
  8
AM_4
100
AcDbLine
 10
-2.260000000000001
 20
-0.5459999999999997
 30
0.0
 11
-1.69
 21
-0.5459999999999997
 31
0.0
  0
LINE
  5
1DA
330
182
100
AcDbEntity
  8
AM_4
100
AcDbLine
 10
3.56
 20
-0.5847999999999998
 30
0.0
 11
1.690000000000001
 21
-0.5847999999999998
 31
0.0
  0
LINE
  5
1DB
330
182
100
AcDbEntity
  8
AM_4
100
AcDbLine
 10
3.56
 20
-0.5848000000000003
 30
0.0
 11
3.4912
 21
-0.5160000000000008
 31
0.0
  0
LINE
  5
1DC
330
182
100
AcDbEntity
  8
AM_4
100
AcDbLine
 10
3.4912
 20
-0.5160000000000008
 30
0.0
 11
1.69
 21
-0.5159999999999998
 31
0.0
  0
LINE
  5
1DD
330
182
100
AcDbEntity
  8
AM_4
100
AcDbLine
 10
3.4912
 20
-0.5160000000000008
 30
0.0
 11
3.4912
 21
0.5159999999999998
 31
0.0
  0
LINE
  5
1DE
330
182
100
AcDbEntity
  8
AM_4
100
AcDbLine
 10
3.56
 20
0.5848000000000002
 30
0.0
 11
1.690000000000001
 21
0.5848000000000001
 31
0.0
  0
LINE
  5
1DF
330
182
100
AcDbEntity
  8
AM_4
100
AcDbLine
 10
3.4912
 20
0.5159999999999998
 30
0.0
 11
1.690000000000001
 21
0.5159999999999998
 31
0.0
  0
LINE
  5
1E0
330
182
100
AcDbEntity
  8
AM_4
100
AcDbLine
 10
3.4912
 20
0.5160000000000003
 30
0.0
 11
3.56
 21
0.5848000000000005
 31
0.0
  0
LINE
  5
1E1
330
182
100
AcDbEntity
  8
AM_4
100
AcDbLine
 10
1.69
 20
0.6880000000000001
 30
0.0
 11
-1.69
 21
0.6880000000000001
 31
0.0
  0
LINE
  5
1E2
330
182
100
AcDbEntity
  8
AM_4
100
AcDbLine
 10
1.621199999999999
 20
0.6191999999999991
 30
0.0
 11
-1.621199999999999
 21
0.6191999999999991
 31
0.0
  0
LINE
  5
1E3
330
182
100
AcDbEntity
  8
AM_4
100
AcDbLine
 10
-1.621199999999999
 20
-0.6191999999999998
 30
0.0
 11
-1.621199999999999
 21
-0.3439999999999998
 31
0.0
  0
LINE
  5
1E4
330
182
100
AcDbEntity
  8
AM_4
100
AcDbLine
 10
1.621199999999999
 20
-0.6191999999999998
 30
0.0
 11
-1.621199999999999
 21
-0.6191999999999998
 31
0.0
  0
LINE
  5
1E5
330
182
100
AcDbEntity
  8
AM_4
100
AcDbLine
 10
-1.6212
 20
-0.6191999999999996
 30
0.0
 11
-1.69
 21
-0.6879999999999997
 31
0.0
  0
LINE
  5
1E6
330
182
100
AcDbEntity
  8
AM_4
100
AcDbLine
 10
1.69
 20
-0.6879999999999996
 30
0.0
 11
-1.69
 21
-0.6879999999999996
 31
0.0
  0
LINE
  5
1E7
330
182
100
AcDbEntity
  8
AM_4
100
AcDbLine
 10
1.69
 20
0.6880000000000001
 30
0.0
 11
1.69
 21
-0.6879999999999996
 31
0.0
  0
LINE
  5
1E8
330
182
100
AcDbEntity
  8
AM_4
100
AcDbLine
 10
1.621199999999999
 20
0.6191999999999991
 30
0.0
 11
1.69
 21
0.6880000000000002
 31
0.0
  0
LINE
  5
1E9
330
182
100
AcDbEntity
  8
AM_4
100
AcDbLine
 10
1.621199999999999
 20
0.3440000000000001
 30
0.0
 11
1.621199999999999
 21
0.6191999999999991
 31
0.0
  0
LINE
  5
1EA
330
182
100
AcDbEntity
  8
AM_4
100
AcDbLine
 10
-1.69
 20
-0.3439999999999998
 30
0.0
 11
1.69
 21
-0.3439999999999998
 31
0.0
  0
LINE
  5
1EB
330
182
100
AcDbEntity
  8
AM_4
100
AcDbLine
 10
1.621199999999999
 20
-0.6191999999999998
 30
0.0
 11
1.621199999999999
 21
-0.3439999999999998
 31
0.0
  0
LINE
  5
1EC
330
182
100
AcDbEntity
  8
AM_4
100
AcDbLine
 10
1.689999999999999
 20
-0.6880000000000003
 30
0.0
 11
1.621199999999999
 21
-0.6191999999999999
 31
0.0
  0
LINE
  5
1ED
330
182
100
AcDbEntity
  8
AM_4
100
AcDbLine
 10
1.69
 20
0.3440000000000001
 30
0.0
 11
-1.69
 21
0.3440000000000001
 31
0.0
  0
LINE
  5
1EE
330
182
100
AcDbEntity
  8
AM_4
100
AcDbLine
 10
-1.621199999999999
 20
0.3440000000000001
 30
0.0
 11
-1.621199999999999
 21
0.6191999999999991
 31
0.0
  0
LINE
  5
1EF
330
182
100
AcDbEntity
  8
AM_4
100
AcDbLine
 10
-1.69
 20
0.6879999999999996
 30
0.0
 11
-1.6212
 21
0.6191999999999991
 31
0.0
  0
LINE
  5
1F0
330
182
100
AcDbEntity
  8
AM_4
100
AcDbLine
 10
-1.69
 20
0.6880000000000001
 30
0.0
 11
-1.69
 21
-0.6879999999999996
 31
0.0
  0
ENDBLK
  5
185
330
182
100
AcDbEntity
  8
0
100
AcDbBlockEnd
  0
ENDSEC
  0
SECTION
  2
ENTITIES
  0
INSERT
  5
6F
330
1F
100
AcDbEntity
  8
0
100
AcDbBlockReference
  2
1_131227_4
 10
0.0
 20
0.0
 30
0.0
  0
POINT
  5
1F2
330
1F
100
AcDbEntity
  8
ConnectionPoints
100
AcDbPoint
 10
-2.043819952931276
 20
-0.0000000000000001
 30
-1.18
  0
POINT
  5
1F3
330
1F
100
AcDbEntity
  8
ConnectionPoints
100
AcDbPoint
 10
-2.043819952931276
 20
-0.0000000000000001
 30
-1.18
  0
POINT
  5
1F4
330
1F
100
AcDbEntity
  8
ConnectionPoints
100
AcDbPoint
 10
0.0
 20
-1.5
 30
0.0000000000000001
  0
ENDSEC
  0
SECTION
  2
OBJECTS
  0
DICTIONARY
  5
C
330
0
100
AcDbDictionary
281
     1
  3
ACAD_DETAILVIEWSTYLE
350
1FC
  3
ACAD_GROUP
350
D
  3
ACAD_LAYOUT
350
1A
  3
ACAD_MATERIAL
350
43
  3
ACAD_MLEADERSTYLE
350
6B
  3
ACAD_MLINESTYLE
350
17
  3
ACAD_PLOTSETTINGS
350
19
  3
ACAD_PLOTSTYLENAME
350
E
  3
ACAD_SCALELIST
350
47
  3
ACAD_SECTIONVIEWSTYLE
350
1FD
  3
ACAD_TABLESTYLE
350
69
  3
ACAD_VISUALSTYLE
350
2A
  3
ACDB_RECOMPOSE_DATA
350
1F9
  3
AcDbVariableDictionary
350
1F5
  0
SUN
  5
6D
330
29
100
AcDbSun
 90
        1
290
     0
 63
     7
421
 16777215
 40
1.0
291
     1
 91
  2455826
 92
 54000000
292
     0
 70
     2
 71
   256
280
     1
  0
DICTIONARY
  5
1FC
102
{ACAD_REACTORS
330
C
102
}
330
C
100
AcDbDictionary
281
     1
  0
DICTIONARY
  5
D
102
{ACAD_REACTORS
330
C
102
}
330
C
100
AcDbDictionary
281
     1
  0
DICTIONARY
  5
1A
102
{ACAD_REACTORS
330
C
102
}
330
C
100
AcDbDictionary
281
     1
  3
Layout1
350
1E
  3
Layout2
350
26
  3
Model
350
22
  0
DICTIONARY
  5
43
102
{ACAD_REACTORS
330
C
102
}
330
C
100
AcDbDictionary
281
     1
  3
ByBlock
350
45
  3
ByLayer
350
44
  3
Global
350
46
  0
DICTIONARY
  5
6B
102
{ACAD_REACTORS
330
C
102
}
330
C
100
AcDbDictionary
281
     1
  3
Standard
350
6C
  0
DICTIONARY
  5
17
102
{ACAD_REACTORS
330
C
102
}
330
C
100
AcDbDictionary
281
     1
  3
Standard
350
18
  0
DICTIONARY
  5
19
102
{ACAD_REACTORS
330
C
102
}
330
C
100
AcDbDictionary
281
     1
  0
ACDBDICTIONARYWDFLT
  5
E
102
{ACAD_REACTORS
330
C
102
}
330
C
100
AcDbDictionary
281
     1
  3
Normal
350
F
100
AcDbDictionaryWithDefault
340
F
  0
DICTIONARY
  5
47
102
{ACAD_REACTORS
330
C
102
}
330
C
100
AcDbDictionary
281
     1
  3
A0
350
48
  3
A1
350
49
  3
A2
350
4A
  3
A3
350
4B
  3
A4
350
4C
  3
A5
350
4D
  3
A6
350
4E
  3
A7
350
4F
  3
A8
350
50
  3
A9
350
51
  3
B0
350
52
  3
B1
350
53
  3
B2
350
54
  3
B3
350
55
  3
B4
350
56
  3
B5
350
57
  3
B6
350
58
  3
B7
350
59
  3
B8
350
5A
  3
B9
350
5B
  3
C0
350
5C
  3
C1
350
5D
  3
C2
350
5E
  3
C3
350
5F
  3
C4
350
60
  3
C5
350
61
  3
C6
350
62
  3
C7
350
63
  3
C8
350
64
  3
C9
350
65
  3
D0
350
66
  3
D1
350
67
  3
D2
350
68
  0
DICTIONARY
  5
1FD
102
{ACAD_REACTORS
330
C
102
}
330
C
100
AcDbDictionary
281
     1
  0
DICTIONARY
  5
69
102
{ACAD_REACTORS
330
C
102
}
330
C
100
AcDbDictionary
281
     1
  3
Standard
350
6A
  0
DICTIONARY
  5
2A
102
{ACAD_REACTORS
330
C
102
}
330
C
100
AcDbDictionary
281
     1
  3
2dWireframe
350
2F
  3
Basic
350
32
  3
Brighten
350
36
  3
ColorChange
350
3A
  3
Conceptual
350
34
  3
Dim
350
35
  3
EdgeColorOff
350
3D
  3
Facepattern
350
39
  3
Flat
350
2B
  3
FlatWithEdges
350
2C
  3
Gouraud
350
2D
  3
GouraudWithEdges
350
2E
  3
Hidden
350
31
  3
JitterOff
350
3B
  3
Linepattern
350
38
  3
OverhangOff
350
3C
  3
Realistic
350
33
  3
Shaded
350
42
  3
Shaded with edges
350
41
  3
Shades of Gray
350
3E
  3
Sketchy
350
3F
  3
Thicken
350
37
  3
Wireframe
350
30
  3
X-Ray
350
40
  0
XRECORD
  5
1F9
102
{ACAD_REACTORS
330
C
102
}
330
C
100
AcDbXrecord
280
     1
 90
        1
330
6A
  0
DICTIONARY
  5
1F5
102
{ACAD_REACTORS
330
C
102
}
330
C
100
AcDbDictionary
281
     1
  3
CANNOSCALE
350
1F6
  3
CMLEADERSTYLE
350
1FB
  3
CTABLESTYLE
350
1FA
  0
LAYOUT
  5
1E
102
{ACAD_REACTORS
330
1A
102
}
330
1A
100
AcDbPlotSettings
  1

  2
none_device
  4

  6

 40
0.0
 41
0.0
 42
0.0
 43
0.0
 44
0.0
 45
0.0
 46
0.0
 47
0.0
 48
0.0
 49
0.0
140
0.0
141
0.0
142
1.0
143
1.0
 70
   688
 72
     0
 73
     0
 74
     5
  7

 75
    16
 76
     0
 77
     2
 78
   300
147
1.0
148
0.0
149
0.0
100
AcDbLayout
  1
Layout1
 70
     1
 71
     1
 10
0.0
 20
0.0
 11
12.0
 21
9.0
 12
0.0
 22
0.0
 32
0.0
 14
1.000000000000000E+20
 24
1.000000000000000E+20
 34
1.000000000000000E+20
 15
-1.000000000000000E+20
 25
-1.000000000000000E+20
 35
-1.000000000000000E+20
146
0.0
 13
0.0
 23
0.0
 33
0.0
 16
1.0
 26
0.0
 36
0.0
 17
0.0
 27
1.0
 37
0.0
 76
     0
330
1B
  0
LAYOUT
  5
26
102
{ACAD_REACTORS
330
1A
102
}
330
1A
100
AcDbPlotSettings
  1

  2
none_device
  4

  6

 40
0.0
 41
0.0
 42
0.0
 43
0.0
 44
0.0
 45
0.0
 46
0.0
 47
0.0
 48
0.0
 49
0.0
140
0.0
141
0.0
142
1.0
143
1.0
 70
   688
 72
     0
 73
     0
 74
     5
  7

 75
    16
 76
     0
 77
     2
 78
   300
147
1.0
148
0.0
149
0.0
100
AcDbLayout
  1
Layout2
 70
     1
 71
     2
 10
0.0
 20
0.0
 11
0.0
 21
0.0
 12
0.0
 22
0.0
 32
0.0
 14
0.0
 24
0.0
 34
0.0
 15
0.0
 25
0.0
 35
0.0
146
0.0
 13
0.0
 23
0.0
 33
0.0
 16
1.0
 26
0.0
 36
0.0
 17
0.0
 27
1.0
 37
0.0
 76
     0
330
23
  0
LAYOUT
  5
22
102
{ACAD_REACTORS
330
1A
102
}
330
1A
100
AcDbPlotSettings
  1

  2
none_device
  4
Letter_(8.50_x_11.00_Inches)
  6

 40
6.35
 41
6.35
 42
6.35000508
 43
6.35000508
 44
215.9
 45
279.4
 46
0.0
 47
0.0
 48
0.0
 49
0.0
140
0.0
141
0.0
142
1.0
143
1.0
 70
  1712
 72
     0
 73
     0
 74
     0
  7

 75
     0
 76
     0
 77
     2
 78
   300
147
1.0
148
0.0
149
0.0
100
AcDbLayout
  1
Model
 70
     1
 71
     0
 10
0.0
 20
0.0
 11
12.0
 21
9.0
 12
0.0
 22
0.0
 32
0.0
 14
1.000000000000000E+20
 24
1.000000000000000E+20
 34
1.000000000000000E+20
 15
-1.000000000000000E+20
 25
-1.000000000000000E+20
 35
-1.000000000000000E+20
146
0.0
 13
0.0
 23
0.0
 33
0.0
 16
1.0
 26
0.0
 36
0.0
 17
0.0
 27
1.0
 37
0.0
 76
     0
330
1F
331
29
  0
MATERIAL
  5
45
102
{ACAD_REACTORS
330
43
102
}
330
43
100
AcDbMaterial
  1
ByBlock
 72
     1
 94
      127
  0
MATERIAL
  5
44
102
{ACAD_REACTORS
330
43
102
}
330
43
100
AcDbMaterial
  1
ByLayer
 72
     1
 94
      127
  0
MATERIAL
  5
46
102
{ACAD_REACTORS
330
43
102
}
330
43
100
AcDbMaterial
  1
Global
 72
     1
 94
      127
  0
MLEADERSTYLE
  5
6C
102
{ACAD_REACTORS
330
6B
102
}
330
6B
100
AcDbMLeaderStyle
179
     2
170
     2
171
     1
172
     0
 90
        2
 40
0.0
 41
0.0
173
     1
 91
-1056964608
340
14
 92
       -2
290
     1
 42
0.09
291
     1
 43
0.36
  3
Standard
341
0
 44
0.18
300

342
11
174
     1
178
     6
175
     1
176
     0
 93
-1056964608
 45
0.18
292
     0
297
     0
 46
0.18
343
0
 94
-1056964608
 47
1.0
 49
1.0
140
1.0
293
     1
141
0.0
294
     1
177
     0
142
1.0
295
     0
296
     0
143
0.125
271
     0
272
     9
273
     9
298
     0
  0
MLINESTYLE
  5
18
102
{ACAD_REACTORS
330
17
102
}
330
17
100
AcDbMlineStyle
  2
Standard
 70
     0
  3

 62
   256
 51
90.0
 52
90.0
 71
     2
 49
0.5
 62
   256
  6
BYLAYER
 49
-0.5
 62
   256
  6
BYLAYER
  0
ACDBPLACEHOLDER
  5
F
102
{ACAD_REACTORS
330
E
102
}
330
E
  0
SCALE
  5
48
102
{ACAD_REACTORS
330
47
102
}
330
47
100
AcDbScale
 70
     0
300
1:1
140
1.0
141
1.0
290
     1
  0
SCALE
  5
49
102
{ACAD_REACTORS
330
47
102
}
330
47
100
AcDbScale
 70
     0
300
1:2
140
1.0
141
2.0
290
     0
  0
SCALE
  5
4A
102
{ACAD_REACTORS
330
47
102
}
330
47
100
AcDbScale
 70
     0
300
1:4
140
1.0
141
4.0
290
     0
  0
SCALE
  5
4B
102
{ACAD_REACTORS
330
47
102
}
330
47
100
AcDbScale
 70
     0
300
1:5
140
1.0
141
5.0
290
     0
  0
SCALE
  5
4C
102
{ACAD_REACTORS
330
47
102
}
330
47
100
AcDbScale
 70
     0
300
1:8
140
1.0
141
8.0
290
     0
  0
SCALE
  5
4D
102
{ACAD_REACTORS
330
47
102
}
330
47
100
AcDbScale
 70
     0
300
1:10
140
1.0
141
10.0
290
     0
  0
SCALE
  5
4E
102
{ACAD_REACTORS
330
47
102
}
330
47
100
AcDbScale
 70
     0
300
1:16
140
1.0
141
16.0
290
     0
  0
SCALE
  5
4F
102
{ACAD_REACTORS
330
47
102
}
330
47
100
AcDbScale
 70
     0
300
1:20
140
1.0
141
20.0
290
     0
  0
SCALE
  5
50
102
{ACAD_REACTORS
330
47
102
}
330
47
100
AcDbScale
 70
     0
300
1:30
140
1.0
141
30.0
290
     0
  0
SCALE
  5
51
102
{ACAD_REACTORS
330
47
102
}
330
47
100
AcDbScale
 70
     0
300
1:40
140
1.0
141
40.0
290
     0
  0
SCALE
  5
52
102
{ACAD_REACTORS
330
47
102
}
330
47
100
AcDbScale
 70
     0
300
1:50
140
1.0
141
50.0
290
     0
  0
SCALE
  5
53
102
{ACAD_REACTORS
330
47
102
}
330
47
100
AcDbScale
 70
     0
300
1:100
140
1.0
141
100.0
290
     0
  0
SCALE
  5
54
102
{ACAD_REACTORS
330
47
102
}
330
47
100
AcDbScale
 70
     0
300
2:1
140
2.0
141
1.0
290
     0
  0
SCALE
  5
55
102
{ACAD_REACTORS
330
47
102
}
330
47
100
AcDbScale
 70
     0
300
4:1
140
4.0
141
1.0
290
     0
  0
SCALE
  5
56
102
{ACAD_REACTORS
330
47
102
}
330
47
100
AcDbScale
 70
     0
300
8:1
140
8.0
141
1.0
290
     0
  0
SCALE
  5
57
102
{ACAD_REACTORS
330
47
102
}
330
47
100
AcDbScale
 70
     0
300
10:1
140
10.0
141
1.0
290
     0
  0
SCALE
  5
58
102
{ACAD_REACTORS
330
47
102
}
330
47
100
AcDbScale
 70
     0
300
100:1
140
100.0
141
1.0
290
     0
  0
SCALE
  5
59
102
{ACAD_REACTORS
330
47
102
}
330
47
100
AcDbScale
 70
     0
300
1/128" = 1'-0"
140
0.0078125
141
12.0
290
     0
  0
SCALE
  5
5A
102
{ACAD_REACTORS
330
47
102
}
330
47
100
AcDbScale
 70
     0
300
1/64" = 1'-0"
140
0.015625
141
12.0
290
     0
  0
SCALE
  5
5B
102
{ACAD_REACTORS
330
47
102
}
330
47
100
AcDbScale
 70
     0
300
1/32" = 1'-0"
140
0.03125
141
12.0
290
     0
  0
SCALE
  5
5C
102
{ACAD_REACTORS
330
47
102
}
330
47
100
AcDbScale
 70
     0
300
1/16" = 1'-0"
140
0.0625
141
12.0
290
     0
  0
SCALE
  5
5D
102
{ACAD_REACTORS
330
47
102
}
330
47
100
AcDbScale
 70
     0
300
3/32" = 1'-0"
140
0.09375
141
12.0
290
     0
  0
SCALE
  5
5E
102
{ACAD_REACTORS
330
47
102
}
330
47
100
AcDbScale
 70
     0
300
1/8" = 1'-0"
140
0.125
141
12.0
290
     0
  0
SCALE
  5
5F
102
{ACAD_REACTORS
330
47
102
}
330
47
100
AcDbScale
 70
     0
300
3/16" = 1'-0"
140
0.1875
141
12.0
290
     0
  0
SCALE
  5
60
102
{ACAD_REACTORS
330
47
102
}
330
47
100
AcDbScale
 70
     0
300
1/4" = 1'-0"
140
0.25
141
12.0
290
     0
  0
SCALE
  5
61
102
{ACAD_REACTORS
330
47
102
}
330
47
100
AcDbScale
 70
     0
300
3/8" = 1'-0"
140
0.375
141
12.0
290
     0
  0
SCALE
  5
62
102
{ACAD_REACTORS
330
47
102
}
330
47
100
AcDbScale
 70
     0
300
1/2" = 1'-0"
140
0.5
141
12.0
290
     0
  0
SCALE
  5
63
102
{ACAD_REACTORS
330
47
102
}
330
47
100
AcDbScale
 70
     0
300
3/4" = 1'-0"
140
0.75
141
12.0
290
     0
  0
SCALE
  5
64
102
{ACAD_REACTORS
330
47
102
}
330
47
100
AcDbScale
 70
     0
300
1" = 1'-0"
140
1.0
141
12.0
290
     0
  0
SCALE
  5
65
102
{ACAD_REACTORS
330
47
102
}
330
47
100
AcDbScale
 70
     0
300
1-1/2" = 1'-0"
140
1.5
141
12.0
290
     0
  0
SCALE
  5
66
102
{ACAD_REACTORS
330
47
102
}
330
47
100
AcDbScale
 70
     0
300
3" = 1'-0"
140
3.0
141
12.0
290
     0
  0
SCALE
  5
67
102
{ACAD_REACTORS
330
47
102
}
330
47
100
AcDbScale
 70
     0
300
6" = 1'-0"
140
6.0
141
12.0
290
     0
  0
SCALE
  5
68
102
{ACAD_REACTORS
330
47
102
}
330
47
100
AcDbScale
 70
     0
300
1'-0" = 1'-0"
140
12.0
141
12.0
290
     0
  0
TABLESTYLE
  5
6A
102
{ACAD_REACTORS
330
69
102
}
102
{ACAD_XDICTIONARY
360
1F7
102
}
330
69
100
AcDbTableStyle
  3
Standard
 70
     0
 71
     0
 40
0.06
 41
0.06
280
     0
281
     0
  7
Standard
140
0.18
170
     2
 62
     0
 63
   257
283
     0
 90
        4
 91
        0
  1

274
    -2
284
     1
 64
     0
275
    -2
285
     1
 65
     0
276
    -2
286
     1
 66
     0
277
    -2
287
     1
 67
     0
278
    -2
288
     1
 68
     0
279
    -2
289
     1
 69
     0
  7
Standard
140
0.25
170
     5
 62
     0
 63
   257
283
     0
 90
        4
 91
        0
  1

274
    -2
284
     1
 64
     0
275
    -2
285
     1
 65
     0
276
    -2
286
     1
 66
     0
277
    -2
287
     1
 67
     0
278
    -2
288
     1
 68
     0
279
    -2
289
     1
 69
     0
  7
Standard
140
0.18
170
     5
 62
     0
 63
   257
283
     0
 90
        4
 91
        0
  1

274
    -2
284
     1
 64
     0
275
    -2
285
     1
 65
     0
276
    -2
286
     1
 66
     0
277
    -2
287
     1
 67
     0
278
    -2
288
     1
 68
     0
279
    -2
289
     1
 69
     0
  0
VISUALSTYLE
  5
2F
102
{ACAD_REACTORS
330
2A
102
}
330
2A
100
AcDbVisualStyle
  2
2dWireframe
 70
     4
177
     3
291
     0
 70
    58
 90
        0
176
     1
 90
        2
176
     1
 90
        0
176
     1
 90
        0
176
     1
 40
0.6
176
     1
 40
30.0
176
     1
 62
     7
420
 16777215
176
     1
 90
        1
176
     1
 90
        4
176
     1
 62
     7
176
     1
 62
   257
176
     1
 90
        1
176
     1
 90
        1
176
     1
 40
1.0
176
     1
 90
        0
176
     1
 62
   257
176
     1
 40
1.0
176
     1
 90
        1
176
     1
 90
        6
176
     1
 90
        2
176
     1
 62
     7
176
     1
 90
        5
176
     1
 90
        0
176
     1
 90
        0
176
     1
290
     0
176
     1
 90
        1
176
     1
 40
0.0
176
     1
 90
        0
176
     1
290
     1
176
     1
290
     1
176
     1
290
     0
176
     1
290
     0
176
     1
290
     0
176
     1
290
     0
176
     1
290
     0
176
     1
290
     0
176
     1
290
     0
176
     1
 90
       50
176
     1
 40
0.0
176
     1
 40
1.0
176
     1
 90
        0
176
     1
 62
    18
420
        0
176
     1
 90
       50
176
     1
 90
        3
176
     1
 62
     5
420
      255
176
     1
290
     0
176
     1
 90
       50
176
     1
 90
       50
176
     1
 90
       50
176
     1
290
     0
176
     1
 90
       50
176
     1
 62
   256
176
     0
 40
1.0
176
     0
 90
        2
176
     1
  1
strokes_ogs.tif
176
     1
290
     0
176
     1
 40
1.0
176
     1
 40
1.0
176
     1
  0
VISUALSTYLE
  5
32
102
{ACAD_REACTORS
330
2A
102
}
330
2A
100
AcDbVisualStyle
  2
Basic
 70
     7
177
     3
291
     1
 70
    58
 90
        1
176
     1
 90
        0
176
     1
 90
        1
176
     1
 90
        0
176
     1
 40
0.6
176
     1
 40
30.0
176
     1
 62
     7
420
 16777215
176
     1
 90
        0
176
     1
 90
        4
176
     1
 62
     7
176
     1
 62
   257
176
     1
 90
        1
176
     1
 90
        1
176
     1
 40
1.0
176
     1
 90
        8
176
     1
 62
     7
176
     1
 40
1.0
176
     1
 90
        1
176
     1
 90
        6
176
     1
 90
        2
176
     1
 62
     7
176
     1
 90
        5
176
     1
 90
        0
176
     1
 90
        0
176
     1
290
     0
176
     1
 90
        1
176
     1
 40
0.0
176
     1
 90
        0
176
     1
290
     0
176
     1
290
     1
176
     1
290
     1
176
     1
290
     0
176
     1
290
     0
176
     1
290
     0
176
     1
290
     0
176
     1
290
     0
176
     1
290
     0
176
     1
 90
       50
176
     1
 40
0.0
176
     1
 40
1.0
176
     1
 90
        0
176
     1
 62
    18
420
        0
176
     1
 90
       50
176
     1
 90
        3
176
     1
 62
     5
420
      255
176
     1
290
     0
176
     1
 90
       50
176
     1
 90
       50
176
     1
 90
       50
176
     1
290
     0
176
     1
 90
       50
176
     1
 62
   256
176
     0
 40
1.0
176
     0
 90
        2
176
     1
  1
strokes_ogs.tif
176
     1
290
     0
176
     1
 40
1.0
176
     1
 40
1.0
176
     1
  0
VISUALSTYLE
  5
36
102
{ACAD_REACTORS
330
2A
102
}
330
2A
100
AcDbVisualStyle
  2
Brighten
 70
    12
177
     3
291
     1
 70
    58
 90
        2
176
     1
 90
        2
176
     1
 90
        0
176
     1
 90
        0
176
     1
 40
0.6
176
     1
 40
30.0
176
     1
 62
     7
420
 16777215
176
     1
 90
        1
176
     1
 90
        4
176
     1
 62
     7
176
     1
 62
   257
176
     1
 90
        1
176
     1
 90
        1
176
     1
 40
1.0
176
     1
 90
        8
176
     1
 62
     7
176
     1
 40
1.0
176
     1
 90
        1
176
     1
 90
        6
176
     1
 90
        2
176
     1
 62
     7
176
     1
 90
        5
176
     1
 90
        0
176
     1
 90
        0
176
     1
290
     0
176
     1
 90
        1
176
     1
 40
50.0
176
     1
 90
        0
176
     1
290
     0
176
     1
290
     1
176
     1
290
     1
176
     1
290
     0
176
     1
290
     0
176
     1
290
     0
176
     1
290
     0
176
     1
290
     0
176
     1
290
     0
176
     1
 90
       50
176
     1
 40
0.0
176
     1
 40
1.0
176
     1
 90
        0
176
     1
 62
    18
420
        0
176
     1
 90
       50
176
     1
 90
        3
176
     1
 62
     5
420
      255
176
     1
290
     0
176
     1
 90
       50
176
     1
 90
       50
176
     1
 90
       50
176
     1
290
     0
176
     1
 90
       50
176
     1
 62
   256
176
     0
 40
1.0
176
     0
 90
        2
176
     1
  1
strokes_ogs.tif
176
     1
290
     0
176
     1
 40
1.0
176
     1
 40
1.0
176
     1
  0
VISUALSTYLE
  5
3A
102
{ACAD_REACTORS
330
2A
102
}
330
2A
100
AcDbVisualStyle
  2
ColorChange
 70
    16
177
     3
291
     1
 70
    58
 90
        2
176
     1
 90
        2
176
     1
 90
        3
176
     1
 90
        0
176
     1
 40
0.6
176
     1
 40
30.0
176
     1
 62
     8
420
  8421504
176
     1
 90
        1
176
     1
 90
        4
176
     1
 62
     7
176
     1
 62
   257
176
     1
 90
        1
176
     1
 90
        1
176
     1
 40
1.0
176
     1
 90
        8
176
     1
 62
     8
420
  8421504
176
     1
 40
1.0
176
     1
 90
        1
176
     1
 90
        6
176
     1
 90
        2
176
     1
 62
     7
176
     1
 90
        5
176
     1
 90
        0
176
     1
 90
        0
176
     1
290
     0
176
     1
 90
        1
176
     1
 40
0.0
176
     1
 90
        0
176
     1
290
     0
176
     1
290
     1
176
     1
290
     1
176
     1
290
     0
176
     1
290
     0
176
     1
290
     0
176
     1
290
     0
176
     1
290
     0
176
     1
290
     0
176
     1
 90
       50
176
     1
 40
0.0
176
     1
 40
1.0
176
     1
 90
        0
176
     1
 62
    18
420
        0
176
     1
 90
       50
176
     1
 90
        3
176
     1
 62
     5
420
      255
176
     1
290
     0
176
     1
 90
       50
176
     1
 90
       50
176
     1
 90
       50
176
     1
290
     0
176
     1
 90
       50
176
     1
 62
   256
176
     0
 40
1.0
176
     0
 90
        2
176
     1
  1
strokes_ogs.tif
176
     1
290
     0
176
     1
 40
1.0
176
     1
 40
1.0
176
     1
  0
VISUALSTYLE
  5
34
102
{ACAD_REACTORS
330
2A
102
}
330
2A
100
AcDbVisualStyle
  2
Conceptual
 70
     9
177
     3
291
     0
 70
    58
 90
        3
176
     1
 90
        2
176
     1
 90
        0
176
     1
 90
        0
176
     1
 40
0.6
176
     1
 40
30.0
176
     1
 62
     7
420
 16777215
176
     1
 90
        2
176
     1
 90
        2
176
     1
 62
     7
176
     1
 62
   257
176
     1
 90
        1
176
     1
 90
        1
176
     1
 40
179.0
176
     1
 90
        8
176
     1
 62
     7
176
     1
 40
1.0
176
     1
 90
        1
176
     1
 90
        6
176
     1
 90
        2
176
     1
 62
     7
176
     1
 90
        3
176
     1
 90
        0
176
     1
 90
        0
176
     1
290
     0
176
     1
 90
        1
176
     1
 40
0.0
176
     1
 90
        0
176
     1
290
     0
176
     1
290
     1
176
     1
290
     1
176
     1
290
     0
176
     1
290
     0
176
     1
290
     0
176
     1
290
     0
176
     1
290
     0
176
     1
290
     0
176
     1
 90
       50
176
     1
 40
0.0
176
     1
 40
1.0
176
     1
 90
        0
176
     1
 62
    18
420
        0
176
     1
 90
       50
176
     1
 90
        3
176
     1
 62
     5
420
      255
176
     1
290
     0
176
     1
 90
       50
176
     1
 90
       50
176
     1
 90
       50
176
     1
290
     0
176
     1
 90
       50
176
     1
 62
   256
176
     0
 40
1.0
176
     0
 90
        2
176
     1
  1
strokes_ogs.tif
176
     1
290
     0
176
     1
 40
1.0
176
     1
 40
1.0
176
     1
  0
VISUALSTYLE
  5
35
102
{ACAD_REACTORS
330
2A
102
}
330
2A
100
AcDbVisualStyle
  2
Dim
 70
    11
177
     3
291
     1
 70
    58
 90
        2
176
     1
 90
        2
176
     1
 90
        0
176
     1
 90
        0
176
     1
 40
0.6
176
     1
 40
30.0
176
     1
 62
     7
420
 16777215
176
     1
 90
        1
176
     1
 90
        4
176
     1
 62
     7
176
     1
 62
   257
176
     1
 90
        1
176
     1
 90
        1
176
     1
 40
1.0
176
     1
 90
        8
176
     1
 62
     7
176
     1
 40
1.0
176
     1
 90
        1
176
     1
 90
        6
176
     1
 90
        2
176
     1
 62
     7
176
     1
 90
        5
176
     1
 90
        0
176
     1
 90
        0
176
     1
290
     0
176
     1
 90
        1
176
     1
 40
-50.0
176
     1
 90
        0
176
     1
290
     0
176
     1
290
     1
176
     1
290
     1
176
     1
290
     0
176
     1
290
     0
176
     1
290
     0
176
     1
290
     0
176
     1
290
     0
176
     1
290
     0
176
     1
 90
       50
176
     1
 40
0.0
176
     1
 40
1.0
176
     1
 90
        0
176
     1
 62
    18
420
        0
176
     1
 90
       50
176
     1
 90
        3
176
     1
 62
     5
420
      255
176
     1
290
     0
176
     1
 90
       50
176
     1
 90
       50
176
     1
 90
       50
176
     1
290
     0
176
     1
 90
       50
176
     1
 62
   256
176
     0
 40
1.0
176
     0
 90
        2
176
     1
  1
strokes_ogs.tif
176
     1
290
     0
176
     1
 40
1.0
176
     1
 40
1.0
176
     1
  0
VISUALSTYLE
  5
3D
102
{ACAD_REACTORS
330
2A
102
}
330
2A
100
AcDbVisualStyle
  2
EdgeColorOff
 70
    22
177
     3
291
     1
 70
    58
 90
        2
176
     0
 90
        2
176
     0
 90
        0
176
     0
 90
        0
176
     0
 40
0.6
176
     0
 40
30.0
176
     0
 62
     7
420
 16777215
176
     0
 90
        1
176
     0
 90
        4
176
     0
 62
     7
176
     0
 62
   257
176
     0
 90
        1
176
     0
 90
        1
176
     0
 40
1.0
176
     0
 90
        8
176
     2
 62
     7
176
     0
 40
1.0
176
     0
 90
        1
176
     0
 90
        6
176
     0
 90
        2
176
     0
 62
     7
176
     0
 90
        5
176
     0
 90
        0
176
     0
 90
        0
176
     0
290
     0
176
     0
 90
        1
176
     0
 40
0.0
176
     0
 90
        0
176
     0
290
     0
176
     0
290
     1
176
     0
290
     1
176
     0
290
     0
176
     0
290
     0
176
     0
290
     0
176
     0
290
     0
176
     0
290
     0
176
     0
290
     0
176
     0
 90
       50
176
     0
 40
0.0
176
     0
 40
1.0
176
     0
 90
        0
176
     0
 62
    18
420
        0
176
     0
 90
       50
176
     0
 90
        3
176
     0
 62
     5
420
      255
176
     0
290
     0
176
     0
 90
       50
176
     0
 90
       50
176
     0
 90
       50
176
     0
290
     0
176
     0
 90
       50
176
     0
 62
   256
176
     0
 40
1.0
176
     0
 90
        2
176
     0
  1
strokes_ogs.tif
176
     0
290
     0
176
     0
 40
1.0
176
     0
 40
1.0
176
     0
  0
VISUALSTYLE
  5
39
102
{ACAD_REACTORS
330
2A
102
}
330
2A
100
AcDbVisualStyle
  2
Facepattern
 70
    15
177
     3
291
     1
 70
    58
 90
        2
176
     1
 90
        2
176
     1
 90
        0
176
     1
 90
        0
176
     1
 40
0.6
176
     1
 40
30.0
176
     1
 62
     7
420
 16777215
176
     1
 90
        1
176
     1
 90
        4
176
     1
 62
     7
176
     1
 62
   257
176
     1
 90
        1
176
     1
 90
        1
176
     1
 40
1.0
176
     1
 90
        8
176
     1
 62
     7
176
     1
 40
1.0
176
     1
 90
        1
176
     1
 90
        6
176
     1
 90
        2
176
     1
 62
     7
176
     1
 90
        5
176
     1
 90
        0
176
     1
 90
        0
176
     1
290
     0
176
     1
 90
        1
176
     1
 40
0.0
176
     1
 90
        0
176
     1
290
     0
176
     1
290
     1
176
     1
290
     1
176
     1
290
     0
176
     1
290
     0
176
     1
290
     0
176
     1
290
     0
176
     1
290
     0
176
     1
290
     0
176
     1
 90
       50
176
     1
 40
0.0
176
     1
 40
1.0
176
     1
 90
        0
176
     1
 62
    18
420
        0
176
     1
 90
       50
176
     1
 90
        3
176
     1
 62
     5
420
      255
176
     1
290
     0
176
     1
 90
       50
176
     1
 90
       50
176
     1
 90
       50
176
     1
290
     0
176
     1
 90
       50
176
     1
 62
   256
176
     0
 40
1.0
176
     0
 90
        2
176
     1
  1
strokes_ogs.tif
176
     1
290
     0
176
     1
 40
1.0
176
     1
 40
1.0
176
     1
  0
VISUALSTYLE
  5
2B
102
{ACAD_REACTORS
330
2A
102
}
330
2A
100
AcDbVisualStyle
  2
Flat
 70
     0
177
     3
291
     1
 70
    58
 90
        2
176
     1
 90
        1
176
     1
 90
        1
176
     1
 90
        2
176
     1
 40
0.6
176
     1
 40
30.0
176
     1
 62
     7
420
 16777215
176
     1
 90
        0
176
     1
 90
        0
176
     1
 62
     7
176
     1
 62
   257
176
     1
 90
        1
176
     1
 90
        1
176
     1
 40
1.0
176
     1
 90
        8
176
     1
 62
     7
176
     1
 40
1.0
176
     1
 90
        1
176
     1
 90
        6
176
     1
 90
        2
176
     1
 62
     7
176
     1
 90
        5
176
     1
 90
        0
176
     1
 90
        0
176
     1
290
     0
176
     1
 90
       13
176
     1
 40
0.0
176
     1
 90
        0
176
     1
290
     0
176
     1
290
     1
176
     1
290
     1
176
     1
290
     0
176
     1
290
     0
176
     1
290
     0
176
     1
290
     0
176
     1
290
     0
176
     1
290
     0
176
     1
 90
       50
176
     1
 40
0.0
176
     1
 40
1.0
176
     1
 90
        0
176
     1
 62
    18
420
        0
176
     1
 90
       50
176
     1
 90
        3
176
     1
 62
     5
420
      255
176
     1
290
     0
176
     1
 90
       50
176
     1
 90
       50
176
     1
 90
       50
176
     1
290
     0
176
     1
 90
       50
176
     1
 62
   256
176
     0
 40
1.0
176
     0
 90
        2
176
     1
  1
strokes_ogs.tif
176
     1
290
     0
176
     1
 40
1.0
176
     1
 40
1.0
176
     1
  0
VISUALSTYLE
  5
2C
102
{ACAD_REACTORS
330
2A
102
}
330
2A
100
AcDbVisualStyle
  2
FlatWithEdges
 70
     1
177
     3
291
     1
 70
    58
 90
        2
176
     1
 90
        1
176
     1
 90
        1
176
     1
 90
        2
176
     1
 40
0.6
176
     1
 40
30.0
176
     1
 62
     7
420
 16777215
176
     1
 90
        1
176
     1
 90
        0
176
     1
 62
     7
176
     1
 62
   257
176
     1
 90
        1
176
     1
 90
        1
176
     1
 40
1.0
176
     1
 90
        0
176
     1
 62
   257
176
     1
 40
1.0
176
     1
 90
        1
176
     1
 90
        6
176
     1
 90
        2
176
     1
 62
     7
176
     1
 90
        5
176
     1
 90
        0
176
     1
 90
        0
176
     1
290
     0
176
     1
 90
       13
176
     1
 40
0.0
176
     1
 90
        0
176
     1
290
     0
176
     1
290
     1
176
     1
290
     1
176
     1
290
     0
176
     1
290
     0
176
     1
290
     0
176
     1
290
     0
176
     1
290
     0
176
     1
290
     0
176
     1
 90
       50
176
     1
 40
0.0
176
     1
 40
1.0
176
     1
 90
        0
176
     1
 62
    18
420
        0
176
     1
 90
       50
176
     1
 90
        3
176
     1
 62
     5
420
      255
176
     1
290
     0
176
     1
 90
       50
176
     1
 90
       50
176
     1
 90
       50
176
     1
290
     0
176
     1
 90
       50
176
     1
 62
   256
176
     0
 40
1.0
176
     0
 90
        2
176
     1
  1
strokes_ogs.tif
176
     1
290
     0
176
     1
 40
1.0
176
     1
 40
1.0
176
     1
  0
VISUALSTYLE
  5
2D
102
{ACAD_REACTORS
330
2A
102
}
330
2A
100
AcDbVisualStyle
  2
Gouraud
 70
     2
177
     3
291
     1
 70
    58
 90
        2
176
     1
 90
        2
176
     1
 90
        1
176
     1
 90
        2
176
     1
 40
0.6
176
     1
 40
30.0
176
     1
 62
     7
420
 16777215
176
     1
 90
        0
176
     1
 90
        0
176
     1
 62
     7
176
     1
 62
   257
176
     1
 90
        1
176
     1
 90
        1
176
     1
 40
1.0
176
     1
 90
        0
176
     1
 62
     7
176
     1
 40
1.0
176
     1
 90
        1
176
     1
 90
        6
176
     1
 90
        2
176
     1
 62
     7
176
     1
 90
        5
176
     1
 90
        0
176
     1
 90
        0
176
     1
290
     0
176
     1
 90
       13
176
     1
 40
0.0
176
     1
 90
        0
176
     1
290
     0
176
     1
290
     1
176
     1
290
     1
176
     1
290
     0
176
     1
290
     0
176
     1
290
     0
176
     1
290
     0
176
     1
290
     0
176
     1
290
     0
176
     1
 90
       50
176
     1
 40
0.0
176
     1
 40
1.0
176
     1
 90
        0
176
     1
 62
    18
420
        0
176
     1
 90
       50
176
     1
 90
        3
176
     1
 62
     5
420
      255
176
     1
290
     0
176
     1
 90
       50
176
     1
 90
       50
176
     1
 90
       50
176
     1
290
     0
176
     1
 90
       50
176
     1
 62
   256
176
     0
 40
1.0
176
     0
 90
        2
176
     1
  1
strokes_ogs.tif
176
     1
290
     0
176
     1
 40
1.0
176
     1
 40
1.0
176
     1
  0
VISUALSTYLE
  5
2E
102
{ACAD_REACTORS
330
2A
102
}
330
2A
100
AcDbVisualStyle
  2
GouraudWithEdges
 70
     3
177
     3
291
     1
 70
    58
 90
        2
176
     1
 90
        2
176
     1
 90
        1
176
     1
 90
        2
176
     1
 40
0.6
176
     1
 40
30.0
176
     1
 62
     7
420
 16777215
176
     1
 90
        1
176
     1
 90
        0
176
     1
 62
     7
176
     1
 62
   257
176
     1
 90
        1
176
     1
 90
        1
176
     1
 40
1.0
176
     1
 90
        0
176
     1
 62
   257
176
     1
 40
1.0
176
     1
 90
        1
176
     1
 90
        6
176
     1
 90
        2
176
     1
 62
     7
176
     1
 90
        5
176
     1
 90
        0
176
     1
 90
        0
176
     1
290
     0
176
     1
 90
       13
176
     1
 40
0.0
176
     1
 90
        0
176
     1
290
     0
176
     1
290
     1
176
     1
290
     1
176
     1
290
     0
176
     1
290
     0
176
     1
290
     0
176
     1
290
     0
176
     1
290
     0
176
     1
290
     0
176
     1
 90
       50
176
     1
 40
0.0
176
     1
 40
1.0
176
     1
 90
        0
176
     1
 62
    18
420
        0
176
     1
 90
       50
176
     1
 90
        3
176
     1
 62
     5
420
      255
176
     1
290
     0
176
     1
 90
       50
176
     1
 90
       50
176
     1
 90
       50
176
     1
290
     0
176
     1
 90
       50
176
     1
 62
   256
176
     0
 40
1.0
176
     0
 90
        2
176
     1
  1
strokes_ogs.tif
176
     1
290
     0
176
     1
 40
1.0
176
     1
 40
1.0
176
     1
  0
VISUALSTYLE
  5
31
102
{ACAD_REACTORS
330
2A
102
}
330
2A
100
AcDbVisualStyle
  2
Hidden
 70
     6
177
     3
291
     0
 70
    58
 90
        1
176
     1
 90
        2
176
     1
 90
        2
176
     1
 90
        0
176
     1
 40
0.6
176
     1
 40
30.0
176
     1
 62
     7
420
 16777215
176
     1
 90
        2
176
     1
 90
        2
176
     1
 62
     7
176
     1
 62
   257
176
     1
 90
        2
176
     1
 90
        1
176
     1
 40
40.0
176
     1
 90
        0
176
     1
 62
   257
176
     1
 40
1.0
176
     1
 90
        1
176
     1
 90
        6
176
     1
 90
        2
176
     1
 62
     7
176
     1
 90
        3
176
     1
 90
        0
176
     1
 90
        0
176
     1
290
     0
176
     1
 90
        1
176
     1
 40
0.0
176
     1
 90
        0
176
     1
290
     0
176
     1
290
     1
176
     1
290
     1
176
     1
290
     0
176
     1
290
     0
176
     1
290
     0
176
     1
290
     0
176
     1
290
     0
176
     1
290
     0
176
     1
 90
       50
176
     1
 40
0.0
176
     1
 40
1.0
176
     1
 90
        0
176
     1
 62
    18
420
        0
176
     1
 90
       50
176
     1
 90
        3
176
     1
 62
     5
420
      255
176
     1
290
     0
176
     1
 90
       50
176
     1
 90
       50
176
     1
 90
       50
176
     1
290
     0
176
     1
 90
       50
176
     1
 62
   256
176
     0
 40
1.0
176
     0
 90
        2
176
     1
  1
strokes_ogs.tif
176
     1
290
     0
176
     1
 40
1.0
176
     1
 40
1.0
176
     1
  0
VISUALSTYLE
  5
3B
102
{ACAD_REACTORS
330
2A
102
}
330
2A
100
AcDbVisualStyle
  2
JitterOff
 70
    20
177
     3
291
     1
 70
    58
 90
        2
176
     0
 90
        2
176
     0
 90
        0
176
     0
 90
        0
176
     0
 40
0.6
176
     0
 40
30.0
176
     0
 62
     7
420
 16777215
176
     0
 90
        1
176
     0
 90
        4
176
     0
 62
     7
176
     0
 62
   257
176
     0
 90
        1
176
     0
 90
        1
176
     0
 40
1.0
176
     0
 90
       10
176
     2
 62
     7
176
     0
 40
1.0
176
     0
 90
        1
176
     0
 90
        6
176
     0
 90
        2
176
     0
 62
     7
176
     0
 90
        5
176
     0
 90
        0
176
     0
 90
        0
176
     0
290
     0
176
     0
 90
        1
176
     0
 40
0.0
176
     0
 90
        0
176
     0
290
     0
176
     0
290
     1
176
     0
290
     1
176
     0
290
     0
176
     0
290
     0
176
     0
290
     0
176
     0
290
     0
176
     0
290
     0
176
     0
290
     0
176
     0
 90
       50
176
     0
 40
0.0
176
     0
 40
1.0
176
     0
 90
        0
176
     0
 62
    18
420
        0
176
     0
 90
       50
176
     0
 90
        3
176
     0
 62
     5
420
      255
176
     0
290
     0
176
     0
 90
       50
176
     0
 90
       50
176
     0
 90
       50
176
     0
290
     0
176
     0
 90
       50
176
     0
 62
   256
176
     0
 40
1.0
176
     0
 90
        2
176
     0
  1
strokes_ogs.tif
176
     0
290
     0
176
     0
 40
1.0
176
     0
 40
1.0
176
     0
  0
VISUALSTYLE
  5
38
102
{ACAD_REACTORS
330
2A
102
}
330
2A
100
AcDbVisualStyle
  2
Linepattern
 70
    14
177
     3
291
     1
 70
    58
 90
        2
176
     1
 90
        2
176
     1
 90
        0
176
     1
 90
        0
176
     1
 40
0.6
176
     1
 40
30.0
176
     1
 62
     7
420
 16777215
176
     1
 90
        1
176
     1
 90
        4
176
     1
 62
     7
176
     1
 62
   257
176
     1
 90
        7
176
     1
 90
        7
176
     1
 40
1.0
176
     1
 90
        8
176
     1
 62
     7
176
     1
 40
1.0
176
     1
 90
        1
176
     1
 90
        6
176
     1
 90
        2
176
     1
 62
     7
176
     1
 90
        5
176
     1
 90
        0
176
     1
 90
        0
176
     1
290
     0
176
     1
 90
        1
176
     1
 40
0.0
176
     1
 90
        0
176
     1
290
     0
176
     1
290
     1
176
     1
290
     1
176
     1
290
     0
176
     1
290
     0
176
     1
290
     0
176
     1
290
     0
176
     1
290
     0
176
     1
290
     0
176
     1
 90
       50
176
     1
 40
0.0
176
     1
 40
1.0
176
     1
 90
        0
176
     1
 62
    18
420
        0
176
     1
 90
       50
176
     1
 90
        3
176
     1
 62
     5
420
      255
176
     1
290
     0
176
     1
 90
       50
176
     1
 90
       50
176
     1
 90
       50
176
     1
290
     0
176
     1
 90
       50
176
     1
 62
   256
176
     0
 40
1.0
176
     0
 90
        2
176
     1
  1
strokes_ogs.tif
176
     1
290
     0
176
     1
 40
1.0
176
     1
 40
1.0
176
     1
  0
VISUALSTYLE
  5
3C
102
{ACAD_REACTORS
330
2A
102
}
330
2A
100
AcDbVisualStyle
  2
OverhangOff
 70
    21
177
     3
291
     1
 70
    58
 90
        2
176
     0
 90
        2
176
     0
 90
        0
176
     0
 90
        0
176
     0
 40
0.6
176
     0
 40
30.0
176
     0
 62
     7
420
 16777215
176
     0
 90
        1
176
     0
 90
        4
176
     0
 62
     7
176
     0
 62
   257
176
     0
 90
        1
176
     0
 90
        1
176
     0
 40
1.0
176
     0
 90
        9
176
     2
 62
     7
176
     0
 40
1.0
176
     0
 90
        1
176
     0
 90
        6
176
     0
 90
        2
176
     0
 62
     7
176
     0
 90
        5
176
     0
 90
        0
176
     0
 90
        0
176
     0
290
     0
176
     0
 90
        1
176
     0
 40
0.0
176
     0
 90
        0
176
     0
290
     0
176
     0
290
     1
176
     0
290
     1
176
     0
290
     0
176
     0
290
     0
176
     0
290
     0
176
     0
290
     0
176
     0
290
     0
176
     0
290
     0
176
     0
 90
       50
176
     0
 40
0.0
176
     0
 40
1.0
176
     0
 90
        0
176
     0
 62
    18
420
        0
176
     0
 90
       50
176
     0
 90
        3
176
     0
 62
     5
420
      255
176
     0
290
     0
176
     0
 90
       50
176
     0
 90
       50
176
     0
 90
       50
176
     0
290
     0
176
     0
 90
       50
176
     0
 62
   256
176
     0
 40
1.0
176
     0
 90
        2
176
     0
  1
strokes_ogs.tif
176
     0
290
     0
176
     0
 40
1.0
176
     0
 40
1.0
176
     0
  0
VISUALSTYLE
  5
33
102
{ACAD_REACTORS
330
2A
102
}
330
2A
100
AcDbVisualStyle
  2
Realistic
 70
     8
177
     3
291
     0
 70
    58
 90
        2
176
     1
 90
        3
176
     1
 90
        0
176
     1
 90
        2
176
     1
 40
0.6
176
     1
 40
30.0
176
     1
 62
     7
420
 16777215
176
     1
 90
        0
176
     1
 90
        0
176
     1
 62
     7
176
     1
 62
   257
176
     1
 90
        1
176
     1
 90
        1
176
     1
 40
1.0
176
     1
 90
        8
176
     1
 62
   257
176
     1
 40
1.0
176
     1
 90
        1
176
     1
 90
        6
176
     1
 90
        2
176
     1
 62
     7
176
     1
 90
        3
176
     1
 90
        0
176
     1
 90
        0
176
     1
290
     0
176
     1
 90
       13
176
     1
 40
0.0
176
     1
 90
        0
176
     1
290
     0
176
     1
290
     1
176
     1
290
     1
176
     1
290
     0
176
     1
290
     0
176
     1
290
     0
176
     1
290
     0
176
     1
290
     0
176
     1
290
     0
176
     1
 90
       50
176
     1
 40
0.0
176
     1
 40
1.0
176
     1
 90
        0
176
     1
 62
    18
420
        0
176
     1
 90
       50
176
     1
 90
        3
176
     1
 62
     5
420
      255
176
     1
290
     0
176
     1
 90
       50
176
     1
 90
       50
176
     1
 90
       50
176
     1
290
     0
176
     1
 90
       50
176
     1
 62
   256
176
     0
 40
1.0
176
     0
 90
        2
176
     1
  1
strokes_ogs.tif
176
     1
290
     0
176
     1
 40
1.0
176
     1
 40
1.0
176
     1
  0
VISUALSTYLE
  5
42
102
{ACAD_REACTORS
330
2A
102
}
330
2A
100
AcDbVisualStyle
  2
Shaded
 70
    27
177
     3
291
     0
 70
    58
 90
        2
176
     1
 90
        2
176
     1
 90
        1
176
     1
 90
        2
176
     1
 40
0.6
176
     1
 40
30.0
176
     1
 62
     7
420
 16777215
176
     1
 90
        0
176
     1
 90
        4
176
     1
 62
     7
176
     1
 62
   257
176
     1
 90
        1
176
     1
 90
        1
176
     1
 40
1.0
176
     1
 90
        8
176
     1
 62
   257
176
     1
 40
1.0
176
     1
 90
        1
176
     1
 90
        6
176
     1
 90
        2
176
     1
 62
     8
420
  7895160
176
     1
 90
        3
176
     1
 90
        0
176
     1
 90
        0
176
     1
290
     0
176
     1
 90
        5
176
     1
 40
0.0
176
     1
 90
        0
176
     1
290
     0
176
     1
290
     1
176
     1
290
     1
176
     1
290
     0
176
     1
290
     0
176
     1
290
     0
176
     1
290
     0
176
     1
290
     0
176
     1
290
     0
176
     1
 90
       50
176
     1
 40
0.0
176
     1
 40
1.0
176
     1
 90
        0
176
     1
 62
    18
420
        0
176
     1
 90
       50
176
     1
 90
        3
176
     1
 62
     5
420
      255
176
     1
290
     0
176
     1
 90
       50
176
     1
 90
       50
176
     1
 90
       50
176
     1
290
     0
176
     1
 90
       50
176
     1
 62
   256
176
     0
 40
1.0
176
     0
 90
        2
176
     1
  1
strokes_ogs.tif
176
     1
290
     0
176
     1
 40
1.0
176
     1
 40
1.0
176
     1
  0
VISUALSTYLE
  5
41
102
{ACAD_REACTORS
330
2A
102
}
330
2A
100
AcDbVisualStyle
  2
Shaded with edges
 70
    26
177
     3
291
     0
 70
    58
 90
        2
176
     1
 90
        2
176
     1
 90
        1
176
     1
 90
        2
176
     1
 40
0.6
176
     1
 40
30.0
176
     1
 62
     7
420
 16777215
176
     1
 90
        1
176
     1
 90
       10
176
     1
 62
     7
176
     1
 62
   257
176
     1
 90
        2
176
     1
 90
        1
176
     1
 40
1.0
176
     1
 90
        8
176
     1
 62
   257
176
     1
 40
1.0
176
     1
 90
        1
176
     1
 90
        6
176
     1
 90
        2
176
     1
 62
     7
176
     1
 90
        3
176
     1
 90
        0
176
     1
 90
        0
176
     1
290
     0
176
     1
 90
        5
176
     1
 40
0.0
176
     1
 90
        0
176
     1
290
     0
176
     1
290
     1
176
     1
290
     1
176
     1
290
     0
176
     1
290
     0
176
     1
290
     0
176
     1
290
     0
176
     1
290
     0
176
     1
290
     0
176
     1
 90
       50
176
     1
 40
0.0
176
     1
 40
1.0
176
     1
 90
        0
176
     1
 62
    18
420
        0
176
     1
 90
       50
176
     1
 90
        3
176
     1
 62
     5
420
      255
176
     1
290
     0
176
     1
 90
       50
176
     1
 90
       50
176
     1
 90
       50
176
     1
290
     0
176
     1
 90
       50
176
     1
 62
   256
176
     0
 40
1.0
176
     0
 90
        2
176
     1
  1
strokes_ogs.tif
176
     1
290
     0
176
     1
 40
1.0
176
     1
 40
1.0
176
     1
  0
VISUALSTYLE
  5
3E
102
{ACAD_REACTORS
330
2A
102
}
330
2A
100
AcDbVisualStyle
  2
Shades of Gray
 70
    23
177
     3
291
     0
 70
    58
 90
        2
176
     1
 90
        2
176
     1
 90
        3
176
     1
 90
        0
176
     1
 40
0.6
176
     1
 40
30.0
176
     1
 62
     7
420
 16777215
176
     1
 90
        2
176
     1
 90
        2
176
     1
 62
     7
176
     1
 62
     7
176
     1
 90
        1
176
     1
 90
        1
176
     1
 40
40.0
176
     1
 90
        8
176
     1
 62
     7
176
     1
 40
1.0
176
     1
 90
        1
176
     1
 90
        6
176
     1
 90
        2
176
     1
 62
     7
176
     1
 90
        3
176
     1
 90
        0
176
     1
 90
        0
176
     1
290
     0
176
     1
 90
        1
176
     1
 40
0.0
176
     1
 90
        0
176
     1
290
     0
176
     1
290
     1
176
     1
290
     1
176
     1
290
     0
176
     1
290
     0
176
     1
290
     0
176
     1
290
     0
176
     1
290
     0
176
     1
290
     0
176
     1
 90
       50
176
     1
 40
0.0
176
     1
 40
1.0
176
     1
 90
        0
176
     1
 62
    18
420
        0
176
     1
 90
       50
176
     1
 90
        3
176
     1
 62
     5
420
      255
176
     1
290
     0
176
     1
 90
       50
176
     1
 90
       50
176
     1
 90
       50
176
     1
290
     0
176
     1
 90
       50
176
     1
 62
   256
176
     0
 40
1.0
176
     0
 90
        2
176
     1
  1
strokes_ogs.tif
176
     1
290
     0
176
     1
 40
1.0
176
     1
 40
1.0
176
     1
  0
VISUALSTYLE
  5
3F
102
{ACAD_REACTORS
330
2A
102
}
330
2A
100
AcDbVisualStyle
  2
Sketchy
 70
    24
177
     3
291
     0
 70
    58
 90
        1
176
     1
 90
        2
176
     1
 90
        2
176
     1
 90
        0
176
     1
 40
0.6
176
     1
 40
30.0
176
     1
 62
     7
420
 16777215
176
     1
 90
        2
176
     1
 90
        2
176
     1
 62
     7
176
     1
 62
     7
176
     1
 90
        1
176
     1
 90
        1
176
     1
 40
40.0
176
     1
 90
       11
176
     1
 62
     7
176
     1
 40
1.0
176
     1
 90
        1
176
     1
 90
        6
176
     1
 90
        2
176
     1
 62
     7
176
     1
 90
        6
176
     1
 90
        0
176
     1
 90
        0
176
     1
290
     0
176
     1
 90
        1
176
     1
 40
0.0
176
     1
 90
        0
176
     1
290
     0
176
     1
290
     1
176
     1
290
     1
176
     1
290
     0
176
     1
290
     0
176
     1
290
     0
176
     1
290
     0
176
     1
290
     0
176
     1
290
     0
176
     1
 90
       50
176
     1
 40
0.0
176
     1
 40
1.0
176
     1
 90
        0
176
     1
 62
    18
420
        0
176
     1
 90
       50
176
     1
 90
        3
176
     1
 62
     5
420
      255
176
     1
290
     0
176
     1
 90
       50
176
     1
 90
       50
176
     1
 90
       50
176
     1
290
     0
176
     1
 90
       50
176
     1
 62
   256
176
     0
 40
1.0
176
     0
 90
        2
176
     1
  1
strokes_ogs.tif
176
     1
290
     0
176
     1
 40
1.0
176
     1
 40
1.0
176
     1
  0
VISUALSTYLE
  5
37
102
{ACAD_REACTORS
330
2A
102
}
330
2A
100
AcDbVisualStyle
  2
Thicken
 70
    13
177
     3
291
     1
 70
    58
 90
        2
176
     1
 90
        2
176
     1
 90
        0
176
     1
 90
        0
176
     1
 40
0.6
176
     1
 40
30.0
176
     1
 62
     7
420
 16777215
176
     1
 90
        1
176
     1
 90
        4
176
     1
 62
     7
176
     1
 62
   257
176
     1
 90
        1
176
     1
 90
        1
176
     1
 40
1.0
176
     1
 90
       12
176
     1
 62
     7
176
     1
 40
1.0
176
     1
 90
        1
176
     1
 90
        6
176
     1
 90
        2
176
     1
 62
     7
176
     1
 90
        5
176
     1
 90
        0
176
     1
 90
        0
176
     1
290
     0
176
     1
 90
        1
176
     1
 40
0.0
176
     1
 90
        0
176
     1
290
     0
176
     1
290
     1
176
     1
290
     1
176
     1
290
     0
176
     1
290
     0
176
     1
290
     0
176
     1
290
     0
176
     1
290
     0
176
     1
290
     0
176
     1
 90
       50
176
     1
 40
0.0
176
     1
 40
1.0
176
     1
 90
        0
176
     1
 62
    18
420
        0
176
     1
 90
       50
176
     1
 90
        3
176
     1
 62
     5
420
      255
176
     1
290
     0
176
     1
 90
       50
176
     1
 90
       50
176
     1
 90
       50
176
     1
290
     0
176
     1
 90
       50
176
     1
 62
   256
176
     0
 40
1.0
176
     0
 90
        2
176
     1
  1
strokes_ogs.tif
176
     1
290
     0
176
     1
 40
1.0
176
     1
 40
1.0
176
     1
  0
VISUALSTYLE
  5
30
102
{ACAD_REACTORS
330
2A
102
}
330
2A
100
AcDbVisualStyle
  2
Wireframe
 70
     5
177
     3
291
     0
 70
    58
 90
        0
176
     1
 90
        2
176
     1
 90
        0
176
     1
 90
        0
176
     1
 40
0.6
176
     1
 40
30.0
176
     1
 62
     7
420
 16777215
176
     1
 90
        1
176
     1
 90
        4
176
     1
 62
     7
176
     1
 62
   257
176
     1
 90
        1
176
     1
 90
        1
176
     1
 40
1.0
176
     1
 90
        0
176
     1
 62
   257
176
     1
 40
1.0
176
     1
 90
        1
176
     1
 90
        6
176
     1
 90
        2
176
     1
 62
     7
176
     1
 90
        3
176
     1
 90
        0
176
     1
 90
        0
176
     1
290
     0
176
     1
 90
        1
176
     1
 40
0.0
176
     1
 90
        0
176
     1
290
     0
176
     1
290
     1
176
     1
290
     1
176
     1
290
     0
176
     1
290
     0
176
     1
290
     0
176
     1
290
     0
176
     1
290
     0
176
     1
290
     0
176
     1
 90
       50
176
     1
 40
0.0
176
     1
 40
1.0
176
     1
 90
        0
176
     1
 62
    18
420
        0
176
     1
 90
       50
176
     1
 90
        3
176
     1
 62
     5
420
      255
176
     1
290
     0
176
     1
 90
       50
176
     1
 90
       50
176
     1
 90
       50
176
     1
290
     0
176
     1
 90
       50
176
     1
 62
   256
176
     0
 40
1.0
176
     0
 90
        2
176
     1
  1
strokes_ogs.tif
176
     1
290
     0
176
     1
 40
1.0
176
     1
 40
1.0
176
     1
  0
VISUALSTYLE
  5
40
102
{ACAD_REACTORS
330
2A
102
}
330
2A
100
AcDbVisualStyle
  2
X-Ray
 70
    25
177
     3
291
     0
 70
    58
 90
        2
176
     1
 90
        2
176
     1
 90
        1
176
     1
 90
        1
176
     1
 40
0.5
176
     1
 40
30.0
176
     1
 62
     7
420
 16777215
176
     1
 90
        1
176
     1
 90
        0
176
     1
 62
     7
176
     1
 62
   257
176
     1
 90
        1
176
     1
 90
        1
176
     1
 40
1.0
176
     1
 90
        8
176
     1
 62
     7
176
     1
 40
1.0
176
     1
 90
        1
176
     1
 90
        6
176
     1
 90
        2
176
     1
 62
     7
176
     1
 90
        3
176
     1
 90
        0
176
     1
 90
        0
176
     1
290
     0
176
     1
 90
       13
176
     1
 40
0.0
176
     1
 90
        0
176
     1
290
     0
176
     1
290
     1
176
     1
290
     1
176
     1
290
     0
176
     1
290
     0
176
     1
290
     0
176
     1
290
     0
176
     1
290
     0
176
     1
290
     0
176
     1
 90
       50
176
     1
 40
0.0
176
     1
 40
1.0
176
     1
 90
        0
176
     1
 62
    18
420
        0
176
     1
 90
       50
176
     1
 90
        3
176
     1
 62
     5
420
      255
176
     1
290
     0
176
     1
 90
       50
176
     1
 90
       50
176
     1
 90
       50
176
     1
290
     0
176
     1
 90
       50
176
     1
 62
   256
176
     0
 40
1.0
176
     0
 90
        2
176
     1
  1
strokes_ogs.tif
176
     1
290
     0
176
     1
 40
1.0
176
     1
 40
1.0
176
     1
  0
DICTIONARYVAR
  5
1F6
102
{ACAD_REACTORS
330
1F5
102
}
330
1F5
100
DictionaryVariables
280
     0
  1
1:1
  0
DICTIONARYVAR
  5
1FB
102
{ACAD_REACTORS
330
1F5
102
}
330
1F5
100
DictionaryVariables
280
     0
  1
Standard
  0
DICTIONARYVAR
  5
1FA
102
{ACAD_REACTORS
330
1F5
102
}
330
1F5
100
DictionaryVariables
280
     0
  1
Standard
  0
DICTIONARY
  5
1F7
330
6A
100
AcDbDictionary
280
     1
281
     1
  3
ACAD_ROUNDTRIP_2008_TABLESTYLE_CELLSTYLEMAP
360
1F8
  0
CELLSTYLEMAP
  5
1F8
102
{ACAD_REACTORS
330
1F7
102
}
330
1F7
100
AcDbCellStyleMap
 90
        3
300
CELLSTYLE
  1
TABLEFORMAT_BEGIN
 90
        5
170
     1
 91
        0
 92
    32768
 62
   257
 93
        1
300
CONTENTFORMAT
  1
CONTENTFORMAT_BEGIN
 90
        0
 91
        0
 92
        4
 93
        0
300

 40
0.0
140
1.0
 94
        5
 62
     0
340
11
144
0.25
309
CONTENTFORMAT_END
171
     1
301
MARGIN
  1
CELLMARGIN_BEGIN
 40
0.06
 40
0.06
 40
0.06
 40
0.06
 40
0.06
 40
0.06
309
CELLMARGIN_END
 94
        6
 95
        1
302
GRIDFORMAT
  1
GRIDFORMAT_BEGIN
 90
        0
 91
        1
 62
     0
 92
       -2
340
14
 93
        0
 40
0.045
309
GRIDFORMAT_END
 95
        2
302
GRIDFORMAT
  1
GRIDFORMAT_BEGIN
 90
        0
 91
        1
 62
     0
 92
       -2
340
14
 93
        0
 40
0.045
309
GRIDFORMAT_END
 95
        4
302
GRIDFORMAT
  1
GRIDFORMAT_BEGIN
 90
        0
 91
        1
 62
     0
 92
       -2
340
14
 93
        0
 40
0.045
309
GRIDFORMAT_END
 95
        8
302
GRIDFORMAT
  1
GRIDFORMAT_BEGIN
 90
        0
 91
        1
 62
     0
 92
       -2
340
14
 93
        0
 40
0.045
309
GRIDFORMAT_END
 95
       16
302
GRIDFORMAT
  1
GRIDFORMAT_BEGIN
 90
        0
 91
        1
 62
     0
 92
       -2
340
14
 93
        0
 40
0.045
309
GRIDFORMAT_END
 95
       32
302
GRIDFORMAT
  1
GRIDFORMAT_BEGIN
 90
        0
 91
        1
 62
     0
 92
       -2
340
14
 93
        0
 40
0.045
309
GRIDFORMAT_END
309
TABLEFORMAT_END
  1
CELLSTYLE_BEGIN
 90
        1
 91
        1
300
_TITLE
309
CELLSTYLE_END
300
CELLSTYLE
  1
TABLEFORMAT_BEGIN
 90
        5
170
     1
 91
        0
 92
        0
 62
   257
 93
        1
300
CONTENTFORMAT
  1
CONTENTFORMAT_BEGIN
 90
        0
 91
        0
 92
        4
 93
        0
300

 40
0.0
140
1.0
 94
        5
 62
     0
340
11
144
0.18
309
CONTENTFORMAT_END
171
     1
301
MARGIN
  1
CELLMARGIN_BEGIN
 40
0.06
 40
0.06
 40
0.06
 40
0.06
 40
0.06
 40
0.06
309
CELLMARGIN_END
 94
        6
 95
        1
302
GRIDFORMAT
  1
GRIDFORMAT_BEGIN
 90
        0
 91
        1
 62
     0
 92
       -2
340
14
 93
        0
 40
0.045
309
GRIDFORMAT_END
 95
        2
302
GRIDFORMAT
  1
GRIDFORMAT_BEGIN
 90
        0
 91
        1
 62
     0
 92
       -2
340
14
 93
        0
 40
0.045
309
GRIDFORMAT_END
 95
        4
302
GRIDFORMAT
  1
GRIDFORMAT_BEGIN
 90
        0
 91
        1
 62
     0
 92
       -2
340
14
 93
        0
 40
0.045
309
GRIDFORMAT_END
 95
        8
302
GRIDFORMAT
  1
GRIDFORMAT_BEGIN
 90
        0
 91
        1
 62
     0
 92
       -2
340
14
 93
        0
 40
0.045
309
GRIDFORMAT_END
 95
       16
302
GRIDFORMAT
  1
GRIDFORMAT_BEGIN
 90
        0
 91
        1
 62
     0
 92
       -2
340
14
 93
        0
 40
0.045
309
GRIDFORMAT_END
 95
       32
302
GRIDFORMAT
  1
GRIDFORMAT_BEGIN
 90
        0
 91
        1
 62
     0
 92
       -2
340
14
 93
        0
 40
0.045
309
GRIDFORMAT_END
309
TABLEFORMAT_END
  1
CELLSTYLE_BEGIN
 90
        2
 91
        1
300
_HEADER
309
CELLSTYLE_END
300
CELLSTYLE
  1
TABLEFORMAT_BEGIN
 90
        5
170
     1
 91
        0
 92
        0
 62
   257
 93
        1
300
CONTENTFORMAT
  1
CONTENTFORMAT_BEGIN
 90
        0
 91
        0
 92
        4
 93
        0
300

 40
0.0
140
1.0
 94
        2
 62
     0
340
11
144
0.18
309
CONTENTFORMAT_END
171
     1
301
MARGIN
  1
CELLMARGIN_BEGIN
 40
0.06
 40
0.06
 40
0.06
 40
0.06
 40
0.06
 40
0.06
309
CELLMARGIN_END
 94
        6
 95
        1
302
GRIDFORMAT
  1
GRIDFORMAT_BEGIN
 90
        0
 91
        1
 62
     0
 92
       -2
340
14
 93
        0
 40
0.045
309
GRIDFORMAT_END
 95
        2
302
GRIDFORMAT
  1
GRIDFORMAT_BEGIN
 90
        0
 91
        1
 62
     0
 92
       -2
340
14
 93
        0
 40
0.045
309
GRIDFORMAT_END
 95
        4
302
GRIDFORMAT
  1
GRIDFORMAT_BEGIN
 90
        0
 91
        1
 62
     0
 92
       -2
340
14
 93
        0
 40
0.045
309
GRIDFORMAT_END
 95
        8
302
GRIDFORMAT
  1
GRIDFORMAT_BEGIN
 90
        0
 91
        1
 62
     0
 92
       -2
340
14
 93
        0
 40
0.045
309
GRIDFORMAT_END
 95
       16
302
GRIDFORMAT
  1
GRIDFORMAT_BEGIN
 90
        0
 91
        1
 62
     0
 92
       -2
340
14
 93
        0
 40
0.045
309
GRIDFORMAT_END
 95
       32
302
GRIDFORMAT
  1
GRIDFORMAT_BEGIN
 90
        0
 91
        1
 62
     0
 92
       -2
340
14
 93
        0
 40
0.045
309
GRIDFORMAT_END
309
TABLEFORMAT_END
  1
CELLSTYLE_BEGIN
 90
        3
 91
        2
300
_DATA
309
CELLSTYLE_END
  0
ENDSEC
  0
EOF