0
SECTION
  2
HEADER
  9
$ACADVER
  1
AC1027
  9
$ACADMAINTVER
 70
     8
  9
$DWGCODEPAGE
  3
ANSI_1252
  9
$REQUIREDVERSIONS
160
                 0
  9
$COMMENTS
  1
File was created by Cadenas
  9
$CUSTOMPROPERTYTAG
  1
NN
  9
$CUSTOMPROPERTY
  1
Eccentric Collar Wide Slot Take Up Inch Bore
  9
$CUSTOMPROPERTYTAG
  1
NT
  9
$CUSTOMPROPERTY
  1
SXR Normal Duty Wide Slot Take-Up Bearings
  9
$CUSTOMPROPERTYTAG
  1
NB
  9
$CUSTOMPROPERTY
  1
131220
  9
$CUSTOMPROPERTYTAG
  1
NBSYN
  9
$CUSTOMPROPERTY
  1
$PN.
  9
$CUSTOMPROPERTYTAG
  1
LINA
  9
$CUSTOMPROPERTY
  1
131220
  9
$CUSTOMPROPERTYTAG
  1
SERIES
  9
$CUSTOMPROPERTY
  1
209
  9
$CUSTOMPROPERTYTAG
  1
SS
  9
$CUSTOMPROPERTY
  1
1-5/8
  9
$CUSTOMPROPERTYTAG
  1
PN
  9
$CUSTOMPROPERTY
  1
131220
  9
$CUSTOMPROPERTYTAG
  1
DESCRIPTION
  9
$CUSTOMPROPERTY
  1
WSTU-SXR-110
  9
$CUSTOMPROPERTYTAG
  1
LF
  9
$CUSTOMPROPERTY
  1
RE-LUBE
  9
$CUSTOMPROPERTYTAG
  1
W
  9
$CUSTOMPROPERTY
  1
6.5
  9
$CUSTOMPROPERTYTAG
  1
FS
  9
$CUSTOMPROPERTY
  1
WS400
  9
$CUSTOMPROPERTYTAG
  1
A
  9
$CUSTOMPROPERTY
  1
2.13
  9
$CUSTOMPROPERTYTAG
  1
B
  9
$CUSTOMPROPERTY
  1
5.63
  9
$CUSTOMPROPERTYTAG
  1
C
  9
$CUSTOMPROPERTY
  1
0.688
  9
$CUSTOMPROPERTYTAG
  1
D
  9
$CUSTOMPROPERTY
  1
3.25
  9
$CUSTOMPROPERTYTAG
  1
E
  9
$CUSTOMPROPERTY
  1
3.44
  9
$CUSTOMPROPERTYTAG
  1
F
  9
$CUSTOMPROPERTY
  1
1
  9
$CUSTOMPROPERTYTAG
  1
G
  9
$CUSTOMPROPERTY
  1
0.63
  9
$CUSTOMPROPERTYTAG
  1
H
  9
$CUSTOMPROPERTY
  1
0.75
  9
$CUSTOMPROPERTYTAG
  1
J
  9
$CUSTOMPROPERTY
  1
3.25
  9
$CUSTOMPROPERTYTAG
  1
K
  9
$CUSTOMPROPERTY
  1
1.94
  9
$CUSTOMPROPERTYTAG
  1
L
  9
$CUSTOMPROPERTY
  1
2.50
  9
$CUSTOMPROPERTYTAG
  1
M
  9
$CUSTOMPROPERTY
  1
3.985/4.015
  9
$CUSTOMPROPERTYTAG
  1
N
  9
$CUSTOMPROPERTY
  1
4.75
  9
$CUSTOMPROPERTYTAG
  1
R
  9
$CUSTOMPROPERTY
  1
0.75
  9
$CUSTOMPROPERTYTAG
  1
S
  9
$CUSTOMPROPERTY
  1
1.38
  9
$CUSTOMPROPERTYTAG
  1
T
  9
$CUSTOMPROPERTY
  1
1.94
  9
$CUSTOMPROPERTYTAG
  1
COMPANY
  9
$CUSTOMPROPERTY
  1
baldor
  9
$INSBASE
 10
0.0
 20
0.0
 30
0.0
  9
$EXTMIN
 10
1.000000000000000E+20
 20
1.000000000000000E+20
 30
1.000000000000000E+20
  9
$EXTMAX
 10
-1.000000000000000E+20
 20
-1.000000000000000E+20
 30
-1.000000000000000E+20
  9
$LIMMIN
 10
0.0
 20
0.0
  9
$LIMMAX
 10
12.0
 20
9.0
  9
$ORTHOMODE
 70
     0
  9
$REGENMODE
 70
     1
  9
$FILLMODE
 70
     1
  9
$QTEXTMODE
 70
     0
  9
$MIRRTEXT
 70
     1
  9
$LTSCALE
 40
1.0
  9
$ATTMODE
 70
     1
  9
$TEXTSIZE
 40
0.2
  9
$TRACEWID
 40
0.05
  9
$TEXTSTYLE
  7
Standard
  9
$CLAYER
  8
0
  9
$CELTYPE
  6
ByLayer
  9
$CECOLOR
 62
   256
  9
$CELTSCALE
 40
1.0
  9
$DISPSILH
 70
     0
  9
$DIMSCALE
 40
1.0
  9
$DIMASZ
 40
0.18
  9
$DIMEXO
 40
0.0625
  9
$DIMDLI
 40
0.38
  9
$DIMRND
 40
0.0
  9
$DIMDLE
 40
0.0
  9
$DIMEXE
 40
0.18
  9
$DIMTP
 40
0.0
  9
$DIMTM
 40
0.0
  9
$DIMTXT
 40
0.18
  9
$DIMCEN
 40
0.09
  9
$DIMTSZ
 40
0.0
  9
$DIMTOL
 70
     0
  9
$DIMLIM
 70
     0
  9
$DIMTIH
 70
     1
  9
$DIMTOH
 70
     1
  9
$DIMSE1
 70
     0
  9
$DIMSE2
 70
     0
  9
$DIMTAD
 70
     0
  9
$DIMZIN
 70
     0
  9
$DIMBLK
  1

  9
$DIMASO
 70
     1
  9
$DIMSHO
 70
     1
  9
$DIMPOST
  1

  9
$DIMAPOST
  1

  9
$DIMALT
 70
     0
  9
$DIMALTD
 70
     2
  9
$DIMALTF
 40
25.4
  9
$DIMLFAC
 40
1.0
  9
$DIMTOFL
 70
     0
  9
$DIMTVP
 40
0.0
  9
$DIMTIX
 70
     0
  9
$DIMSOXD
 70
     0
  9
$DIMSAH
 70
     0
  9
$DIMBLK1
  1

  9
$DIMBLK2
  1

  9
$DIMSTYLE
  2
Standard
  9
$DIMCLRD
 70
     0
  9
$DIMCLRE
 70
     0
  9
$DIMCLRT
 70
     0
  9
$DIMTFAC
 40
1.0
  9
$DIMGAP
 40
0.09
  9
$DIMJUST
 70
     0
  9
$DIMSD1
 70
     0
  9
$DIMSD2
 70
     0
  9
$DIMTOLJ
 70
     1
  9
$DIMTZIN
 70
     0
  9
$DIMALTZ
 70
     0
  9
$DIMALTTZ
 70
     0
  9
$DIMUPT
 70
     0
  9
$DIMDEC
 70
     4
  9
$DIMTDEC
 70
     4
  9
$DIMALTU
 70
     2
  9
$DIMALTTD
 70
     2
  9
$DIMTXSTY
  7
Standard
  9
$DIMAUNIT
 70
     0
  9
$DIMADEC
 70
     0
  9
$DIMALTRND
 40
0.0
  9
$DIMAZIN
 70
     0
  9
$DIMDSEP
 70
    46
  9
$DIMATFIT
 70
     3
  9
$DIMFRAC
 70
     0
  9
$DIMLDRBLK
  1

  9
$DIMLUNIT
 70
     2
  9
$DIMLWD
 70
    -2
  9
$DIMLWE
 70
    -2
  9
$DIMTMOVE
 70
     0
  9
$DIMFXL
 40
1.0
  9
$DIMFXLON
 70
     0
  9
$DIMJOGANG
 40
0.7853981633974483
  9
$DIMTFILL
 70
     0
  9
$DIMTFILLCLR
 70
     0
  9
$DIMARCSYM
 70
     0
  9
$DIMLTYPE
  6

  9
$DIMLTEX1
  6

  9
$DIMLTEX2
  6

  9
$DIMTXTDIRECTION
 70
     0
  9
$LUNITS
 70
     2
  9
$LUPREC
 70
     4
  9
$SKETCHINC
 40
0.1
  9
$FILLETRAD
 40
0.5
  9
$AUNITS
 70
     0
  9
$AUPREC
 70
     0
  9
$MENU
  1
.
  9
$ELEVATION
 40
0.0
  9
$PELEVATION
 40
0.0
  9
$THICKNESS
 40
0.0
  9
$LIMCHECK
 70
     0
  9
$CHAMFERA
 40
0.0
  9
$CHAMFERB
 40
0.0
  9
$CHAMFERC
 40
0.0
  9
$CHAMFERD
 40
0.0
  9
$SKPOLY
 70
     0
  9
$TDCREATE
 40
2458168.959904873
  9
$TDUCREATE
 40
2458168.918238206
  9
$TDUPDATE
 40
2458168.959905047
  9
$TDUUPDATE
 40
2458168.91823838
  9
$TDINDWG
 40
0.0000000116
  9
$TDUSRTIMER
 40
0.0000000116
  9
$USRTIMER
 70
     1
  9
$ANGBASE
 50
0.0
  9
$ANGDIR
 70
     0
  9
$PDMODE
 70
     0
  9
$PDSIZE
 40
0.0
  9
$PLINEWID
 40
0.0
  9
$SPLFRAME
 70
     0
  9
$SPLINETYPE
 70
     6
  9
$SPLINESEGS
 70
     8
  9
$HANDSEED
  5
1FC
  9
$SURFTAB1
 70
     6
  9
$SURFTAB2
 70
     6
  9
$SURFTYPE
 70
     6
  9
$SURFU
 70
     6
  9
$SURFV
 70
     6
  9
$UCSBASE
  2

  9
$UCSNAME
  2

  9
$UCSORG
 10
0.0
 20
0.0
 30
0.0
  9
$UCSXDIR
 10
1.0
 20
0.0
 30
0.0
  9
$UCSYDIR
 10
0.0
 20
1.0
 30
0.0
  9
$UCSORTHOREF
  2

  9
$UCSORTHOVIEW
 70
     0
  9
$UCSORGTOP
 10
0.0
 20
0.0
 30
0.0
  9
$UCSORGBOTTOM
 10
0.0
 20
0.0
 30
0.0
  9
$UCSORGLEFT
 10
0.0
 20
0.0
 30
0.0
  9
$UCSORGRIGHT
 10
0.0
 20
0.0
 30
0.0
  9
$UCSORGFRONT
 10
0.0
 20
0.0
 30
0.0
  9
$UCSORGBACK
 10
0.0
 20
0.0
 30
0.0
  9
$PUCSBASE
  2

  9
$PUCSNAME
  2

  9
$PUCSORG
 10
0.0
 20
0.0
 30
0.0
  9
$PUCSXDIR
 10
1.0
 20
0.0
 30
0.0
  9
$PUCSYDIR
 10
0.0
 20
1.0
 30
0.0
  9
$PUCSORTHOREF
  2

  9
$PUCSORTHOVIEW
 70
     0
  9
$PUCSORGTOP
 10
0.0
 20
0.0
 30
0.0
  9
$PUCSORGBOTTOM
 10
0.0
 20
0.0
 30
0.0
  9
$PUCSORGLEFT
 10
0.0
 20
0.0
 30
0.0
  9
$PUCSORGRIGHT
 10
0.0
 20
0.0
 30
0.0
  9
$PUCSORGFRONT
 10
0.0
 20
0.0
 30
0.0
  9
$PUCSORGBACK
 10
0.0
 20
0.0
 30
0.0
  9
$USERI1
 70
     0
  9
$USERI2
 70
     0
  9
$USERI3
 70
     0
  9
$USERI4
 70
     0
  9
$USERI5
 70
     0
  9
$USERR1
 40
0.0
  9
$USERR2
 40
0.0
  9
$USERR3
 40
0.0
  9
$USERR4
 40
0.0
  9
$USERR5
 40
0.0
  9
$WORLDVIEW
 70
     1
  9
$SHADEDGE
 70
     3
  9
$SHADEDIF
 70
    70
  9
$TILEMODE
 70
     1
  9
$MAXACTVP
 70
    64
  9
$PINSBASE
 10
0.0
 20
0.0
 30
0.0
  9
$PLIMCHECK
 70
     0
  9
$PEXTMIN
 10
1.000000000000000E+20
 20
1.000000000000000E+20
 30
1.000000000000000E+20
  9
$PEXTMAX
 10
-1.000000000000000E+20
 20
-1.000000000000000E+20
 30
-1.000000000000000E+20
  9
$PLIMMIN
 10
0.0
 20
0.0
  9
$PLIMMAX
 10
12.0
 20
9.0
  9
$UNITMODE
 70
     0
  9
$VISRETAIN
 70
     1
  9
$PLINEGEN
 70
     0
  9
$PSLTSCALE
 70
     1
  9
$TREEDEPTH
 70
  3020
  9
$CMLSTYLE
  2
Standard
  9
$CMLJUST
 70
     0
  9
$CMLSCALE
 40
1.0
  9
$PROXYGRAPHICS
 70
     1
  9
$MEASUREMENT
 70
     0
  9
$CELWEIGHT
370
    -1
  9
$ENDCAPS
280
     0
  9
$JOINSTYLE
280
     0
  9
$LWDISPLAY
290
     0
  9
$INSUNITS
 70
     1
  9
$HYPERLINKBASE
  1

  9
$STYLESHEET
  1

  9
$XEDIT
290
     1
  9
$CEPSNTYPE
380
     0
  9
$PSTYLEMODE
290
     1
  9
$FINGERPRINTGUID
  2
{FE05F1C6-737D-4F91-AC26-B689D949A899}
  9
$VERSIONGUID
  2
{FAEB1C32-E019-11D5-929B-00C0DF256EC4}
  9
$EXTNAMES
290
     1
  9
$PSVPSCALE
 40
0.0
  9
$OLESTARTUP
290
     0
  9
$SORTENTS
280
   127
  9
$INDEXCTL
280
     0
  9
$HIDETEXT
280
     1
  9
$XCLIPFRAME
280
     2
  9
$HALOGAP
280
     0
  9
$OBSCOLOR
 70
   257
  9
$OBSLTYPE
280
     0
  9
$INTERSECTIONDISPLAY
280
     0
  9
$INTERSECTIONCOLOR
 70
   257
  9
$DIMASSOC
280
     2
  9
$PROJECTNAME
  1

  9
$CAMERADISPLAY
290
     0
  9
$LENSLENGTH
 40
50.0
  9
$CAMERAHEIGHT
 40
0.0
  9
$STEPSPERSEC
 40
2.0
  9
$STEPSIZE
 40
6.0
  9
$3DDWFPREC
 40
2.0
  9
$PSOLWIDTH
 40
0.25
  9
$PSOLHEIGHT
 40
4.0
  9
$LOFTANG1
 40
1.570796326794897
  9
$LOFTANG2
 40
1.570796326794897
  9
$LOFTMAG1
 40
0.0
  9
$LOFTMAG2
 40
0.0
  9
$LOFTPARAM
 70
     7
  9
$LOFTNORMALS
280
     1
  9
$LATITUDE
 40
37.795
  9
$LONGITUDE
 40
-122.394
  9
$NORTHDIRECTION
 40
0.0
  9
$TIMEZONE
 70
 -8000
  9
$LIGHTGLYPHDISPLAY
280
     1
  9
$TILEMODELIGHTSYNCH
280
     1
  9
$CMATERIAL
347
44
  9
$SOLIDHIST
280
     0
  9
$SHOWHIST
280
     1
  9
$DWFFRAME
280
     2
  9
$DGNFRAME
280
     2
  9
$REALWORLDSCALE
290
     1
  9
$INTERFERECOLOR
 62
   256
  9
$CSHADOW
280
     0
  9
$SHADOWPLANELOCATION
 40
0.0
  0
ENDSEC
  0
SECTION
  2
CLASSES
  0
CLASS
  1
ACDBDICTIONARYWDFLT
  2
AcDbDictionaryWithDefault
  3
ObjectDBX Classes
 90
        0
 91
        4
280
     0
281
     0
  0
CLASS
  1
VISUALSTYLE
  2
AcDbVisualStyle
  3
ObjectDBX Classes
 90
     4095
 91
        4
280
     0
281
     0
  0
CLASS
  1
MATERIAL
  2
AcDbMaterial
  3
ObjectDBX Classes
 90
     1153
 91
        4
280
     0
281
     0
  0
CLASS
  1
SCALE
  2
AcDbScale
  3
ObjectDBX Classes
 90
     1153
 91
        4
280
     0
281
     0
  0
CLASS
  1
TABLESTYLE
  2
AcDbTableStyle
  3
ObjectDBX Classes
 90
     4095
 91
        4
280
     0
281
     0
  0
CLASS
  1
MLEADERSTYLE
  2
AcDbMLeaderStyle
  3
ACDB_MLEADERSTYLE_CLASS
 90
     4095
 91
        4
280
     0
281
     0
  0
CLASS
  1
SUN
  2
AcDbSun
  3
SCENEOE
 90
     1153
 91
        4
280
     0
281
     0
  0
CLASS
  1
DICTIONARYVAR
  2
AcDbDictionaryVar
  3
ObjectDBX Classes
 90
        0
 91
        4
280
     0
281
     0
  0
CLASS
  1
CELLSTYLEMAP
  2
AcDbCellStyleMap
  3
ObjectDBX Classes
 90
     1152
 91
        4
280
     0
281
     0
  0
ENDSEC
  0
SECTION
  2
TABLES
  0
TABLE
  2
VPORT
  5
8
330
0
100
AcDbSymbolTable
 70
     1
  0
VPORT
  5
29
330
8
100
AcDbSymbolTableRecord
100
AcDbViewportTableRecord
  2
*Active
 70
     0
 10
0.0
 20
0.0
 11
1.0
 21
1.0
 12
0.4633694031053643
 22
-0.2582500000000003
 13
0.0
 23
0.0
 14
0.5
 24
0.5
 15
0.5
 25
0.5
 16
0.0
 26
0.0
 36
1.0
 17
0.0
 27
0.0
 37
0.0
 40
2.50563
 41
2.449119150738559
 42
50.0
 43
0.0
 44
0.0
 50
0.0
 51
0.0
 71
     0
 72
   100
 73
     1
 74
     3
 75
     0
 76
     0
 77
     0
 78
     0
281
     0
 65
     1
110
0.0
120
0.0
130
0.0
111
1.0
121
0.0
131
0.0
112
0.0
122
1.0
132
0.0
 79
     0
146
0.0
348
2F
 60
     3
 61
     5
292
     1
282
     1
141
0.0
142
0.0
 63
   250
361
6D
  0
ENDTAB
  0
TABLE
  2
LTYPE
  5
5
330
0
100
AcDbSymbolTable
 70
     3
  0
LTYPE
  5
14
330
5
100
AcDbSymbolTableRecord
100
AcDbLinetypeTableRecord
  2
ByBlock
 70
     0
  3

 72
    65
 73
     0
 40
0.0
  0
LTYPE
  5
15
330
5
100
AcDbSymbolTableRecord
100
AcDbLinetypeTableRecord
  2
ByLayer
 70
     0
  3

 72
    65
 73
     0
 40
0.0
  0
LTYPE
  5
16
330
5
100
AcDbSymbolTableRecord
100
AcDbLinetypeTableRecord
  2
Continuous
 70
     0
  3
Solid line
 72
    65
 73
     0
 40
0.0
  0
LTYPE
  5
A8
330
5
100
AcDbSymbolTableRecord
100
AcDbLinetypeTableRecord
  2
Dashed
 70
     0
  3

 72
    65
 73
     2
 40
2.0
 49
1.0
 74
     0
 49
-1.0
 74
     0
  0
LTYPE
  5
D3
330
5
100
AcDbSymbolTableRecord
100
AcDbLinetypeTableRecord
  2
Center
 70
     0
  3

 72
    65
 73
     4
 40
1.5
 49
0.45
 74
     0
 49
-0.5
 74
     0
 49
0.05
 74
     0
 49
-0.5
 74
     0
  0
ENDTAB
  0
TABLE
  2
LAYER
  5
2
330
0
100
AcDbSymbolTable
 70
     7
  0
LAYER
  5
10
330
2
100
AcDbSymbolTableRecord
100
AcDbLayerTableRecord
  2
0
 70
     0
 62
     7
  6
Continuous
370
    -3
390
F
347
46
348
0
  0
LAYER
  5
72
330
2
100
AcDbSymbolTableRecord
100
AcDbLayerTableRecord
  2
AM_6
 70
     0
 62
    -2
  6
Continuous
370
    35
390
F
347
46
348
0
  0
LAYER
  5
A9
330
2
100
AcDbSymbolTableRecord
100
AcDbLayerTableRecord
  2
AM_9
 70
     0
 62
     6
  6
Dashed
370
    25
390
F
347
46
348
0
  0
LAYER
  5
D4
330
2
100
AcDbSymbolTableRecord
100
AcDbLayerTableRecord
  2
AM_7
 70
     0
 62
     7
  6
Center
370
    25
390
F
347
46
348
0
  0
LAYER
  5
D7
330
2
100
AcDbSymbolTableRecord
100
AcDbLayerTableRecord
  2
AM_4
 70
     0
 62
     7
  6
Continuous
370
    50
390
F
347
46
348
0
  0
LAYER
  5
F6
330
2
100
AcDbSymbolTableRecord
100
AcDbLayerTableRecord
  2
AM_5
 70
     0
 62
     3
  6
Continuous
370
    25
390
F
347
46
348
0
  0
LAYER
  5
1EF
330
2
100
AcDbSymbolTableRecord
100
AcDbLayerTableRecord
  2
ConnectionPoints
 70
     0
 62
     7
  6
Continuous
370
    50
390
F
347
46
348
0
  0
ENDTAB
  0
TABLE
  2
STYLE
  5
3
330
0
100
AcDbSymbolTable
 70
     1
  0
STYLE
  5
11
330
3
100
AcDbSymbolTableRecord
100
AcDbTextStyleTableRecord
  2
Standard
 70
     0
 40
0.0
 41
1.0
 50
0.0
 71
     0
 42
0.2
  3
txt
  4

  0
ENDTAB
  0
TABLE
  2
VIEW
  5
6
330
0
100
AcDbSymbolTable
 70
     0
  0
ENDTAB
  0
TABLE
  2
UCS
  5
7
330
0
100
AcDbSymbolTable
 70
     0
  0
ENDTAB
  0
TABLE
  2
APPID
  5
9
330
0
100
AcDbSymbolTable
 70
     1
  0
APPID
  5
12
330
9
100
AcDbSymbolTableRecord
100
AcDbRegAppTableRecord
  2
ACAD
 70
     0
  0
ENDTAB
  0
TABLE
  2
DIMSTYLE
  5
A
330
0
100
AcDbSymbolTable
 70
     1
100
AcDbDimStyleTable
  0
DIMSTYLE
105
27
330
A
100
AcDbSymbolTableRecord
100
AcDbDimStyleTableRecord
  2
Standard
 70
     0
178
     0
340
11
  0
ENDTAB
  0
TABLE
  2
BLOCK_RECORD
  5
1
330
0
100
AcDbSymbolTable
 70
     5
  0
BLOCK_RECORD
  5
1F
330
1
100
AcDbSymbolTableRecord
100
AcDbBlockTableRecord
  2
*Model_Space
340
22
 70
     0
280
     1
281
     0
  0
BLOCK_RECORD
  5
1B
330
1
100
AcDbSymbolTableRecord
100
AcDbBlockTableRecord
  2
*Paper_Space
340
1E
 70
     0
280
     1
281
     0
  0
BLOCK_RECORD
  5
23
330
1
100
AcDbSymbolTableRecord
100
AcDbBlockTableRecord
  2
*Paper_Space0
340
26
 70
     0
280
     1
281
     0
  0
BLOCK_RECORD
  5
6E
330
1
100
AcDbSymbolTableRecord
100
AcDbBlockTableRecord
  2
1_131220_4
340
0
102
{BLKREFS
331
6F
102
}
 70
     0
280
     1
281
     0
  0
BLOCK_RECORD
  5
90
330
1
100
AcDbSymbolTableRecord
100
AcDbBlockTableRecord
  2
2_131918_0_in_131220_4
340
0
102
{BLKREFS
331
91
102
}
 70
     0
280
     1
281
     0
  0
BLOCK_RECORD
  5
F8
330
1
100
AcDbSymbolTableRecord
100
AcDbBlockTableRecord
  2
3_405016_Inch_0_in_131220_4
340
0
102
{BLKREFS
331
F9
102
}
 70
     0
280
     1
281
     0
  0
BLOCK_RECORD
  5
182
330
1
100
AcDbSymbolTableRecord
100
AcDbBlockTableRecord
  2
4_131220H_0_in_131220_4
340
0
102
{BLKREFS
331
183
102
}
 70
     0
280
     1
281
     0
  0
ENDTAB
  0
ENDSEC
  0
SECTION
  2
BLOCKS
  0
BLOCK
  5
20
330
1F
100
AcDbEntity
  8
0
100
AcDbBlockBegin
  2
*Model_Space
 70
     0
 10
0.0
 20
0.0
 30
0.0
  3
*Model_Space
  1

  0
ENDBLK
  5
21
330
1F
100
AcDbEntity
  8
0
100
AcDbBlockEnd
  0
BLOCK
  5
1C
330
1B
100
AcDbEntity
 67
     1
  8
0
100
AcDbBlockBegin
  2
*Paper_Space
 70
     0
 10
0.0
 20
0.0
 30
0.0
  3
*Paper_Space
  1

  0
ENDBLK
  5
1D
330
1B
100
AcDbEntity
 67
     1
  8
0
100
AcDbBlockEnd
  0
BLOCK
  5
24
330
23
100
AcDbEntity
  8
0
100
AcDbBlockBegin
  2
*Paper_Space0
 70
     0
 10
0.0
 20
0.0
 30
0.0
  3
*Paper_Space0
  1

  0
ENDBLK
  5
25
330
23
100
AcDbEntity
  8
0
100
AcDbBlockEnd
  0
BLOCK
  5
70
330
6E
100
AcDbEntity
  8
0
100
AcDbBlockBegin
  2
1_131220_4
 70
     2
 10
0.0
 20
0.0
 30
0.0
  3
1_131220_4
  1

  0
ATTDEF
  5
73
330
6E
100
AcDbEntity
  8
AM_6
100
AcDbText
 10
8.471499999999999
 20
0.9699999999999999
 30
0.0
 40
0.5
  1
Eccentric Collar Wide Slot Take Up Inch Bore
100
AcDbAttributeDefinition
  3

  2
NN
 70
     8
280
     0
  0
ATTDEF
  5
74
330
6E
100
AcDbEntity
  8
AM_6
100
AcDbText
 10
8.471499999999999
 20
0.4699999999999999
 30
0.0
 40
0.5
  1
SXR Normal Duty Wide Slot Take-Up Bearings
100
AcDbAttributeDefinition
  3

  2
NT
 70
     8
280
     0
  0
ATTDEF
  5
75
330
6E
100
AcDbEntity
  8
AM_6
100
AcDbText
 10
8.471499999999999
 20
-0.0300000000000001
 30
0.0
 40
0.5
  1
131220
100
AcDbAttributeDefinition
  3

  2
NB
 70
     8
280
     0
  0
ATTDEF
  5
76
330
6E
100
AcDbEntity
  8
AM_6
100
AcDbText
 10
8.471499999999999
 20
-0.5300000000000001
 30
0.0
 40
0.5
  1
$PN.
100
AcDbAttributeDefinition
  3

  2
NBSYN
 70
     8
280
     0
  0
ATTDEF
  5
77
330
6E
100
AcDbEntity
  8
AM_6
100
AcDbText
 10
8.471499999999999
 20
-1.03
 30
0.0
 40
0.5
  1
131220
100
AcDbAttributeDefinition
  3

  2
LINA
 70
     8
280
     0
  0
ATTDEF
  5
78
330
6E
100
AcDbEntity
  8
AM_6
100
AcDbText
 10
8.471499999999999
 20
-1.53
 30
0.0
 40
0.5
  1
209
100
AcDbAttributeDefinition
  3

  2
SERIES
 70
     8
280
     0
  0
ATTDEF
  5
79
330
6E
100
AcDbEntity
  8
AM_6
100
AcDbText
 10
8.471499999999999
 20
-2.03
 30
0.0
 40
0.5
  1
1-5/8
100
AcDbAttributeDefinition
  3

  2
SS
 70
     8
280
     0
  0
ATTDEF
  5
7A
330
6E
100
AcDbEntity
  8
AM_6
100
AcDbText
 10
8.471499999999999
 20
-2.53
 30
0.0
 40
0.5
  1
131220
100
AcDbAttributeDefinition
  3

  2
PN
 70
     8
280
     0
  0
ATTDEF
  5
7B
330
6E
100
AcDbEntity
  8
AM_6
100
AcDbText
 10
8.471499999999999
 20
-3.03
 30
0.0
 40
0.5
  1
WSTU-SXR-110
100
AcDbAttributeDefinition
  3

  2
DESCRIPTION
 70
     8
280
     0
  0
ATTDEF
  5
7C
330
6E
100
AcDbEntity
  8
AM_6
100
AcDbText
 10
8.471499999999999
 20
-3.53
 30
0.0
 40
0.5
  1
RE-LUBE
100
AcDbAttributeDefinition
  3

  2
LF
 70
     8
280
     0
  0
ATTDEF
  5
7D
330
6E
100
AcDbEntity
  8
AM_6
100
AcDbText
 10
8.471499999999999
 20
-4.03
 30
0.0
 40
0.5
  1
6.5
100
AcDbAttributeDefinition
  3

  2
W
 70
     8
280
     0
  0
ATTDEF
  5
7E
330
6E
100
AcDbEntity
  8
AM_6
100
AcDbText
 10
8.471499999999999
 20
-4.53
 30
0.0
 40
0.5
  1
WS400
100
AcDbAttributeDefinition
  3

  2
FS
 70
     8
280
     0
  0
ATTDEF
  5
7F
330
6E
100
AcDbEntity
  8
AM_6
100
AcDbText
 10
8.471499999999999
 20
-5.03
 30
0.0
 40
0.5
  1
2.13
100
AcDbAttributeDefinition
  3

  2
A
 70
     8
280
     0
  0
ATTDEF
  5
80
330
6E
100
AcDbEntity
  8
AM_6
100
AcDbText
 10
8.471499999999999
 20
-5.53
 30
0.0
 40
0.5
  1
5.63
100
AcDbAttributeDefinition
  3

  2
B
 70
     8
280
     0
  0
ATTDEF
  5
81
330
6E
100
AcDbEntity
  8
AM_6
100
AcDbText
 10
8.471499999999999
 20
-6.03
 30
0.0
 40
0.5
  1
0.688
100
AcDbAttributeDefinition
  3

  2
C
 70
     8
280
     0
  0
ATTDEF
  5
82
330
6E
100
AcDbEntity
  8
AM_6
100
AcDbText
 10
8.471499999999999
 20
-6.53
 30
0.0
 40
0.5
  1
3.25
100
AcDbAttributeDefinition
  3

  2
D
 70
     8
280
     0
  0
ATTDEF
  5
83
330
6E
100
AcDbEntity
  8
AM_6
100
AcDbText
 10
8.471499999999999
 20
-7.03
 30
0.0
 40
0.5
  1
3.44
100
AcDbAttributeDefinition
  3

  2
E
 70
     8
280
     0
  0
ATTDEF
  5
84
330
6E
100
AcDbEntity
  8
AM_6
100
AcDbText
 10
8.471499999999999
 20
-7.53
 30
0.0
 40
0.5
  1
1
100
AcDbAttributeDefinition
  3

  2
F
 70
     8
280
     0
  0
ATTDEF
  5
85
330
6E
100
AcDbEntity
  8
AM_6
100
AcDbText
 10
8.471499999999999
 20
-8.030000000000001
 30
0.0
 40
0.5
  1
0.63
100
AcDbAttributeDefinition
  3

  2
G
 70
     8
280
     0
  0
ATTDEF
  5
86
330
6E
100
AcDbEntity
  8
AM_6
100
AcDbText
 10
8.471499999999999
 20
-8.530000000000001
 30
0.0
 40
0.5
  1
0.75
100
AcDbAttributeDefinition
  3

  2
H
 70
     8
280
     0
  0
ATTDEF
  5
87
330
6E
100
AcDbEntity
  8
AM_6
100
AcDbText
 10
8.471499999999999
 20
-9.030000000000001
 30
0.0
 40
0.5
  1
3.25
100
AcDbAttributeDefinition
  3

  2
J
 70
     8
280
     0
  0
ATTDEF
  5
88
330
6E
100
AcDbEntity
  8
AM_6
100
AcDbText
 10
8.471499999999999
 20
-9.530000000000001
 30
0.0
 40
0.5
  1
1.94
100
AcDbAttributeDefinition
  3

  2
K
 70
     8
280
     0
  0
ATTDEF
  5
89
330
6E
100
AcDbEntity
  8
AM_6
100
AcDbText
 10
8.471499999999999
 20
-10.03
 30
0.0
 40
0.5
  1
2.50
100
AcDbAttributeDefinition
  3

  2
L
 70
     8
280
     0
  0
ATTDEF
  5
8A
330
6E
100
AcDbEntity
  8
AM_6
100
AcDbText
 10
8.471499999999999
 20
-10.53
 30
0.0
 40
0.5
  1
3.985/4.015
100
AcDbAttributeDefinition
  3

  2
M
 70
     8
280
     0
  0
ATTDEF
  5
8B
330
6E
100
AcDbEntity
  8
AM_6
100
AcDbText
 10
8.471499999999999
 20
-11.03
 30
0.0
 40
0.5
  1
4.75
100
AcDbAttributeDefinition
  3

  2
N
 70
     8
280
     0
  0
ATTDEF
  5
8C
330
6E
100
AcDbEntity
  8
AM_6
100
AcDbText
 10
8.471499999999999
 20
-11.53
 30
0.0
 40
0.5
  1
0.75
100
AcDbAttributeDefinition
  3

  2
R
 70
     8
280
     0
  0
ATTDEF
  5
8D
330
6E
100
AcDbEntity
  8
AM_6
100
AcDbText
 10
8.471499999999999
 20
-12.03
 30
0.0
 40
0.5
  1
1.38
100
AcDbAttributeDefinition
  3

  2
S
 70
     8
280
     0
  0
ATTDEF
  5
8E
330
6E
100
AcDbEntity
  8
AM_6
100
AcDbText
 10
8.471499999999999
 20
-12.53
 30
0.0
 40
0.5
  1
1.94
100
AcDbAttributeDefinition
  3

  2
T
 70
     8
280
     0
  0
ATTDEF
  5
8F
330
6E
100
AcDbEntity
  8
AM_6
100
AcDbText
 10
8.471499999999999
 20
-13.03
 30
0.0
 40
0.5
  1
baldor
100
AcDbAttributeDefinition
  3

  2
COMPANY
 70
     8
280
     0
  0
INSERT
  5
91
330
6E
100
AcDbEntity
  8
0
100
AcDbBlockReference
  2
2_131918_0_in_131220_4
 10
0.0
 20
0.0
 30
0.0
  0
INSERT
  5
F9
330
6E
100
AcDbEntity
  8
0
100
AcDbBlockReference
  2
3_405016_Inch_0_in_131220_4
 10
0.0
 20
0.0
 30
0.0
  0
INSERT
  5
183
330
6E
100
AcDbEntity
  8
0
100
AcDbBlockReference
  2
4_131220H_0_in_131220_4
 10
0.0
 20
0.0
 30
0.0
  0
ENDBLK
  5
71
330
6E
100
AcDbEntity
  8
0
100
AcDbBlockEnd
  0
BLOCK
  5
92
330
90
100
AcDbEntity
  8
0
100
AcDbBlockBegin
  2
2_131918_0_in_131220_4
 70
     2
 10
0.0
 20
0.0
 30
0.0
  3
2_131918_0_in_131220_4
  1

  0
ATTDEF
  5
94
330
90
100
AcDbEntity
  8
AM_6
100
AcDbText
 10
6.786725
 20
0.8564999999999999
 30
0.0
 40
0.5
  1
Eccentric Collar Insert Inch Bore
100
AcDbAttributeDefinition
  3

  2
NN
 70
     8
280
     0
  0
ATTDEF
  5
95
330
90
100
AcDbEntity
  8
AM_6
100
AcDbText
 10
6.786725
 20
0.3564999999999999
 30
0.0
 40
0.5
  1
SXR Normal Duty Bearing Inserts
100
AcDbAttributeDefinition
  3

  2
NT
 70
     8
280
     0
  0
ATTDEF
  5
96
330
90
100
AcDbEntity
  8
AM_6
100
AcDbText
 10
6.786725
 20
-0.1435000000000001
 30
0.0
 40
0.5
  1
131918
100
AcDbAttributeDefinition
  3

  2
NB
 70
     8
280
     0
  0
ATTDEF
  5
97
330
90
100
AcDbEntity
  8
AM_6
100
AcDbText
 10
6.786725
 20
-0.6435000000000001
 30
0.0
 40
0.5
  1
$PN.
100
AcDbAttributeDefinition
  3

  2
NBSYN
 70
     8
280
     0
  0
ATTDEF
  5
98
330
90
100
AcDbEntity
  8
AM_6
100
AcDbText
 10
6.786725
 20
-1.1435
 30
0.0
 40
0.5
  1
131918
100
AcDbAttributeDefinition
  3

  2
LINA
 70
     8
280
     0
  0
ATTDEF
  5
99
330
90
100
AcDbEntity
  8
AM_6
100
AcDbText
 10
6.786725
 20
-1.6435
 30
0.0
 40
0.5
  1
209
100
AcDbAttributeDefinition
  3

  2
SERIES
 70
     8
280
     0
  0
ATTDEF
  5
9A
330
90
100
AcDbEntity
  8
AM_6
100
AcDbText
 10
6.786725
 20
-2.1435
 30
0.0
 40
0.5
  1
1-5/8
100
AcDbAttributeDefinition
  3

  2
SS
 70
     8
280
     0
  0
ATTDEF
  5
9B
330
90
100
AcDbEntity
  8
AM_6
100
AcDbText
 10
6.786725
 20
-2.6435
 30
0.0
 40
0.5
  1
131918
100
AcDbAttributeDefinition
  3

  2
PN
 70
     8
280
     0
  0
ATTDEF
  5
9C
330
90
100
AcDbEntity
  8
AM_6
100
AcDbText
 10
6.786725
 20
-3.1435
 30
0.0
 40
0.5
  1
INS-SXR-110
100
AcDbAttributeDefinition
  3

  2
DESCRIPTION
 70
     8
280
     0
  0
ATTDEF
  5
9D
330
90
100
AcDbEntity
  8
AM_6
100
AcDbText
 10
6.786725
 20
-3.6435
 30
0.0
 40
0.5
  1
2.0
100
AcDbAttributeDefinition
  3

  2
WEIGHT
 70
     8
280
     0
  0
ATTDEF
  5
9E
330
90
100
AcDbEntity
  8
AM_6
100
AcDbText
 10
6.786725
 20
-4.1435
 30
0.0
 40
0.5
  1
2.13
100
AcDbAttributeDefinition
  3

  2
A
 70
     8
280
     0
  0
ATTDEF
  5
9F
330
90
100
AcDbEntity
  8
AM_6
100
AcDbText
 10
6.786725
 20
-4.6435
 30
0.0
 40
0.5
  1
0.87
100
AcDbAttributeDefinition
  3

  2
C
 70
     8
280
     0
  0
ATTDEF
  5
A0
330
90
100
AcDbEntity
  8
AM_6
100
AcDbText
 10
6.786725
 20
-5.1435
 30
0.0
 40
0.5
  1
3.3465
100
AcDbAttributeDefinition
  3

  2
D
 70
     8
280
     0
  0
ATTDEF
  5
A1
330
90
100
AcDbEntity
  8
AM_6
100
AcDbText
 10
6.786725
 20
-5.6435
 30
0.0
 40
0.5
  1
0.25
100
AcDbAttributeDefinition
  3

  2
J
 70
     8
280
     0
  0
ATTDEF
  5
A2
330
90
100
AcDbEntity
  8
AM_6
100
AcDbText
 10
6.786725
 20
-6.1435
 30
0.0
 40
0.5
  1
2.50
100
AcDbAttributeDefinition
  3

  2
L
 70
     8
280
     0
  0
ATTDEF
  5
A3
330
90
100
AcDbEntity
  8
AM_6
100
AcDbText
 10
6.786725
 20
-6.6435
 30
0.0
 40
0.5
  1
5/16 - 24
100
AcDbAttributeDefinition
  3

  2
N
 70
     8
280
     0
  0
ATTDEF
  5
A4
330
90
100
AcDbEntity
  8
AM_6
100
AcDbText
 10
6.786725
 20
-7.1435
 30
0.0
 40
0.5
  1
0.75
100
AcDbAttributeDefinition
  3

  2
W
 70
     8
280
     0
  0
ATTDEF
  5
A5
330
90
100
AcDbEntity
  8
AM_6
100
AcDbText
 10
6.786725
 20
-7.6435
 30
0.0
 40
0.5
  1
1.38
100
AcDbAttributeDefinition
  3

  2
Y
 70
     8
280
     0
  0
ATTDEF
  5
A6
330
90
100
AcDbEntity
  8
AM_6
100
AcDbText
 10
6.786725
 20
-8.1435
 30
0.0
 40
0.5
  1
2.22
100
AcDbAttributeDefinition
  3

  2
Z
 70
     8
280
     0
  0
ATTDEF
  5
A7
330
90
100
AcDbEntity
  8
AM_6
100
AcDbText
 10
6.786725
 20
-8.6435
 30
0.0
 40
0.5
  1
baldor
100
AcDbAttributeDefinition
  3

  2
COMPANY
 70
     8
280
     0
  0
ARC
  5
AA
330
90
100
AcDbEntity
  8
AM_9
100
AcDbCircle
 10
1.650333333333647
 20
0.2500000000000251
 30
0.0
 40
0.1041666666666419
100
AcDbArc
 50
279.0777131845448
 51
90.0
  0
LINE
  5
AB
330
90
100
AcDbEntity
  8
AM_9
100
AcDbLine
 10
1.650333333333333
 20
0.3541666666666667
 30
0.0
 11
1.635347468025846
 21
0.3541666666666667
 31
0.0
  0
LINE
  5
AC
330
90
100
AcDbEntity
  8
AM_9
100
AcDbLine
 10
1.650333333333333
 20
0.3541666666666667
 30
0.0
 11
1.650333333333333
 21
0.2556295138888363
 31
0.0
  0
LINE
  5
AD
330
90
100
AcDbEntity
  8
AM_9
100
AcDbLine
 10
0.8125
 20
-0.898946342007354
 30
0.0
 11
0.8125
 21
0.7326
 31
0.0
  0
LINE
  5
AE
330
90
100
AcDbEntity
  8
AM_9
100
AcDbLine
 10
-0.8125
 20
0.7326
 30
0.0
 11
-0.8125
 21
-0.898946342007354
 31
0.0
  0
LINE
  5
AF
330
90
100
AcDbEntity
  8
AM_9
100
AcDbLine
 10
0.8125
 20
-1.3626
 30
0.0
 11
0.8125
 21
-0.9235536579926462
 31
0.0
  0
LINE
  5
B0
330
90
100
AcDbEntity
  8
AM_9
100
AcDbLine
 10
-0.8125
 20
-0.9235536579926462
 30
0.0
 11
-0.8125
 21
-1.3626
 31
0.0
  0
LINE
  5
B1
330
90
100
AcDbEntity
  8
AM_9
100
AcDbLine
 10
-0.8125
 20
-0.898946342007354
 30
0.0
 11
0.8125
 21
-0.898946342007354
 31
0.0
  0
LINE
  5
B2
330
90
100
AcDbEntity
  8
AM_9
100
AcDbLine
 10
-0.8125
 20
-0.898946342007354
 30
0.0
 11
-0.8248036579926459
 21
-0.9112499999999998
 31
0.0
  0
LINE
  5
B3
330
90
100
AcDbEntity
  8
AM_9
100
AcDbLine
 10
0.8248036579926459
 20
-0.9112499999999998
 30
0.0
 11
0.8125
 21
-0.898946342007354
 31
0.0
  0
LINE
  5
B4
330
90
100
AcDbEntity
  8
AM_9
100
AcDbLine
 10
-0.8248036579926459
 20
-0.9112499999999998
 30
0.0
 11
0.8248036579926459
 21
-0.9112499999999998
 31
0.0
  0
LINE
  5
B5
330
90
100
AcDbEntity
  8
AM_9
100
AcDbLine
 10
-0.8125
 20
-0.9235536579926462
 30
0.0
 11
0.8125
 21
-0.9235536579926462
 31
0.0
  0
LINE
  5
B6
330
90
100
AcDbEntity
  8
AM_9
100
AcDbLine
 10
0.8125
 20
-0.9235536579926462
 30
0.0
 11
0.8248036579926459
 21
-0.9112499999999998
 31
0.0
  0
LINE
  5
B7
330
90
100
AcDbEntity
  8
AM_9
100
AcDbLine
 10
-0.8248036579926459
 20
-0.9112499999999998
 30
0.0
 11
-0.8125
 21
-0.9235536579926462
 31
0.0
  0
LINE
  5
B8
330
90
100
AcDbEntity
  8
AM_9
100
AcDbLine
 10
0.8125
 20
0.7326
 30
0.0
 11
0.8299
 21
0.7499999999999999
 31
0.0
  0
LINE
  5
B9
330
90
100
AcDbEntity
  8
AM_9
100
AcDbLine
 10
-0.8299
 20
0.7499999999999999
 30
0.0
 11
-0.8125
 21
0.7326
 31
0.0
  0
LINE
  5
BA
330
90
100
AcDbEntity
  8
AM_9
100
AcDbLine
 10
-0.8125
 20
-1.3626
 30
0.0
 11
0.8125
 21
-1.3626
 31
0.0
  0
LINE
  5
BB
330
90
100
AcDbEntity
  8
AM_9
100
AcDbLine
 10
-0.8125
 20
-1.3626
 30
0.0
 11
-0.8299
 21
-1.38
 31
0.0
  0
LINE
  5
BC
330
90
100
AcDbEntity
  8
AM_9
100
AcDbLine
 10
0.8299
 20
-1.38
 30
0.0
 11
0.8125
 21
-1.3626
 31
0.0
  0
LINE
  5
BD
330
90
100
AcDbEntity
  8
AM_9
100
AcDbLine
 10
1.11
 20
-0.6880000000000003
 30
0.0
 11
1.11
 21
-0.435
 31
0.0
  0
LINE
  5
BE
330
90
100
AcDbEntity
  8
AM_9
100
AcDbLine
 10
-1.11
 20
-0.435
 30
0.0
 11
-1.11
 21
-0.6880000000000003
 31
0.0
  0
LINE
  5
BF
330
90
100
AcDbEntity
  8
AM_9
100
AcDbLine
 10
1.11
 20
0.435
 30
0.0
 11
1.11
 21
0.6879999999999996
 31
0.0
  0
LINE
  5
C0
330
90
100
AcDbEntity
  8
AM_9
100
AcDbLine
 10
-1.11
 20
0.6879999999999996
 30
0.0
 11
-1.11
 21
0.435
 31
0.0
  0
LINE
  5
C1
330
90
100
AcDbEntity
  8
AM_9
100
AcDbLine
 10
1.593571428571428
 20
-0.2999999999999999
 30
0.0
 11
1.593571428571428
 21
-0.2
 31
0.0
  0
LINE
  5
C2
330
90
100
AcDbEntity
  8
AM_9
100
AcDbLine
 10
-1.593571428571428
 20
-0.2
 30
0.0
 11
-1.593571428571428
 21
-0.2999999999999999
 31
0.0
  0
LINE
  5
C3
330
90
100
AcDbEntity
  8
AM_9
100
AcDbLine
 10
-1.58882294927654
 20
-0.4350000000000002
 30
0.0
 11
1.588822949273456
 21
-0.4350000000000002
 31
0.0
  0
ARC
  5
C4
330
90
100
AcDbEntity
  8
AM_9
100
AcDbCircle
 10
1.588822948757979
 20
-0.4002000000000002
 30
0.0
 40
0.0347999999999999
100
AcDbArc
 50
270.0
 51
345.8621749168508
  0
ARC
  5
C5
330
90
100
AcDbEntity
  8
AM_9
100
AcDbCircle
 10
-1.588822948757979
 20
-0.4002000000000002
 30
0.0
 40
0.0347999999999998
100
AcDbArc
 50
194.1378250831492
 51
270.0
  0
LINE
  5
C6
330
90
100
AcDbEntity
  8
AM_9
100
AcDbLine
 10
-1.588822948757979
 20
0.435
 30
0.0
 11
1.588822948754896
 21
0.435
 31
0.0
  0
ARC
  5
C7
330
90
100
AcDbEntity
  8
AM_9
100
AcDbCircle
 10
1.58882294875798
 20
0.4002000000000007
 30
0.0
 40
0.0347999999999991
100
AcDbArc
 50
14.13782508314909
 51
90.0
  0
ARC
  5
C8
330
90
100
AcDbEntity
  8
AM_9
100
AcDbCircle
 10
-1.58882294875798
 20
0.4002000000000007
 30
0.0
 40
0.0347999999999993
100
AcDbArc
 50
90.0
 51
165.8621749168509
  0
LINE
  5
C9
330
90
100
AcDbEntity
  8
AM_9
100
AcDbLine
 10
-1.622568890725557
 20
-0.4087000823949463
 30
0.0
 11
1.622568890725341
 21
-0.4087000823949463
 31
0.0
  0
LINE
  5
CA
330
90
100
AcDbEntity
  8
AM_9
100
AcDbLine
 10
-1.646136556455751
 20
-0.2999999999999999
 30
0.0
 11
1.646136556455536
 21
-0.2999999999999999
 31
0.0
  0
ARC
  5
CB
330
90
100
AcDbEntity
  8
AM_9
100
AcDbCircle
 10
-0.0000000003885363
 20
0.0000000000841951
 30
0.0
 40
1.673250000397124
100
AcDbArc
 50
345.8621749173024
 51
349.6714882658572
  0
ARC
  5
CC
330
90
100
AcDbEntity
  8
AM_9
100
AcDbCircle
 10
-0.0000000163520086
 20
-0.000000003545385
 30
0.0
 40
1.67324998327709
100
AcDbArc
 50
190.3285117146478
 51
194.1378251021925
  0
LINE
  5
CD
330
90
100
AcDbEntity
  8
AM_9
100
AcDbLine
 10
-1.661254213689163
 20
-0.2
 30
0.0
 11
1.661254213689159
 21
-0.2
 31
0.0
  0
LINE
  5
CE
330
90
100
AcDbEntity
  8
AM_9
100
AcDbLine
 10
-1.622568890725557
 20
0.4087000823949465
 30
0.0
 11
1.622568890725552
 21
0.4087000823949465
 31
0.0
  0
LINE
  5
CF
330
90
100
AcDbEntity
  8
AM_9
100
AcDbLine
 10
1.635338354822815
 20
0.3541666666018726
 30
0.0
 11
1.666768122161339
 21
0.1471379945722246
 31
0.0
  0
ARC
  5
D0
330
90
100
AcDbEntity
  8
AM_9
100
AcDbCircle
 10
0.0000000000021243
 20
-0.0000000000000544
 30
0.0
 40
1.67324999999788
100
AcDbArc
 50
353.135144883993
 51
5.044846220376554
  0
ARC
  5
D1
330
90
100
AcDbEntity
  8
AM_9
100
AcDbCircle
 10
0.0000000002037959
 20
0.0000000000478361
 30
0.0
 40
1.673249999790688
100
AcDbArc
 50
12.21787276522878
 51
14.13782508326597
  0
ARC
  5
D2
330
90
100
AcDbEntity
  8
AM_9
100
AcDbCircle
 10
-0.0000000004072227
 20
0.0000000000258809
 30
0.0
 40
1.673249999598786
100
AcDbArc
 50
165.8621749143036
 51
186.8648551185468
  0
LINE
  5
D5
330
90
100
AcDbEntity
  8
AM_7
100
AcDbLine
 10
0.0
 20
-1.4865
 30
0.0
 11
0.0
 21
0.8564999999999999
 31
0.0
  0
LINE
  5
D6
330
90
100
AcDbEntity
  8
AM_7
100
AcDbLine
 10
1.077775
 20
0.25
 30
0.0
 11
1.786725
 21
0.25
 31
0.0
  0
LINE
  5
D8
330
90
100
AcDbEntity
  8
AM_4
100
AcDbLine
 10
1.057142857142857
 20
-0.8487500000000001
 30
0.0
 11
1.057142857142857
 21
-0.8174999999999997
 31
0.0
  0
LINE
  5
D9
330
90
100
AcDbEntity
  8
AM_4
100
AcDbLine
 10
-1.057142857142857
 20
-0.8174999999999997
 30
0.0
 11
-1.057142857142857
 21
-0.8487500000000001
 31
0.0
  0
LINE
  5
DA
330
90
100
AcDbEntity
  8
AM_4
100
AcDbLine
 10
1.11
 20
-0.8001
 30
0.0
 11
1.11
 21
-0.6880000000000003
 31
0.0
  0
LINE
  5
DB
330
90
100
AcDbEntity
  8
AM_4
100
AcDbLine
 10
-1.11
 20
-0.6880000000000003
 30
0.0
 11
-1.11
 21
-0.8001
 31
0.0
  0
LINE
  5
DC
330
90
100
AcDbEntity
  8
AM_4
100
AcDbLine
 10
-1.0926
 20
-0.8175
 30
0.0
 11
1.0926
 21
-0.8175
 31
0.0
  0
LINE
  5
DD
330
90
100
AcDbEntity
  8
AM_4
100
AcDbLine
 10
-1.11
 20
-0.8001
 30
0.0
 11
1.11
 21
-0.8001
 31
0.0
  0
LINE
  5
DE
330
90
100
AcDbEntity
  8
AM_4
100
AcDbLine
 10
1.0926
 20
-0.8175
 30
0.0
 11
1.11
 21
-0.8001
 31
0.0
  0
LINE
  5
DF
330
90
100
AcDbEntity
  8
AM_4
100
AcDbLine
 10
-1.11
 20
-0.8001
 30
0.0
 11
-1.0926
 21
-0.8175
 31
0.0
  0
LINE
  5
E0
330
90
100
AcDbEntity
  8
AM_4
100
AcDbLine
 10
-1.0926
 20
0.7499999999999999
 30
0.0
 11
1.0926
 21
0.7499999999999999
 31
0.0
  0
LINE
  5
E1
330
90
100
AcDbEntity
  8
AM_4
100
AcDbLine
 10
-1.0926
 20
0.7499999999999999
 30
0.0
 11
-1.11
 21
0.7326
 31
0.0
  0
LINE
  5
E2
330
90
100
AcDbEntity
  8
AM_4
100
AcDbLine
 10
1.11
 20
0.7326
 30
0.0
 11
1.0926
 21
0.7499999999999999
 31
0.0
  0
LINE
  5
E3
330
90
100
AcDbEntity
  8
AM_4
100
AcDbLine
 10
-1.11
 20
0.7326
 30
0.0
 11
1.11
 21
0.7326
 31
0.0
  0
LINE
  5
E4
330
90
100
AcDbEntity
  8
AM_4
100
AcDbLine
 10
1.11
 20
0.6879999999999996
 30
0.0
 11
1.11
 21
0.7326
 31
0.0
  0
LINE
  5
E5
330
90
100
AcDbEntity
  8
AM_4
100
AcDbLine
 10
-1.11
 20
0.7326
 30
0.0
 11
-1.11
 21
0.6879999999999996
 31
0.0
  0
ARC
  5
E6
330
90
100
AcDbEntity
  8
AM_4
100
AcDbCircle
 10
0.0
 20
-1.145624999999999
 30
0.0
 40
0.1393500000000009
100
AcDbArc
 50
224.5268917025038
 51
315.4731082974962
  0
LINE
  5
E7
330
90
100
AcDbEntity
  8
AM_4
100
AcDbLine
 10
-1.2109375
 20
-0.8487500000000001
 30
0.0
 11
1.210937499992593
 21
-0.8487500000000001
 31
0.0
  0
ARC
  5
E8
330
90
100
AcDbEntity
  8
AM_4
100
AcDbCircle
 10
1.2109375
 20
-0.8878124999999998
 30
0.0
 40
0.0390624999999996
100
AcDbArc
 50
0.0
 51
90.0
  0
ARC
  5
E9
330
90
100
AcDbEntity
  8
AM_4
100
AcDbCircle
 10
-1.2109375
 20
-0.8878124999999998
 30
0.0
 40
0.0390624999999997
100
AcDbArc
 50
90.0
 51
180.0
  0
LINE
  5
EA
330
90
100
AcDbEntity
  8
AM_4
100
AcDbLine
 10
-1.2109375
 20
-1.38
 30
0.0
 11
1.210937499992593
 21
-1.38
 31
0.0
  0
ARC
  5
EB
330
90
100
AcDbEntity
  8
AM_4
100
AcDbCircle
 10
1.2109375
 20
-1.3409375
 30
0.0
 40
0.0390625
100
AcDbArc
 50
270.0
 51
0.0
  0
ARC
  5
EC
330
90
100
AcDbEntity
  8
AM_4
100
AcDbCircle
 10
-1.2109375
 20
-1.3409375
 30
0.0
 40
0.0390624999999998
100
AcDbArc
 50
180.0
 51
270.0
  0
LINE
  5
ED
330
90
100
AcDbEntity
  8
AM_4
100
AcDbLine
 10
-1.25
 20
-1.3409375
 30
0.0
 11
1.25
 21
-1.3409375
 31
0.0
  0
LWPOLYLINE
  5
EE
330
90
100
AcDbEntity
  8
AM_4
100
AcDbPolyline
 90
       10
 70
     0
 43
0.0
 10
-0.0993455970508073
 20
-1.243343344473382
 10
-0.1143158942177225
 20
-1.225289615488853
 10
-0.1260731775968879
 20
-1.204988089463264
 10
-0.1342363080626467
 20
-1.182975648100037
 10
-0.1386168558330822
 20
-1.159900495751479
 10
-0.1390372307655932
 20
-1.136507793346194
 10
-0.1355663654922536
 20
-1.113373131104993
 10
-0.1282743059244581
 20
-1.091216286196101
 10
-0.1174185286632318
 20
-1.070582934286416
 10
-0.0993455970508073
 20
-1.047906655526617
  0
LWPOLYLINE
  5
EF
330
90
100
AcDbEntity
  8
AM_4
100
AcDbPolyline
 90
       10
 70
     0
 43
0.0
 10
0.0993455970508073
 20
-1.047906655526617
 10
0.1143158942177225
 20
-1.065960384511147
 10
0.1260731775968879
 20
-1.086261910536735
 10
0.1342363080626467
 20
-1.108274351899963
 10
0.1386168558330822
 20
-1.13134950424852
 10
0.1390372307655932
 20
-1.154742206653806
 10
0.1355663654922536
 20
-1.177876868895006
 10
0.1282743059244581
 20
-1.200033713803898
 10
0.1174185286632318
 20
-1.220667065713583
 10
0.0993455970508072
 20
-1.243343344473382
  0
LWPOLYLINE
  5
F0
330
90
100
AcDbEntity
  8
AM_4
100
AcDbPolyline
 90
       12
 70
     0
 43
0.0
 10
0.0993455970508073
 20
-1.243343344473382
 10
0.0875983044213205
 20
-1.255129544155654
 10
0.0743164650588219
 20
-1.265559488145309
 10
0.0542439367921216
 20
-1.276993007404128
 10
0.0317592918255587
 20
-1.284951643706567
 10
0.0100738614560863
 20
-1.288533858330833
 10
-0.012587789751289
 20
-1.288311519760861
 10
-0.0335426990932463
 20
-1.284485136331133
 10
-0.0541385332294575
 20
-1.277041427521703
 10
-0.0729150595117986
 20
-1.266513168738818
 10
-0.0902011392472877
 20
-1.252753185281693
 10
-0.0993455970508073
 20
-1.243343344473382
  0
LINE
  5
F1
330
90
100
AcDbEntity
  8
AM_4
100
AcDbLine
 10
-1.25
 20
-0.8878125
 30
0.0
 11
1.25
 21
-0.8878125
 31
0.0
  0
LINE
  5
F2
330
90
100
AcDbEntity
  8
AM_4
100
AcDbLine
 10
1.25
 20
-1.3409375
 30
0.0
 11
1.25
 21
-0.8878125
 31
0.0
  0
LINE
  5
F3
330
90
100
AcDbEntity
  8
AM_4
100
AcDbLine
 10
-1.25
 20
-0.8878125
 30
0.0
 11
-1.25
 21
-1.3409375
 31
0.0
  0
ARC
  5
F4
330
90
100
AcDbEntity
  8
AM_4
100
AcDbCircle
 10
0.0000000000000049
 20
-1.145625000000011
 30
0.0
 40
0.1393500000000114
100
AcDbArc
 50
44.52689170250595
 51
135.4731082974947
  0
LWPOLYLINE
  5
F5
330
90
100
AcDbEntity
  8
AM_4
100
AcDbPolyline
 90
       12
 70
     0
 43
0.0
 10
-0.0993455970508073
 20
-1.047906655526617
 10
-0.0875983044213206
 20
-1.036120455844346
 10
-0.0743164650588219
 20
-1.02569051185469
 10
-0.0542439367921216
 20
-1.014256992595872
 10
-0.0317592918255586
 20
-1.006298356293433
 10
-0.0100738614560863
 20
-1.002716141669166
 10
0.012587789751289
 20
-1.002938480239138
 10
0.0335426990932463
 20
-1.006764863668867
 10
0.0541385332294574
 20
-1.014208572478297
 10
0.0729150595117984
 20
-1.024736831261181
 10
0.0902011392472876
 20
-1.038496814718307
 10
0.099345597050816
 20
-1.047906655526616
  0
ARC
  5
F7
330
90
100
AcDbEntity
  8
AM_5
100
AcDbCircle
 10
0.0
 20
-1.145625
 30
0.0
 40
0.15625
100
AcDbArc
 50
74.99999999999996
 51
15.00000000000004
  0
ENDBLK
  5
93
330
90
100
AcDbEntity
  8
0
100
AcDbBlockEnd
  0
BLOCK
  5
FA
330
F8
100
AcDbEntity
  8
0
100
AcDbBlockBegin
  2
3_405016_Inch_0_in_131220_4
 70
     2
 10
0.0
 20
0.0
 30
0.0
  3
3_405016_Inch_0_in_131220_4
  1

  0
ATTDEF
  5
FC
330
F8
100
AcDbEntity
  8
AM_6
100
AcDbText
 10
3.287076745350093
 20
0.2187500000000014
 30
0.0
 40
0.5
  1
405016 -Inch
100
AcDbAttributeDefinition
  3

  2
NN
 70
     8
280
     0
  0
ATTDEF
  5
FD
330
F8
100
AcDbEntity
  8
AM_6
100
AcDbText
 10
3.287076745350093
 20
-0.2812499999999986
 30
0.0
 40
0.5
  1
Grease Fitting
100
AcDbAttributeDefinition
  3

  2
NT
 70
     8
280
     0
  0
ATTDEF
  5
FE
330
F8
100
AcDbEntity
  8
AM_6
100
AcDbText
 10
3.287076745350093
 20
-0.7812499999999986
 30
0.0
 40
0.5
  1
405016-Inch
100
AcDbAttributeDefinition
  3

  2
NB
 70
     8
280
     0
  0
ATTDEF
  5
FF
330
F8
100
AcDbEntity
  8
AM_6
100
AcDbText
 10
3.287076745350093
 20
-1.281249999999999
 30
0.0
 40
0.5
  1
$MN.-Inch
100
AcDbAttributeDefinition
  3

  2
NBSYN
 70
     8
280
     0
  0
ATTDEF
  5
100
330
F8
100
AcDbEntity
  8
AM_6
100
AcDbText
 10
3.287076745350093
 20
-1.781249999999999
 30
0.0
 40
0.5
  1
405016
100
AcDbAttributeDefinition
  3

  2
LINA
 70
     8
280
     0
  0
ATTDEF
  5
101
330
F8
100
AcDbEntity
  8
AM_6
100
AcDbText
 10
3.287076745350093
 20
-2.281249999999999
 30
0.0
 40
0.5
  1
405016
100
AcDbAttributeDefinition
  3

  2
MN
 70
     8
280
     0
  0
ATTDEF
  5
102
330
F8
100
AcDbEntity
  8
AM_6
100
AcDbText
 10
3.287076745350093
 20
-2.781249999999999
 30
0.0
 40
0.5
  1
7/16 HEX
100
AcDbAttributeDefinition
  3

  2
H
 70
     8
280
     0
  0
ATTDEF
  5
103
330
F8
100
AcDbEntity
  8
AM_6
100
AcDbText
 10
3.287076745350093
 20
-3.281249999999999
 30
0.0
 40
0.5
  1
0.383
100
AcDbAttributeDefinition
  3

  2
NDR
 70
     8
280
     0
  0
ATTDEF
  5
104
330
F8
100
AcDbEntity
  8
AM_6
100
AcDbText
 10
3.287076745350093
 20
-3.781249999999999
 30
0.0
 40
0.5
  1
0.337
100
AcDbAttributeDefinition
  3

  2
KDR
 70
     8
280
     0
  0
ATTDEF
  5
105
330
F8
100
AcDbEntity
  8
AM_6
100
AcDbText
 10
3.287076745350093
 20
-4.281249999999998
 30
0.0
 40
0.5
  1
0.1575
100
AcDbAttributeDefinition
  3

  2
BZE
 70
     8
280
     0
  0
ATTDEF
  5
106
330
F8
100
AcDbEntity
  8
AM_6
100
AcDbText
 10
3.287076745350093
 20
-4.781249999999998
 30
0.0
 40
0.5
  1
0.4375
100
AcDbAttributeDefinition
  3

  2
HEX
 70
     8
280
     0
  0
ATTDEF
  5
107
330
F8
100
AcDbEntity
  8
AM_6
100
AcDbText
 10
3.287076745350093
 20
-5.281249999999998
 30
0.0
 40
0.5
  1
0.281250
100
AcDbAttributeDefinition
  3

  2
HEX2
 70
     8
280
     0
  0
ATTDEF
  5
108
330
F8
100
AcDbEntity
  8
AM_6
100
AcDbText
 10
3.287076745350093
 20
-5.781249999999998
 30
0.0
 40
0.5
  1
baldor
100
AcDbAttributeDefinition
  3

  2
COMPANY
 70
     8
280
     0
  0
LINE
  5
109
330
F8
100
AcDbEntity
  8
AM_9
100
AcDbLine
 10
-2.410066072480448
 20
-0.151074129835757
 30
0.0
 11
-2.421387645704325
 21
-0.1791093260592887
 31
0.0
  0
LINE
  5
10A
330
F8
100
AcDbEntity
  8
AM_9
100
AcDbLine
 10
-2.258891226441951
 20
-0.2099962668917053
 30
0.0
 11
-2.270578472661496
 21
-0.2389369657326276
 31
0.0
  0
LWPOLYLINE
  5
10B
330
F8
100
AcDbEntity
  8
AM_9
100
AcDbPolyline
 90
        3
 70
     0
 43
0.0
 10
-2.042737421176545
 20
0.1093749999999999
 10
-2.024877771192621
 20
0.0546874999999999
 10
-2.003310806641621
 20
-0.0000000000000001
  0
LWPOLYLINE
  5
10C
330
F8
100
AcDbEntity
  8
AM_9
100
AcDbPolyline
 90
        3
 70
     0
 43
0.0
 10
-2.003310806641621
 20
-0.0000000000000001
 10
-2.024788477559244
 20
-0.0544416102741497
 10
-2.042737421176545
 20
-0.109375
  0
LWPOLYLINE
  5
10D
330
F8
100
AcDbEntity
  8
AM_9
100
AcDbPolyline
 90
        3
 70
     0
 43
0.0
 10
-2.200960378019861
 20
-0.2987675689889718
 10
-2.216847662582957
 20
-0.2912216284034024
 10
-2.232057664280971
 20
-0.2813919000363599
  0
LWPOLYLINE
  5
10E
330
F8
100
AcDbEntity
  8
AM_9
100
AcDbPolyline
 90
        3
 70
     0
 43
0.0
 10
-1.93241380964041
 20
-0.0000000000000001
 10
-1.942368017069684
 20
0.0544416102741495
 10
-1.956134880798101
 20
0.1093749999999999
  0
LWPOLYLINE
  5
10F
330
F8
100
AcDbEntity
  8
AM_9
100
AcDbPolyline
 90
        3
 70
     0
 43
0.0
 10
-1.956134880798101
 20
-0.1093750000000001
 10
-1.942420687935717
 20
-0.0546875000000001
 10
-1.93241380964041
 20
-0.0000000000000001
  0
LINE
  5
110
330
F8
100
AcDbEntity
  8
AM_9
100
AcDbLine
 10
-2.189934025181381
 20
-0.2672118976010217
 30
0.0
 11
-2.188904728708882
 21
-0.2689146070947223
 31
0.0
  0
LWPOLYLINE
  5
111
330
F8
100
AcDbEntity
  8
AM_9
100
AcDbPolyline
 90
        3
 70
     0
 43
0.0
 10
-2.042737421176545
 20
-0.109375
 10
-2.056451614038929
 20
-0.1640625
 10
-2.066458492334236
 20
-0.2187500000000001
  0
LINE
  5
112
330
F8
100
AcDbEntity
  8
AM_9
100
AcDbLine
 10
-2.003310806641621
 20
-0.0000000000000001
 30
0.0
 11
-1.93241380964041
 21
-0.0000000000000001
 31
0.0
  0
LWPOLYLINE
  5
113
330
F8
100
AcDbEntity
  8
AM_9
100
AcDbPolyline
 90
        3
 70
     0
 43
0.0
 10
-2.066458492334236
 20
0.2187499999999999
 10
-2.056504284904962
 20
0.1643083897258503
 10
-2.042737421176545
 20
0.1093749999999999
  0
LINE
  5
114
330
F8
100
AcDbEntity
  8
AM_9
100
AcDbLine
 10
-2.188904728708882
 20
-0.2689146070947222
 30
0.0
 11
-2.189961118118894
 21
-0.2683791326563879
 31
0.0
  0
LINE
  5
115
330
F8
100
AcDbEntity
  8
AM_9
100
AcDbLine
 10
-2.188904728708882
 20
-0.2689146070947222
 30
0.0
 11
-2.19
 21
-0.2716267871917188
 31
0.0
  0
ELLIPSE
  5
116
330
F8
100
AcDbEntity
  8
AM_9
100
AcDbEllipse
 10
-2.443242020868951
 20
-0.4687500000000001
 30
0.0
 11
-0.09595382955731768
 21
0.03874944547499719
 31
0.0
210
0.0
220
0.0
230
1.0
 40
0.2113091308703515
 41
3.04060964969654
 42
6.384168311072842
  0
ELLIPSE
  5
117
330
F8
100
AcDbEntity
  8
AM_9
100
AcDbEllipse
 10
-2.415248358671468
 20
-0.3994303217889761
 30
0.0
 11
-0.1290248947933272
 21
0.05210467522533591
 31
0.0
210
0.0
220
0.0
230
1.0
 40
0.2113091308703474
 41
3.038390038241475
 42
5.801105639492172
  0
ELLIPSE
  5
118
330
F8
100
AcDbEntity
  8
AM_9
100
AcDbEllipse
 10
-2.40457337719414
 20
-0.3729962569746507
 30
0.0
 11
-0.1235034625625761
 21
0.04987493162722376
 31
0.0
210
0.0
220
0.0
230
1.0
 40
0.2113091308703334
 41
3.392549625241301
 42
6.023544641517144
  0
LWPOLYLINE
  5
119
330
F8
100
AcDbEntity
  8
AM_9
100
AcDbPolyline
 90
        5
 70
     0
 43
0.0
 10
-2.421387645704325
 20
-0.1791093260592887
 10
-2.443250034202951
 20
-0.1842540823997054
 10
-2.464146121132944
 20
-0.1862220679364951
 10
-2.484063740687853
 20
-0.1844124966919381
 10
-2.502577527309116
 20
-0.1791093260592887
  0
LWPOLYLINE
  5
11A
330
F8
100
AcDbEntity
  8
AM_9
100
AcDbPolyline
 90
        5
 70
     0
 43
0.0
 10
-2.270578472661496
 20
-0.2389369657326276
 10
-2.309419761348924
 20
-0.2295338871417796
 10
-2.347554808060843
 20
-0.216687117104632
 10
-2.385173602422027
 20
-0.1996402057054678
 10
-2.421387645704325
 20
-0.1791093260592887
  0
LWPOLYLINE
  5
11B
330
F8
100
AcDbEntity
  8
AM_9
100
AcDbPolyline
 90
        3
 70
     0
 43
0.0
 10
-2.244079194462778
 20
-0.2711532636537956
 10
-2.257814372227351
 20
-0.2561815527589921
 10
-2.270578472661496
 20
-0.2389369657326276
  0
ELLIPSE
  5
11C
330
F8
100
AcDbEntity
  8
AM_9
100
AcDbEllipse
 10
-2.353572473930103
 20
-0.2467045921760406
 30
0.0
 11
-0.1303939210192117
 21
0.05265753494275873
 31
0.0
210
0.0
220
0.0
230
1.0
 40
0.2113091308703171
 41
3.806340372003417
 42
6.919181903097233
  0
LINE
  5
11D
330
F8
100
AcDbEntity
  8
AM_9
100
AcDbLine
 10
-1.98782197732634
 20
0.2000413016192557
 30
0.0
 11
-1.995561495333025
 21
0.2187499999999999
 31
0.0
  0
LWPOLYLINE
  5
11E
330
F8
100
AcDbEntity
  8
AM_9
100
AcDbPolyline
 90
        3
 70
     0
 43
0.0
 10
-1.956134880798101
 20
0.1093749999999999
 10
-1.973994530782024
 20
0.1640624999999999
 10
-1.98782197732634
 20
0.2000413016192557
  0
LWPOLYLINE
  5
11F
330
F8
100
AcDbEntity
  8
AM_9
100
AcDbPolyline
 90
        3
 70
     0
 43
0.0
 10
-1.987821855244375
 20
-0.2000409996967265
 10
-1.974083824415402
 20
-0.1643083897258505
 10
-1.956134880798101
 20
-0.1093750000000001
  0
LINE
  5
120
330
F8
100
AcDbEntity
  8
AM_9
100
AcDbLine
 10
-1.995561495333025
 20
-0.2187500000000001
 30
0.0
 11
-1.987821855244375
 21
-0.2000409996967265
 31
0.0
  0
LINE
  5
121
330
F8
100
AcDbEntity
  8
AM_9
100
AcDbLine
 10
-2.421200873332337
 20
-0.1204089378707286
 30
0.0
 11
-2.42228631832205
 21
-0.1230967854582221
 31
0.0
  0
LINE
  5
122
330
F8
100
AcDbEntity
  8
AM_9
100
AcDbLine
 10
-2.216080644906463
 20
-0.2
 30
0.0
 11
-2.213412165561759
 21
-0.193392142543456
 31
0.0
  0
ELLIPSE
  5
123
330
F8
100
AcDbEntity
  8
AM_9
100
AcDbEllipse
 10
-2.335272566391603
 20
-0.2013892028241898
 30
0.0
 11
-0.1019970226638893
 21
0.04118989399965139
 31
0.0
210
0.0
220
0.0
230
1.0
 40
0.2113091308703498
 41
3.141592653589793
 42
6.283185307179586
  0
LWPOLYLINE
  5
124
330
F8
100
AcDbEntity
  8
AM_9
100
AcDbPolyline
 90
        4
 70
     0
 43
0.0
 10
-2.421205602987357
 20
-0.1204206514110938
 10
-2.421344768971887
 20
-0.1208367673933812
 10
-2.42076718501476
 20
-0.1245107513506023
 10
-2.418860447163736
 20
-0.1273621292374977
  0
LWPOLYLINE
  5
125
330
F8
100
AcDbEntity
  8
AM_9
100
AcDbPolyline
 90
        5
 70
     0
 43
0.0
 10
-2.213411221360271
 20
-0.1933898041312626
 10
-2.213504557491423
 20
-0.1936098952159724
 10
-2.216720094444061
 20
-0.1971856748420371
 10
-2.222738457686843
 20
-0.1994144431868155
 10
-2.229602428267286
 20
-0.1999999999699529
  0
LWPOLYLINE
  5
126
330
F8
100
AcDbEntity
  8
AM_9
100
AcDbPolyline
 90
        3
 70
     0
 43
0.0
 10
-2.322899559479724
 20
-0.1745741884610188
 10
-2.295510484106293
 20
-0.1876759562813858
 10
-2.258891226441951
 20
-0.2099962668917053
  0
LWPOLYLINE
  5
127
330
F8
100
AcDbEntity
  8
AM_9
100
AcDbPolyline
 90
        3
 70
     0
 43
0.0
 10
-2.410066072480448
 20
-0.151074129835757
 10
-2.380861464980924
 20
-0.1564222384464442
 10
-2.35219096603863
 20
-0.1639312493177431
  0
LWPOLYLINE
  5
128
330
F8
100
AcDbEntity
  8
AM_9
100
AcDbPolyline
 90
        3
 70
     0
 43
0.0
 10
-2.258891226441951
 20
-0.2099962668917053
 10
-2.241917544108428
 20
-0.2163479371246913
 10
-2.225779286924245
 20
-0.2258378743019629
  0
LWPOLYLINE
  5
129
330
F8
100
AcDbEntity
  8
AM_9
100
AcDbPolyline
 90
        4
 70
     0
 43
0.0
 10
-2.446976952824943
 20
-0.141958509815605
 10
-2.443101833378894
 20
-0.1420496512545706
 10
-2.428612918264143
 20
-0.1441228263802214
 10
-2.410066072480448
 20
-0.151074129835757
  0
ELLIPSE
  5
12A
330
F8
100
AcDbEntity
  8
AM_9
100
AcDbEllipse
 10
-2.335272566391604
 20
-0.201389202824188
 30
0.0
 11
-0.1303939210191745
 21
0.05265753494273384
 31
0.0
210
0.0
220
0.0
230
1.0
 40
0.2113091308703481
 41
3.814164134970076
 42
4.697310112972418
  0
ELLIPSE
  5
12B
330
F8
100
AcDbEntity
  8
AM_9
100
AcDbEllipse
 10
-2.335272566391602
 20
-0.2013892028241913
 30
0.0
 11
-0.1303939210191793
 21
0.05265753494273662
 31
0.0
210
0.0
220
0.0
230
1.0
 40
0.2113091308703564
 41
-1.272136120533104
 42
-0.6725714813802846
  0
LINE
  5
12C
330
F8
100
AcDbEntity
  8
AM_9
100
AcDbLine
 10
-2.232057664280971
 20
-0.2813919000363599
 30
0.0
 11
-2.244079194462778
 21
-0.2711532636537956
 31
0.0
  0
ELLIPSE
  5
12D
330
F8
100
AcDbEntity
  8
AM_9
100
AcDbEllipse
 10
-2.353572473930138
 20
-0.2467045921760203
 30
0.0
 11
-0.1303939210191749
 21
0.05265753494273449
 31
0.0
210
0.0
220
0.0
230
1.0
 40
0.2113091308703506
 41
2.800469246484384
 42
3.607080702195134
  0
ELLIPSE
  5
12E
330
F8
100
AcDbEntity
  8
AM_9
100
AcDbEllipse
 10
-2.353572473938967
 20
-0.2467045921666758
 30
0.0
 11
-0.1303939210314273
 21
0.05265753495094642
 31
0.0
210
0.0
220
0.0
230
1.0
 40
0.211309130885208
 41
-3.777589249502071
 42
-3.764628581855113
  0
LWPOLYLINE
  5
12F
330
F8
100
AcDbEntity
  8
AM_9
100
AcDbPolyline
 90
       17
 70
     0
 43
0.0
 10
-2.220087330712347
 20
-0.1790373738501778
 10
-2.22805479578854
 20
-0.1733931390117467
 10
-2.238810869222722
 20
-0.1670729780242511
 10
-2.251453920745165
 20
-0.1606047421316795
 10
-2.266344343891006
 20
-0.1538031670974777
 10
-2.282246220697887
 20
-0.1472336073736393
 10
-2.299607190519605
 20
-0.1407130262602576
 10
-2.31696266764985
 20
-0.1347930597680667
 10
-2.334820379234139
 20
-0.1293028157827817
 10
-2.351650140734213
 20
-0.1247141396218192
 10
-2.367966884634918
 20
-0.1208880884981781
 10
-2.382365935494752
 20
-0.1181545989145989
 10
-2.395298288360499
 20
-0.1164278875396128
 10
-2.405658016520199
 20
-0.1158549073091554
 10
-2.413768191336896
 20
-0.1164156227038168
 10
-2.418944832527738
 20
-0.1180609686233502
 10
-2.421205602987357
 20
-0.1204206514110938
  0
LWPOLYLINE
  5
130
330
F8
100
AcDbEntity
  8
AM_9
100
AcDbPolyline
 90
        4
 70
     0
 43
0.0
 10
-2.220087330712347
 20
-0.1790373738501783
 10
-2.215132670240279
 20
-0.1842628795203941
 10
-2.213024785773536
 20
-0.1891729979031393
 10
-2.213411221360271
 20
-0.1933898041312626
  0
LINE
  5
131
330
F8
100
AcDbEntity
  8
AM_9
100
AcDbLine
 10
-2.137458949715468
 20
0.1999999999999999
 30
0.0
 11
-2.200148251565524
 21
0.1999999999999999
 31
0.0
  0
LINE
  5
132
330
F8
100
AcDbEntity
  8
AM_9
100
AcDbLine
 10
-2.200150895652901
 20
-0.2
 30
0.0
 11
-2.137458949715468
 21
-0.2
 31
0.0
  0
LINE
  5
133
330
F8
100
AcDbEntity
  8
AM_9
100
AcDbLine
 10
-1.983198174666365
 20
0.1999999999999999
 30
0.0
 11
-2.050856409337024
 21
0.1999999999999999
 31
0.0
  0
LINE
  5
134
330
F8
100
AcDbEntity
  8
AM_9
100
AcDbLine
 10
-2.050856409337024
 20
-0.2
 30
0.0
 11
-1.983198174666365
 21
-0.2
 31
0.0
  0
ELLIPSE
  5
135
330
F8
100
AcDbEntity
  8
AM_9
100
AcDbEllipse
 10
-1.983198174666364
 20
0.0000000000000001
 30
0.0
 11
1.224646799147351E-17
 21
0.1999999999999997
 31
0.0
210
0.0
220
0.0
230
1.0
 40
0.5000000000000002
 41
1.815023254238344
 42
7.634153879614731
  0
LINE
  5
136
330
F8
100
AcDbEntity
  8
AM_9
100
AcDbLine
 10
-2.19
 20
0.2187499999999999
 30
0.0
 11
-1.995561495333025
 21
0.2187499999999999
 31
0.0
  0
LINE
  5
137
330
F8
100
AcDbEntity
  8
AM_9
100
AcDbLine
 10
-2.170307626169899
 20
0.0363279704116885
 30
0.0
 11
-2.185004552410871
 21
-0.0000000000000001
 31
0.0
  0
LWPOLYLINE
  5
138
330
F8
100
AcDbEntity
  8
AM_9
100
AcDbPolyline
 90
        3
 70
     0
 43
0.0
 10
-2.151810695417471
 20
0.0888164868307323
 10
-2.16343758785987
 20
0.0546874999999999
 10
-2.170307626169899
 20
0.0363279704116885
  0
LINE
  5
139
330
F8
100
AcDbEntity
  8
AM_9
100
AcDbLine
 10
-2.145577937875947
 20
0.1093749999999999
 30
0.0
 11
-2.151810695417471
 21
0.0888164868307323
 31
0.0
  0
LWPOLYLINE
  5
13A
330
F8
100
AcDbEntity
  8
AM_9
100
AcDbPolyline
 90
        3
 70
     0
 43
0.0
 10
-2.123978428850393
 20
0.2055676298225189
 10
-2.13181107414753
 20
0.1643083897258503
 10
-2.145577937875947
 20
0.1093749999999999
  0
LINE
  5
13B
330
F8
100
AcDbEntity
  8
AM_9
100
AcDbLine
 10
-2.121856866718256
 20
0.2187499999999999
 30
0.0
 11
-2.123978428850393
 21
0.2055676298225189
 31
0.0
  0
LINE
  5
13C
330
F8
100
AcDbEntity
  8
AM_9
100
AcDbLine
 10
-2.19
 20
-0.0000000000000001
 30
0.0
 11
-2.185004552410871
 21
-0.0000000000000001
 31
0.0
  0
LINE
  5
13D
330
F8
100
AcDbEntity
  8
AM_9
100
AcDbLine
 10
-2.19
 20
-0.2187500000000001
 30
0.0
 11
-1.995561495333025
 21
-0.2187500000000001
 31
0.0
  0
LINE
  5
13E
330
F8
100
AcDbEntity
  8
AM_9
100
AcDbLine
 10
-2.123905237848725
 20
-0.2060055233362611
 30
0.0
 11
-2.121856866718256
 21
-0.2187500000000001
 31
0.0
  0
LWPOLYLINE
  5
13F
330
F8
100
AcDbEntity
  8
AM_9
100
AcDbPolyline
 90
        3
 70
     0
 43
0.0
 10
-2.145577937875947
 20
-0.109375
 10
-2.131863745013563
 20
-0.1640625
 10
-2.123905237848725
 20
-0.2060055233362611
  0
LWPOLYLINE
  5
140
330
F8
100
AcDbEntity
  8
AM_9
100
AcDbPolyline
 90
        3
 70
     0
 43
0.0
 10
-2.170342293102666
 20
-0.0362379560882808
 10
-2.163526881493248
 20
-0.0544416102741496
 10
-2.145577937875947
 20
-0.109375
  0
LINE
  5
141
330
F8
100
AcDbEntity
  8
AM_9
100
AcDbLine
 10
-2.185004552410871
 20
-0.0000000000000001
 30
0.0
 11
-2.170342293102666
 21
-0.0362379560882808
 31
0.0
  0
LINE
  5
142
330
F8
100
AcDbEntity
  8
AM_9
100
AcDbLine
 10
-1.812653557043962
 20
0.1853871066562612
 30
0.0
 11
-1.98147044672803
 21
0.1914800577488989
 31
0.0
  0
LINE
  5
143
330
F8
100
AcDbEntity
  8
AM_9
100
AcDbLine
 10
-1.98147044672803
 20
-0.191480057748899
 30
0.0
 11
-1.812653557043962
 21
-0.1853871066562613
 31
0.0
  0
LINE
  5
144
330
F8
100
AcDbEntity
  8
AM_9
100
AcDbLine
 10
-1.747086819761812
 20
0.1319978794387896
 30
0.0
 11
-1.76080094682088
 21
0.1513925839218323
 31
0.0
  0
LINE
  5
145
330
F8
100
AcDbEntity
  8
AM_9
100
AcDbLine
 10
-1.76080094682088
 20
-0.1513925839218325
 30
0.0
 11
-1.747086819761812
 21
-0.1319978794387897
 31
0.0
  0
ELLIPSE
  5
146
330
F8
100
AcDbEntity
  8
AM_9
100
AcDbEllipse
 10
-2.137458949715468
 20
-0.0000000000000004
 30
0.0
 11
1.339457436567420E-17
 21
0.2187500000000004
 31
0.0
210
0.0
220
0.0
230
1.0
 40
0.500000000000001
 41
0.0
 42
6.283185307179586
  0
ELLIPSE
  5
147
330
F8
100
AcDbEntity
  8
AM_9
100
AcDbEllipse
 10
-2.137458949715468
 20
0.0000000000000002
 30
0.0
 11
1.224646799147355E-17
 21
0.2000000000000003
 31
0.0
210
0.0
220
0.0
230
1.0
 40
0.4999999999999997
 41
0.0
 42
6.283185307179586
  0
ELLIPSE
  5
148
330
F8
100
AcDbEntity
  8
AM_9
100
AcDbEllipse
 10
-2.050856409337024
 20
0.0000000000000007
 30
0.0
 11
1.339457436567422E-17
 21
0.2187500000000007
 31
0.0
210
0.0
220
0.0
230
1.0
 40
0.5000000000000003
 41
0.0
 42
6.283185307179586
  0
ELLIPSE
  5
149
330
F8
100
AcDbEntity
  8
AM_9
100
AcDbEllipse
 10
-2.050856409337024
 20
0.0000000000000003
 30
0.0
 11
1.224646799147355E-17
 21
0.2000000000000002
 31
0.0
210
0.0
220
0.0
230
1.0
 40
0.500000000000001
 41
0.0
 42
6.283185307179586
  0
ELLIPSE
  5
14A
330
F8
100
AcDbEntity
  8
AM_9
100
AcDbEllipse
 10
-1.983198174666365
 20
-0.0000000000000001
 30
0.0
 11
1.172668097677219E-17
 21
0.1915112338502294
 31
0.0
210
0.0
220
0.0
230
1.0
 40
0.5000000000000004
 41
0.0
 42
6.283185307179586
  0
ELLIPSE
  5
14B
330
F8
100
AcDbEntity
  8
AM_9
100
AcDbEllipse
 10
-1.814326308177121
 20
0.0000000000000001
 30
0.0
 11
1.135353457964645E-17
 21
0.1854172907249865
 31
0.0
210
0.0
220
0.0
230
1.0
 40
0.4999999999999974
 41
0.0
 42
6.283185307179586
  0
ELLIPSE
  5
14C
330
F8
100
AcDbEntity
  8
AM_9
100
AcDbEllipse
 10
-1.793755117588518
 20
0.0000000000000005
 30
0.0
 11
9.899048221688929E-18
 21
0.1616637258772249
 31
0.0
210
0.0
220
0.0
230
1.0
 40
0.4999999999999946
 41
0.0
 42
6.283185307179586
  0
LWPOLYLINE
  5
14D
330
F8
100
AcDbEntity
  8
AM_4
100
AcDbPolyline
 90
        3
 70
     0
 43
0.0
 10
-2.213757756742438
 20
-0.2360765106845277
 10
-2.20459277016588
 20
-0.2462091938631851
 10
-2.189934025181381
 20
-0.2672118976010217
  0
LWPOLYLINE
  5
14E
330
F8
100
AcDbEntity
  8
AM_4
100
AcDbPolyline
 90
        3
 70
     0
 43
0.0
 10
-2.189961118118894
 20
-0.2683791326563879
 10
-2.201900616558493
 20
-0.2634308483997528
 10
-2.216114516672734
 20
-0.2602304684431305
  0
LWPOLYLINE
  5
14F
330
F8
100
AcDbEntity
  8
AM_4
100
AcDbPolyline
 90
        3
 70
     0
 43
0.0
 10
-2.234414424211267
 20
-0.3055458577949631
 10
-2.21803246959229
 20
-0.3030753670497808
 10
-2.200960378019861
 20
-0.2987675689889718
  0
LINE
  5
150
330
F8
100
AcDbEntity
  8
AM_4
100
AcDbLine
 10
-2.19
 20
-0.2716267871917188
 30
0.0
 11
-2.200960378019861
 21
-0.2987675689889718
 31
0.0
  0
LINE
  5
151
330
F8
100
AcDbEntity
  8
AM_4
100
AcDbLine
 10
-2.348602478997605
 20
-0.5093460834378319
 30
0.0
 11
-2.287990728730342
 21
-0.4540180898723598
 31
0.0
  0
LINE
  5
152
330
F8
100
AcDbEntity
  8
AM_4
100
AcDbLine
 10
-2.544725896030216
 20
-0.3503396289636352
 30
0.0
 11
-2.539532473739486
 21
-0.4322420068738781
 31
0.0
  0
ELLIPSE
  5
153
330
F8
100
AcDbEntity
  8
AM_4
100
AcDbEllipse
 10
-2.443242020868951
 20
-0.4687500000000001
 30
0.0
 11
-0.09595382955731811
 21
0.03874944547499725
 31
0.0
210
0.0
220
0.0
230
1.0
 40
0.2113091308703481
 41
0.1009830038932567
 42
3.040609649696539
  0
LINE
  5
154
330
F8
100
AcDbEntity
  8
AM_4
100
AcDbLine
 10
-2.491255954085239
 20
-0.151074129835757
 30
0.0
 11
-2.502577527309116
 21
-0.1791093260592887
 31
0.0
  0
LWPOLYLINE
  5
155
330
F8
100
AcDbEntity
  8
AM_4
100
AcDbPolyline
 90
        9
 70
     0
 43
0.0
 10
-2.520481816355956
 20
-0.3178575319125189
 10
-2.523188161964755
 20
-0.3187556490368683
 10
-2.529100576233493
 20
-0.32153406262082
 10
-2.534392479682419
 20
-0.3253504059108188
 10
-2.538879570725246
 20
-0.3302510320399999
 10
-2.542254827196753
 20
-0.3361030617930159
 10
-2.544326645375722
 20
-0.3429873196534751
 10
-2.544761193789271
 20
-0.3496725055283053
 10
-2.54467236304851
 20
-0.3510565068238463
  0
LWPOLYLINE
  5
156
330
F8
100
AcDbEntity
  8
AM_4
100
AcDbPolyline
 90
        8
 70
     0
 43
0.0
 10
-2.288203428975872
 20
-0.4542105086697643
 10
-2.284301927982396
 20
-0.4500142805829696
 10
-2.280797427338995
 20
-0.4442491471834589
 10
-2.278556614446813
 20
-0.437367836672035
 10
-2.277981653140034
 20
-0.4306471779068701
 10
-2.278748914424797
 20
-0.4243586043546795
 10
-2.280587680212889
 20
-0.4185097944615205
 10
-2.282508995964147
 20
-0.4144767022559052
  0
ELLIPSE
  5
157
330
F8
100
AcDbEntity
  8
AM_4
100
AcDbEllipse
 10
-2.415248358671468
 20
-0.3994303217889761
 30
0.0
 11
-0.1290248947933272
 21
0.0521046752253359
 31
0.0
210
0.0
220
0.0
230
1.0
 40
0.2113091308703523
 41
0.1066589145957506
 42
3.038390038241478
  0
LWPOLYLINE
  5
158
330
F8
100
AcDbEntity
  8
AM_4
100
AcDbPolyline
 90
        3
 70
     0
 43
0.0
 10
-2.282150259624652
 20
-0.2987675689889718
 10
-2.268616994124262
 20
-0.3030606061861223
 10
-2.255057709499277
 20
-0.305456396233367
  0
ELLIPSE
  5
159
330
F8
100
AcDbEntity
  8
AM_4
100
AcDbEllipse
 10
-2.353572473930139
 20
-0.2467045921760178
 30
0.0
 11
-0.1303939210191788
 21
0.05265753494273635
 31
0.0
210
0.0
220
0.0
230
1.0
 40
0.2113091308703567
 41
1.711945269609649
 42
2.505596057672095
  0
LWPOLYLINE
  5
15A
330
F8
100
AcDbEntity
  8
AM_4
100
AcDbPolyline
 90
        4
 70
     0
 43
0.0
 10
-2.502577527309116
 20
-0.1791093260592887
 10
-2.48770040926604
 20
-0.1988355121406939
 10
-2.471271137023366
 20
-0.2156330920108724
 10
-2.465774118412023
 20
-0.2201680623457972
  0
LWPOLYLINE
  5
15B
330
F8
100
AcDbEntity
  8
AM_4
100
AcDbPolyline
 90
        3
 70
     0
 43
0.0
 10
-2.465774118412023
 20
-0.2201680623457972
 10
-2.452833596813395
 20
-0.2290462109660021
 10
-2.432958235871079
 20
-0.2389369657326275
  0
LWPOLYLINE
  5
15C
330
F8
100
AcDbEntity
  8
AM_4
100
AcDbPolyline
 90
        3
 70
     0
 43
0.0
 10
-2.235870916626002
 20
-0.2602304684431209
 10
-2.245119552039896
 20
-0.2616913382589203
 10
-2.270094610313673
 20
-0.2689146070947222
  0
LINE
  5
15D
330
F8
100
AcDbEntity
  8
AM_4
100
AcDbLine
 10
-2.42228631832205
 20
-0.1230967854582221
 30
0.0
 11
-2.437269589055492
 21
-0.1601993088245384
 31
0.0
  0
LINE
  5
15E
330
F8
100
AcDbEntity
  8
AM_4
100
AcDbLine
 10
-2.233275543727717
 20
-0.2425790968238377
 30
0.0
 11
-2.216080644906463
 21
-0.2
 31
0.0
  0
ELLIPSE
  5
15F
330
F8
100
AcDbEntity
  8
AM_4
100
AcDbEllipse
 10
-2.335272566391605
 20
-0.2013892028241881
 30
0.0
 11
-0.101997022663888
 21
0.04118989399964969
 31
0.0
210
0.0
220
0.0
230
1.0
 40
0.2113091308703497
 41
0.0
 42
3.141592653589793
  0
LWPOLYLINE
  5
160
330
F8
100
AcDbEntity
  8
AM_4
100
AcDbPolyline
 90
        4
 70
     0
 43
0.0
 10
-2.491255954085239
 20
-0.151074129835757
 10
-2.474640112097711
 20
-0.145877822676052
 10
-2.458585499442577
 20
-0.1427138007556462
 10
-2.446976952824943
 20
-0.141958509815605
  0
LWPOLYLINE
  5
161
330
F8
100
AcDbEntity
  8
AM_4
100
AcDbPolyline
 90
        6
 70
     0
 43
0.0
 10
-2.421270989651533
 20
-0.2099962668917053
 10
-2.431580126008862
 20
-0.1943573015029059
 10
-2.442923952843072
 20
-0.1805491420332303
 10
-2.455637927419879
 20
-0.1688997677199809
 10
-2.469533853609571
 20
-0.1598729403210871
 10
-2.491255954085239
 20
-0.151074129835757
  0
LINE
  5
162
330
F8
100
AcDbEntity
  8
AM_4
100
AcDbLine
 10
-2.445647099282113
 20
-0.1419585097669023
 30
0.0
 11
-2.447085575930267
 21
-0.1419585097669023
 31
0.0
  0
ELLIPSE
  5
163
330
F8
100
AcDbEntity
  8
AM_4
100
AcDbEllipse
 10
-2.335272566391599
 20
-0.2013892028241765
 30
0.0
 11
-0.1303939210191802
 21
0.05265753494272344
 31
0.0
210
0.0
220
0.0
230
1.0
 40
0.2113091308703028
 41
5.61061382579929
 42
7.795870906981529
  0
ELLIPSE
  5
164
330
F8
100
AcDbEntity
  8
AM_4
100
AcDbEllipse
 10
-2.353572473930138
 20
-0.2467045921760198
 30
0.0
 11
-0.1303939210191753
 21
0.05265753494273358
 31
0.0
210
0.0
220
0.0
230
1.0
 40
0.2113091308703554
 41
0.6359965959176872
 42
1.512685599801937
  0
LWPOLYLINE
  5
165
330
F8
100
AcDbEntity
  8
AM_4
100
AcDbPolyline
 90
        3
 70
     0
 43
0.0
 10
-2.254170824164537
 20
-0.3055458577949631
 10
-2.244720625278228
 20
-0.3064767622622302
 10
-2.234414424211267
 20
-0.3055458577949631
  0
LWPOLYLINE
  5
166
330
F8
100
AcDbEntity
  8
AM_4
100
AcDbPolyline
 90
       17
 70
     0
 43
0.0
 10
-2.282227183872379
 20
-0.4150023672926672
 10
-2.28306116092498
 20
-0.4133364824784102
 10
-2.28564317779127
 20
-0.4072070410901293
 10
-2.287965674772835
 20
-0.3995175042084687
 10
-2.289588763247934
 20
-0.3904288600507707
 10
-2.290105590526099
 20
-0.3803261866255464
 10
-2.289247368022219
 20
-0.3696883286046769
 10
-2.286550962744279
 20
-0.3578012066037369
 10
-2.28220036202374
 20
-0.3466669751653357
 10
-2.276515068508703
 20
-0.3366801269863632
 10
-2.269847183727488
 20
-0.3280346910408531
 10
-2.262578366692779
 20
-0.3208369750124657
 10
-2.255145192797898
 20
-0.3151378506832076
 10
-2.248031556189967
 20
-0.3109100485957246
 10
-2.241691251188038
 20
-0.3080126072356357
 10
-2.236436879138845
 20
-0.3061978823136552
 10
-2.232567262552422
 20
-0.3052121966018186
  0
LWPOLYLINE
  5
167
330
F8
100
AcDbEntity
  8
AM_4
100
AcDbPolyline
 90
       17
 70
     0
 43
0.0
 10
-2.481209738126759
 20
-0.2048703599977731
 10
-2.480170292608826
 20
-0.2064876889373698
 10
-2.477747810893446
 20
-0.210836895977178
 10
-2.475161005423109
 20
-0.2166809306004514
 10
-2.472759163937376
 20
-0.2240891457652401
 10
-2.470974601120361
 20
-0.2329446585324106
 10
-2.470230002306881
 20
-0.2428966838976888
 10
-2.470823374887105
 20
-0.2534718577324223
 10
-2.472895348249405
 20
-0.2642100531801323
 10
-2.476822582762812
 20
-0.2755700781007232
 10
-2.482181565189774
 20
-0.2858879126003152
 10
-2.488620826005369
 20
-0.2949071753759392
 10
-2.495768301032558
 20
-0.3025018918947055
 10
-2.503203597992608
 20
-0.3086055356400837
 10
-2.510451231144415
 20
-0.3132205713100007
 10
-2.517037795991944
 20
-0.3164552103781348
 10
-2.521549345057045
 20
-0.3181848907811128
  0
ELLIPSE
  5
168
330
F8
100
AcDbEntity
  8
AM_4
100
AcDbEllipse
 10
-2.404573377194123
 20
-0.3729962569746643
 30
0.0
 11
-0.1235034625625957
 21
0.04987493162723566
 31
0.0
210
0.0
220
0.0
230
1.0
 40
0.2113091308703532
 41
6.042616194535201
 42
9.667240738146408
  0
ELLIPSE
  5
169
330
F8
100
AcDbEntity
  8
AM_4
100
AcDbEllipse
 10
-2.335272566391605
 20
-0.2013892028241876
 30
0.0
 11
-0.1303939210191825
 21
0.0526575349427209
 31
0.0
210
0.0
220
0.0
230
1.0
 40
0.2113091308703621
 41
1.711945269609615
 42
2.518556725320332
  0
LINE
  5
16A
330
F8
100
AcDbEntity
  8
AM_4
100
AcDbLine
 10
-2.216114516672734
 20
-0.2602304684431305
 30
0.0
 11
-2.235870916626002
 21
-0.2602304684431209
 31
0.0
  0
ELLIPSE
  5
16B
330
F8
100
AcDbEntity
  8
AM_4
100
AcDbEllipse
 10
-2.335272566391603
 20
-0.2013892028241887
 30
0.0
 11
-0.1303939210191727
 21
0.05265753494273347
 31
0.0
210
0.0
220
0.0
230
1.0
 40
0.2113091308703482
 41
2.800469246484372
 42
3.607080702195134
  0
LINE
  5
16C
330
F8
100
AcDbEntity
  8
AM_4
100
AcDbLine
 10
-2.225779286924245
 20
-0.2258378743019629
 30
0.0
 11
-2.213757756742438
 21
-0.2360765106845277
 31
0.0
  0
LWPOLYLINE
  5
16D
330
F8
100
AcDbEntity
  8
AM_4
100
AcDbPolyline
 90
        3
 70
     0
 43
0.0
 10
-2.270094610313673
 20
-0.2689146070947222
 10
-2.298156910282517
 20
-0.251275593729576
 10
-2.327945015120504
 20
-0.2360765106845275
  0
LINE
  5
16E
330
F8
100
AcDbEntity
  8
AM_4
100
AcDbLine
 10
-2.327945015120504
 20
-0.2360765106845275
 30
0.0
 11
-2.353953824146488
 21
-0.2258378743019627
 31
0.0
  0
LWPOLYLINE
  5
16F
330
F8
100
AcDbEntity
  8
AM_4
100
AcDbPolyline
 90
        3
 70
     0
 43
0.0
 10
-2.353953824146488
 20
-0.2258378743019627
 10
-2.376943858838728
 20
-0.2189176876709014
 10
-2.421270989651533
 20
-0.2099962668917053
  0
LINE
  5
170
330
F8
100
AcDbEntity
  8
AM_4
100
AcDbLine
 10
-2.421270989651533
 20
-0.2099962668917053
 30
0.0
 11
-2.432958235871078
 21
-0.2389369657326276
 31
0.0
  0
LWPOLYLINE
  5
171
330
F8
100
AcDbEntity
  8
AM_4
100
AcDbPolyline
 90
        3
 70
     0
 43
0.0
 10
-2.432958235871078
 20
-0.2389369657326276
 10
-2.403278414637276
 20
-0.2560939713202353
 10
-2.37225373168502
 20
-0.2711532636537956
  0
LINE
  5
172
330
F8
100
AcDbEntity
  8
AM_4
100
AcDbLine
 10
-2.37225373168502
 20
-0.2711532636537956
 30
0.0
 11
-2.346244922659037
 21
-0.2813919000363599
 31
0.0
  0
LWPOLYLINE
  5
173
330
F8
100
AcDbEntity
  8
AM_4
100
AcDbPolyline
 90
        3
 70
     0
 43
0.0
 10
-2.346244922659037
 20
-0.2813919000363599
 10
-2.314594371805013
 20
-0.2911775952746243
 10
-2.282150259624652
 20
-0.2987675689889718
  0
LINE
  5
174
330
F8
100
AcDbEntity
  8
AM_4
100
AcDbLine
 10
-2.270094610313673
 20
-0.2689146070947222
 30
0.0
 11
-2.282150259624652
 21
-0.2987675689889718
 31
0.0
  0
ARC
  5
175
330
F8
100
AcDbEntity
  8
AM_4
100
AcDbCircle
 10
-2.264656430896308
 20
0.0000000000000004
 30
0.0
 40
0.1999999999999995
100
AcDbArc
 50
90.0
 51
219.6391432327837
  0
LWPOLYLINE
  5
176
330
F8
100
AcDbEntity
  8
AM_4
100
AcDbPolyline
 90
       10
 70
     0
 43
0.0
 10
-2.418860447163736
 20
-0.1273621292374977
 10
-2.417195481205636
 20
-0.1291842652280562
 10
-2.410917933937973
 20
-0.1344729790611519
 10
-2.401760334875252
 20
-0.1405186270901959
 10
-2.39046414571324
 20
-0.1468270783017121
 10
-2.376722994572491
 20
-0.1535654953592165
 10
-2.361661504833009
 20
-0.1601799433259583
 10
-2.344868082013349
 20
-0.1668493358980661
 10
-2.327468745859353
 20
-0.1731116383367606
 10
-2.30922553108025
 20
-0.1790373738502115
  0
ELLIPSE
  5
177
330
F8
100
AcDbEntity
  8
AM_4
100
AcDbEllipse
 10
-2.264656430896307
 20
-0.0000000000000001
 30
0.0
 11
1.224646799147355E-17
 21
0.2000000000000002
 31
0.0
210
0.0
220
0.0
230
1.0
 40
0.4999999999999999
 41
0.0
 42
2.679646633022826
  0
LINE
  5
178
330
F8
100
AcDbEntity
  8
AM_4
100
AcDbLine
 10
-2.200148251565524
 20
0.1999999999999999
 30
0.0
 11
-2.264656430896307
 21
0.1999999999999999
 31
0.0
  0
LINE
  5
179
330
F8
100
AcDbEntity
  8
AM_4
100
AcDbLine
 10
-2.229750212494194
 20
-0.2
 30
0.0
 11
-2.200150895652901
 21
-0.2
 31
0.0
  0
LWPOLYLINE
  5
17A
330
F8
100
AcDbEntity
  8
AM_4
100
AcDbPolyline
 90
        8
 70
     0
 43
0.0
 10
-2.229602428267286
 20
-0.1999999999699529
 10
-2.23108954550659
 20
-0.1999786710855128
 10
-2.241963145983339
 20
-0.1988321115509053
 10
-2.254361467697321
 20
-0.1961649429984259
 10
-2.268784898063313
 20
-0.1920694300574958
 10
-2.284297877924131
 20
-0.1870948030566195
 10
-2.301391281711102
 20
-0.181500594761393
 10
-2.309225531080267
 20
-0.1790373738501784
  0
LINE
  5
17B
330
F8
100
AcDbEntity
  8
AM_4
100
AcDbLine
 10
-2.192753863719467
 20
0.2187499999999999
 30
0.0
 11
-2.19
 21
0.2187499999999999
 31
0.0
  0
LWPOLYLINE
  5
17C
330
F8
100
AcDbEntity
  8
AM_4
100
AcDbPolyline
 90
        3
 70
     0
 43
0.0
 10
-2.232180478254391
 20
0.1093749999999999
 10
-2.214320828270468
 20
0.1640624999999999
 10
-2.192753863719467
 20
0.2187499999999999
  0
LWPOLYLINE
  5
17D
330
F8
100
AcDbEntity
  8
AM_4
100
AcDbPolyline
 90
        3
 70
     0
 43
0.0
 10
-2.255901549412082
 20
-0.0000000000000001
 10
-2.245947341982808
 20
0.0544416102741495
 10
-2.232180478254391
 20
0.1093749999999999
  0
LINE
  5
17E
330
F8
100
AcDbEntity
  8
AM_4
100
AcDbLine
 10
-2.255901549412082
 20
-0.0000000000000001
 30
0.0
 11
-2.19
 21
-0.0000000000000001
 31
0.0
  0
LWPOLYLINE
  5
17F
330
F8
100
AcDbEntity
  8
AM_4
100
AcDbPolyline
 90
        3
 70
     0
 43
0.0
 10
-2.232180478254391
 20
-0.109375
 10
-2.245894671116775
 20
-0.0546875
 10
-2.255901549412082
 20
-0.0000000000000001
  0
LWPOLYLINE
  5
180
330
F8
100
AcDbEntity
  8
AM_4
100
AcDbPolyline
 90
        3
 70
     0
 43
0.0
 10
-2.192753863719467
 20
-0.2187500000000001
 10
-2.21423153463709
 20
-0.1643083897258504
 10
-2.232180478254391
 20
-0.109375
  0
LINE
  5
181
330
F8
100
AcDbEntity
  8
AM_4
100
AcDbLine
 10
-2.192753863719467
 20
-0.2187500000000001
 30
0.0
 11
-2.19
 21
-0.2187500000000001
 31
0.0
  0
ENDBLK
  5
FB
330
F8
100
AcDbEntity
  8
0
100
AcDbBlockEnd
  0
BLOCK
  5
184
330
182
100
AcDbEntity
  8
0
100
AcDbBlockBegin
  2
4_131220H_0_in_131220_4
 70
     2
 10
0.0
 20
0.0
 30
0.0
  3
4_131220H_0_in_131220_4
  1

  0
ATTDEF
  5
186
330
182
100
AcDbEntity
  8
AM_6
100
AcDbText
 10
8.471499999999999
 20
0.9699999999999999
 30
0.0
 40
0.5
  1
WSTU-SXR -I-Housing
100
AcDbAttributeDefinition
  3

  2
NN
 70
     8
280
     0
  0
ATTDEF
  5
187
330
182
100
AcDbEntity
  8
AM_6
100
AcDbText
 10
8.471499999999999
 20
0.4699999999999999
 30
0.0
 40
0.5
  1
SXR Normal Duty Wide Slot Take-Up Bearings
100
AcDbAttributeDefinition
  3

  2
NT
 70
     8
280
     0
  0
ATTDEF
  5
188
330
182
100
AcDbEntity
  8
AM_6
100
AcDbText
 10
8.471499999999999
 20
-0.0300000000000001
 30
0.0
 40
0.5
  1
131220H
100
AcDbAttributeDefinition
  3

  2
NB
 70
     8
280
     0
  0
ATTDEF
  5
189
330
182
100
AcDbEntity
  8
AM_6
100
AcDbText
 10
8.471499999999999
 20
-0.5300000000000001
 30
0.0
 40
0.5
  1
$PN.H
100
AcDbAttributeDefinition
  3

  2
NBSYN
 70
     8
280
     0
  0
ATTDEF
  5
18A
330
182
100
AcDbEntity
  8
AM_6
100
AcDbText
 10
8.471499999999999
 20
-1.03
 30
0.0
 40
0.5
  1
131220
100
AcDbAttributeDefinition
  3

  2
LINA
 70
     8
280
     0
  0
ATTDEF
  5
18B
330
182
100
AcDbEntity
  8
AM_6
100
AcDbText
 10
8.471499999999999
 20
-1.53
 30
0.0
 40
0.5
  1
209
100
AcDbAttributeDefinition
  3

  2
SERIES
 70
     8
280
     0
  0
ATTDEF
  5
18C
330
182
100
AcDbEntity
  8
AM_6
100
AcDbText
 10
8.471499999999999
 20
-2.03
 30
0.0
 40
0.5
  1
1-5/8
100
AcDbAttributeDefinition
  3

  2
SS
 70
     8
280
     0
  0
ATTDEF
  5
18D
330
182
100
AcDbEntity
  8
AM_6
100
AcDbText
 10
8.471499999999999
 20
-2.53
 30
0.0
 40
0.5
  1
1.625000
100
AcDbAttributeDefinition
  3

  2
SS1
 70
     8
280
     0
  0
ATTDEF
  5
18E
330
182
100
AcDbEntity
  8
AM_6
100
AcDbText
 10
8.471499999999999
 20
-3.03
 30
0.0
 40
0.5
  1
131220
100
AcDbAttributeDefinition
  3

  2
PN
 70
     8
280
     0
  0
ATTDEF
  5
18F
330
182
100
AcDbEntity
  8
AM_6
100
AcDbText
 10
8.471499999999999
 20
-3.53
 30
0.0
 40
0.5
  1
WSTU-SXR-110
100
AcDbAttributeDefinition
  3

  2
DESCRIPTION
 70
     8
280
     0
  0
ATTDEF
  5
190
330
182
100
AcDbEntity
  8
AM_6
100
AcDbText
 10
8.471499999999999
 20
-4.03
 30
0.0
 40
0.5
  1
RE-LUBE
100
AcDbAttributeDefinition
  3

  2
LF
 70
     8
280
     0
  0
ATTDEF
  5
191
330
182
100
AcDbEntity
  8
AM_6
100
AcDbText
 10
8.471499999999999
 20
-4.53
 30
0.0
 40
0.5
  1
3.346500
100
AcDbAttributeDefinition
  3

  2
BOD
 70
     8
280
     0
  0
ATTDEF
  5
192
330
182
100
AcDbEntity
  8
AM_6
100
AcDbText
 10
8.471499999999999
 20
-5.03
 30
0.0
 40
0.5
  1
0.866100
100
AcDbAttributeDefinition
  3

  2
BW
 70
     8
280
     0
  0
ATTDEF
  5
193
330
182
100
AcDbEntity
  8
AM_6
100
AcDbText
 10
8.471499999999999
 20
-5.53
 30
0.0
 40
0.5
  1
6.5
100
AcDbAttributeDefinition
  3

  2
W
 70
     8
280
     0
  0
ATTDEF
  5
194
330
182
100
AcDbEntity
  8
AM_6
100
AcDbText
 10
8.471499999999999
 20
-6.03
 30
0.0
 40
0.5
  1
WS400
100
AcDbAttributeDefinition
  3

  2
FS
 70
     8
280
     0
  0
ATTDEF
  5
195
330
182
100
AcDbEntity
  8
AM_6
100
AcDbText
 10
8.471499999999999
 20
-6.53
 30
0.0
 40
0.5
  1
2.13
100
AcDbAttributeDefinition
  3

  2
A
 70
     8
280
     0
  0
ATTDEF
  5
196
330
182
100
AcDbEntity
  8
AM_6
100
AcDbText
 10
8.471499999999999
 20
-7.03
 30
0.0
 40
0.5
  1
2.130000
100
AcDbAttributeDefinition
  3

  2
A1
 70
     8
280
     0
  0
ATTDEF
  5
197
330
182
100
AcDbEntity
  8
AM_6
100
AcDbText
 10
8.471499999999999
 20
-7.53
 30
0.0
 40
0.5
  1
5.63
100
AcDbAttributeDefinition
  3

  2
B
 70
     8
280
     0
  0
ATTDEF
  5
198
330
182
100
AcDbEntity
  8
AM_6
100
AcDbText
 10
8.471499999999999
 20
-8.030000000000001
 30
0.0
 40
0.5
  1
5.630000
100
AcDbAttributeDefinition
  3

  2
B1
 70
     8
280
     0
  0
ATTDEF
  5
199
330
182
100
AcDbEntity
  8
AM_6
100
AcDbText
 10
8.471499999999999
 20
-8.530000000000001
 30
0.0
 40
0.5
  1
0.688
100
AcDbAttributeDefinition
  3

  2
C
 70
     8
280
     0
  0
ATTDEF
  5
19A
330
182
100
AcDbEntity
  8
AM_6
100
AcDbText
 10
8.471499999999999
 20
-9.030000000000001
 30
0.0
 40
0.5
  1
0.688000
100
AcDbAttributeDefinition
  3

  2
C1
 70
     8
280
     0
  0
ATTDEF
  5
19B
330
182
100
AcDbEntity
  8
AM_6
100
AcDbText
 10
8.471499999999999
 20
-9.530000000000001
 30
0.0
 40
0.5
  1
3.25
100
AcDbAttributeDefinition
  3

  2
D
 70
     8
280
     0
  0
ATTDEF
  5
19C
330
182
100
AcDbEntity
  8
AM_6
100
AcDbText
 10
8.471499999999999
 20
-10.03
 30
0.0
 40
0.5
  1
3.250000
100
AcDbAttributeDefinition
  3

  2
D1
 70
     8
280
     0
  0
ATTDEF
  5
19D
330
182
100
AcDbEntity
  8
AM_6
100
AcDbText
 10
8.471499999999999
 20
-10.53
 30
0.0
 40
0.5
  1
3.44
100
AcDbAttributeDefinition
  3

  2
E
 70
     8
280
     0
  0
ATTDEF
  5
19E
330
182
100
AcDbEntity
  8
AM_6
100
AcDbText
 10
8.471499999999999
 20
-11.03
 30
0.0
 40
0.5
  1
3.440000
100
AcDbAttributeDefinition
  3

  2
E1
 70
     8
280
     0
  0
ATTDEF
  5
19F
330
182
100
AcDbEntity
  8
AM_6
100
AcDbText
 10
8.471499999999999
 20
-11.53
 30
0.0
 40
0.5
  1
1
100
AcDbAttributeDefinition
  3

  2
F
 70
     8
280
     0
  0
ATTDEF
  5
1A0
330
182
100
AcDbEntity
  8
AM_6
100
AcDbText
 10
8.471499999999999
 20
-12.03
 30
0.0
 40
0.5
  1
1.000000
100
AcDbAttributeDefinition
  3

  2
F1
 70
     8
280
     0
  0
ATTDEF
  5
1A1
330
182
100
AcDbEntity
  8
AM_6
100
AcDbText
 10
8.471499999999999
 20
-12.53
 30
0.0
 40
0.5
  1
0.63
100
AcDbAttributeDefinition
  3

  2
G
 70
     8
280
     0
  0
ATTDEF
  5
1A2
330
182
100
AcDbEntity
  8
AM_6
100
AcDbText
 10
8.471499999999999
 20
-13.03
 30
0.0
 40
0.5
  1
0.630000
100
AcDbAttributeDefinition
  3

  2
G1
 70
     8
280
     0
  0
ATTDEF
  5
1A3
330
182
100
AcDbEntity
  8
AM_6
100
AcDbText
 10
8.471499999999999
 20
-13.53
 30
0.0
 40
0.5
  1
0.75
100
AcDbAttributeDefinition
  3

  2
H
 70
     8
280
     0
  0
ATTDEF
  5
1A4
330
182
100
AcDbEntity
  8
AM_6
100
AcDbText
 10
8.471499999999999
 20
-14.03
 30
0.0
 40
0.5
  1
0.750000
100
AcDbAttributeDefinition
  3

  2
H1
 70
     8
280
     0
  0
ATTDEF
  5
1A5
330
182
100
AcDbEntity
  8
AM_6
100
AcDbText
 10
8.471499999999999
 20
-14.53
 30
0.0
 40
0.5
  1
3.25
100
AcDbAttributeDefinition
  3

  2
J
 70
     8
280
     0
  0
ATTDEF
  5
1A6
330
182
100
AcDbEntity
  8
AM_6
100
AcDbText
 10
8.471499999999999
 20
-15.03
 30
0.0
 40
0.5
  1
3.250000
100
AcDbAttributeDefinition
  3

  2
J1
 70
     8
280
     0
  0
ATTDEF
  5
1A7
330
182
100
AcDbEntity
  8
AM_6
100
AcDbText
 10
8.471499999999999
 20
-15.53
 30
0.0
 40
0.5
  1
1.94
100
AcDbAttributeDefinition
  3

  2
K
 70
     8
280
     0
  0
ATTDEF
  5
1A8
330
182
100
AcDbEntity
  8
AM_6
100
AcDbText
 10
8.471499999999999
 20
-16.03
 30
0.0
 40
0.5
  1
2.50
100
AcDbAttributeDefinition
  3

  2
L
 70
     8
280
     0
  0
ATTDEF
  5
1A9
330
182
100
AcDbEntity
  8
AM_6
100
AcDbText
 10
8.471499999999999
 20
-16.53
 30
0.0
 40
0.5
  1
2.500000
100
AcDbAttributeDefinition
  3

  2
L1
 70
     8
280
     0
  0
ATTDEF
  5
1AA
330
182
100
AcDbEntity
  8
AM_6
100
AcDbText
 10
8.471499999999999
 20
-17.03
 30
0.0
 40
0.5
  1
3.985/4.015
100
AcDbAttributeDefinition
  3

  2
M
 70
     8
280
     0
  0
ATTDEF
  5
1AB
330
182
100
AcDbEntity
  8
AM_6
100
AcDbText
 10
8.471499999999999
 20
-17.53
 30
0.0
 40
0.5
  1
4.015000
100
AcDbAttributeDefinition
  3

  2
M1
 70
     8
280
     0
  0
ATTDEF
  5
1AC
330
182
100
AcDbEntity
  8
AM_6
100
AcDbText
 10
8.471499999999999
 20
-18.03
 30
0.0
 40
0.5
  1
4.75
100
AcDbAttributeDefinition
  3

  2
N
 70
     8
280
     0
  0
ATTDEF
  5
1AD
330
182
100
AcDbEntity
  8
AM_6
100
AcDbText
 10
8.471499999999999
 20
-18.53
 30
0.0
 40
0.5
  1
4.750000
100
AcDbAttributeDefinition
  3

  2
N1
 70
     8
280
     0
  0
ATTDEF
  5
1AE
330
182
100
AcDbEntity
  8
AM_6
100
AcDbText
 10
8.471499999999999
 20
-19.03
 30
0.0
 40
0.5
  1
0.75
100
AcDbAttributeDefinition
  3

  2
R
 70
     8
280
     0
  0
ATTDEF
  5
1AF
330
182
100
AcDbEntity
  8
AM_6
100
AcDbText
 10
8.471499999999999
 20
-19.53
 30
0.0
 40
0.5
  1
0.750000
100
AcDbAttributeDefinition
  3

  2
R1
 70
     8
280
     0
  0
ATTDEF
  5
1B0
330
182
100
AcDbEntity
  8
AM_6
100
AcDbText
 10
8.471499999999999
 20
-20.03
 30
0.0
 40
0.5
  1
1.38
100
AcDbAttributeDefinition
  3

  2
S
 70
     8
280
     0
  0
ATTDEF
  5
1B1
330
182
100
AcDbEntity
  8
AM_6
100
AcDbText
 10
8.471499999999999
 20
-20.53
 30
0.0
 40
0.5
  1
1.380000
100
AcDbAttributeDefinition
  3

  2
S1
 70
     8
280
     0
  0
ATTDEF
  5
1B2
330
182
100
AcDbEntity
  8
AM_6
100
AcDbText
 10
8.471499999999999
 20
-21.03
 30
0.0
 40
0.5
  1
1.94
100
AcDbAttributeDefinition
  3

  2
T
 70
     8
280
     0
  0
ATTDEF
  5
1B3
330
182
100
AcDbEntity
  8
AM_6
100
AcDbText
 10
8.471499999999999
 20
-21.53
 30
0.0
 40
0.5
  1
4450
100
AcDbAttributeDefinition
  3

  2
CAPS
 70
     8
280
     0
  0
ATTDEF
  5
1B4
330
182
100
AcDbEntity
  8
AM_6
100
AcDbText
 10
8.471499999999999
 20
-22.03
 30
0.0
 40
0.5
  1
7891
100
AcDbAttributeDefinition
  3

  2
CAPD
 70
     8
280
     0
  0
ATTDEF
  5
1B5
330
182
100
AcDbEntity
  8
AM_6
100
AcDbText
 10
8.471499999999999
 20
-22.53
 30
0.0
 40
0.5
  1
baldor
100
AcDbAttributeDefinition
  3

  2
COMPANY
 70
     8
280
     0
  0
ELLIPSE
  5
1B6
330
182
100
AcDbEntity
  8
AM_9
100
AcDbEllipse
 10
-1.983198174666365
 20
-0.0000000000000001
 30
0.0
 11
2.143131898507868E-17
 21
0.35
 31
0.0
210
0.0
220
0.0
230
1.0
 40
0.5000000000000001
 41
0.0
 42
6.283185307179586
  0
LINE
  5
1B7
330
182
100
AcDbEntity
  8
AM_9
100
AcDbLine
 10
-1.899041758731231
 20
-0.4499840434925711
 30
0.0
 11
-1.896551394128948
 21
-0.4499999947808218
 31
0.0
  0
LWPOLYLINE
  5
1B8
330
182
100
AcDbEntity
  8
AM_9
100
AcDbPolyline
 90
       26
 70
     0
 43
0.0
 10
-2.17159563428792
 20
0.0
 10
-2.171461531191376
 20
-0.0146458105526241
 10
-2.170493773431795
 20
-0.041935401718928
 10
-2.168591924418602
 20
-0.069088809779799
 10
-2.165756067131797
 20
-0.0960205260899056
 10
-2.161985208291763
 20
-0.1226498796554452
 10
-2.157276846874088
 20
-0.1488978568294614
 10
-2.151626324818048
 20
-0.1746871915752824
 10
-2.145026062499082
 20
-0.1999421121731788
 10
-2.137464776633606
 20
-0.2245875437720392
 10
-2.128926890650809
 20
-0.2485474854801634
 10
-2.11939254682702
 20
-0.2717422002149259
 10
-2.108838944129645
 20
-0.2940838477357451
 10
-2.097244121886189
 20
-0.3154704404939275
 10
-2.084594539229176
 20
-0.3357788633330191
 10
-2.070916340668201
 20
-0.3548347258969481
 10
-2.056268859807383
 20
-0.3724549141646695
 10
-2.040751013682603
 20
-0.3884611674027736
 10
-2.024496045327565
 20
-0.4027028779088468
 10
-2.007650604362378
 20
-0.4150805623651925
 10
-1.990353659067068
 20
-0.4255510114469215
 10
-1.972726325708817
 20
-0.4341148301717278
 10
-1.954873137050601
 20
-0.4407980589894254
 10
-1.936888208598772
 20
-0.4456378719352351
 10
-1.918860388977746
 20
-0.4486750436078608
 10
-1.90547137545031
 20
-0.4497898467170289
  0
LWPOLYLINE
  5
1B9
330
182
100
AcDbEntity
  8
AM_9
100
AcDbPolyline
 90
       27
 70
     0
 43
0.0
 10
-1.899018836825593
 20
0.4499843411468915
 10
-1.905373984589045
 20
0.4497944349478183
 10
-1.923098307035349
 20
0.4481208479969652
 10
-1.940546750463189
 20
0.4448022483398681
 10
-1.957666522615775
 20
0.4398787474935603
 10
-1.974417763475775
 20
0.4333801773146116
 10
-1.99077196417585
 20
0.4253227407247767
 10
-2.006708536607254
 20
0.4157070016917838
 10
-2.02220901894568
 20
0.4045188443148446
 10
-2.037249296465132
 20
0.3917352311759437
 10
-2.05179119408031
 20
0.3773360838985523
 10
-2.065776229928217
 20
0.3613215092818164
 10
-2.07912535970536
 20
0.3437295901610298
 10
-2.091747285746812
 20
0.3246462419458491
 10
-2.103553292558946
 20
0.3042001221703835
 10
-2.114471647226334
 20
0.28254414404308
 10
-2.124446546329367
 20
0.2598537735137125
 10
-2.133456755662531
 20
0.2362710814309082
 10
-2.141499053307432
 20
0.2119127172516028
 10
-2.148577327382438
 20
0.1868808676447128
 10
-2.154698020933901
 20
0.1612678422416703
 10
-2.159867613767139
 20
0.1351601564903794
 10
-2.164091528040099
 20
0.108641473338895
 10
-2.167373854282887
 20
0.0817944473122809
 10
-2.169717473643056
 20
0.0547017191554897
 10
-2.171124318417119
 20
0.0274463161398362
 10
-2.17159563428792
 20
0.0
  0
LINE
  5
1BA
330
182
100
AcDbEntity
  8
AM_9
100
AcDbLine
 10
-1.896671637775766
 20
0.4499999845959187
 30
0.0
 11
-1.898234923321535
 21
0.4499928338615589
 31
0.0
  0
LINE
  5
1BB
330
182
100
AcDbEntity
  8
AM_9
100
AcDbLine
 10
2.81
 20
-0.5
 30
0.0
 11
3.44
 21
-0.5
 31
0.0
  0
LINE
  5
1BC
330
182
100
AcDbEntity
  8
AM_9
100
AcDbLine
 10
3.44
 20
0.5
 30
0.0
 11
2.81
 21
0.5
 31
0.0
  0
LINE
  5
1BD
330
182
100
AcDbEntity
  8
AM_9
100
AcDbLine
 10
2.7412
 20
-0.5848
 30
0.0
 11
2.7412
 21
0.5848000000000001
 31
0.0
  0
LINE
  5
1BE
330
182
100
AcDbEntity
  8
AM_9
100
AcDbLine
 10
2.81
 20
-0.5848
 30
0.0
 11
2.81
 21
0.5848000000000001
 31
0.0
  0
LINE
  5
1BF
330
182
100
AcDbEntity
  8
AM_9
100
AcDbLine
 10
2.1288
 20
-0.5848
 30
0.0
 11
2.1288
 21
0.5848000000000001
 31
0.0
  0
LINE
  5
1C0
330
182
100
AcDbEntity
  8
AM_9
100
AcDbLine
 10
2.06
 20
-0.5848
 30
0.0
 11
2.06
 21
0.5848000000000001
 31
0.0
  0
LWPOLYLINE
  5
1C1
330
182
100
AcDbEntity
  8
AM_9
100
AcDbPolyline
 90
       38
 70
     0
 43
0.0
 10
-1.896595634287921
 20
0.4499999999999998
 10
-1.877860451467053
 20
0.4484793731714373
 10
-1.85872441458453
 20
0.4439403998513609
 10
-1.838761724755926
 20
0.4361410378713389
 10
-1.8187068537671
 20
0.4252438294446442
 10
-1.799312494390265
 20
0.4117651138716567
 10
-1.780177269045394
 20
0.3955422852775068
 10
-1.760956368980957
 20
0.3761087789832567
 10
-1.742389365437953
 20
0.3540343057085767
 10
-1.724932972910475
 20
0.3298568846188837
 10
-1.708478052948946
 20
0.3034288937381895
 10
-1.692788282286055
 20
0.2740753217852964
 10
-1.678527873387915
 20
0.2427266006140309
 10
-1.666100145344953
 20
0.2102354871743147
 10
-1.655366343863275
 20
0.1762501665238064
 10
-1.646233207925037
 20
0.1399270620462109
 10
-1.639166122750322
 20
0.1025327018210537
 10
-1.634438671915762
 20
0.0659828187194989
 10
-1.631761038017006
 20
0.0289643292793259
 10
-1.631194413962612
 20
-0.0093798029698781
 10
-1.632848837857417
 20
-0.0476530240264297
 10
-1.63649469126599
 20
-0.0839046036610037
 10
-1.642101171936962
 20
-0.1195796906871706
 10
-1.649846657589427
 20
-0.1554195491916152
 10
-1.659487891332054
 20
-0.1901438751572609
 10
-1.670656112463701
 20
-0.2228370353556863
 10
-1.683391517619324
 20
-0.2540192518945621
 10
-1.697968344313907
 20
-0.2842836496646227
 10
-1.713876333420525
 20
-0.3125381139534259
 10
-1.730780171489619
 20
-0.3383595298823011
 10
-1.748634332033647
 20
-0.3618495163159566
 10
-1.767804635652801
 20
-0.3834099720545509
 10
-1.787581407443662
 20
-0.4021757602303792
 10
-1.807212097956875
 20
-0.4176069178536658
 10
-1.8270379393137
 20
-0.4301437566980275
 10
-1.847472015615499
 20
-0.4399198416101608
 10
-1.867730101355584
 20
-0.4464427811566035
 10
-1.896595634287921
 20
-0.4499999999999999
  0
LWPOLYLINE
  5
1C2
330
182
100
AcDbEntity
  8
AM_9
100
AcDbPolyline
 90
       30
 70
     0
 43
0.0
 10
-1.896595634287921
 20
-0.4499999999999999
 10
-1.919530181732633
 20
-0.4475591751076476
 10
-1.941362369514894
 20
-0.4402953420970587
 10
-1.963020738185318
 20
-0.4274012405587146
 10
-1.983100724782029
 20
-0.4093320538132136
 10
-2.001346932685174
 20
-0.3864318029157874
 10
-2.017894697597672
 20
-0.3584721799070832
 10
-2.032536774322656
 20
-0.3260372370363517
 10
-2.045173735173824
 20
-0.2897106133937584
 10
-2.055990920577636
 20
-0.2490880183364682
 10
-2.064856617424203
 20
-0.2051382907516805
 10
-2.071752867032902
 20
-0.1586764042494095
 10
-2.076704741442382
 20
-0.1103720806296454
 10
-2.079816575937648
 20
-0.060467317412947
 10
-2.081090112859699
 20
-0.0099324453479405
 10
-2.080558634694265
 20
0.0397637361690352
 10
-2.078266765000805
 20
0.0891128642419384
 10
-2.074212890534602
 20
0.1371861842466277
 10
-2.068364979340423
 20
0.1833928839932091
 10
-2.060674162503252
 20
0.2274780316162557
 10
-2.051150780093853
 20
0.2686614049928235
 10
-2.039488416845882
 20
0.3072001336507594
 10
-2.0258034120499
 20
0.3420293280544438
 10
-2.01017614148224
 20
0.3725192914115719
 10
-1.992348258250722
 20
0.3985815346979081
 10
-1.972525384335404
 20
0.4196686588244735
 10
-1.950954338185182
 20
0.4353608115687838
 10
-1.9336367580179
 20
0.4434542568814376
 10
-1.915455327142096
 20
0.448353704933076
 10
-1.896595634287921
 20
0.4499999999999998
  0
LINE
  5
1C3
330
182
100
AcDbEntity
  8
AM_9
100
AcDbLine
 10
-0.5416666666666666
 20
-0.3096000000000001
 30
0.0
 11
-0.5416666666666666
 21
0.5848
 31
0.0
  0
LINE
  5
1C4
330
182
100
AcDbEntity
  8
AM_9
100
AcDbLine
 10
0.5416666666666666
 20
-0.3096000000000001
 30
0.0
 11
0.5416666666666666
 21
0.5848
 31
0.0
  0
LINE
  5
1C5
330
182
100
AcDbEntity
  8
AM_9
100
AcDbLine
 10
1.67325
 20
-0.5848000000000001
 30
0.0
 11
1.67325
 21
0.5847999999999998
 31
0.0
  0
LINE
  5
1C6
330
182
100
AcDbEntity
  8
AM_9
100
AcDbLine
 10
-1.67325
 20
0.5847999999999998
 30
0.0
 11
-1.67325
 21
-0.5848000000000001
 31
0.0
  0
LINE
  5
1C7
330
182
100
AcDbEntity
  8
AM_9
100
AcDbLine
 10
0.5416666666666666
 20
-0.3096000000000001
 30
0.0
 11
-0.5416666666666666
 21
-0.3096000000000001
 31
0.0
  0
LINE
  5
1C8
330
182
100
AcDbEntity
  8
AM_9
100
AcDbLine
 10
1.625
 20
0.5848000000000001
 30
0.0
 11
-1.625
 21
0.5848000000000001
 31
0.0
  0
LINE
  5
1C9
330
182
100
AcDbEntity
  8
AM_9
100
AcDbLine
 10
1.625
 20
-0.5847999999999999
 30
0.0
 11
-1.625
 21
-0.5847999999999999
 31
0.0
  0
ELLIPSE
  5
1CA
330
182
100
AcDbEntity
  8
AM_9
100
AcDbEllipse
 10
-1.896595634287921
 20
-0.0000000000000001
 30
0.0
 11
-8.266365894244627E-17
 21
-0.4499999999999996
 31
0.0
210
0.0
220
0.0
230
1.0
 40
0.5000000000000001
 41
0.0
 42
6.283185307179586
  0
LINE
  5
1CB
330
182
100
AcDbEntity
  8
AM_7
100
AcDbLine
 10
3.4715
 20
0.0
 30
0.0
 11
2.7785
 21
0.0
 31
0.0
  0
LINE
  5
1CC
330
182
100
AcDbEntity
  8
AM_4
100
AcDbLine
 10
2.81
 20
-0.5847999999999998
 30
0.0
 11
2.81
 21
-0.9699999999999999
 31
0.0
  0
LINE
  5
1CD
330
182
100
AcDbEntity
  8
AM_4
100
AcDbLine
 10
2.81
 20
-0.9699999999999999
 30
0.0
 11
3.44
 21
-0.9699999999999999
 31
0.0
  0
LINE
  5
1CE
330
182
100
AcDbEntity
  8
AM_4
100
AcDbLine
 10
3.44
 20
0.9699999999999999
 30
0.0
 11
2.81
 21
0.9699999999999999
 31
0.0
  0
LINE
  5
1CF
330
182
100
AcDbEntity
  8
AM_4
100
AcDbLine
 10
2.81
 20
0.9699999999999999
 30
0.0
 11
2.81
 21
0.5847999999999999
 31
0.0
  0
LINE
  5
1D0
330
182
100
AcDbEntity
  8
AM_4
100
AcDbLine
 10
3.44
 20
0.9699999999999999
 30
0.0
 11
3.44
 21
-0.9699999999999999
 31
0.0
  0
LINE
  5
1D1
330
182
100
AcDbEntity
  8
AM_4
100
AcDbLine
 10
-2.19
 20
-0.5459999999999997
 30
0.0
 11
-2.1512
 21
-0.5847999999999995
 31
0.0
  0
LINE
  5
1D2
330
182
100
AcDbEntity
  8
AM_4
100
AcDbLine
 10
-2.1512
 20
-0.5847999999999995
 30
0.0
 11
-1.625
 21
-0.5847999999999995
 31
0.0
  0
LINE
  5
1D3
330
182
100
AcDbEntity
  8
AM_4
100
AcDbLine
 10
-2.19
 20
0.5460000000000002
 30
0.0
 11
-2.19
 21
-0.5459999999999997
 31
0.0
  0
LINE
  5
1D4
330
182
100
AcDbEntity
  8
AM_4
100
AcDbLine
 10
-2.19
 20
-0.5459999999999997
 30
0.0
 11
-1.625
 21
-0.5459999999999997
 31
0.0
  0
LINE
  5
1D5
330
182
100
AcDbEntity
  8
AM_4
100
AcDbLine
 10
-2.1512
 20
0.5848000000000001
 30
0.0
 11
-2.19
 21
0.5460000000000002
 31
0.0
  0
LINE
  5
1D6
330
182
100
AcDbEntity
  8
AM_4
100
AcDbLine
 10
-2.19
 20
0.5460000000000002
 30
0.0
 11
-1.625
 21
0.5460000000000002
 31
0.0
  0
LINE
  5
1D7
330
182
100
AcDbEntity
  8
AM_4
100
AcDbLine
 10
-2.1512
 20
0.5848000000000001
 30
0.0
 11
-1.625
 21
0.5848000000000001
 31
0.0
  0
LINE
  5
1D8
330
182
100
AcDbEntity
  8
AM_4
100
AcDbLine
 10
3.44
 20
-0.5847999999999998
 30
0.0
 11
1.625
 21
-0.5847999999999998
 31
0.0
  0
LINE
  5
1D9
330
182
100
AcDbEntity
  8
AM_4
100
AcDbLine
 10
3.44
 20
-0.5848000000000001
 30
0.0
 11
3.3712
 21
-0.5160000000000002
 31
0.0
  0
LINE
  5
1DA
330
182
100
AcDbEntity
  8
AM_4
100
AcDbLine
 10
3.3712
 20
-0.5160000000000002
 30
0.0
 11
1.625
 21
-0.5159999999999998
 31
0.0
  0
LINE
  5
1DB
330
182
100
AcDbEntity
  8
AM_4
100
AcDbLine
 10
3.3712
 20
-0.5160000000000002
 30
0.0
 11
3.3712
 21
0.5159999999999998
 31
0.0
  0
LINE
  5
1DC
330
182
100
AcDbEntity
  8
AM_4
100
AcDbLine
 10
3.44
 20
0.5848000000000002
 30
0.0
 11
1.625
 21
0.5848000000000001
 31
0.0
  0
LINE
  5
1DD
330
182
100
AcDbEntity
  8
AM_4
100
AcDbLine
 10
3.3712
 20
0.5159999999999998
 30
0.0
 11
1.625
 21
0.5159999999999998
 31
0.0
  0
LINE
  5
1DE
330
182
100
AcDbEntity
  8
AM_4
100
AcDbLine
 10
3.371199999999999
 20
0.5160000000000001
 30
0.0
 11
3.44
 21
0.5848000000000005
 31
0.0
  0
LINE
  5
1DF
330
182
100
AcDbEntity
  8
AM_4
100
AcDbLine
 10
1.625
 20
0.6880000000000001
 30
0.0
 11
-1.625
 21
0.6880000000000001
 31
0.0
  0
LINE
  5
1E0
330
182
100
AcDbEntity
  8
AM_4
100
AcDbLine
 10
-1.625
 20
0.6879999999999996
 30
0.0
 11
-1.5562
 21
0.6191999999999991
 31
0.0
  0
LINE
  5
1E1
330
182
100
AcDbEntity
  8
AM_4
100
AcDbLine
 10
-1.625
 20
0.6880000000000001
 30
0.0
 11
-1.625
 21
-0.6879999999999996
 31
0.0
  0
LINE
  5
1E2
330
182
100
AcDbEntity
  8
AM_4
100
AcDbLine
 10
1.556199999999999
 20
0.6191999999999991
 30
0.0
 11
-1.5562
 21
0.6191999999999991
 31
0.0
  0
LINE
  5
1E3
330
182
100
AcDbEntity
  8
AM_4
100
AcDbLine
 10
-1.5562
 20
0.3440000000000001
 30
0.0
 11
-1.5562
 21
0.6191999999999991
 31
0.0
  0
LINE
  5
1E4
330
182
100
AcDbEntity
  8
AM_4
100
AcDbLine
 10
-1.5562
 20
-0.6191999999999998
 30
0.0
 11
-1.5562
 21
-0.3439999999999998
 31
0.0
  0
LINE
  5
1E5
330
182
100
AcDbEntity
  8
AM_4
100
AcDbLine
 10
1.556199999999999
 20
-0.6191999999999998
 30
0.0
 11
-1.5562
 21
-0.6191999999999998
 31
0.0
  0
LINE
  5
1E6
330
182
100
AcDbEntity
  8
AM_4
100
AcDbLine
 10
-1.5562
 20
-0.6191999999999998
 30
0.0
 11
-1.625
 21
-0.6879999999999997
 31
0.0
  0
LINE
  5
1E7
330
182
100
AcDbEntity
  8
AM_4
100
AcDbLine
 10
1.625
 20
-0.6879999999999996
 30
0.0
 11
-1.625
 21
-0.6879999999999996
 31
0.0
  0
LINE
  5
1E8
330
182
100
AcDbEntity
  8
AM_4
100
AcDbLine
 10
1.625
 20
0.3440000000000001
 30
0.0
 11
-1.625
 21
0.3440000000000001
 31
0.0
  0
LINE
  5
1E9
330
182
100
AcDbEntity
  8
AM_4
100
AcDbLine
 10
1.625
 20
0.6880000000000001
 30
0.0
 11
1.625
 21
-0.6879999999999996
 31
0.0
  0
LINE
  5
1EA
330
182
100
AcDbEntity
  8
AM_4
100
AcDbLine
 10
1.556199999999999
 20
0.6191999999999991
 30
0.0
 11
1.625
 21
0.6880000000000002
 31
0.0
  0
LINE
  5
1EB
330
182
100
AcDbEntity
  8
AM_4
100
AcDbLine
 10
1.556199999999999
 20
0.3440000000000001
 30
0.0
 11
1.556199999999999
 21
0.6191999999999991
 31
0.0
  0
LINE
  5
1EC
330
182
100
AcDbEntity
  8
AM_4
100
AcDbLine
 10
-1.625
 20
-0.3439999999999998
 30
0.0
 11
1.625
 21
-0.3439999999999998
 31
0.0
  0
LINE
  5
1ED
330
182
100
AcDbEntity
  8
AM_4
100
AcDbLine
 10
1.556199999999999
 20
-0.6191999999999998
 30
0.0
 11
1.556199999999999
 21
-0.3439999999999998
 31
0.0
  0
LINE
  5
1EE
330
182
100
AcDbEntity
  8
AM_4
100
AcDbLine
 10
1.624999999999999
 20
-0.6880000000000003
 30
0.0
 11
1.556199999999999
 21
-0.6191999999999999
 31
0.0
  0
ENDBLK
  5
185
330
182
100
AcDbEntity
  8
0
100
AcDbBlockEnd
  0
ENDSEC
  0
SECTION
  2
ENTITIES
  0
INSERT
  5
6F
330
1F
100
AcDbEntity
  8
0
100
AcDbBlockReference
  2
1_131220_4
 10
0.0
 20
0.0
 30
0.0
  0
POINT
  5
1F0
330
1F
100
AcDbEntity
  8
ConnectionPoints
100
AcDbPoint
 10
-1.983198174666365
 20
-0.0000000000000001
 30
-1.145
  0
POINT
  5
1F1
330
1F
100
AcDbEntity
  8
ConnectionPoints
100
AcDbPoint
 10
-1.983198174666365
 20
-0.0000000000000001
 30
-1.145
  0
POINT
  5
1F2
330
1F
100
AcDbEntity
  8
ConnectionPoints
100
AcDbPoint
 10
0.0
 20
-1.38
 30
0.0000000000000001
  0
ENDSEC
  0
SECTION
  2
OBJECTS
  0
DICTIONARY
  5
C
330
0
100
AcDbDictionary
281
     1
  3
ACAD_DETAILVIEWSTYLE
350
1FA
  3
ACAD_GROUP
350
D
  3
ACAD_LAYOUT
350
1A
  3
ACAD_MATERIAL
350
43
  3
ACAD_MLEADERSTYLE
350
6B
  3
ACAD_MLINESTYLE
350
17
  3
ACAD_PLOTSETTINGS
350
19
  3
ACAD_PLOTSTYLENAME
350
E
  3
ACAD_SCALELIST
350
47
  3
ACAD_SECTIONVIEWSTYLE
350
1FB
  3
ACAD_TABLESTYLE
350
69
  3
ACAD_VISUALSTYLE
350
2A
  3
ACDB_RECOMPOSE_DATA
350
1F7
  3
AcDbVariableDictionary
350
1F3
  0
SUN
  5
6D
330
29
100
AcDbSun
 90
        1
290
     0
 63
     7
421
 16777215
 40
1.0
291
     1
 91
  2455826
 92
 54000000
292
     0
 70
     2
 71
   256
280
     1
  0
DICTIONARY
  5
1FA
102
{ACAD_REACTORS
330
C
102
}
330
C
100
AcDbDictionary
281
     1
  0
DICTIONARY
  5
D
102
{ACAD_REACTORS
330
C
102
}
330
C
100
AcDbDictionary
281
     1
  0
DICTIONARY
  5
1A
102
{ACAD_REACTORS
330
C
102
}
330
C
100
AcDbDictionary
281
     1
  3
Layout1
350
1E
  3
Layout2
350
26
  3
Model
350
22
  0
DICTIONARY
  5
43
102
{ACAD_REACTORS
330
C
102
}
330
C
100
AcDbDictionary
281
     1
  3
ByBlock
350
45
  3
ByLayer
350
44
  3
Global
350
46
  0
DICTIONARY
  5
6B
102
{ACAD_REACTORS
330
C
102
}
330
C
100
AcDbDictionary
281
     1
  3
Standard
350
6C
  0
DICTIONARY
  5
17
102
{ACAD_REACTORS
330
C
102
}
330
C
100
AcDbDictionary
281
     1
  3
Standard
350
18
  0
DICTIONARY
  5
19
102
{ACAD_REACTORS
330
C
102
}
330
C
100
AcDbDictionary
281
     1
  0
ACDBDICTIONARYWDFLT
  5
E
102
{ACAD_REACTORS
330
C
102
}
330
C
100
AcDbDictionary
281
     1
  3
Normal
350
F
100
AcDbDictionaryWithDefault
340
F
  0
DICTIONARY
  5
47
102
{ACAD_REACTORS
330
C
102
}
330
C
100
AcDbDictionary
281
     1
  3
A0
350
48
  3
A1
350
49
  3
A2
350
4A
  3
A3
350
4B
  3
A4
350
4C
  3
A5
350
4D
  3
A6
350
4E
  3
A7
350
4F
  3
A8
350
50
  3
A9
350
51
  3
B0
350
52
  3
B1
350
53
  3
B2
350
54
  3
B3
350
55
  3
B4
350
56
  3
B5
350
57
  3
B6
350
58
  3
B7
350
59
  3
B8
350
5A
  3
B9
350
5B
  3
C0
350
5C
  3
C1
350
5D
  3
C2
350
5E
  3
C3
350
5F
  3
C4
350
60
  3
C5
350
61
  3
C6
350
62
  3
C7
350
63
  3
C8
350
64
  3
C9
350
65
  3
D0
350
66
  3
D1
350
67
  3
D2
350
68
  0
DICTIONARY
  5
1FB
102
{ACAD_REACTORS
330
C
102
}
330
C
100
AcDbDictionary
281
     1
  0
DICTIONARY
  5
69
102
{ACAD_REACTORS
330
C
102
}
330
C
100
AcDbDictionary
281
     1
  3
Standard
350
6A
  0
DICTIONARY
  5
2A
102
{ACAD_REACTORS
330
C
102
}
330
C
100
AcDbDictionary
281
     1
  3
2dWireframe
350
2F
  3
Basic
350
32
  3
Brighten
350
36
  3
ColorChange
350
3A
  3
Conceptual
350
34
  3
Dim
350
35
  3
EdgeColorOff
350
3D
  3
Facepattern
350
39
  3
Flat
350
2B
  3
FlatWithEdges
350
2C
  3
Gouraud
350
2D
  3
GouraudWithEdges
350
2E
  3
Hidden
350
31
  3
JitterOff
350
3B
  3
Linepattern
350
38
  3
OverhangOff
350
3C
  3
Realistic
350
33
  3
Shaded
350
42
  3
Shaded with edges
350
41
  3
Shades of Gray
350
3E
  3
Sketchy
350
3F
  3
Thicken
350
37
  3
Wireframe
350
30
  3
X-Ray
350
40
  0
XRECORD
  5
1F7
102
{ACAD_REACTORS
330
C
102
}
330
C
100
AcDbXrecord
280
     1
 90
        1
330
6A
  0
DICTIONARY
  5
1F3
102
{ACAD_REACTORS
330
C
102
}
330
C
100
AcDbDictionary
281
     1
  3
CANNOSCALE
350
1F4
  3
CMLEADERSTYLE
350
1F9
  3
CTABLESTYLE
350
1F8
  0
LAYOUT
  5
1E
102
{ACAD_REACTORS
330
1A
102
}
330
1A
100
AcDbPlotSettings
  1

  2
none_device
  4

  6

 40
0.0
 41
0.0
 42
0.0
 43
0.0
 44
0.0
 45
0.0
 46
0.0
 47
0.0
 48
0.0
 49
0.0
140
0.0
141
0.0
142
1.0
143
1.0
 70
   688
 72
     0
 73
     0
 74
     5
  7

 75
    16
 76
     0
 77
     2
 78
   300
147
1.0
148
0.0
149
0.0
100
AcDbLayout
  1
Layout1
 70
     1
 71
     1
 10
0.0
 20
0.0
 11
12.0
 21
9.0
 12
0.0
 22
0.0
 32
0.0
 14
1.000000000000000E+20
 24
1.000000000000000E+20
 34
1.000000000000000E+20
 15
-1.000000000000000E+20
 25
-1.000000000000000E+20
 35
-1.000000000000000E+20
146
0.0
 13
0.0
 23
0.0
 33
0.0
 16
1.0
 26
0.0
 36
0.0
 17
0.0
 27
1.0
 37
0.0
 76
     0
330
1B
  0
LAYOUT
  5
26
102
{ACAD_REACTORS
330
1A
102
}
330
1A
100
AcDbPlotSettings
  1

  2
none_device
  4

  6

 40
0.0
 41
0.0
 42
0.0
 43
0.0
 44
0.0
 45
0.0
 46
0.0
 47
0.0
 48
0.0
 49
0.0
140
0.0
141
0.0
142
1.0
143
1.0
 70
   688
 72
     0
 73
     0
 74
     5
  7

 75
    16
 76
     0
 77
     2
 78
   300
147
1.0
148
0.0
149
0.0
100
AcDbLayout
  1
Layout2
 70
     1
 71
     2
 10
0.0
 20
0.0
 11
0.0
 21
0.0
 12
0.0
 22
0.0
 32
0.0
 14
0.0
 24
0.0
 34
0.0
 15
0.0
 25
0.0
 35
0.0
146
0.0
 13
0.0
 23
0.0
 33
0.0
 16
1.0
 26
0.0
 36
0.0
 17
0.0
 27
1.0
 37
0.0
 76
     0
330
23
  0
LAYOUT
  5
22
102
{ACAD_REACTORS
330
1A
102
}
330
1A
100
AcDbPlotSettings
  1

  2
none_device
  4
Letter_(8.50_x_11.00_Inches)
  6

 40
6.35
 41
6.35
 42
6.35000508
 43
6.35000508
 44
215.9
 45
279.4
 46
0.0
 47
0.0
 48
0.0
 49
0.0
140
0.0
141
0.0
142
1.0
143
1.0
 70
  1712
 72
     0
 73
     0
 74
     0
  7

 75
     0
 76
     0
 77
     2
 78
   300
147
1.0
148
0.0
149
0.0
100
AcDbLayout
  1
Model
 70
     1
 71
     0
 10
0.0
 20
0.0
 11
12.0
 21
9.0
 12
0.0
 22
0.0
 32
0.0
 14
1.000000000000000E+20
 24
1.000000000000000E+20
 34
1.000000000000000E+20
 15
-1.000000000000000E+20
 25
-1.000000000000000E+20
 35
-1.000000000000000E+20
146
0.0
 13
0.0
 23
0.0
 33
0.0
 16
1.0
 26
0.0
 36
0.0
 17
0.0
 27
1.0
 37
0.0
 76
     0
330
1F
331
29
  0
MATERIAL
  5
45
102
{ACAD_REACTORS
330
43
102
}
330
43
100
AcDbMaterial
  1
ByBlock
 72
     1
 94
      127
  0
MATERIAL
  5
44
102
{ACAD_REACTORS
330
43
102
}
330
43
100
AcDbMaterial
  1
ByLayer
 72
     1
 94
      127
  0
MATERIAL
  5
46
102
{ACAD_REACTORS
330
43
102
}
330
43
100
AcDbMaterial
  1
Global
 72
     1
 94
      127
  0
MLEADERSTYLE
  5
6C
102
{ACAD_REACTORS
330
6B
102
}
330
6B
100
AcDbMLeaderStyle
179
     2
170
     2
171
     1
172
     0
 90
        2
 40
0.0
 41
0.0
173
     1
 91
-1056964608
340
14
 92
       -2
290
     1
 42
0.09
291
     1
 43
0.36
  3
Standard
341
0
 44
0.18
300

342
11
174
     1
178
     6
175
     1
176
     0
 93
-1056964608
 45
0.18
292
     0
297
     0
 46
0.18
343
0
 94
-1056964608
 47
1.0
 49
1.0
140
1.0
293
     1
141
0.0
294
     1
177
     0
142
1.0
295
     0
296
     0
143
0.125
271
     0
272
     9
273
     9
298
     0
  0
MLINESTYLE
  5
18
102
{ACAD_REACTORS
330
17
102
}
330
17
100
AcDbMlineStyle
  2
Standard
 70
     0
  3

 62
   256
 51
90.0
 52
90.0
 71
     2
 49
0.5
 62
   256
  6
BYLAYER
 49
-0.5
 62
   256
  6
BYLAYER
  0
ACDBPLACEHOLDER
  5
F
102
{ACAD_REACTORS
330
E
102
}
330
E
  0
SCALE
  5
48
102
{ACAD_REACTORS
330
47
102
}
330
47
100
AcDbScale
 70
     0
300
1:1
140
1.0
141
1.0
290
     1
  0
SCALE
  5
49
102
{ACAD_REACTORS
330
47
102
}
330
47
100
AcDbScale
 70
     0
300
1:2
140
1.0
141
2.0
290
     0
  0
SCALE
  5
4A
102
{ACAD_REACTORS
330
47
102
}
330
47
100
AcDbScale
 70
     0
300
1:4
140
1.0
141
4.0
290
     0
  0
SCALE
  5
4B
102
{ACAD_REACTORS
330
47
102
}
330
47
100
AcDbScale
 70
     0
300
1:5
140
1.0
141
5.0
290
     0
  0
SCALE
  5
4C
102
{ACAD_REACTORS
330
47
102
}
330
47
100
AcDbScale
 70
     0
300
1:8
140
1.0
141
8.0
290
     0
  0
SCALE
  5
4D
102
{ACAD_REACTORS
330
47
102
}
330
47
100
AcDbScale
 70
     0
300
1:10
140
1.0
141
10.0
290
     0
  0
SCALE
  5
4E
102
{ACAD_REACTORS
330
47
102
}
330
47
100
AcDbScale
 70
     0
300
1:16
140
1.0
141
16.0
290
     0
  0
SCALE
  5
4F
102
{ACAD_REACTORS
330
47
102
}
330
47
100
AcDbScale
 70
     0
300
1:20
140
1.0
141
20.0
290
     0
  0
SCALE
  5
50
102
{ACAD_REACTORS
330
47
102
}
330
47
100
AcDbScale
 70
     0
300
1:30
140
1.0
141
30.0
290
     0
  0
SCALE
  5
51
102
{ACAD_REACTORS
330
47
102
}
330
47
100
AcDbScale
 70
     0
300
1:40
140
1.0
141
40.0
290
     0
  0
SCALE
  5
52
102
{ACAD_REACTORS
330
47
102
}
330
47
100
AcDbScale
 70
     0
300
1:50
140
1.0
141
50.0
290
     0
  0
SCALE
  5
53
102
{ACAD_REACTORS
330
47
102
}
330
47
100
AcDbScale
 70
     0
300
1:100
140
1.0
141
100.0
290
     0
  0
SCALE
  5
54
102
{ACAD_REACTORS
330
47
102
}
330
47
100
AcDbScale
 70
     0
300
2:1
140
2.0
141
1.0
290
     0
  0
SCALE
  5
55
102
{ACAD_REACTORS
330
47
102
}
330
47
100
AcDbScale
 70
     0
300
4:1
140
4.0
141
1.0
290
     0
  0
SCALE
  5
56
102
{ACAD_REACTORS
330
47
102
}
330
47
100
AcDbScale
 70
     0
300
8:1
140
8.0
141
1.0
290
     0
  0
SCALE
  5
57
102
{ACAD_REACTORS
330
47
102
}
330
47
100
AcDbScale
 70
     0
300
10:1
140
10.0
141
1.0
290
     0
  0
SCALE
  5
58
102
{ACAD_REACTORS
330
47
102
}
330
47
100
AcDbScale
 70
     0
300
100:1
140
100.0
141
1.0
290
     0
  0
SCALE
  5
59
102
{ACAD_REACTORS
330
47
102
}
330
47
100
AcDbScale
 70
     0
300
1/128" = 1'-0"
140
0.0078125
141
12.0
290
     0
  0
SCALE
  5
5A
102
{ACAD_REACTORS
330
47
102
}
330
47
100
AcDbScale
 70
     0
300
1/64" = 1'-0"
140
0.015625
141
12.0
290
     0
  0
SCALE
  5
5B
102
{ACAD_REACTORS
330
47
102
}
330
47
100
AcDbScale
 70
     0
300
1/32" = 1'-0"
140
0.03125
141
12.0
290
     0
  0
SCALE
  5
5C
102
{ACAD_REACTORS
330
47
102
}
330
47
100
AcDbScale
 70
     0
300
1/16" = 1'-0"
140
0.0625
141
12.0
290
     0
  0
SCALE
  5
5D
102
{ACAD_REACTORS
330
47
102
}
330
47
100
AcDbScale
 70
     0
300
3/32" = 1'-0"
140
0.09375
141
12.0
290
     0
  0
SCALE
  5
5E
102
{ACAD_REACTORS
330
47
102
}
330
47
100
AcDbScale
 70
     0
300
1/8" = 1'-0"
140
0.125
141
12.0
290
     0
  0
SCALE
  5
5F
102
{ACAD_REACTORS
330
47
102
}
330
47
100
AcDbScale
 70
     0
300
3/16" = 1'-0"
140
0.1875
141
12.0
290
     0
  0
SCALE
  5
60
102
{ACAD_REACTORS
330
47
102
}
330
47
100
AcDbScale
 70
     0
300
1/4" = 1'-0"
140
0.25
141
12.0
290
     0
  0
SCALE
  5
61
102
{ACAD_REACTORS
330
47
102
}
330
47
100
AcDbScale
 70
     0
300
3/8" = 1'-0"
140
0.375
141
12.0
290
     0
  0
SCALE
  5
62
102
{ACAD_REACTORS
330
47
102
}
330
47
100
AcDbScale
 70
     0
300
1/2" = 1'-0"
140
0.5
141
12.0
290
     0
  0
SCALE
  5
63
102
{ACAD_REACTORS
330
47
102
}
330
47
100
AcDbScale
 70
     0
300
3/4" = 1'-0"
140
0.75
141
12.0
290
     0
  0
SCALE
  5
64
102
{ACAD_REACTORS
330
47
102
}
330
47
100
AcDbScale
 70
     0
300
1" = 1'-0"
140
1.0
141
12.0
290
     0
  0
SCALE
  5
65
102
{ACAD_REACTORS
330
47
102
}
330
47
100
AcDbScale
 70
     0
300
1-1/2" = 1'-0"
140
1.5
141
12.0
290
     0
  0
SCALE
  5
66
102
{ACAD_REACTORS
330
47
102
}
330
47
100
AcDbScale
 70
     0
300
3" = 1'-0"
140
3.0
141
12.0
290
     0
  0
SCALE
  5
67
102
{ACAD_REACTORS
330
47
102
}
330
47
100
AcDbScale
 70
     0
300
6" = 1'-0"
140
6.0
141
12.0
290
     0
  0
SCALE
  5
68
102
{ACAD_REACTORS
330
47
102
}
330
47
100
AcDbScale
 70
     0
300
1'-0" = 1'-0"
140
12.0
141
12.0
290
     0
  0
TABLESTYLE
  5
6A
102
{ACAD_REACTORS
330
69
102
}
102
{ACAD_XDICTIONARY
360
1F5
102
}
330
69
100
AcDbTableStyle
  3
Standard
 70
     0
 71
     0
 40
0.06
 41
0.06
280
     0
281
     0
  7
Standard
140
0.18
170
     2
 62
     0
 63
   257
283
     0
 90
        4
 91
        0
  1

274
    -2
284
     1
 64
     0
275
    -2
285
     1
 65
     0
276
    -2
286
     1
 66
     0
277
    -2
287
     1
 67
     0
278
    -2
288
     1
 68
     0
279
    -2
289
     1
 69
     0
  7
Standard
140
0.25
170
     5
 62
     0
 63
   257
283
     0
 90
        4
 91
        0
  1

274
    -2
284
     1
 64
     0
275
    -2
285
     1
 65
     0
276
    -2
286
     1
 66
     0
277
    -2
287
     1
 67
     0
278
    -2
288
     1
 68
     0
279
    -2
289
     1
 69
     0
  7
Standard
140
0.18
170
     5
 62
     0
 63
   257
283
     0
 90
        4
 91
        0
  1

274
    -2
284
     1
 64
     0
275
    -2
285
     1
 65
     0
276
    -2
286
     1
 66
     0
277
    -2
287
     1
 67
     0
278
    -2
288
     1
 68
     0
279
    -2
289
     1
 69
     0
  0
VISUALSTYLE
  5
2F
102
{ACAD_REACTORS
330
2A
102
}
330
2A
100
AcDbVisualStyle
  2
2dWireframe
 70
     4
177
     3
291
     0
 70
    58
 90
        0
176
     1
 90
        2
176
     1
 90
        0
176
     1
 90
        0
176
     1
 40
0.6
176
     1
 40
30.0
176
     1
 62
     7
420
 16777215
176
     1
 90
        1
176
     1
 90
        4
176
     1
 62
     7
176
     1
 62
   257
176
     1
 90
        1
176
     1
 90
        1
176
     1
 40
1.0
176
     1
 90
        0
176
     1
 62
   257
176
     1
 40
1.0
176
     1
 90
        1
176
     1
 90
        6
176
     1
 90
        2
176
     1
 62
     7
176
     1
 90
        5
176
     1
 90
        0
176
     1
 90
        0
176
     1
290
     0
176
     1
 90
        1
176
     1
 40
0.0
176
     1
 90
        0
176
     1
290
     1
176
     1
290
     1
176
     1
290
     0
176
     1
290
     0
176
     1
290
     0
176
     1
290
     0
176
     1
290
     0
176
     1
290
     0
176
     1
290
     0
176
     1
 90
       50
176
     1
 40
0.0
176
     1
 40
1.0
176
     1
 90
        0
176
     1
 62
    18
420
        0
176
     1
 90
       50
176
     1
 90
        3
176
     1
 62
     5
420
      255
176
     1
290
     0
176
     1
 90
       50
176
     1
 90
       50
176
     1
 90
       50
176
     1
290
     0
176
     1
 90
       50
176
     1
 62
   256
176
     0
 40
1.0
176
     0
 90
        2
176
     1
  1
strokes_ogs.tif
176
     1
290
     0
176
     1
 40
1.0
176
     1
 40
1.0
176
     1
  0
VISUALSTYLE
  5
32
102
{ACAD_REACTORS
330
2A
102
}
330
2A
100
AcDbVisualStyle
  2
Basic
 70
     7
177
     3
291
     1
 70
    58
 90
        1
176
     1
 90
        0
176
     1
 90
        1
176
     1
 90
        0
176
     1
 40
0.6
176
     1
 40
30.0
176
     1
 62
     7
420
 16777215
176
     1
 90
        0
176
     1
 90
        4
176
     1
 62
     7
176
     1
 62
   257
176
     1
 90
        1
176
     1
 90
        1
176
     1
 40
1.0
176
     1
 90
        8
176
     1
 62
     7
176
     1
 40
1.0
176
     1
 90
        1
176
     1
 90
        6
176
     1
 90
        2
176
     1
 62
     7
176
     1
 90
        5
176
     1
 90
        0
176
     1
 90
        0
176
     1
290
     0
176
     1
 90
        1
176
     1
 40
0.0
176
     1
 90
        0
176
     1
290
     0
176
     1
290
     1
176
     1
290
     1
176
     1
290
     0
176
     1
290
     0
176
     1
290
     0
176
     1
290
     0
176
     1
290
     0
176
     1
290
     0
176
     1
 90
       50
176
     1
 40
0.0
176
     1
 40
1.0
176
     1
 90
        0
176
     1
 62
    18
420
        0
176
     1
 90
       50
176
     1
 90
        3
176
     1
 62
     5
420
      255
176
     1
290
     0
176
     1
 90
       50
176
     1
 90
       50
176
     1
 90
       50
176
     1
290
     0
176
     1
 90
       50
176
     1
 62
   256
176
     0
 40
1.0
176
     0
 90
        2
176
     1
  1
strokes_ogs.tif
176
     1
290
     0
176
     1
 40
1.0
176
     1
 40
1.0
176
     1
  0
VISUALSTYLE
  5
36
102
{ACAD_REACTORS
330
2A
102
}
330
2A
100
AcDbVisualStyle
  2
Brighten
 70
    12
177
     3
291
     1
 70
    58
 90
        2
176
     1
 90
        2
176
     1
 90
        0
176
     1
 90
        0
176
     1
 40
0.6
176
     1
 40
30.0
176
     1
 62
     7
420
 16777215
176
     1
 90
        1
176
     1
 90
        4
176
     1
 62
     7
176
     1
 62
   257
176
     1
 90
        1
176
     1
 90
        1
176
     1
 40
1.0
176
     1
 90
        8
176
     1
 62
     7
176
     1
 40
1.0
176
     1
 90
        1
176
     1
 90
        6
176
     1
 90
        2
176
     1
 62
     7
176
     1
 90
        5
176
     1
 90
        0
176
     1
 90
        0
176
     1
290
     0
176
     1
 90
        1
176
     1
 40
50.0
176
     1
 90
        0
176
     1
290
     0
176
     1
290
     1
176
     1
290
     1
176
     1
290
     0
176
     1
290
     0
176
     1
290
     0
176
     1
290
     0
176
     1
290
     0
176
     1
290
     0
176
     1
 90
       50
176
     1
 40
0.0
176
     1
 40
1.0
176
     1
 90
        0
176
     1
 62
    18
420
        0
176
     1
 90
       50
176
     1
 90
        3
176
     1
 62
     5
420
      255
176
     1
290
     0
176
     1
 90
       50
176
     1
 90
       50
176
     1
 90
       50
176
     1
290
     0
176
     1
 90
       50
176
     1
 62
   256
176
     0
 40
1.0
176
     0
 90
        2
176
     1
  1
strokes_ogs.tif
176
     1
290
     0
176
     1
 40
1.0
176
     1
 40
1.0
176
     1
  0
VISUALSTYLE
  5
3A
102
{ACAD_REACTORS
330
2A
102
}
330
2A
100
AcDbVisualStyle
  2
ColorChange
 70
    16
177
     3
291
     1
 70
    58
 90
        2
176
     1
 90
        2
176
     1
 90
        3
176
     1
 90
        0
176
     1
 40
0.6
176
     1
 40
30.0
176
     1
 62
     8
420
  8421504
176
     1
 90
        1
176
     1
 90
        4
176
     1
 62
     7
176
     1
 62
   257
176
     1
 90
        1
176
     1
 90
        1
176
     1
 40
1.0
176
     1
 90
        8
176
     1
 62
     8
420
  8421504
176
     1
 40
1.0
176
     1
 90
        1
176
     1
 90
        6
176
     1
 90
        2
176
     1
 62
     7
176
     1
 90
        5
176
     1
 90
        0
176
     1
 90
        0
176
     1
290
     0
176
     1
 90
        1
176
     1
 40
0.0
176
     1
 90
        0
176
     1
290
     0
176
     1
290
     1
176
     1
290
     1
176
     1
290
     0
176
     1
290
     0
176
     1
290
     0
176
     1
290
     0
176
     1
290
     0
176
     1
290
     0
176
     1
 90
       50
176
     1
 40
0.0
176
     1
 40
1.0
176
     1
 90
        0
176
     1
 62
    18
420
        0
176
     1
 90
       50
176
     1
 90
        3
176
     1
 62
     5
420
      255
176
     1
290
     0
176
     1
 90
       50
176
     1
 90
       50
176
     1
 90
       50
176
     1
290
     0
176
     1
 90
       50
176
     1
 62
   256
176
     0
 40
1.0
176
     0
 90
        2
176
     1
  1
strokes_ogs.tif
176
     1
290
     0
176
     1
 40
1.0
176
     1
 40
1.0
176
     1
  0
VISUALSTYLE
  5
34
102
{ACAD_REACTORS
330
2A
102
}
330
2A
100
AcDbVisualStyle
  2
Conceptual
 70
     9
177
     3
291
     0
 70
    58
 90
        3
176
     1
 90
        2
176
     1
 90
        0
176
     1
 90
        0
176
     1
 40
0.6
176
     1
 40
30.0
176
     1
 62
     7
420
 16777215
176
     1
 90
        2
176
     1
 90
        2
176
     1
 62
     7
176
     1
 62
   257
176
     1
 90
        1
176
     1
 90
        1
176
     1
 40
179.0
176
     1
 90
        8
176
     1
 62
     7
176
     1
 40
1.0
176
     1
 90
        1
176
     1
 90
        6
176
     1
 90
        2
176
     1
 62
     7
176
     1
 90
        3
176
     1
 90
        0
176
     1
 90
        0
176
     1
290
     0
176
     1
 90
        1
176
     1
 40
0.0
176
     1
 90
        0
176
     1
290
     0
176
     1
290
     1
176
     1
290
     1
176
     1
290
     0
176
     1
290
     0
176
     1
290
     0
176
     1
290
     0
176
     1
290
     0
176
     1
290
     0
176
     1
 90
       50
176
     1
 40
0.0
176
     1
 40
1.0
176
     1
 90
        0
176
     1
 62
    18
420
        0
176
     1
 90
       50
176
     1
 90
        3
176
     1
 62
     5
420
      255
176
     1
290
     0
176
     1
 90
       50
176
     1
 90
       50
176
     1
 90
       50
176
     1
290
     0
176
     1
 90
       50
176
     1
 62
   256
176
     0
 40
1.0
176
     0
 90
        2
176
     1
  1
strokes_ogs.tif
176
     1
290
     0
176
     1
 40
1.0
176
     1
 40
1.0
176
     1
  0
VISUALSTYLE
  5
35
102
{ACAD_REACTORS
330
2A
102
}
330
2A
100
AcDbVisualStyle
  2
Dim
 70
    11
177
     3
291
     1
 70
    58
 90
        2
176
     1
 90
        2
176
     1
 90
        0
176
     1
 90
        0
176
     1
 40
0.6
176
     1
 40
30.0
176
     1
 62
     7
420
 16777215
176
     1
 90
        1
176
     1
 90
        4
176
     1
 62
     7
176
     1
 62
   257
176
     1
 90
        1
176
     1
 90
        1
176
     1
 40
1.0
176
     1
 90
        8
176
     1
 62
     7
176
     1
 40
1.0
176
     1
 90
        1
176
     1
 90
        6
176
     1
 90
        2
176
     1
 62
     7
176
     1
 90
        5
176
     1
 90
        0
176
     1
 90
        0
176
     1
290
     0
176
     1
 90
        1
176
     1
 40
-50.0
176
     1
 90
        0
176
     1
290
     0
176
     1
290
     1
176
     1
290
     1
176
     1
290
     0
176
     1
290
     0
176
     1
290
     0
176
     1
290
     0
176
     1
290
     0
176
     1
290
     0
176
     1
 90
       50
176
     1
 40
0.0
176
     1
 40
1.0
176
     1
 90
        0
176
     1
 62
    18
420
        0
176
     1
 90
       50
176
     1
 90
        3
176
     1
 62
     5
420
      255
176
     1
290
     0
176
     1
 90
       50
176
     1
 90
       50
176
     1
 90
       50
176
     1
290
     0
176
     1
 90
       50
176
     1
 62
   256
176
     0
 40
1.0
176
     0
 90
        2
176
     1
  1
strokes_ogs.tif
176
     1
290
     0
176
     1
 40
1.0
176
     1
 40
1.0
176
     1
  0
VISUALSTYLE
  5
3D
102
{ACAD_REACTORS
330
2A
102
}
330
2A
100
AcDbVisualStyle
  2
EdgeColorOff
 70
    22
177
     3
291
     1
 70
    58
 90
        2
176
     0
 90
        2
176
     0
 90
        0
176
     0
 90
        0
176
     0
 40
0.6
176
     0
 40
30.0
176
     0
 62
     7
420
 16777215
176
     0
 90
        1
176
     0
 90
        4
176
     0
 62
     7
176
     0
 62
   257
176
     0
 90
        1
176
     0
 90
        1
176
     0
 40
1.0
176
     0
 90
        8
176
     2
 62
     7
176
     0
 40
1.0
176
     0
 90
        1
176
     0
 90
        6
176
     0
 90
        2
176
     0
 62
     7
176
     0
 90
        5
176
     0
 90
        0
176
     0
 90
        0
176
     0
290
     0
176
     0
 90
        1
176
     0
 40
0.0
176
     0
 90
        0
176
     0
290
     0
176
     0
290
     1
176
     0
290
     1
176
     0
290
     0
176
     0
290
     0
176
     0
290
     0
176
     0
290
     0
176
     0
290
     0
176
     0
290
     0
176
     0
 90
       50
176
     0
 40
0.0
176
     0
 40
1.0
176
     0
 90
        0
176
     0
 62
    18
420
        0
176
     0
 90
       50
176
     0
 90
        3
176
     0
 62
     5
420
      255
176
     0
290
     0
176
     0
 90
       50
176
     0
 90
       50
176
     0
 90
       50
176
     0
290
     0
176
     0
 90
       50
176
     0
 62
   256
176
     0
 40
1.0
176
     0
 90
        2
176
     0
  1
strokes_ogs.tif
176
     0
290
     0
176
     0
 40
1.0
176
     0
 40
1.0
176
     0
  0
VISUALSTYLE
  5
39
102
{ACAD_REACTORS
330
2A
102
}
330
2A
100
AcDbVisualStyle
  2
Facepattern
 70
    15
177
     3
291
     1
 70
    58
 90
        2
176
     1
 90
        2
176
     1
 90
        0
176
     1
 90
        0
176
     1
 40
0.6
176
     1
 40
30.0
176
     1
 62
     7
420
 16777215
176
     1
 90
        1
176
     1
 90
        4
176
     1
 62
     7
176
     1
 62
   257
176
     1
 90
        1
176
     1
 90
        1
176
     1
 40
1.0
176
     1
 90
        8
176
     1
 62
     7
176
     1
 40
1.0
176
     1
 90
        1
176
     1
 90
        6
176
     1
 90
        2
176
     1
 62
     7
176
     1
 90
        5
176
     1
 90
        0
176
     1
 90
        0
176
     1
290
     0
176
     1
 90
        1
176
     1
 40
0.0
176
     1
 90
        0
176
     1
290
     0
176
     1
290
     1
176
     1
290
     1
176
     1
290
     0
176
     1
290
     0
176
     1
290
     0
176
     1
290
     0
176
     1
290
     0
176
     1
290
     0
176
     1
 90
       50
176
     1
 40
0.0
176
     1
 40
1.0
176
     1
 90
        0
176
     1
 62
    18
420
        0
176
     1
 90
       50
176
     1
 90
        3
176
     1
 62
     5
420
      255
176
     1
290
     0
176
     1
 90
       50
176
     1
 90
       50
176
     1
 90
       50
176
     1
290
     0
176
     1
 90
       50
176
     1
 62
   256
176
     0
 40
1.0
176
     0
 90
        2
176
     1
  1
strokes_ogs.tif
176
     1
290
     0
176
     1
 40
1.0
176
     1
 40
1.0
176
     1
  0
VISUALSTYLE
  5
2B
102
{ACAD_REACTORS
330
2A
102
}
330
2A
100
AcDbVisualStyle
  2
Flat
 70
     0
177
     3
291
     1
 70
    58
 90
        2
176
     1
 90
        1
176
     1
 90
        1
176
     1
 90
        2
176
     1
 40
0.6
176
     1
 40
30.0
176
     1
 62
     7
420
 16777215
176
     1
 90
        0
176
     1
 90
        0
176
     1
 62
     7
176
     1
 62
   257
176
     1
 90
        1
176
     1
 90
        1
176
     1
 40
1.0
176
     1
 90
        8
176
     1
 62
     7
176
     1
 40
1.0
176
     1
 90
        1
176
     1
 90
        6
176
     1
 90
        2
176
     1
 62
     7
176
     1
 90
        5
176
     1
 90
        0
176
     1
 90
        0
176
     1
290
     0
176
     1
 90
       13
176
     1
 40
0.0
176
     1
 90
        0
176
     1
290
     0
176
     1
290
     1
176
     1
290
     1
176
     1
290
     0
176
     1
290
     0
176
     1
290
     0
176
     1
290
     0
176
     1
290
     0
176
     1
290
     0
176
     1
 90
       50
176
     1
 40
0.0
176
     1
 40
1.0
176
     1
 90
        0
176
     1
 62
    18
420
        0
176
     1
 90
       50
176
     1
 90
        3
176
     1
 62
     5
420
      255
176
     1
290
     0
176
     1
 90
       50
176
     1
 90
       50
176
     1
 90
       50
176
     1
290
     0
176
     1
 90
       50
176
     1
 62
   256
176
     0
 40
1.0
176
     0
 90
        2
176
     1
  1
strokes_ogs.tif
176
     1
290
     0
176
     1
 40
1.0
176
     1
 40
1.0
176
     1
  0
VISUALSTYLE
  5
2C
102
{ACAD_REACTORS
330
2A
102
}
330
2A
100
AcDbVisualStyle
  2
FlatWithEdges
 70
     1
177
     3
291
     1
 70
    58
 90
        2
176
     1
 90
        1
176
     1
 90
        1
176
     1
 90
        2
176
     1
 40
0.6
176
     1
 40
30.0
176
     1
 62
     7
420
 16777215
176
     1
 90
        1
176
     1
 90
        0
176
     1
 62
     7
176
     1
 62
   257
176
     1
 90
        1
176
     1
 90
        1
176
     1
 40
1.0
176
     1
 90
        0
176
     1
 62
   257
176
     1
 40
1.0
176
     1
 90
        1
176
     1
 90
        6
176
     1
 90
        2
176
     1
 62
     7
176
     1
 90
        5
176
     1
 90
        0
176
     1
 90
        0
176
     1
290
     0
176
     1
 90
       13
176
     1
 40
0.0
176
     1
 90
        0
176
     1
290
     0
176
     1
290
     1
176
     1
290
     1
176
     1
290
     0
176
     1
290
     0
176
     1
290
     0
176
     1
290
     0
176
     1
290
     0
176
     1
290
     0
176
     1
 90
       50
176
     1
 40
0.0
176
     1
 40
1.0
176
     1
 90
        0
176
     1
 62
    18
420
        0
176
     1
 90
       50
176
     1
 90
        3
176
     1
 62
     5
420
      255
176
     1
290
     0
176
     1
 90
       50
176
     1
 90
       50
176
     1
 90
       50
176
     1
290
     0
176
     1
 90
       50
176
     1
 62
   256
176
     0
 40
1.0
176
     0
 90
        2
176
     1
  1
strokes_ogs.tif
176
     1
290
     0
176
     1
 40
1.0
176
     1
 40
1.0
176
     1
  0
VISUALSTYLE
  5
2D
102
{ACAD_REACTORS
330
2A
102
}
330
2A
100
AcDbVisualStyle
  2
Gouraud
 70
     2
177
     3
291
     1
 70
    58
 90
        2
176
     1
 90
        2
176
     1
 90
        1
176
     1
 90
        2
176
     1
 40
0.6
176
     1
 40
30.0
176
     1
 62
     7
420
 16777215
176
     1
 90
        0
176
     1
 90
        0
176
     1
 62
     7
176
     1
 62
   257
176
     1
 90
        1
176
     1
 90
        1
176
     1
 40
1.0
176
     1
 90
        0
176
     1
 62
     7
176
     1
 40
1.0
176
     1
 90
        1
176
     1
 90
        6
176
     1
 90
        2
176
     1
 62
     7
176
     1
 90
        5
176
     1
 90
        0
176
     1
 90
        0
176
     1
290
     0
176
     1
 90
       13
176
     1
 40
0.0
176
     1
 90
        0
176
     1
290
     0
176
     1
290
     1
176
     1
290
     1
176
     1
290
     0
176
     1
290
     0
176
     1
290
     0
176
     1
290
     0
176
     1
290
     0
176
     1
290
     0
176
     1
 90
       50
176
     1
 40
0.0
176
     1
 40
1.0
176
     1
 90
        0
176
     1
 62
    18
420
        0
176
     1
 90
       50
176
     1
 90
        3
176
     1
 62
     5
420
      255
176
     1
290
     0
176
     1
 90
       50
176
     1
 90
       50
176
     1
 90
       50
176
     1
290
     0
176
     1
 90
       50
176
     1
 62
   256
176
     0
 40
1.0
176
     0
 90
        2
176
     1
  1
strokes_ogs.tif
176
     1
290
     0
176
     1
 40
1.0
176
     1
 40
1.0
176
     1
  0
VISUALSTYLE
  5
2E
102
{ACAD_REACTORS
330
2A
102
}
330
2A
100
AcDbVisualStyle
  2
GouraudWithEdges
 70
     3
177
     3
291
     1
 70
    58
 90
        2
176
     1
 90
        2
176
     1
 90
        1
176
     1
 90
        2
176
     1
 40
0.6
176
     1
 40
30.0
176
     1
 62
     7
420
 16777215
176
     1
 90
        1
176
     1
 90
        0
176
     1
 62
     7
176
     1
 62
   257
176
     1
 90
        1
176
     1
 90
        1
176
     1
 40
1.0
176
     1
 90
        0
176
     1
 62
   257
176
     1
 40
1.0
176
     1
 90
        1
176
     1
 90
        6
176
     1
 90
        2
176
     1
 62
     7
176
     1
 90
        5
176
     1
 90
        0
176
     1
 90
        0
176
     1
290
     0
176
     1
 90
       13
176
     1
 40
0.0
176
     1
 90
        0
176
     1
290
     0
176
     1
290
     1
176
     1
290
     1
176
     1
290
     0
176
     1
290
     0
176
     1
290
     0
176
     1
290
     0
176
     1
290
     0
176
     1
290
     0
176
     1
 90
       50
176
     1
 40
0.0
176
     1
 40
1.0
176
     1
 90
        0
176
     1
 62
    18
420
        0
176
     1
 90
       50
176
     1
 90
        3
176
     1
 62
     5
420
      255
176
     1
290
     0
176
     1
 90
       50
176
     1
 90
       50
176
     1
 90
       50
176
     1
290
     0
176
     1
 90
       50
176
     1
 62
   256
176
     0
 40
1.0
176
     0
 90
        2
176
     1
  1
strokes_ogs.tif
176
     1
290
     0
176
     1
 40
1.0
176
     1
 40
1.0
176
     1
  0
VISUALSTYLE
  5
31
102
{ACAD_REACTORS
330
2A
102
}
330
2A
100
AcDbVisualStyle
  2
Hidden
 70
     6
177
     3
291
     0
 70
    58
 90
        1
176
     1
 90
        2
176
     1
 90
        2
176
     1
 90
        0
176
     1
 40
0.6
176
     1
 40
30.0
176
     1
 62
     7
420
 16777215
176
     1
 90
        2
176
     1
 90
        2
176
     1
 62
     7
176
     1
 62
   257
176
     1
 90
        2
176
     1
 90
        1
176
     1
 40
40.0
176
     1
 90
        0
176
     1
 62
   257
176
     1
 40
1.0
176
     1
 90
        1
176
     1
 90
        6
176
     1
 90
        2
176
     1
 62
     7
176
     1
 90
        3
176
     1
 90
        0
176
     1
 90
        0
176
     1
290
     0
176
     1
 90
        1
176
     1
 40
0.0
176
     1
 90
        0
176
     1
290
     0
176
     1
290
     1
176
     1
290
     1
176
     1
290
     0
176
     1
290
     0
176
     1
290
     0
176
     1
290
     0
176
     1
290
     0
176
     1
290
     0
176
     1
 90
       50
176
     1
 40
0.0
176
     1
 40
1.0
176
     1
 90
        0
176
     1
 62
    18
420
        0
176
     1
 90
       50
176
     1
 90
        3
176
     1
 62
     5
420
      255
176
     1
290
     0
176
     1
 90
       50
176
     1
 90
       50
176
     1
 90
       50
176
     1
290
     0
176
     1
 90
       50
176
     1
 62
   256
176
     0
 40
1.0
176
     0
 90
        2
176
     1
  1
strokes_ogs.tif
176
     1
290
     0
176
     1
 40
1.0
176
     1
 40
1.0
176
     1
  0
VISUALSTYLE
  5
3B
102
{ACAD_REACTORS
330
2A
102
}
330
2A
100
AcDbVisualStyle
  2
JitterOff
 70
    20
177
     3
291
     1
 70
    58
 90
        2
176
     0
 90
        2
176
     0
 90
        0
176
     0
 90
        0
176
     0
 40
0.6
176
     0
 40
30.0
176
     0
 62
     7
420
 16777215
176
     0
 90
        1
176
     0
 90
        4
176
     0
 62
     7
176
     0
 62
   257
176
     0
 90
        1
176
     0
 90
        1
176
     0
 40
1.0
176
     0
 90
       10
176
     2
 62
     7
176
     0
 40
1.0
176
     0
 90
        1
176
     0
 90
        6
176
     0
 90
        2
176
     0
 62
     7
176
     0
 90
        5
176
     0
 90
        0
176
     0
 90
        0
176
     0
290
     0
176
     0
 90
        1
176
     0
 40
0.0
176
     0
 90
        0
176
     0
290
     0
176
     0
290
     1
176
     0
290
     1
176
     0
290
     0
176
     0
290
     0
176
     0
290
     0
176
     0
290
     0
176
     0
290
     0
176
     0
290
     0
176
     0
 90
       50
176
     0
 40
0.0
176
     0
 40
1.0
176
     0
 90
        0
176
     0
 62
    18
420
        0
176
     0
 90
       50
176
     0
 90
        3
176
     0
 62
     5
420
      255
176
     0
290
     0
176
     0
 90
       50
176
     0
 90
       50
176
     0
 90
       50
176
     0
290
     0
176
     0
 90
       50
176
     0
 62
   256
176
     0
 40
1.0
176
     0
 90
        2
176
     0
  1
strokes_ogs.tif
176
     0
290
     0
176
     0
 40
1.0
176
     0
 40
1.0
176
     0
  0
VISUALSTYLE
  5
38
102
{ACAD_REACTORS
330
2A
102
}
330
2A
100
AcDbVisualStyle
  2
Linepattern
 70
    14
177
     3
291
     1
 70
    58
 90
        2
176
     1
 90
        2
176
     1
 90
        0
176
     1
 90
        0
176
     1
 40
0.6
176
     1
 40
30.0
176
     1
 62
     7
420
 16777215
176
     1
 90
        1
176
     1
 90
        4
176
     1
 62
     7
176
     1
 62
   257
176
     1
 90
        7
176
     1
 90
        7
176
     1
 40
1.0
176
     1
 90
        8
176
     1
 62
     7
176
     1
 40
1.0
176
     1
 90
        1
176
     1
 90
        6
176
     1
 90
        2
176
     1
 62
     7
176
     1
 90
        5
176
     1
 90
        0
176
     1
 90
        0
176
     1
290
     0
176
     1
 90
        1
176
     1
 40
0.0
176
     1
 90
        0
176
     1
290
     0
176
     1
290
     1
176
     1
290
     1
176
     1
290
     0
176
     1
290
     0
176
     1
290
     0
176
     1
290
     0
176
     1
290
     0
176
     1
290
     0
176
     1
 90
       50
176
     1
 40
0.0
176
     1
 40
1.0
176
     1
 90
        0
176
     1
 62
    18
420
        0
176
     1
 90
       50
176
     1
 90
        3
176
     1
 62
     5
420
      255
176
     1
290
     0
176
     1
 90
       50
176
     1
 90
       50
176
     1
 90
       50
176
     1
290
     0
176
     1
 90
       50
176
     1
 62
   256
176
     0
 40
1.0
176
     0
 90
        2
176
     1
  1
strokes_ogs.tif
176
     1
290
     0
176
     1
 40
1.0
176
     1
 40
1.0
176
     1
  0
VISUALSTYLE
  5
3C
102
{ACAD_REACTORS
330
2A
102
}
330
2A
100
AcDbVisualStyle
  2
OverhangOff
 70
    21
177
     3
291
     1
 70
    58
 90
        2
176
     0
 90
        2
176
     0
 90
        0
176
     0
 90
        0
176
     0
 40
0.6
176
     0
 40
30.0
176
     0
 62
     7
420
 16777215
176
     0
 90
        1
176
     0
 90
        4
176
     0
 62
     7
176
     0
 62
   257
176
     0
 90
        1
176
     0
 90
        1
176
     0
 40
1.0
176
     0
 90
        9
176
     2
 62
     7
176
     0
 40
1.0
176
     0
 90
        1
176
     0
 90
        6
176
     0
 90
        2
176
     0
 62
     7
176
     0
 90
        5
176
     0
 90
        0
176
     0
 90
        0
176
     0
290
     0
176
     0
 90
        1
176
     0
 40
0.0
176
     0
 90
        0
176
     0
290
     0
176
     0
290
     1
176
     0
290
     1
176
     0
290
     0
176
     0
290
     0
176
     0
290
     0
176
     0
290
     0
176
     0
290
     0
176
     0
290
     0
176
     0
 90
       50
176
     0
 40
0.0
176
     0
 40
1.0
176
     0
 90
        0
176
     0
 62
    18
420
        0
176
     0
 90
       50
176
     0
 90
        3
176
     0
 62
     5
420
      255
176
     0
290
     0
176
     0
 90
       50
176
     0
 90
       50
176
     0
 90
       50
176
     0
290
     0
176
     0
 90
       50
176
     0
 62
   256
176
     0
 40
1.0
176
     0
 90
        2
176
     0
  1
strokes_ogs.tif
176
     0
290
     0
176
     0
 40
1.0
176
     0
 40
1.0
176
     0
  0
VISUALSTYLE
  5
33
102
{ACAD_REACTORS
330
2A
102
}
330
2A
100
AcDbVisualStyle
  2
Realistic
 70
     8
177
     3
291
     0
 70
    58
 90
        2
176
     1
 90
        3
176
     1
 90
        0
176
     1
 90
        2
176
     1
 40
0.6
176
     1
 40
30.0
176
     1
 62
     7
420
 16777215
176
     1
 90
        0
176
     1
 90
        0
176
     1
 62
     7
176
     1
 62
   257
176
     1
 90
        1
176
     1
 90
        1
176
     1
 40
1.0
176
     1
 90
        8
176
     1
 62
   257
176
     1
 40
1.0
176
     1
 90
        1
176
     1
 90
        6
176
     1
 90
        2
176
     1
 62
     7
176
     1
 90
        3
176
     1
 90
        0
176
     1
 90
        0
176
     1
290
     0
176
     1
 90
       13
176
     1
 40
0.0
176
     1
 90
        0
176
     1
290
     0
176
     1
290
     1
176
     1
290
     1
176
     1
290
     0
176
     1
290
     0
176
     1
290
     0
176
     1
290
     0
176
     1
290
     0
176
     1
290
     0
176
     1
 90
       50
176
     1
 40
0.0
176
     1
 40
1.0
176
     1
 90
        0
176
     1
 62
    18
420
        0
176
     1
 90
       50
176
     1
 90
        3
176
     1
 62
     5
420
      255
176
     1
290
     0
176
     1
 90
       50
176
     1
 90
       50
176
     1
 90
       50
176
     1
290
     0
176
     1
 90
       50
176
     1
 62
   256
176
     0
 40
1.0
176
     0
 90
        2
176
     1
  1
strokes_ogs.tif
176
     1
290
     0
176
     1
 40
1.0
176
     1
 40
1.0
176
     1
  0
VISUALSTYLE
  5
42
102
{ACAD_REACTORS
330
2A
102
}
330
2A
100
AcDbVisualStyle
  2
Shaded
 70
    27
177
     3
291
     0
 70
    58
 90
        2
176
     1
 90
        2
176
     1
 90
        1
176
     1
 90
        2
176
     1
 40
0.6
176
     1
 40
30.0
176
     1
 62
     7
420
 16777215
176
     1
 90
        0
176
     1
 90
        4
176
     1
 62
     7
176
     1
 62
   257
176
     1
 90
        1
176
     1
 90
        1
176
     1
 40
1.0
176
     1
 90
        8
176
     1
 62
   257
176
     1
 40
1.0
176
     1
 90
        1
176
     1
 90
        6
176
     1
 90
        2
176
     1
 62
     8
420
  7895160
176
     1
 90
        3
176
     1
 90
        0
176
     1
 90
        0
176
     1
290
     0
176
     1
 90
        5
176
     1
 40
0.0
176
     1
 90
        0
176
     1
290
     0
176
     1
290
     1
176
     1
290
     1
176
     1
290
     0
176
     1
290
     0
176
     1
290
     0
176
     1
290
     0
176
     1
290
     0
176
     1
290
     0
176
     1
 90
       50
176
     1
 40
0.0
176
     1
 40
1.0
176
     1
 90
        0
176
     1
 62
    18
420
        0
176
     1
 90
       50
176
     1
 90
        3
176
     1
 62
     5
420
      255
176
     1
290
     0
176
     1
 90
       50
176
     1
 90
       50
176
     1
 90
       50
176
     1
290
     0
176
     1
 90
       50
176
     1
 62
   256
176
     0
 40
1.0
176
     0
 90
        2
176
     1
  1
strokes_ogs.tif
176
     1
290
     0
176
     1
 40
1.0
176
     1
 40
1.0
176
     1
  0
VISUALSTYLE
  5
41
102
{ACAD_REACTORS
330
2A
102
}
330
2A
100
AcDbVisualStyle
  2
Shaded with edges
 70
    26
177
     3
291
     0
 70
    58
 90
        2
176
     1
 90
        2
176
     1
 90
        1
176
     1
 90
        2
176
     1
 40
0.6
176
     1
 40
30.0
176
     1
 62
     7
420
 16777215
176
     1
 90
        1
176
     1
 90
       10
176
     1
 62
     7
176
     1
 62
   257
176
     1
 90
        2
176
     1
 90
        1
176
     1
 40
1.0
176
     1
 90
        8
176
     1
 62
   257
176
     1
 40
1.0
176
     1
 90
        1
176
     1
 90
        6
176
     1
 90
        2
176
     1
 62
     7
176
     1
 90
        3
176
     1
 90
        0
176
     1
 90
        0
176
     1
290
     0
176
     1
 90
        5
176
     1
 40
0.0
176
     1
 90
        0
176
     1
290
     0
176
     1
290
     1
176
     1
290
     1
176
     1
290
     0
176
     1
290
     0
176
     1
290
     0
176
     1
290
     0
176
     1
290
     0
176
     1
290
     0
176
     1
 90
       50
176
     1
 40
0.0
176
     1
 40
1.0
176
     1
 90
        0
176
     1
 62
    18
420
        0
176
     1
 90
       50
176
     1
 90
        3
176
     1
 62
     5
420
      255
176
     1
290
     0
176
     1
 90
       50
176
     1
 90
       50
176
     1
 90
       50
176
     1
290
     0
176
     1
 90
       50
176
     1
 62
   256
176
     0
 40
1.0
176
     0
 90
        2
176
     1
  1
strokes_ogs.tif
176
     1
290
     0
176
     1
 40
1.0
176
     1
 40
1.0
176
     1
  0
VISUALSTYLE
  5
3E
102
{ACAD_REACTORS
330
2A
102
}
330
2A
100
AcDbVisualStyle
  2
Shades of Gray
 70
    23
177
     3
291
     0
 70
    58
 90
        2
176
     1
 90
        2
176
     1
 90
        3
176
     1
 90
        0
176
     1
 40
0.6
176
     1
 40
30.0
176
     1
 62
     7
420
 16777215
176
     1
 90
        2
176
     1
 90
        2
176
     1
 62
     7
176
     1
 62
     7
176
     1
 90
        1
176
     1
 90
        1
176
     1
 40
40.0
176
     1
 90
        8
176
     1
 62
     7
176
     1
 40
1.0
176
     1
 90
        1
176
     1
 90
        6
176
     1
 90
        2
176
     1
 62
     7
176
     1
 90
        3
176
     1
 90
        0
176
     1
 90
        0
176
     1
290
     0
176
     1
 90
        1
176
     1
 40
0.0
176
     1
 90
        0
176
     1
290
     0
176
     1
290
     1
176
     1
290
     1
176
     1
290
     0
176
     1
290
     0
176
     1
290
     0
176
     1
290
     0
176
     1
290
     0
176
     1
290
     0
176
     1
 90
       50
176
     1
 40
0.0
176
     1
 40
1.0
176
     1
 90
        0
176
     1
 62
    18
420
        0
176
     1
 90
       50
176
     1
 90
        3
176
     1
 62
     5
420
      255
176
     1
290
     0
176
     1
 90
       50
176
     1
 90
       50
176
     1
 90
       50
176
     1
290
     0
176
     1
 90
       50
176
     1
 62
   256
176
     0
 40
1.0
176
     0
 90
        2
176
     1
  1
strokes_ogs.tif
176
     1
290
     0
176
     1
 40
1.0
176
     1
 40
1.0
176
     1
  0
VISUALSTYLE
  5
3F
102
{ACAD_REACTORS
330
2A
102
}
330
2A
100
AcDbVisualStyle
  2
Sketchy
 70
    24
177
     3
291
     0
 70
    58
 90
        1
176
     1
 90
        2
176
     1
 90
        2
176
     1
 90
        0
176
     1
 40
0.6
176
     1
 40
30.0
176
     1
 62
     7
420
 16777215
176
     1
 90
        2
176
     1
 90
        2
176
     1
 62
     7
176
     1
 62
     7
176
     1
 90
        1
176
     1
 90
        1
176
     1
 40
40.0
176
     1
 90
       11
176
     1
 62
     7
176
     1
 40
1.0
176
     1
 90
        1
176
     1
 90
        6
176
     1
 90
        2
176
     1
 62
     7
176
     1
 90
        6
176
     1
 90
        0
176
     1
 90
        0
176
     1
290
     0
176
     1
 90
        1
176
     1
 40
0.0
176
     1
 90
        0
176
     1
290
     0
176
     1
290
     1
176
     1
290
     1
176
     1
290
     0
176
     1
290
     0
176
     1
290
     0
176
     1
290
     0
176
     1
290
     0
176
     1
290
     0
176
     1
 90
       50
176
     1
 40
0.0
176
     1
 40
1.0
176
     1
 90
        0
176
     1
 62
    18
420
        0
176
     1
 90
       50
176
     1
 90
        3
176
     1
 62
     5
420
      255
176
     1
290
     0
176
     1
 90
       50
176
     1
 90
       50
176
     1
 90
       50
176
     1
290
     0
176
     1
 90
       50
176
     1
 62
   256
176
     0
 40
1.0
176
     0
 90
        2
176
     1
  1
strokes_ogs.tif
176
     1
290
     0
176
     1
 40
1.0
176
     1
 40
1.0
176
     1
  0
VISUALSTYLE
  5
37
102
{ACAD_REACTORS
330
2A
102
}
330
2A
100
AcDbVisualStyle
  2
Thicken
 70
    13
177
     3
291
     1
 70
    58
 90
        2
176
     1
 90
        2
176
     1
 90
        0
176
     1
 90
        0
176
     1
 40
0.6
176
     1
 40
30.0
176
     1
 62
     7
420
 16777215
176
     1
 90
        1
176
     1
 90
        4
176
     1
 62
     7
176
     1
 62
   257
176
     1
 90
        1
176
     1
 90
        1
176
     1
 40
1.0
176
     1
 90
       12
176
     1
 62
     7
176
     1
 40
1.0
176
     1
 90
        1
176
     1
 90
        6
176
     1
 90
        2
176
     1
 62
     7
176
     1
 90
        5
176
     1
 90
        0
176
     1
 90
        0
176
     1
290
     0
176
     1
 90
        1
176
     1
 40
0.0
176
     1
 90
        0
176
     1
290
     0
176
     1
290
     1
176
     1
290
     1
176
     1
290
     0
176
     1
290
     0
176
     1
290
     0
176
     1
290
     0
176
     1
290
     0
176
     1
290
     0
176
     1
 90
       50
176
     1
 40
0.0
176
     1
 40
1.0
176
     1
 90
        0
176
     1
 62
    18
420
        0
176
     1
 90
       50
176
     1
 90
        3
176
     1
 62
     5
420
      255
176
     1
290
     0
176
     1
 90
       50
176
     1
 90
       50
176
     1
 90
       50
176
     1
290
     0
176
     1
 90
       50
176
     1
 62
   256
176
     0
 40
1.0
176
     0
 90
        2
176
     1
  1
strokes_ogs.tif
176
     1
290
     0
176
     1
 40
1.0
176
     1
 40
1.0
176
     1
  0
VISUALSTYLE
  5
30
102
{ACAD_REACTORS
330
2A
102
}
330
2A
100
AcDbVisualStyle
  2
Wireframe
 70
     5
177
     3
291
     0
 70
    58
 90
        0
176
     1
 90
        2
176
     1
 90
        0
176
     1
 90
        0
176
     1
 40
0.6
176
     1
 40
30.0
176
     1
 62
     7
420
 16777215
176
     1
 90
        1
176
     1
 90
        4
176
     1
 62
     7
176
     1
 62
   257
176
     1
 90
        1
176
     1
 90
        1
176
     1
 40
1.0
176
     1
 90
        0
176
     1
 62
   257
176
     1
 40
1.0
176
     1
 90
        1
176
     1
 90
        6
176
     1
 90
        2
176
     1
 62
     7
176
     1
 90
        3
176
     1
 90
        0
176
     1
 90
        0
176
     1
290
     0
176
     1
 90
        1
176
     1
 40
0.0
176
     1
 90
        0
176
     1
290
     0
176
     1
290
     1
176
     1
290
     1
176
     1
290
     0
176
     1
290
     0
176
     1
290
     0
176
     1
290
     0
176
     1
290
     0
176
     1
290
     0
176
     1
 90
       50
176
     1
 40
0.0
176
     1
 40
1.0
176
     1
 90
        0
176
     1
 62
    18
420
        0
176
     1
 90
       50
176
     1
 90
        3
176
     1
 62
     5
420
      255
176
     1
290
     0
176
     1
 90
       50
176
     1
 90
       50
176
     1
 90
       50
176
     1
290
     0
176
     1
 90
       50
176
     1
 62
   256
176
     0
 40
1.0
176
     0
 90
        2
176
     1
  1
strokes_ogs.tif
176
     1
290
     0
176
     1
 40
1.0
176
     1
 40
1.0
176
     1
  0
VISUALSTYLE
  5
40
102
{ACAD_REACTORS
330
2A
102
}
330
2A
100
AcDbVisualStyle
  2
X-Ray
 70
    25
177
     3
291
     0
 70
    58
 90
        2
176
     1
 90
        2
176
     1
 90
        1
176
     1
 90
        1
176
     1
 40
0.5
176
     1
 40
30.0
176
     1
 62
     7
420
 16777215
176
     1
 90
        1
176
     1
 90
        0
176
     1
 62
     7
176
     1
 62
   257
176
     1
 90
        1
176
     1
 90
        1
176
     1
 40
1.0
176
     1
 90
        8
176
     1
 62
     7
176
     1
 40
1.0
176
     1
 90
        1
176
     1
 90
        6
176
     1
 90
        2
176
     1
 62
     7
176
     1
 90
        3
176
     1
 90
        0
176
     1
 90
        0
176
     1
290
     0
176
     1
 90
       13
176
     1
 40
0.0
176
     1
 90
        0
176
     1
290
     0
176
     1
290
     1
176
     1
290
     1
176
     1
290
     0
176
     1
290
     0
176
     1
290
     0
176
     1
290
     0
176
     1
290
     0
176
     1
290
     0
176
     1
 90
       50
176
     1
 40
0.0
176
     1
 40
1.0
176
     1
 90
        0
176
     1
 62
    18
420
        0
176
     1
 90
       50
176
     1
 90
        3
176
     1
 62
     5
420
      255
176
     1
290
     0
176
     1
 90
       50
176
     1
 90
       50
176
     1
 90
       50
176
     1
290
     0
176
     1
 90
       50
176
     1
 62
   256
176
     0
 40
1.0
176
     0
 90
        2
176
     1
  1
strokes_ogs.tif
176
     1
290
     0
176
     1
 40
1.0
176
     1
 40
1.0
176
     1
  0
DICTIONARYVAR
  5
1F4
102
{ACAD_REACTORS
330
1F3
102
}
330
1F3
100
DictionaryVariables
280
     0
  1
1:1
  0
DICTIONARYVAR
  5
1F9
102
{ACAD_REACTORS
330
1F3
102
}
330
1F3
100
DictionaryVariables
280
     0
  1
Standard
  0
DICTIONARYVAR
  5
1F8
102
{ACAD_REACTORS
330
1F3
102
}
330
1F3
100
DictionaryVariables
280
     0
  1
Standard
  0
DICTIONARY
  5
1F5
330
6A
100
AcDbDictionary
280
     1
281
     1
  3
ACAD_ROUNDTRIP_2008_TABLESTYLE_CELLSTYLEMAP
360
1F6
  0
CELLSTYLEMAP
  5
1F6
102
{ACAD_REACTORS
330
1F5
102
}
330
1F5
100
AcDbCellStyleMap
 90
        3
300
CELLSTYLE
  1
TABLEFORMAT_BEGIN
 90
        5
170
     1
 91
        0
 92
    32768
 62
   257
 93
        1
300
CONTENTFORMAT
  1
CONTENTFORMAT_BEGIN
 90
        0
 91
        0
 92
        4
 93
        0
300

 40
0.0
140
1.0
 94
        5
 62
     0
340
11
144
0.25
309
CONTENTFORMAT_END
171
     1
301
MARGIN
  1
CELLMARGIN_BEGIN
 40
0.06
 40
0.06
 40
0.06
 40
0.06
 40
0.06
 40
0.06
309
CELLMARGIN_END
 94
        6
 95
        1
302
GRIDFORMAT
  1
GRIDFORMAT_BEGIN
 90
        0
 91
        1
 62
     0
 92
       -2
340
14
 93
        0
 40
0.045
309
GRIDFORMAT_END
 95
        2
302
GRIDFORMAT
  1
GRIDFORMAT_BEGIN
 90
        0
 91
        1
 62
     0
 92
       -2
340
14
 93
        0
 40
0.045
309
GRIDFORMAT_END
 95
        4
302
GRIDFORMAT
  1
GRIDFORMAT_BEGIN
 90
        0
 91
        1
 62
     0
 92
       -2
340
14
 93
        0
 40
0.045
309
GRIDFORMAT_END
 95
        8
302
GRIDFORMAT
  1
GRIDFORMAT_BEGIN
 90
        0
 91
        1
 62
     0
 92
       -2
340
14
 93
        0
 40
0.045
309
GRIDFORMAT_END
 95
       16
302
GRIDFORMAT
  1
GRIDFORMAT_BEGIN
 90
        0
 91
        1
 62
     0
 92
       -2
340
14
 93
        0
 40
0.045
309
GRIDFORMAT_END
 95
       32
302
GRIDFORMAT
  1
GRIDFORMAT_BEGIN
 90
        0
 91
        1
 62
     0
 92
       -2
340
14
 93
        0
 40
0.045
309
GRIDFORMAT_END
309
TABLEFORMAT_END
  1
CELLSTYLE_BEGIN
 90
        1
 91
        1
300
_TITLE
309
CELLSTYLE_END
300
CELLSTYLE
  1
TABLEFORMAT_BEGIN
 90
        5
170
     1
 91
        0
 92
        0
 62
   257
 93
        1
300
CONTENTFORMAT
  1
CONTENTFORMAT_BEGIN
 90
        0
 91
        0
 92
        4
 93
        0
300

 40
0.0
140
1.0
 94
        5
 62
     0
340
11
144
0.18
309
CONTENTFORMAT_END
171
     1
301
MARGIN
  1
CELLMARGIN_BEGIN
 40
0.06
 40
0.06
 40
0.06
 40
0.06
 40
0.06
 40
0.06
309
CELLMARGIN_END
 94
        6
 95
        1
302
GRIDFORMAT
  1
GRIDFORMAT_BEGIN
 90
        0
 91
        1
 62
     0
 92
       -2
340
14
 93
        0
 40
0.045
309
GRIDFORMAT_END
 95
        2
302
GRIDFORMAT
  1
GRIDFORMAT_BEGIN
 90
        0
 91
        1
 62
     0
 92
       -2
340
14
 93
        0
 40
0.045
309
GRIDFORMAT_END
 95
        4
302
GRIDFORMAT
  1
GRIDFORMAT_BEGIN
 90
        0
 91
        1
 62
     0
 92
       -2
340
14
 93
        0
 40
0.045
309
GRIDFORMAT_END
 95
        8
302
GRIDFORMAT
  1
GRIDFORMAT_BEGIN
 90
        0
 91
        1
 62
     0
 92
       -2
340
14
 93
        0
 40
0.045
309
GRIDFORMAT_END
 95
       16
302
GRIDFORMAT
  1
GRIDFORMAT_BEGIN
 90
        0
 91
        1
 62
     0
 92
       -2
340
14
 93
        0
 40
0.045
309
GRIDFORMAT_END
 95
       32
302
GRIDFORMAT
  1
GRIDFORMAT_BEGIN
 90
        0
 91
        1
 62
     0
 92
       -2
340
14
 93
        0
 40
0.045
309
GRIDFORMAT_END
309
TABLEFORMAT_END
  1
CELLSTYLE_BEGIN
 90
        2
 91
        1
300
_HEADER
309
CELLSTYLE_END
300
CELLSTYLE
  1
TABLEFORMAT_BEGIN
 90
        5
170
     1
 91
        0
 92
        0
 62
   257
 93
        1
300
CONTENTFORMAT
  1
CONTENTFORMAT_BEGIN
 90
        0
 91
        0
 92
        4
 93
        0
300

 40
0.0
140
1.0
 94
        2
 62
     0
340
11
144
0.18
309
CONTENTFORMAT_END
171
     1
301
MARGIN
  1
CELLMARGIN_BEGIN
 40
0.06
 40
0.06
 40
0.06
 40
0.06
 40
0.06
 40
0.06
309
CELLMARGIN_END
 94
        6
 95
        1
302
GRIDFORMAT
  1
GRIDFORMAT_BEGIN
 90
        0
 91
        1
 62
     0
 92
       -2
340
14
 93
        0
 40
0.045
309
GRIDFORMAT_END
 95
        2
302
GRIDFORMAT
  1
GRIDFORMAT_BEGIN
 90
        0
 91
        1
 62
     0
 92
       -2
340
14
 93
        0
 40
0.045
309
GRIDFORMAT_END
 95
        4
302
GRIDFORMAT
  1
GRIDFORMAT_BEGIN
 90
        0
 91
        1
 62
     0
 92
       -2
340
14
 93
        0
 40
0.045
309
GRIDFORMAT_END
 95
        8
302
GRIDFORMAT
  1
GRIDFORMAT_BEGIN
 90
        0
 91
        1
 62
     0
 92
       -2
340
14
 93
        0
 40
0.045
309
GRIDFORMAT_END
 95
       16
302
GRIDFORMAT
  1
GRIDFORMAT_BEGIN
 90
        0
 91
        1
 62
     0
 92
       -2
340
14
 93
        0
 40
0.045
309
GRIDFORMAT_END
 95
       32
302
GRIDFORMAT
  1
GRIDFORMAT_BEGIN
 90
        0
 91
        1
 62
     0
 92
       -2
340
14
 93
        0
 40
0.045
309
GRIDFORMAT_END
309
TABLEFORMAT_END
  1
CELLSTYLE_BEGIN
 90
        3
 91
        2
300
_DATA
309
CELLSTYLE_END
  0
ENDSEC
  0
EOF