0
SECTION
  2
HEADER
  9
$ACADVER
  1
AC1027
  9
$ACADMAINTVER
 70
     8
  9
$DWGCODEPAGE
  3
ANSI_1252
  9
$REQUIREDVERSIONS
160
                 0
  9
$COMMENTS
  1
File was created by Cadenas
  9
$CUSTOMPROPERTYTAG
  1
NN
  9
$CUSTOMPROPERTY
  1
Eccentric Collar Wide Slot Take Up Inch Bore
  9
$CUSTOMPROPERTYTAG
  1
NT
  9
$CUSTOMPROPERTY
  1
SXR Normal Duty Wide Slot Take-Up Bearings
  9
$CUSTOMPROPERTYTAG
  1
NB
  9
$CUSTOMPROPERTY
  1
131210
  9
$CUSTOMPROPERTYTAG
  1
NBSYN
  9
$CUSTOMPROPERTY
  1
$PN.
  9
$CUSTOMPROPERTYTAG
  1
LINA
  9
$CUSTOMPROPERTY
  1
131210
  9
$CUSTOMPROPERTYTAG
  1
SERIES
  9
$CUSTOMPROPERTY
  1
206
  9
$CUSTOMPROPERTYTAG
  1
SS
  9
$CUSTOMPROPERTY
  1
1-1/8
  9
$CUSTOMPROPERTYTAG
  1
PN
  9
$CUSTOMPROPERTY
  1
131210
  9
$CUSTOMPROPERTYTAG
  1
DESCRIPTION
  9
$CUSTOMPROPERTY
  1
WSTU-SXR-102
  9
$CUSTOMPROPERTYTAG
  1
LF
  9
$CUSTOMPROPERTY
  1
RE-LUBE
  9
$CUSTOMPROPERTYTAG
  1
W
  9
$CUSTOMPROPERTY
  1
2.9
  9
$CUSTOMPROPERTYTAG
  1
FS
  9
$CUSTOMPROPERTY
  1
WS308
  9
$CUSTOMPROPERTYTAG
  1
A
  9
$CUSTOMPROPERTY
  1
1.77
  9
$CUSTOMPROPERTYTAG
  1
B
  9
$CUSTOMPROPERTY
  1
4.38
  9
$CUSTOMPROPERTYTAG
  1
C
  9
$CUSTOMPROPERTY
  1
0.531
  9
$CUSTOMPROPERTYTAG
  1
D
  9
$CUSTOMPROPERTY
  1
2.25
  9
$CUSTOMPROPERTYTAG
  1
E
  9
$CUSTOMPROPERTY
  1
2.75
  9
$CUSTOMPROPERTYTAG
  1
F
  9
$CUSTOMPROPERTY
  1
3/4
  9
$CUSTOMPROPERTYTAG
  1
G
  9
$CUSTOMPROPERTY
  1
0.38
  9
$CUSTOMPROPERTYTAG
  1
H
  9
$CUSTOMPROPERTY
  1
0.63
  9
$CUSTOMPROPERTYTAG
  1
J
  9
$CUSTOMPROPERTY
  1
2.19
  9
$CUSTOMPROPERTYTAG
  1
K
  9
$CUSTOMPROPERTY
  1
1.44
  9
$CUSTOMPROPERTYTAG
  1
L
  9
$CUSTOMPROPERTY
  1
1.75
  9
$CUSTOMPROPERTYTAG
  1
M
  9
$CUSTOMPROPERTY
  1
3.480/3.510
  9
$CUSTOMPROPERTYTAG
  1
N
  9
$CUSTOMPROPERTY
  1
4.13
  9
$CUSTOMPROPERTYTAG
  1
R
  9
$CUSTOMPROPERTY
  1
0.58
  9
$CUSTOMPROPERTYTAG
  1
S
  9
$CUSTOMPROPERTY
  1
1.19
  9
$CUSTOMPROPERTYTAG
  1
T
  9
$CUSTOMPROPERTY
  1
1.63
  9
$CUSTOMPROPERTYTAG
  1
COMPANY
  9
$CUSTOMPROPERTY
  1
baldor
  9
$INSBASE
 10
0.0
 20
0.0
 30
0.0
  9
$EXTMIN
 10
1.000000000000000E+20
 20
1.000000000000000E+20
 30
1.000000000000000E+20
  9
$EXTMAX
 10
-1.000000000000000E+20
 20
-1.000000000000000E+20
 30
-1.000000000000000E+20
  9
$LIMMIN
 10
0.0
 20
0.0
  9
$LIMMAX
 10
12.0
 20
9.0
  9
$ORTHOMODE
 70
     0
  9
$REGENMODE
 70
     1
  9
$FILLMODE
 70
     1
  9
$QTEXTMODE
 70
     0
  9
$MIRRTEXT
 70
     1
  9
$LTSCALE
 40
1.0
  9
$ATTMODE
 70
     1
  9
$TEXTSIZE
 40
0.2
  9
$TRACEWID
 40
0.05
  9
$TEXTSTYLE
  7
Standard
  9
$CLAYER
  8
0
  9
$CELTYPE
  6
ByLayer
  9
$CECOLOR
 62
   256
  9
$CELTSCALE
 40
1.0
  9
$DISPSILH
 70
     0
  9
$DIMSCALE
 40
1.0
  9
$DIMASZ
 40
0.18
  9
$DIMEXO
 40
0.0625
  9
$DIMDLI
 40
0.38
  9
$DIMRND
 40
0.0
  9
$DIMDLE
 40
0.0
  9
$DIMEXE
 40
0.18
  9
$DIMTP
 40
0.0
  9
$DIMTM
 40
0.0
  9
$DIMTXT
 40
0.18
  9
$DIMCEN
 40
0.09
  9
$DIMTSZ
 40
0.0
  9
$DIMTOL
 70
     0
  9
$DIMLIM
 70
     0
  9
$DIMTIH
 70
     1
  9
$DIMTOH
 70
     1
  9
$DIMSE1
 70
     0
  9
$DIMSE2
 70
     0
  9
$DIMTAD
 70
     0
  9
$DIMZIN
 70
     0
  9
$DIMBLK
  1

  9
$DIMASO
 70
     1
  9
$DIMSHO
 70
     1
  9
$DIMPOST
  1

  9
$DIMAPOST
  1

  9
$DIMALT
 70
     0
  9
$DIMALTD
 70
     2
  9
$DIMALTF
 40
25.4
  9
$DIMLFAC
 40
1.0
  9
$DIMTOFL
 70
     0
  9
$DIMTVP
 40
0.0
  9
$DIMTIX
 70
     0
  9
$DIMSOXD
 70
     0
  9
$DIMSAH
 70
     0
  9
$DIMBLK1
  1

  9
$DIMBLK2
  1

  9
$DIMSTYLE
  2
Standard
  9
$DIMCLRD
 70
     0
  9
$DIMCLRE
 70
     0
  9
$DIMCLRT
 70
     0
  9
$DIMTFAC
 40
1.0
  9
$DIMGAP
 40
0.09
  9
$DIMJUST
 70
     0
  9
$DIMSD1
 70
     0
  9
$DIMSD2
 70
     0
  9
$DIMTOLJ
 70
     1
  9
$DIMTZIN
 70
     0
  9
$DIMALTZ
 70
     0
  9
$DIMALTTZ
 70
     0
  9
$DIMUPT
 70
     0
  9
$DIMDEC
 70
     4
  9
$DIMTDEC
 70
     4
  9
$DIMALTU
 70
     2
  9
$DIMALTTD
 70
     2
  9
$DIMTXSTY
  7
Standard
  9
$DIMAUNIT
 70
     0
  9
$DIMADEC
 70
     0
  9
$DIMALTRND
 40
0.0
  9
$DIMAZIN
 70
     0
  9
$DIMDSEP
 70
    46
  9
$DIMATFIT
 70
     3
  9
$DIMFRAC
 70
     0
  9
$DIMLDRBLK
  1

  9
$DIMLUNIT
 70
     2
  9
$DIMLWD
 70
    -2
  9
$DIMLWE
 70
    -2
  9
$DIMTMOVE
 70
     0
  9
$DIMFXL
 40
1.0
  9
$DIMFXLON
 70
     0
  9
$DIMJOGANG
 40
0.7853981633974483
  9
$DIMTFILL
 70
     0
  9
$DIMTFILLCLR
 70
     0
  9
$DIMARCSYM
 70
     0
  9
$DIMLTYPE
  6

  9
$DIMLTEX1
  6

  9
$DIMLTEX2
  6

  9
$DIMTXTDIRECTION
 70
     0
  9
$LUNITS
 70
     2
  9
$LUPREC
 70
     4
  9
$SKETCHINC
 40
0.1
  9
$FILLETRAD
 40
0.5
  9
$AUNITS
 70
     0
  9
$AUPREC
 70
     0
  9
$MENU
  1
.
  9
$ELEVATION
 40
0.0
  9
$PELEVATION
 40
0.0
  9
$THICKNESS
 40
0.0
  9
$LIMCHECK
 70
     0
  9
$CHAMFERA
 40
0.0
  9
$CHAMFERB
 40
0.0
  9
$CHAMFERC
 40
0.0
  9
$CHAMFERD
 40
0.0
  9
$SKPOLY
 70
     0
  9
$TDCREATE
 40
2458168.980237303
  9
$TDUCREATE
 40
2458168.938570637
  9
$TDUPDATE
 40
2458168.980237477
  9
$TDUUPDATE
 40
2458168.93857081
  9
$TDINDWG
 40
0.0000000116
  9
$TDUSRTIMER
 40
0.0000000116
  9
$USRTIMER
 70
     1
  9
$ANGBASE
 50
0.0
  9
$ANGDIR
 70
     0
  9
$PDMODE
 70
     0
  9
$PDSIZE
 40
0.0
  9
$PLINEWID
 40
0.0
  9
$SPLFRAME
 70
     0
  9
$SPLINETYPE
 70
     6
  9
$SPLINESEGS
 70
     8
  9
$HANDSEED
  5
217
  9
$SURFTAB1
 70
     6
  9
$SURFTAB2
 70
     6
  9
$SURFTYPE
 70
     6
  9
$SURFU
 70
     6
  9
$SURFV
 70
     6
  9
$UCSBASE
  2

  9
$UCSNAME
  2

  9
$UCSORG
 10
0.0
 20
0.0
 30
0.0
  9
$UCSXDIR
 10
1.0
 20
0.0
 30
0.0
  9
$UCSYDIR
 10
0.0
 20
1.0
 30
0.0
  9
$UCSORTHOREF
  2

  9
$UCSORTHOVIEW
 70
     0
  9
$UCSORGTOP
 10
0.0
 20
0.0
 30
0.0
  9
$UCSORGBOTTOM
 10
0.0
 20
0.0
 30
0.0
  9
$UCSORGLEFT
 10
0.0
 20
0.0
 30
0.0
  9
$UCSORGRIGHT
 10
0.0
 20
0.0
 30
0.0
  9
$UCSORGFRONT
 10
0.0
 20
0.0
 30
0.0
  9
$UCSORGBACK
 10
0.0
 20
0.0
 30
0.0
  9
$PUCSBASE
  2

  9
$PUCSNAME
  2

  9
$PUCSORG
 10
0.0
 20
0.0
 30
0.0
  9
$PUCSXDIR
 10
1.0
 20
0.0
 30
0.0
  9
$PUCSYDIR
 10
0.0
 20
1.0
 30
0.0
  9
$PUCSORTHOREF
  2

  9
$PUCSORTHOVIEW
 70
     0
  9
$PUCSORGTOP
 10
0.0
 20
0.0
 30
0.0
  9
$PUCSORGBOTTOM
 10
0.0
 20
0.0
 30
0.0
  9
$PUCSORGLEFT
 10
0.0
 20
0.0
 30
0.0
  9
$PUCSORGRIGHT
 10
0.0
 20
0.0
 30
0.0
  9
$PUCSORGFRONT
 10
0.0
 20
0.0
 30
0.0
  9
$PUCSORGBACK
 10
0.0
 20
0.0
 30
0.0
  9
$USERI1
 70
     0
  9
$USERI2
 70
     0
  9
$USERI3
 70
     0
  9
$USERI4
 70
     0
  9
$USERI5
 70
     0
  9
$USERR1
 40
0.0
  9
$USERR2
 40
0.0
  9
$USERR3
 40
0.0
  9
$USERR4
 40
0.0
  9
$USERR5
 40
0.0
  9
$WORLDVIEW
 70
     1
  9
$SHADEDGE
 70
     3
  9
$SHADEDIF
 70
    70
  9
$TILEMODE
 70
     1
  9
$MAXACTVP
 70
    64
  9
$PINSBASE
 10
0.0
 20
0.0
 30
0.0
  9
$PLIMCHECK
 70
     0
  9
$PEXTMIN
 10
1.000000000000000E+20
 20
1.000000000000000E+20
 30
1.000000000000000E+20
  9
$PEXTMAX
 10
-1.000000000000000E+20
 20
-1.000000000000000E+20
 30
-1.000000000000000E+20
  9
$PLIMMIN
 10
0.0
 20
0.0
  9
$PLIMMAX
 10
12.0
 20
9.0
  9
$UNITMODE
 70
     0
  9
$VISRETAIN
 70
     1
  9
$PLINEGEN
 70
     0
  9
$PSLTSCALE
 70
     1
  9
$TREEDEPTH
 70
  3020
  9
$CMLSTYLE
  2
Standard
  9
$CMLJUST
 70
     0
  9
$CMLSCALE
 40
1.0
  9
$PROXYGRAPHICS
 70
     1
  9
$MEASUREMENT
 70
     0
  9
$CELWEIGHT
370
    -1
  9
$ENDCAPS
280
     0
  9
$JOINSTYLE
280
     0
  9
$LWDISPLAY
290
     0
  9
$INSUNITS
 70
     1
  9
$HYPERLINKBASE
  1

  9
$STYLESHEET
  1

  9
$XEDIT
290
     1
  9
$CEPSNTYPE
380
     0
  9
$PSTYLEMODE
290
     1
  9
$FINGERPRINTGUID
  2
{D1745769-B576-4913-9A76-4CAD7BE45605}
  9
$VERSIONGUID
  2
{FAEB1C32-E019-11D5-929B-00C0DF256EC4}
  9
$EXTNAMES
290
     1
  9
$PSVPSCALE
 40
0.0
  9
$OLESTARTUP
290
     0
  9
$SORTENTS
280
   127
  9
$INDEXCTL
280
     0
  9
$HIDETEXT
280
     1
  9
$XCLIPFRAME
280
     2
  9
$HALOGAP
280
     0
  9
$OBSCOLOR
 70
   257
  9
$OBSLTYPE
280
     0
  9
$INTERSECTIONDISPLAY
280
     0
  9
$INTERSECTIONCOLOR
 70
   257
  9
$DIMASSOC
280
     2
  9
$PROJECTNAME
  1

  9
$CAMERADISPLAY
290
     0
  9
$LENSLENGTH
 40
50.0
  9
$CAMERAHEIGHT
 40
0.0
  9
$STEPSPERSEC
 40
2.0
  9
$STEPSIZE
 40
6.0
  9
$3DDWFPREC
 40
2.0
  9
$PSOLWIDTH
 40
0.25
  9
$PSOLHEIGHT
 40
4.0
  9
$LOFTANG1
 40
1.570796326794897
  9
$LOFTANG2
 40
1.570796326794897
  9
$LOFTMAG1
 40
0.0
  9
$LOFTMAG2
 40
0.0
  9
$LOFTPARAM
 70
     7
  9
$LOFTNORMALS
280
     1
  9
$LATITUDE
 40
37.795
  9
$LONGITUDE
 40
-122.394
  9
$NORTHDIRECTION
 40
0.0
  9
$TIMEZONE
 70
 -8000
  9
$LIGHTGLYPHDISPLAY
280
     1
  9
$TILEMODELIGHTSYNCH
280
     1
  9
$CMATERIAL
347
44
  9
$SOLIDHIST
280
     0
  9
$SHOWHIST
280
     1
  9
$DWFFRAME
280
     2
  9
$DGNFRAME
280
     2
  9
$REALWORLDSCALE
290
     1
  9
$INTERFERECOLOR
 62
   256
  9
$CSHADOW
280
     0
  9
$SHADOWPLANELOCATION
 40
0.0
  0
ENDSEC
  0
SECTION
  2
CLASSES
  0
CLASS
  1
ACDBDICTIONARYWDFLT
  2
AcDbDictionaryWithDefault
  3
ObjectDBX Classes
 90
        0
 91
        4
280
     0
281
     0
  0
CLASS
  1
VISUALSTYLE
  2
AcDbVisualStyle
  3
ObjectDBX Classes
 90
     4095
 91
        4
280
     0
281
     0
  0
CLASS
  1
MATERIAL
  2
AcDbMaterial
  3
ObjectDBX Classes
 90
     1153
 91
        4
280
     0
281
     0
  0
CLASS
  1
SCALE
  2
AcDbScale
  3
ObjectDBX Classes
 90
     1153
 91
        4
280
     0
281
     0
  0
CLASS
  1
TABLESTYLE
  2
AcDbTableStyle
  3
ObjectDBX Classes
 90
     4095
 91
        4
280
     0
281
     0
  0
CLASS
  1
MLEADERSTYLE
  2
AcDbMLeaderStyle
  3
ACDB_MLEADERSTYLE_CLASS
 90
     4095
 91
        4
280
     0
281
     0
  0
CLASS
  1
SUN
  2
AcDbSun
  3
SCENEOE
 90
     1153
 91
        4
280
     0
281
     0
  0
CLASS
  1
DICTIONARYVAR
  2
AcDbDictionaryVar
  3
ObjectDBX Classes
 90
        0
 91
        4
280
     0
281
     0
  0
CLASS
  1
CELLSTYLEMAP
  2
AcDbCellStyleMap
  3
ObjectDBX Classes
 90
     1152
 91
        4
280
     0
281
     0
  0
ENDSEC
  0
SECTION
  2
TABLES
  0
TABLE
  2
VPORT
  5
8
330
0
100
AcDbSymbolTable
 70
     1
  0
VPORT
  5
29
330
8
100
AcDbSymbolTableRecord
100
AcDbViewportTableRecord
  2
*Active
 70
     0
 10
0.0
 20
0.0
 11
1.0
 21
1.0
 12
-0.2317499999999999
 22
0.0
 13
0.0
 23
0.0
 14
0.5
 24
0.5
 15
0.5
 25
0.5
 16
0.0
 26
0.0
 36
1.0
 17
0.0
 27
0.0
 37
0.0
 40
4.212599999999999
 41
0.5069007263922516
 42
50.0
 43
0.0
 44
0.0
 50
0.0
 51
0.0
 71
     0
 72
   100
 73
     1
 74
     3
 75
     0
 76
     0
 77
     0
 78
     0
281
     0
 65
     1
110
0.0
120
0.0
130
0.0
111
1.0
121
0.0
131
0.0
112
0.0
122
1.0
132
0.0
 79
     0
146
0.0
348
2F
 60
     3
 61
     5
292
     1
282
     1
141
0.0
142
0.0
 63
   250
361
6D
  0
ENDTAB
  0
TABLE
  2
LTYPE
  5
5
330
0
100
AcDbSymbolTable
 70
     3
  0
LTYPE
  5
14
330
5
100
AcDbSymbolTableRecord
100
AcDbLinetypeTableRecord
  2
ByBlock
 70
     0
  3

 72
    65
 73
     0
 40
0.0
  0
LTYPE
  5
15
330
5
100
AcDbSymbolTableRecord
100
AcDbLinetypeTableRecord
  2
ByLayer
 70
     0
  3

 72
    65
 73
     0
 40
0.0
  0
LTYPE
  5
16
330
5
100
AcDbSymbolTableRecord
100
AcDbLinetypeTableRecord
  2
Continuous
 70
     0
  3
Solid line
 72
    65
 73
     0
 40
0.0
  0
LTYPE
  5
A8
330
5
100
AcDbSymbolTableRecord
100
AcDbLinetypeTableRecord
  2
Dashed
 70
     0
  3

 72
    65
 73
     2
 40
2.0
 49
1.0
 74
     0
 49
-1.0
 74
     0
  0
LTYPE
  5
E0
330
5
100
AcDbSymbolTableRecord
100
AcDbLinetypeTableRecord
  2
Center
 70
     0
  3

 72
    65
 73
     4
 40
1.5
 49
0.45
 74
     0
 49
-0.5
 74
     0
 49
0.05
 74
     0
 49
-0.5
 74
     0
  0
ENDTAB
  0
TABLE
  2
LAYER
  5
2
330
0
100
AcDbSymbolTable
 70
     7
  0
LAYER
  5
10
330
2
100
AcDbSymbolTableRecord
100
AcDbLayerTableRecord
  2
0
 70
     0
 62
     7
  6
Continuous
370
    -3
390
F
347
46
348
0
  0
LAYER
  5
72
330
2
100
AcDbSymbolTableRecord
100
AcDbLayerTableRecord
  2
AM_6
 70
     0
 62
    -2
  6
Continuous
370
    35
390
F
347
46
348
0
  0
LAYER
  5
A9
330
2
100
AcDbSymbolTableRecord
100
AcDbLayerTableRecord
  2
AM_9
 70
     0
 62
     6
  6
Dashed
370
    25
390
F
347
46
348
0
  0
LAYER
  5
DD
330
2
100
AcDbSymbolTableRecord
100
AcDbLayerTableRecord
  2
AM_5
 70
     0
 62
     3
  6
Continuous
370
    25
390
F
347
46
348
0
  0
LAYER
  5
E1
330
2
100
AcDbSymbolTableRecord
100
AcDbLayerTableRecord
  2
AM_7
 70
     0
 62
     7
  6
Center
370
    25
390
F
347
46
348
0
  0
LAYER
  5
E4
330
2
100
AcDbSymbolTableRecord
100
AcDbLayerTableRecord
  2
AM_4
 70
     0
 62
     7
  6
Continuous
370
    50
390
F
347
46
348
0
  0
LAYER
  5
20A
330
2
100
AcDbSymbolTableRecord
100
AcDbLayerTableRecord
  2
ConnectionPoints
 70
     0
 62
     7
  6
Continuous
370
    50
390
F
347
46
348
0
  0
ENDTAB
  0
TABLE
  2
STYLE
  5
3
330
0
100
AcDbSymbolTable
 70
     1
  0
STYLE
  5
11
330
3
100
AcDbSymbolTableRecord
100
AcDbTextStyleTableRecord
  2
Standard
 70
     0
 40
0.0
 41
1.0
 50
0.0
 71
     0
 42
0.2
  3
txt
  4

  0
ENDTAB
  0
TABLE
  2
VIEW
  5
6
330
0
100
AcDbSymbolTable
 70
     0
  0
ENDTAB
  0
TABLE
  2
UCS
  5
7
330
0
100
AcDbSymbolTable
 70
     0
  0
ENDTAB
  0
TABLE
  2
APPID
  5
9
330
0
100
AcDbSymbolTable
 70
     1
  0
APPID
  5
12
330
9
100
AcDbSymbolTableRecord
100
AcDbRegAppTableRecord
  2
ACAD
 70
     0
  0
ENDTAB
  0
TABLE
  2
DIMSTYLE
  5
A
330
0
100
AcDbSymbolTable
 70
     1
100
AcDbDimStyleTable
  0
DIMSTYLE
105
27
330
A
100
AcDbSymbolTableRecord
100
AcDbDimStyleTableRecord
  2
Standard
 70
     0
178
     0
340
11
  0
ENDTAB
  0
TABLE
  2
BLOCK_RECORD
  5
1
330
0
100
AcDbSymbolTable
 70
     5
  0
BLOCK_RECORD
  5
1F
330
1
100
AcDbSymbolTableRecord
100
AcDbBlockTableRecord
  2
*Model_Space
340
22
 70
     0
280
     1
281
     0
  0
BLOCK_RECORD
  5
1B
330
1
100
AcDbSymbolTableRecord
100
AcDbBlockTableRecord
  2
*Paper_Space
340
1E
 70
     0
280
     1
281
     0
  0
BLOCK_RECORD
  5
23
330
1
100
AcDbSymbolTableRecord
100
AcDbBlockTableRecord
  2
*Paper_Space0
340
26
 70
     0
280
     1
281
     0
  0
BLOCK_RECORD
  5
6E
330
1
100
AcDbSymbolTableRecord
100
AcDbBlockTableRecord
  2
1_131210_2
340
0
102
{BLKREFS
331
6F
102
}
 70
     0
280
     1
281
     0
  0
BLOCK_RECORD
  5
90
330
1
100
AcDbSymbolTableRecord
100
AcDbBlockTableRecord
  2
2_131910_0_in_131210_2
340
0
102
{BLKREFS
331
91
102
}
 70
     0
280
     1
281
     0
  0
BLOCK_RECORD
  5
107
330
1
100
AcDbSymbolTableRecord
100
AcDbBlockTableRecord
  2
3_405016_Inch_0_in_131210_2
340
0
102
{BLKREFS
331
108
102
}
 70
     0
280
     1
281
     0
  0
BLOCK_RECORD
  5
184
330
1
100
AcDbSymbolTableRecord
100
AcDbBlockTableRecord
  2
4_131210H_0_in_131210_2
340
0
102
{BLKREFS
331
185
102
}
 70
     0
280
     1
281
     0
  0
ENDTAB
  0
ENDSEC
  0
SECTION
  2
BLOCKS
  0
BLOCK
  5
20
330
1F
100
AcDbEntity
  8
0
100
AcDbBlockBegin
  2
*Model_Space
 70
     0
 10
0.0
 20
0.0
 30
0.0
  3
*Model_Space
  1

  0
ENDBLK
  5
21
330
1F
100
AcDbEntity
  8
0
100
AcDbBlockEnd
  0
BLOCK
  5
1C
330
1B
100
AcDbEntity
 67
     1
  8
0
100
AcDbBlockBegin
  2
*Paper_Space
 70
     0
 10
0.0
 20
0.0
 30
0.0
  3
*Paper_Space
  1

  0
ENDBLK
  5
1D
330
1B
100
AcDbEntity
 67
     1
  8
0
100
AcDbBlockEnd
  0
BLOCK
  5
24
330
23
100
AcDbEntity
  8
0
100
AcDbBlockBegin
  2
*Paper_Space0
 70
     0
 10
0.0
 20
0.0
 30
0.0
  3
*Paper_Space0
  1

  0
ENDBLK
  5
25
330
23
100
AcDbEntity
  8
0
100
AcDbBlockEnd
  0
BLOCK
  5
70
330
6E
100
AcDbEntity
  8
0
100
AcDbBlockBegin
  2
1_131210_2
 70
     2
 10
0.0
 20
0.0
 30
0.0
  3
1_131210_2
  1

  0
ATTDEF
  5
73
330
6E
100
AcDbEntity
  8
AM_6
100
AcDbText
 10
5.814254441252508
 20
2.065
 30
0.0
 40
0.5
  1
Eccentric Collar Wide Slot Take Up Inch Bore
100
AcDbAttributeDefinition
  3

  2
NN
 70
     8
280
     0
  0
ATTDEF
  5
74
330
6E
100
AcDbEntity
  8
AM_6
100
AcDbText
 10
5.814254441252508
 20
1.565
 30
0.0
 40
0.5
  1
SXR Normal Duty Wide Slot Take-Up Bearings
100
AcDbAttributeDefinition
  3

  2
NT
 70
     8
280
     0
  0
ATTDEF
  5
75
330
6E
100
AcDbEntity
  8
AM_6
100
AcDbText
 10
5.814254441252508
 20
1.065
 30
0.0
 40
0.5
  1
131210
100
AcDbAttributeDefinition
  3

  2
NB
 70
     8
280
     0
  0
ATTDEF
  5
76
330
6E
100
AcDbEntity
  8
AM_6
100
AcDbText
 10
5.814254441252508
 20
0.565
 30
0.0
 40
0.5
  1
$PN.
100
AcDbAttributeDefinition
  3

  2
NBSYN
 70
     8
280
     0
  0
ATTDEF
  5
77
330
6E
100
AcDbEntity
  8
AM_6
100
AcDbText
 10
5.814254441252508
 20
0.0649999999999999
 30
0.0
 40
0.5
  1
131210
100
AcDbAttributeDefinition
  3

  2
LINA
 70
     8
280
     0
  0
ATTDEF
  5
78
330
6E
100
AcDbEntity
  8
AM_6
100
AcDbText
 10
5.814254441252508
 20
-0.4350000000000001
 30
0.0
 40
0.5
  1
206
100
AcDbAttributeDefinition
  3

  2
SERIES
 70
     8
280
     0
  0
ATTDEF
  5
79
330
6E
100
AcDbEntity
  8
AM_6
100
AcDbText
 10
5.814254441252508
 20
-0.935
 30
0.0
 40
0.5
  1
1-1/8
100
AcDbAttributeDefinition
  3

  2
SS
 70
     8
280
     0
  0
ATTDEF
  5
7A
330
6E
100
AcDbEntity
  8
AM_6
100
AcDbText
 10
5.814254441252508
 20
-1.435
 30
0.0
 40
0.5
  1
131210
100
AcDbAttributeDefinition
  3

  2
PN
 70
     8
280
     0
  0
ATTDEF
  5
7B
330
6E
100
AcDbEntity
  8
AM_6
100
AcDbText
 10
5.814254441252508
 20
-1.935
 30
0.0
 40
0.5
  1
WSTU-SXR-102
100
AcDbAttributeDefinition
  3

  2
DESCRIPTION
 70
     8
280
     0
  0
ATTDEF
  5
7C
330
6E
100
AcDbEntity
  8
AM_6
100
AcDbText
 10
5.814254441252508
 20
-2.435
 30
0.0
 40
0.5
  1
RE-LUBE
100
AcDbAttributeDefinition
  3

  2
LF
 70
     8
280
     0
  0
ATTDEF
  5
7D
330
6E
100
AcDbEntity
  8
AM_6
100
AcDbText
 10
5.814254441252508
 20
-2.935
 30
0.0
 40
0.5
  1
2.9
100
AcDbAttributeDefinition
  3

  2
W
 70
     8
280
     0
  0
ATTDEF
  5
7E
330
6E
100
AcDbEntity
  8
AM_6
100
AcDbText
 10
5.814254441252508
 20
-3.435
 30
0.0
 40
0.5
  1
WS308
100
AcDbAttributeDefinition
  3

  2
FS
 70
     8
280
     0
  0
ATTDEF
  5
7F
330
6E
100
AcDbEntity
  8
AM_6
100
AcDbText
 10
5.814254441252508
 20
-3.935
 30
0.0
 40
0.5
  1
1.77
100
AcDbAttributeDefinition
  3

  2
A
 70
     8
280
     0
  0
ATTDEF
  5
80
330
6E
100
AcDbEntity
  8
AM_6
100
AcDbText
 10
5.814254441252508
 20
-4.435
 30
0.0
 40
0.5
  1
4.38
100
AcDbAttributeDefinition
  3

  2
B
 70
     8
280
     0
  0
ATTDEF
  5
81
330
6E
100
AcDbEntity
  8
AM_6
100
AcDbText
 10
5.814254441252508
 20
-4.935
 30
0.0
 40
0.5
  1
0.531
100
AcDbAttributeDefinition
  3

  2
C
 70
     8
280
     0
  0
ATTDEF
  5
82
330
6E
100
AcDbEntity
  8
AM_6
100
AcDbText
 10
5.814254441252508
 20
-5.435
 30
0.0
 40
0.5
  1
2.25
100
AcDbAttributeDefinition
  3

  2
D
 70
     8
280
     0
  0
ATTDEF
  5
83
330
6E
100
AcDbEntity
  8
AM_6
100
AcDbText
 10
5.814254441252508
 20
-5.935
 30
0.0
 40
0.5
  1
2.75
100
AcDbAttributeDefinition
  3

  2
E
 70
     8
280
     0
  0
ATTDEF
  5
84
330
6E
100
AcDbEntity
  8
AM_6
100
AcDbText
 10
5.814254441252508
 20
-6.435
 30
0.0
 40
0.5
  1
3/4
100
AcDbAttributeDefinition
  3

  2
F
 70
     8
280
     0
  0
ATTDEF
  5
85
330
6E
100
AcDbEntity
  8
AM_6
100
AcDbText
 10
5.814254441252508
 20
-6.935
 30
0.0
 40
0.5
  1
0.38
100
AcDbAttributeDefinition
  3

  2
G
 70
     8
280
     0
  0
ATTDEF
  5
86
330
6E
100
AcDbEntity
  8
AM_6
100
AcDbText
 10
5.814254441252508
 20
-7.435
 30
0.0
 40
0.5
  1
0.63
100
AcDbAttributeDefinition
  3

  2
H
 70
     8
280
     0
  0
ATTDEF
  5
87
330
6E
100
AcDbEntity
  8
AM_6
100
AcDbText
 10
5.814254441252508
 20
-7.935
 30
0.0
 40
0.5
  1
2.19
100
AcDbAttributeDefinition
  3

  2
J
 70
     8
280
     0
  0
ATTDEF
  5
88
330
6E
100
AcDbEntity
  8
AM_6
100
AcDbText
 10
5.814254441252508
 20
-8.435
 30
0.0
 40
0.5
  1
1.44
100
AcDbAttributeDefinition
  3

  2
K
 70
     8
280
     0
  0
ATTDEF
  5
89
330
6E
100
AcDbEntity
  8
AM_6
100
AcDbText
 10
5.814254441252508
 20
-8.935
 30
0.0
 40
0.5
  1
1.75
100
AcDbAttributeDefinition
  3

  2
L
 70
     8
280
     0
  0
ATTDEF
  5
8A
330
6E
100
AcDbEntity
  8
AM_6
100
AcDbText
 10
5.814254441252508
 20
-9.435
 30
0.0
 40
0.5
  1
3.480/3.510
100
AcDbAttributeDefinition
  3

  2
M
 70
     8
280
     0
  0
ATTDEF
  5
8B
330
6E
100
AcDbEntity
  8
AM_6
100
AcDbText
 10
5.814254441252508
 20
-9.935
 30
0.0
 40
0.5
  1
4.13
100
AcDbAttributeDefinition
  3

  2
N
 70
     8
280
     0
  0
ATTDEF
  5
8C
330
6E
100
AcDbEntity
  8
AM_6
100
AcDbText
 10
5.814254441252508
 20
-10.435
 30
0.0
 40
0.5
  1
0.58
100
AcDbAttributeDefinition
  3

  2
R
 70
     8
280
     0
  0
ATTDEF
  5
8D
330
6E
100
AcDbEntity
  8
AM_6
100
AcDbText
 10
5.814254441252508
 20
-10.935
 30
0.0
 40
0.5
  1
1.19
100
AcDbAttributeDefinition
  3

  2
S
 70
     8
280
     0
  0
ATTDEF
  5
8E
330
6E
100
AcDbEntity
  8
AM_6
100
AcDbText
 10
5.814254441252508
 20
-11.435
 30
0.0
 40
0.5
  1
1.63
100
AcDbAttributeDefinition
  3

  2
T
 70
     8
280
     0
  0
ATTDEF
  5
8F
330
6E
100
AcDbEntity
  8
AM_6
100
AcDbText
 10
5.814254441252508
 20
-11.935
 30
0.0
 40
0.5
  1
baldor
100
AcDbAttributeDefinition
  3

  2
COMPANY
 70
     8
280
     0
  0
INSERT
  5
91
330
6E
100
AcDbEntity
  8
0
100
AcDbBlockReference
  2
2_131910_0_in_131210_2
 10
0.0
 20
0.0
 30
0.0
  0
INSERT
  5
108
330
6E
100
AcDbEntity
  8
0
100
AcDbBlockReference
  2
3_405016_Inch_0_in_131210_2
 10
0.0
 20
0.0
 30
0.0
  0
INSERT
  5
185
330
6E
100
AcDbEntity
  8
0
100
AcDbBlockReference
  2
4_131210H_0_in_131210_2
 10
0.0
 20
0.0
 30
0.0
  0
ENDBLK
  5
71
330
6E
100
AcDbEntity
  8
0
100
AcDbBlockEnd
  0
BLOCK
  5
92
330
90
100
AcDbEntity
  8
0
100
AcDbBlockBegin
  2
2_131910_0_in_131210_2
 70
     2
 10
0.0
 20
0.0
 30
0.0
  3
2_131910_0_in_131210_2
  1

  0
ATTDEF
  5
94
330
90
100
AcDbEntity
  8
AM_6
100
AcDbText
 10
5.6685
 20
1.219893783421491
 30
0.0
 40
0.5
  1
Eccentric Collar Insert Inch Bore
100
AcDbAttributeDefinition
  3

  2
NN
 70
     8
280
     0
  0
ATTDEF
  5
95
330
90
100
AcDbEntity
  8
AM_6
100
AcDbText
 10
5.6685
 20
0.7198937834214909
 30
0.0
 40
0.5
  1
SXR Normal Duty Bearing Inserts
100
AcDbAttributeDefinition
  3

  2
NT
 70
     8
280
     0
  0
ATTDEF
  5
96
330
90
100
AcDbEntity
  8
AM_6
100
AcDbText
 10
5.6685
 20
0.2198937834214909
 30
0.0
 40
0.5
  1
131910
100
AcDbAttributeDefinition
  3

  2
NB
 70
     8
280
     0
  0
ATTDEF
  5
97
330
90
100
AcDbEntity
  8
AM_6
100
AcDbText
 10
5.6685
 20
-0.2801062165785091
 30
0.0
 40
0.5
  1
$PN.
100
AcDbAttributeDefinition
  3

  2
NBSYN
 70
     8
280
     0
  0
ATTDEF
  5
98
330
90
100
AcDbEntity
  8
AM_6
100
AcDbText
 10
5.6685
 20
-0.7801062165785091
 30
0.0
 40
0.5
  1
131910
100
AcDbAttributeDefinition
  3

  2
LINA
 70
     8
280
     0
  0
ATTDEF
  5
99
330
90
100
AcDbEntity
  8
AM_6
100
AcDbText
 10
5.6685
 20
-1.280106216578509
 30
0.0
 40
0.5
  1
206
100
AcDbAttributeDefinition
  3

  2
SERIES
 70
     8
280
     0
  0
ATTDEF
  5
9A
330
90
100
AcDbEntity
  8
AM_6
100
AcDbText
 10
5.6685
 20
-1.780106216578509
 30
0.0
 40
0.5
  1
1-1/8
100
AcDbAttributeDefinition
  3

  2
SS
 70
     8
280
     0
  0
ATTDEF
  5
9B
330
90
100
AcDbEntity
  8
AM_6
100
AcDbText
 10
5.6685
 20
-2.280106216578509
 30
0.0
 40
0.5
  1
131910
100
AcDbAttributeDefinition
  3

  2
PN
 70
     8
280
     0
  0
ATTDEF
  5
9C
330
90
100
AcDbEntity
  8
AM_6
100
AcDbText
 10
5.6685
 20
-2.780106216578509
 30
0.0
 40
0.5
  1
INS-SXR-102
100
AcDbAttributeDefinition
  3

  2
DESCRIPTION
 70
     8
280
     0
  0
ATTDEF
  5
9D
330
90
100
AcDbEntity
  8
AM_6
100
AcDbText
 10
5.6685
 20
-3.280106216578509
 30
0.0
 40
0.5
  1
0.9
100
AcDbAttributeDefinition
  3

  2
WEIGHT
 70
     8
280
     0
  0
ATTDEF
  5
9E
330
90
100
AcDbEntity
  8
AM_6
100
AcDbText
 10
5.6685
 20
-3.780106216578509
 30
0.0
 40
0.5
  1
1.77
100
AcDbAttributeDefinition
  3

  2
A
 70
     8
280
     0
  0
ATTDEF
  5
9F
330
90
100
AcDbEntity
  8
AM_6
100
AcDbText
 10
5.6685
 20
-4.280106216578509
 30
0.0
 40
0.5
  1
0.69
100
AcDbAttributeDefinition
  3

  2
C
 70
     8
280
     0
  0
ATTDEF
  5
A0
330
90
100
AcDbEntity
  8
AM_6
100
AcDbText
 10
5.6685
 20
-4.780106216578509
 30
0.0
 40
0.5
  1
2.4409
100
AcDbAttributeDefinition
  3

  2
D
 70
     8
280
     0
  0
ATTDEF
  5
A1
330
90
100
AcDbEntity
  8
AM_6
100
AcDbText
 10
5.6685
 20
-5.280106216578509
 30
0.0
 40
0.5
  1
0.16
100
AcDbAttributeDefinition
  3

  2
J
 70
     8
280
     0
  0
ATTDEF
  5
A2
330
90
100
AcDbEntity
  8
AM_6
100
AcDbText
 10
5.6685
 20
-5.780106216578509
 30
0.0
 40
0.5
  1
1.75
100
AcDbAttributeDefinition
  3

  2
L
 70
     8
280
     0
  0
ATTDEF
  5
A3
330
90
100
AcDbEntity
  8
AM_6
100
AcDbText
 10
5.6685
 20
-6.280106216578509
 30
0.0
 40
0.5
  1
5/16 - 24
100
AcDbAttributeDefinition
  3

  2
N
 70
     8
280
     0
  0
ATTDEF
  5
A4
330
90
100
AcDbEntity
  8
AM_6
100
AcDbText
 10
5.6685
 20
-6.780106216578509
 30
0.0
 40
0.5
  1
0.58
100
AcDbAttributeDefinition
  3

  2
W
 70
     8
280
     0
  0
ATTDEF
  5
A5
330
90
100
AcDbEntity
  8
AM_6
100
AcDbText
 10
5.6685
 20
-7.280106216578509
 30
0.0
 40
0.5
  1
1.19
100
AcDbAttributeDefinition
  3

  2
Y
 70
     8
280
     0
  0
ATTDEF
  5
A6
330
90
100
AcDbEntity
  8
AM_6
100
AcDbText
 10
5.6685
 20
-7.780106216578509
 30
0.0
 40
0.5
  1
1.57
100
AcDbAttributeDefinition
  3

  2
Z
 70
     8
280
     0
  0
ATTDEF
  5
A7
330
90
100
AcDbEntity
  8
AM_6
100
AcDbText
 10
5.6685
 20
-8.28010621657851
 30
0.0
 40
0.5
  1
baldor
100
AcDbAttributeDefinition
  3

  2
COMPANY
 70
     8
280
     0
  0
LINE
  5
AA
330
90
100
AcDbEntity
  8
AM_9
100
AcDbLine
 10
-0.816275
 20
0.8667860821222445
 30
0.0
 11
-0.8080610821222446
 21
0.875
 31
0.0
  0
LINE
  5
AB
330
90
100
AcDbEntity
  8
AM_9
100
AcDbLine
 10
-1.103188917877755
 20
0.875
 30
0.0
 11
-1.094975
 21
0.8667860821222445
 31
0.0
  0
LINE
  5
AC
330
90
100
AcDbEntity
  8
AM_9
100
AcDbLine
 10
-0.8841300025468185
 20
0.8667860821222445
 30
0.0
 11
-0.816275
 21
0.8667860821222445
 31
0.0
  0
LINE
  5
AD
330
90
100
AcDbEntity
  8
AM_9
100
AcDbLine
 10
-0.816275
 20
0.5625
 30
0.0
 11
-0.816275
 21
0.8667860821222445
 31
0.0
  0
LINE
  5
AE
330
90
100
AcDbEntity
  8
AM_9
100
AcDbLine
 10
-1.094975
 20
0.8667860821222445
 30
0.0
 11
-1.094975
 21
0.5625
 31
0.0
  0
LINE
  5
AF
330
90
100
AcDbEntity
  8
AM_9
100
AcDbLine
 10
-1.094975
 20
0.8667860821222445
 30
0.0
 11
-1.027119997453181
 21
0.8667860821222445
 31
0.0
  0
LWPOLYLINE
  5
B0
330
90
100
AcDbEntity
  8
AM_9
100
AcDbPolyline
 90
       20
 70
     0
 43
0.0
 10
-1.094975
 20
0.5625
 10
-1.093118439527484
 20
0.5620429462355149
 10
-1.087391900822594
 20
0.5606695494249632
 10
-1.078303750980075
 20
0.55860352974362
 10
-1.065616174342585
 20
0.5559549315666341
 10
-1.050056403494769
 20
0.553086898656976
 10
-1.03137669189945
 20
0.5502055491592476
 10
-1.010786074050354
 20
0.5477504647103357
 10
-0.9878995177142356
 20
0.5459207561484419
 10
-0.9651718365005405
 20
0.5450495111337759
 10
-0.9414688953405114
 20
0.5451497251206593
 10
-0.9193847448249162
 20
0.5461695557197922
 10
-0.8977043365698191
 20
0.5480352459032105
 10
-0.8779894117542378
 20
0.550468084508326
 10
-0.8598897926443406
 20
0.5533109952164615
 10
-0.8444398028845803
 20
0.5561923907764244
 10
-0.8317384176609905
 20
0.5588700321037443
 10
-0.822837428315795
 20
0.5609103018253345
 10
-0.817545311380766
 20
0.5621866486400977
 10
-0.8162750000027743
 20
0.5624999999993128
  0
LINE
  5
B1
330
90
100
AcDbEntity
  8
AM_9
100
AcDbLine
 10
-1.1762
 20
-0.5625
 30
0.0
 11
-0.7310080735803741
 21
-0.5625
 31
0.0
  0
LINE
  5
B2
330
90
100
AcDbEntity
  8
AM_9
100
AcDbLine
 10
-0.7310080735803741
 20
0.5625
 30
0.0
 11
-0.816275
 21
0.5625
 31
0.0
  0
LINE
  5
B3
330
90
100
AcDbEntity
  8
AM_9
100
AcDbLine
 10
-1.094975
 20
0.5625
 30
0.0
 11
-1.1762
 21
0.5625
 31
0.0
  0
LINE
  5
B4
330
90
100
AcDbEntity
  8
AM_9
100
AcDbLine
 10
-0.7114919264196256
 20
-0.5625
 30
0.0
 11
0.5661999999999999
 21
-0.5625
 31
0.0
  0
LINE
  5
B5
330
90
100
AcDbEntity
  8
AM_9
100
AcDbLine
 10
0.5661999999999999
 20
0.5625
 30
0.0
 11
-0.7114919264196256
 21
0.5625
 31
0.0
  0
LINE
  5
B6
330
90
100
AcDbEntity
  8
AM_9
100
AcDbLine
 10
-0.7310080735803741
 20
-0.5625
 30
0.0
 11
-0.72125
 21
-0.5722580735803744
 31
0.0
  0
LINE
  5
B7
330
90
100
AcDbEntity
  8
AM_9
100
AcDbLine
 10
-0.72125
 20
0.5722580735803744
 30
0.0
 11
-0.7310080735803741
 21
0.5625
 31
0.0
  0
LINE
  5
B8
330
90
100
AcDbEntity
  8
AM_9
100
AcDbLine
 10
-0.7310080735803741
 20
0.5625
 30
0.0
 11
-0.7310080735803741
 21
-0.5625
 31
0.0
  0
LINE
  5
B9
330
90
100
AcDbEntity
  8
AM_9
100
AcDbLine
 10
-0.7114919264196256
 20
0.5625
 30
0.0
 11
-0.72125
 21
0.5722580735803744
 31
0.0
  0
LINE
  5
BA
330
90
100
AcDbEntity
  8
AM_9
100
AcDbLine
 10
-0.72125
 20
-0.5722580735803744
 30
0.0
 11
-0.7114919264196256
 21
-0.5625
 31
0.0
  0
LINE
  5
BB
330
90
100
AcDbEntity
  8
AM_9
100
AcDbLine
 10
-0.7114919264196256
 20
0.5625
 30
0.0
 11
-0.7114919264196256
 21
-0.5625
 31
0.0
  0
LINE
  5
BC
330
90
100
AcDbEntity
  8
AM_9
100
AcDbLine
 10
-0.72125
 20
0.5722580735803744
 30
0.0
 11
-0.72125
 21
-0.5722580735803744
 31
0.0
  0
LINE
  5
BD
330
90
100
AcDbEntity
  8
AM_9
100
AcDbLine
 10
0.5661999999999999
 20
-0.5625
 30
0.0
 11
0.58
 21
-0.5763
 31
0.0
  0
LINE
  5
BE
330
90
100
AcDbEntity
  8
AM_9
100
AcDbLine
 10
0.58
 20
0.5763
 30
0.0
 11
0.5661999999999999
 21
0.5625
 31
0.0
  0
LINE
  5
BF
330
90
100
AcDbEntity
  8
AM_9
100
AcDbLine
 10
-1.1762
 20
0.5625
 30
0.0
 11
-1.19
 21
0.5763
 31
0.0
  0
LINE
  5
C0
330
90
100
AcDbEntity
  8
AM_9
100
AcDbLine
 10
-1.19
 20
-0.5763
 30
0.0
 11
-1.1762
 21
-0.5625
 31
0.0
  0
LINE
  5
C1
330
90
100
AcDbEntity
  8
AM_9
100
AcDbLine
 10
-1.1762
 20
0.5625
 30
0.0
 11
-1.1762
 21
-0.5625
 31
0.0
  0
LINE
  5
C2
330
90
100
AcDbEntity
  8
AM_9
100
AcDbLine
 10
0.58
 20
0.5725600405197694
 30
0.0
 11
0.58
 21
-0.5725600405197694
 31
0.0
  0
LINE
  5
C3
330
90
100
AcDbEntity
  8
AM_9
100
AcDbLine
 10
-0.6275000000000001
 20
0.5200661015678678
 30
0.0
 11
-0.6275000000000001
 21
-0.5200661015678678
 31
0.0
  0
LINE
  5
C4
330
90
100
AcDbEntity
  8
AM_9
100
AcDbLine
 10
0.345
 20
-0.7849999999999999
 30
0.0
 11
0.4513500000000001
 21
-0.7849999999999999
 31
0.0
  0
LINE
  5
C5
330
90
100
AcDbEntity
  8
AM_9
100
AcDbLine
 10
0.4513500000000003
 20
0.7849999999999999
 30
0.0
 11
0.345
 21
0.7849999999999999
 31
0.0
  0
LINE
  5
C6
330
90
100
AcDbEntity
  8
AM_9
100
AcDbLine
 10
0.5661999999999999
 20
0.5862103376775267
 30
0.0
 11
0.5661999999999999
 21
-0.5862103376775267
 31
0.0
  0
LINE
  5
C7
330
90
100
AcDbEntity
  8
AM_9
100
AcDbLine
 10
-0.4513499999999998
 20
-0.7850000000000001
 30
0.0
 11
-0.3449999999999999
 21
-0.7850000000000001
 31
0.0
  0
LINE
  5
C8
330
90
100
AcDbEntity
  8
AM_9
100
AcDbLine
 10
-0.3449999999999999
 20
0.7850000000000001
 30
0.0
 11
-0.45135
 21
0.7850000000000003
 31
0.0
  0
LINE
  5
C9
330
90
100
AcDbEntity
  8
AM_9
100
AcDbLine
 10
-0.6136999999999999
 20
0.5362809991040144
 30
0.0
 11
-0.6136999999999999
 21
-0.5362809991040144
 31
0.0
  0
LINE
  5
CA
330
90
100
AcDbEntity
  8
AM_9
100
AcDbLine
 10
-0.6587500000000001
 20
0.4798681459526145
 30
0.0
 11
-0.6587500000000001
 21
-0.4798681459526145
 31
0.0
  0
LINE
  5
CB
330
90
100
AcDbEntity
  8
AM_9
100
AcDbLine
 10
-0.6978124999999997
 20
0.4210495396550747
 30
0.0
 11
-0.6978124999999997
 21
-0.4210495396550747
 31
0.0
  0
LINE
  5
CC
330
90
100
AcDbEntity
  8
AM_9
100
AcDbLine
 10
-0.192
 20
-1.162333333333333
 30
0.0
 11
-0.128
 21
-1.162333333333333
 31
0.0
  0
LINE
  5
CD
330
90
100
AcDbEntity
  8
AM_9
100
AcDbLine
 10
-0.128
 20
1.162333333333333
 30
0.0
 11
-0.192
 21
1.162333333333333
 31
0.0
  0
LINE
  5
CE
330
90
100
AcDbEntity
  8
AM_9
100
AcDbLine
 10
-0.3449999999999999
 20
1.149847104377708
 30
0.0
 11
-0.3449999999999999
 21
-1.149847104377708
 31
0.0
  0
ARC
  5
CF
330
90
100
AcDbEntity
  8
AM_9
100
AcDbCircle
 10
-0.3173999999999997
 20
-1.149847103966436
 30
0.0
 40
0.0276000000000001
100
AcDbArc
 50
180.0
 51
254.5685410600327
  0
ARC
  5
D0
330
90
100
AcDbEntity
  8
AM_9
100
AcDbCircle
 10
-0.3173999999999995
 20
1.149847103966436
 30
0.0
 40
0.0276000000000003
100
AcDbArc
 50
105.4314589399678
 51
180.0
  0
LINE
  5
D1
330
90
100
AcDbEntity
  8
AM_9
100
AcDbLine
 10
0.3449999999999999
 20
1.149847103966436
 30
0.0
 11
0.3449999999999999
 21
-1.149847103966436
 31
0.0
  0
ARC
  5
D2
330
90
100
AcDbEntity
  8
AM_9
100
AcDbCircle
 10
0.3174000000000008
 20
-1.149847103966437
 30
0.0
 40
0.0275999999999992
100
AcDbArc
 50
285.4314589399649
 51
0.0
  0
ARC
  5
D3
330
90
100
AcDbEntity
  8
AM_9
100
AcDbCircle
 10
0.3174000000000003
 20
1.149847103966436
 30
0.0
 40
0.0275999999999996
100
AcDbArc
 50
0.0
 51
74.56854106003404
  0
ARC
  5
D4
330
90
100
AcDbEntity
  8
AM_9
100
AcDbCircle
 10
-0.0000000000000678
 20
0.0000000000003137
 30
0.0
 40
1.22044999999968
100
AcDbArc
 50
99.0513167579757
 51
105.4314589399672
  0
ARC
  5
D5
330
90
100
AcDbEntity
  8
AM_9
100
AcDbCircle
 10
0.0000000000306501
 20
0.0000000001414877
 30
0.0
 40
1.220450000144321
100
AcDbArc
 50
254.5685410604111
 51
260.9486832416458
  0
LINE
  5
D6
330
90
100
AcDbEntity
  8
AM_9
100
AcDbLine
 10
-0.3247439577482502
 20
1.176452108845066
 30
0.0
 11
-0.3247439577482502
 21
-1.176452108844836
 31
0.0
  0
LINE
  5
D7
330
90
100
AcDbEntity
  8
AM_9
100
AcDbLine
 10
-0.192
 20
1.205252754612077
 30
0.0
 11
-0.192
 21
-1.205252754611848
 31
0.0
  0
ARC
  5
D8
330
90
100
AcDbEntity
  8
AM_9
100
AcDbCircle
 10
0.0000000000000008
 20
0.0000000000000051
 30
0.0
 40
1.220449999999995
100
AcDbArc
 50
74.56854106003362
 51
96.02021531655127
  0
ARC
  5
D9
330
90
100
AcDbEntity
  8
AM_9
100
AcDbCircle
 10
0.000000000000026
 20
-0.0000000000003249
 30
0.0
 40
1.220449999999685
100
AcDbArc
 50
263.979784683446
 51
285.4314589399692
  0
LINE
  5
DA
330
90
100
AcDbEntity
  8
AM_9
100
AcDbLine
 10
-0.1279999999999996
 20
1.213719161297209
 30
0.0
 11
-0.1279999999999996
 21
-1.213719161297214
 31
0.0
  0
LINE
  5
DB
330
90
100
AcDbEntity
  8
AM_9
100
AcDbLine
 10
0.3247439577482499
 20
1.176452108845066
 30
0.0
 11
0.3247439577482499
 21
-1.176452108845071
 31
0.0
  0
ELLIPSE
  5
DC
330
90
100
AcDbEntity
  8
AM_9
100
AcDbEllipse
 10
0.1644679330519115
 20
0.0000000000000002
 30
0.0
 11
6.048893825004399E-18
 21
0.09878593287821232
 31
0.0
210
0.0
220
0.0
230
1.0
 40
0.9908178228021071
 41
0.0
 42
6.283185307179586
  0
LINE
  5
DE
330
90
100
AcDbEntity
  8
AM_5
100
AcDbLine
 10
-0.799375
 20
0.5625
 30
0.0
 11
-0.799375
 21
0.875
 31
0.0
  0
LINE
  5
DF
330
90
100
AcDbEntity
  8
AM_5
100
AcDbLine
 10
-1.111875
 20
0.5625
 30
0.0
 11
-1.111875
 21
0.875
 31
0.0
  0
LINE
  5
E2
330
90
100
AcDbEntity
  8
AM_7
100
AcDbLine
 10
-1.2785
 20
0.0
 30
0.0
 11
0.6685000000000001
 21
0.0
 31
0.0
  0
LINE
  5
E3
330
90
100
AcDbEntity
  8
AM_7
100
AcDbLine
 10
-0.955625
 20
0.9019897355005589
 30
0.0
 11
-0.955625
 21
0.499309361177641
 31
0.0
  0
LINE
  5
E5
330
90
100
AcDbEntity
  8
AM_4
100
AcDbLine
 10
-0.6587500000000001
 20
-0.7476190476190476
 30
0.0
 11
-0.6275000000000001
 21
-0.7476190476190476
 31
0.0
  0
LINE
  5
E6
330
90
100
AcDbEntity
  8
AM_4
100
AcDbLine
 10
-0.6275000000000001
 20
0.7476190476190476
 30
0.0
 11
-0.6587500000000001
 21
0.7476190476190476
 31
0.0
  0
LINE
  5
E7
330
90
100
AcDbEntity
  8
AM_4
100
AcDbLine
 10
0.58
 20
0.7712
 30
0.0
 11
0.5661999999999999
 21
0.7849999999999999
 31
0.0
  0
LINE
  5
E8
330
90
100
AcDbEntity
  8
AM_4
100
AcDbLine
 10
0.5661999999999999
 20
-0.7849999999999999
 30
0.0
 11
0.58
 21
-0.7712
 31
0.0
  0
LINE
  5
E9
330
90
100
AcDbEntity
  8
AM_4
100
AcDbLine
 10
0.58
 20
-0.5725600405197694
 30
0.0
 11
0.58
 21
-0.7712
 31
0.0
  0
LINE
  5
EA
330
90
100
AcDbEntity
  8
AM_4
100
AcDbLine
 10
0.58
 20
0.7712
 30
0.0
 11
0.58
 21
0.5725600405197694
 31
0.0
  0
LINE
  5
EB
330
90
100
AcDbEntity
  8
AM_4
100
AcDbLine
 10
-0.6275000000000001
 20
-0.7712
 30
0.0
 11
-0.6136999999999999
 21
-0.7849999999999999
 31
0.0
  0
LINE
  5
EC
330
90
100
AcDbEntity
  8
AM_4
100
AcDbLine
 10
-0.6136999999999999
 20
0.7849999999999999
 30
0.0
 11
-0.6275000000000001
 21
0.7712
 31
0.0
  0
LINE
  5
ED
330
90
100
AcDbEntity
  8
AM_4
100
AcDbLine
 10
-0.6275000000000001
 20
-0.5200661015678678
 30
0.0
 11
-0.6275000000000001
 21
-0.7712
 31
0.0
  0
LINE
  5
EE
330
90
100
AcDbEntity
  8
AM_4
100
AcDbLine
 10
-0.6275000000000001
 20
0.7712
 30
0.0
 11
-0.6275000000000001
 21
0.5200661015678678
 31
0.0
  0
LINE
  5
EF
330
90
100
AcDbEntity
  8
AM_4
100
AcDbLine
 10
0.4513500000000001
 20
-0.7849999999999999
 30
0.0
 11
0.5661999999999999
 21
-0.7849999999999999
 31
0.0
  0
LINE
  5
F0
330
90
100
AcDbEntity
  8
AM_4
100
AcDbLine
 10
0.5661999999999999
 20
0.7849999999999999
 30
0.0
 11
0.4513500000000003
 21
0.7849999999999999
 31
0.0
  0
LINE
  5
F1
330
90
100
AcDbEntity
  8
AM_4
100
AcDbLine
 10
0.5661999999999999
 20
-0.5862103376775267
 30
0.0
 11
0.5661999999999999
 21
-0.7849999999999999
 31
0.0
  0
LINE
  5
F2
330
90
100
AcDbEntity
  8
AM_4
100
AcDbLine
 10
0.5661999999999999
 20
0.7849999999999999
 30
0.0
 11
0.5661999999999999
 21
0.5862103376775267
 31
0.0
  0
LINE
  5
F3
330
90
100
AcDbEntity
  8
AM_4
100
AcDbLine
 10
-0.6136999999999999
 20
-0.7850000000000001
 30
0.0
 11
-0.4513499999999998
 21
-0.7850000000000001
 31
0.0
  0
LINE
  5
F4
330
90
100
AcDbEntity
  8
AM_4
100
AcDbLine
 10
-0.45135
 20
0.7850000000000003
 30
0.0
 11
-0.6136999999999999
 21
0.7850000000000001
 31
0.0
  0
LINE
  5
F5
330
90
100
AcDbEntity
  8
AM_4
100
AcDbLine
 10
-0.6136999999999999
 20
-0.5362809991040144
 30
0.0
 11
-0.6136999999999999
 21
-0.7850000000000001
 31
0.0
  0
LINE
  5
F6
330
90
100
AcDbEntity
  8
AM_4
100
AcDbLine
 10
-0.6136999999999999
 20
0.7850000000000001
 30
0.0
 11
-0.6136999999999999
 21
0.5362809991040144
 31
0.0
  0
LINE
  5
F7
330
90
100
AcDbEntity
  8
AM_4
100
AcDbLine
 10
-0.6587500000000001
 20
-0.4798681459526145
 30
0.0
 11
-0.6587500000000001
 21
-0.8359375000000001
 31
0.0
  0
LINE
  5
F8
330
90
100
AcDbEntity
  8
AM_4
100
AcDbLine
 10
-0.6587500000000001
 20
0.8359375000000001
 30
0.0
 11
-0.6587500000000001
 21
0.4798681459526145
 31
0.0
  0
ARC
  5
F9
330
90
100
AcDbEntity
  8
AM_4
100
AcDbCircle
 10
-0.6978124999999998
 20
-0.8359375000000002
 30
0.0
 40
0.0390624999999998
100
AcDbArc
 50
270.0
 51
0.0
  0
ARC
  5
FA
330
90
100
AcDbEntity
  8
AM_4
100
AcDbCircle
 10
-0.6978124999999998
 20
0.8359375000000002
 30
0.0
 40
0.0390624999999999
100
AcDbArc
 50
0.0
 51
90.0
  0
LWPOLYLINE
  5
FB
330
90
100
AcDbEntity
  8
AM_4
100
AcDbPolyline
 90
        8
 70
     0
 43
0.0
 10
-0.8841300025468185
 20
0.8667860821222445
 10
-0.9050443437154378
 20
0.8653155434513728
 10
-0.9273827005550515
 20
0.8642940500651026
 10
-0.9505437122733492
 20
0.8638519756419311
 10
-0.973849435126362
 20
0.8640247146555907
 10
-0.9964950652617133
 20
0.864802531002989
 10
-1.017998791926987
 20
0.866081443871967
 10
-1.027119997453181
 20
0.8667860821222445
  0
LWPOLYLINE
  5
FC
330
90
100
AcDbEntity
  8
AM_4
100
AcDbPolyline
 90
        8
 70
     0
 43
0.0
 10
-1.027119997453181
 20
0.8667860821222445
 10
-1.042714802620896
 20
0.8680135927636264
 10
-1.057262206210063
 20
0.8693728120756489
 10
-1.074355069356409
 20
0.8712316874701116
 10
-1.088365078819
 20
0.87296420046647
 10
-1.097236927645642
 20
0.8741577100058635
 10
-1.102286108433244
 20
0.874870099621091
 10
-1.103188917877461
 20
0.8749999999999575
  0
LINE
  5
FD
330
90
100
AcDbEntity
  8
AM_4
100
AcDbLine
 10
-1.1509375
 20
-0.875
 30
0.0
 11
-0.6978124999999997
 21
-0.875
 31
0.0
  0
LINE
  5
FE
330
90
100
AcDbEntity
  8
AM_4
100
AcDbLine
 10
-0.6978124999999997
 20
0.875
 30
0.0
 11
-0.8080610821222446
 21
0.875
 31
0.0
  0
LINE
  5
FF
330
90
100
AcDbEntity
  8
AM_4
100
AcDbLine
 10
-1.103188917877756
 20
0.875
 30
0.0
 11
-1.1509375
 21
0.875
 31
0.0
  0
LWPOLYLINE
  5
100
330
90
100
AcDbEntity
  8
AM_4
100
AcDbPolyline
 90
        9
 70
     0
 43
0.0
 10
-0.8080610821225389
 20
0.8749999999999575
 10
-0.8082167688445521
 20
0.8749775445550414
 10
-0.8112149615443763
 20
0.8745495359887914
 10
-0.8174503167018575
 20
0.8736864794560201
 10
-0.8270411648369878
 20
0.8724307182564858
 10
-0.83967807810174
 20
0.8709098499022158
 10
-0.8552733635566746
 20
0.8692444123565142
 10
-0.869025957308755
 20
0.8679713342622474
 10
-0.8841300025468185
 20
0.8667860821222444
  0
LINE
  5
101
330
90
100
AcDbEntity
  8
AM_4
100
AcDbLine
 10
-0.6978124999999997
 20
-0.4210495396550747
 30
0.0
 11
-0.6978124999999997
 21
-0.875
 31
0.0
  0
LINE
  5
102
330
90
100
AcDbEntity
  8
AM_4
100
AcDbLine
 10
-0.6978124999999997
 20
0.875
 30
0.0
 11
-0.6978124999999997
 21
0.4210495396550747
 31
0.0
  0
LINE
  5
103
330
90
100
AcDbEntity
  8
AM_4
100
AcDbLine
 10
-1.19
 20
0.8359375
 30
0.0
 11
-1.19
 21
-0.8359375
 31
0.0
  0
ARC
  5
104
330
90
100
AcDbEntity
  8
AM_4
100
AcDbCircle
 10
-1.1509375
 20
-0.8359374999999998
 30
0.0
 40
0.0390625000000002
100
AcDbArc
 50
180.0
 51
270.0
  0
ARC
  5
105
330
90
100
AcDbEntity
  8
AM_4
100
AcDbCircle
 10
-1.1509375
 20
0.8359374999999998
 30
0.0
 40
0.0390625000000002
100
AcDbArc
 50
90.0
 51
180.0
  0
LINE
  5
106
330
90
100
AcDbEntity
  8
AM_4
100
AcDbLine
 10
-1.1509375
 20
0.875
 30
0.0
 11
-1.1509375
 21
-0.875
 31
0.0
  0
ENDBLK
  5
93
330
90
100
AcDbEntity
  8
0
100
AcDbBlockEnd
  0
BLOCK
  5
109
330
107
100
AcDbEntity
  8
0
100
AcDbBlockBegin
  2
3_405016_Inch_0_in_131210_2
 70
     2
 10
0.0
 20
0.0
 30
0.0
  3
3_405016_Inch_0_in_131210_2
  1

  0
ATTDEF
  5
10B
330
107
100
AcDbEntity
  8
AM_6
100
AcDbText
 10
5.218750000000366
 20
-0.6069256983551603
 30
0.0
 40
0.5
  1
405016 -Inch
100
AcDbAttributeDefinition
  3

  2
NN
 70
     8
280
     0
  0
ATTDEF
  5
10C
330
107
100
AcDbEntity
  8
AM_6
100
AcDbText
 10
5.218750000000366
 20
-1.10692569835516
 30
0.0
 40
0.5
  1
Grease Fitting
100
AcDbAttributeDefinition
  3

  2
NT
 70
     8
280
     0
  0
ATTDEF
  5
10D
330
107
100
AcDbEntity
  8
AM_6
100
AcDbText
 10
5.218750000000366
 20
-1.60692569835516
 30
0.0
 40
0.5
  1
405016-Inch
100
AcDbAttributeDefinition
  3

  2
NB
 70
     8
280
     0
  0
ATTDEF
  5
10E
330
107
100
AcDbEntity
  8
AM_6
100
AcDbText
 10
5.218750000000366
 20
-2.10692569835516
 30
0.0
 40
0.5
  1
$MN.-Inch
100
AcDbAttributeDefinition
  3

  2
NBSYN
 70
     8
280
     0
  0
ATTDEF
  5
10F
330
107
100
AcDbEntity
  8
AM_6
100
AcDbText
 10
5.218750000000366
 20
-2.60692569835516
 30
0.0
 40
0.5
  1
405016
100
AcDbAttributeDefinition
  3

  2
LINA
 70
     8
280
     0
  0
ATTDEF
  5
110
330
107
100
AcDbEntity
  8
AM_6
100
AcDbText
 10
5.218750000000366
 20
-3.10692569835516
 30
0.0
 40
0.5
  1
405016
100
AcDbAttributeDefinition
  3

  2
MN
 70
     8
280
     0
  0
ATTDEF
  5
111
330
107
100
AcDbEntity
  8
AM_6
100
AcDbText
 10
5.218750000000366
 20
-3.60692569835516
 30
0.0
 40
0.5
  1
7/16 HEX
100
AcDbAttributeDefinition
  3

  2
H
 70
     8
280
     0
  0
ATTDEF
  5
112
330
107
100
AcDbEntity
  8
AM_6
100
AcDbText
 10
5.218750000000366
 20
-4.106925698355161
 30
0.0
 40
0.5
  1
0.383
100
AcDbAttributeDefinition
  3

  2
NDR
 70
     8
280
     0
  0
ATTDEF
  5
113
330
107
100
AcDbEntity
  8
AM_6
100
AcDbText
 10
5.218750000000366
 20
-4.606925698355161
 30
0.0
 40
0.5
  1
0.337
100
AcDbAttributeDefinition
  3

  2
KDR
 70
     8
280
     0
  0
ATTDEF
  5
114
330
107
100
AcDbEntity
  8
AM_6
100
AcDbText
 10
5.218750000000366
 20
-5.106925698355161
 30
0.0
 40
0.5
  1
0.1575
100
AcDbAttributeDefinition
  3

  2
BZE
 70
     8
280
     0
  0
ATTDEF
  5
115
330
107
100
AcDbEntity
  8
AM_6
100
AcDbText
 10
5.218750000000366
 20
-5.606925698355161
 30
0.0
 40
0.5
  1
0.4375
100
AcDbAttributeDefinition
  3

  2
HEX
 70
     8
280
     0
  0
ATTDEF
  5
116
330
107
100
AcDbEntity
  8
AM_6
100
AcDbText
 10
5.218750000000366
 20
-6.106925698355161
 30
0.0
 40
0.5
  1
0.281250
100
AcDbAttributeDefinition
  3

  2
HEX2
 70
     8
280
     0
  0
ATTDEF
  5
117
330
107
100
AcDbEntity
  8
AM_6
100
AcDbText
 10
5.218750000000366
 20
-6.606925698355161
 30
0.0
 40
0.5
  1
baldor
100
AcDbAttributeDefinition
  3

  2
COMPANY
 70
     8
280
     0
  0
LWPOLYLINE
  5
118
330
107
100
AcDbEntity
  8
AM_9
100
AcDbPolyline
 90
        5
 70
     0
 43
0.0
 10
-0.1791093260592888
 20
-1.211738809059826
 10
-0.1842540823997055
 20
-1.178670119967152
 10
-0.1862220679364952
 20
-1.144312409178914
 10
-0.1844124966919382
 20
-1.108126446285356
 10
-0.1791093260592888
 20
-1.071113809059826
  0
LINE
  5
119
330
107
100
AcDbEntity
  8
AM_9
100
AcDbLine
 10
-0.1510741298357571
 20
-1.06457729571137
 30
0.0
 11
-0.1791093260592888
 21
-1.071113809059826
 31
0.0
  0
LWPOLYLINE
  5
11A
330
107
100
AcDbEntity
  8
AM_9
100
AcDbPolyline
 90
        5
 70
     0
 43
0.0
 10
-0.1791093260592888
 20
-1.071113809059826
 10
-0.1988355121406939
 20
-1.039688517736611
 10
-0.2156330920108725
 20
-1.006997724328327
 10
-0.2290462109660021
 20
-0.9725061536907939
 10
-0.2389369657326277
 20
-0.9371690924072834
  0
LINE
  5
11B
330
107
100
AcDbEntity
  8
AM_9
100
AcDbLine
 10
-0.2099962668917054
 20
-0.9304214576563438
 30
0.0
 11
-0.2389369657326277
 21
-0.9371690924072834
 31
0.0
  0
LINE
  5
11C
330
107
100
AcDbEntity
  8
AM_9
100
AcDbLine
 10
-0.2389369657326277
 20
-0.9371690924072834
 30
0.0
 11
-0.2711532636537957
 21
-0.9416181234374058
 31
0.0
  0
LWPOLYLINE
  5
11D
330
107
100
AcDbEntity
  8
AM_9
100
AcDbPolyline
 90
        3
 70
     0
 43
0.0
 10
-0.28139190003636
 20
-0.942753048956784
 10
-0.2911775952746243
 20
-0.9435555934942604
 10
-0.2987675689889718
 20
-0.9438500667254667
  0
LWPOLYLINE
  5
11E
330
107
100
AcDbEntity
  8
AM_9
100
AcDbPolyline
 90
        5
 70
     0
 43
0.0
 10
-0.2389369657326277
 20
-1.218419092407284
 10
-0.2295338871417797
 20
-1.21799806213629
 10
-0.2166871171046321
 20
-1.216802555641742
 10
-0.1996402057054679
 20
-1.214676787031713
 10
-0.1791093260592888
 20
-1.211738809059826
  0
LINE
  5
11F
330
107
100
AcDbEntity
  8
AM_9
100
AcDbLine
 10
-0.1510741298357571
 20
-1.20520229571137
 30
0.0
 11
-0.1791093260592888
 21
-1.211738809059826
 31
0.0
  0
ELLIPSE
  5
120
330
107
100
AcDbEntity
  8
AM_9
100
AcDbEllipse
 10
-0.4687499999999999
 20
-1.130606438444095
 30
0.0
 11
-0.02349716402074592
 21
0.1007796617096752
 31
0.0
210
0.0
220
0.0
230
1.0
 40
0.3659981507706681
 41
2.957156468664753
 42
6.46762149210462
  0
LINE
  5
121
330
107
100
AcDbEntity
  8
AM_9
100
AcDbLine
 10
-0.45135
 20
-1.231517472588915
 30
0.0
 11
-0.3774664534000949
 21
-1.249780662014441
 31
0.0
  0
LINE
  5
122
330
107
100
AcDbEntity
  8
AM_9
100
AcDbLine
 10
-0.4395859245204075
 20
-0.9833493905826324
 30
0.0
 11
-0.4513499999999998
 21
-0.9932672785607412
 31
0.0
  0
LWPOLYLINE
  5
123
330
107
100
AcDbEntity
  8
AM_9
100
AcDbPolyline
 90
        3
 70
     0
 43
0.0
 10
-0.2689146070947223
 20
-0.9368897343505177
 10
-0.251275593729576
 20
-0.9342388430145476
 10
-0.2360765106845275
 20
-0.9321875924132664
  0
ELLIPSE
  5
124
330
107
100
AcDbEntity
  8
AM_9
100
AcDbEllipse
 10
-0.3994303217889761
 20
-1.114444290038774
 30
0.0
 11
-0.03159560311146647
 21
0.1355139790604258
 31
0.0
210
0.0
220
0.0
230
1.0
 40
0.3659981507706664
 41
1.492410664254419
 42
4.145181672147547
  0
LWPOLYLINE
  5
125
330
107
100
AcDbEntity
  8
AM_9
100
AcDbPolyline
 90
       10
 70
     0
 43
0.0
 10
-0.3792184590222948
 20
-0.9869667578692928
 10
-0.3827954845118279
 20
-0.9841334876133334
 10
-0.3901757048695976
 20
-0.9793951339135676
 10
-0.3975019754611748
 20
-0.9760838265485012
 10
-0.4048270510423099
 20
-0.974083217898274
 10
-0.4121530896760883
 20
-0.9733546165321253
 10
-0.4201635204805625
 20
-0.9740362170697994
 10
-0.4275966975169905
 20
-0.976161973648578
 10
-0.4343259062605129
 20
-0.979531375218268
 10
-0.4400060736696811
 20
-0.9837079346242982
  0
LWPOLYLINE
  5
126
330
107
100
AcDbEntity
  8
AM_9
100
AcDbPolyline
 90
       10
 70
     0
 43
0.0
 10
-0.3779746081250783
 20
-1.249651979480962
 10
-0.3709190236192991
 20
-1.250891943486822
 10
-0.3636199227416265
 20
-1.250931653199374
 10
-0.3558797237162976
 20
-1.249530015891356
 10
-0.3487733618433802
 20
-1.246778969564816
 10
-0.3424090108440596
 20
-1.242878677958025
 10
-0.3367702285846804
 20
-1.237954482931584
 10
-0.331789766083161
 20
-1.232017493789969
 10
-0.327400579985178
 20
-1.224957022107322
 10
-0.3242181211306997
 20
-1.218173028538248
  0
ELLIPSE
  5
127
330
107
100
AcDbEntity
  8
AM_9
100
AcDbEllipse
 10
-0.3994303217889755
 20
-1.114444290038775
 30
0.0
 11
-0.03159560311146647
 21
0.135513979060428
 31
0.0
210
0.0
220
0.0
230
1.0
 40
0.3659981507706655
 41
0.1897806880062953
 42
0.5147673728610793
  0
LWPOLYLINE
  5
128
330
107
100
AcDbEntity
  8
AM_9
100
AcDbPolyline
 90
        3
 70
     0
 43
0.0
 10
-0.0000000000000001
 20
-0.7307787001516928
 10
0.0544416102741495
 20
-0.7613260426622648
 10
0.1093749999999999
 20
-0.7899999999999999
  0
LWPOLYLINE
  5
129
330
107
100
AcDbEntity
  8
AM_9
100
AcDbPolyline
 90
        3
 70
     0
 43
0.0
 10
-0.109375
 20
-0.7899999999999999
 10
-0.0546875000000001
 20
-0.7614595596074827
 10
-0.0000000000000001
 20
-0.7307787001516928
  0
LWPOLYLINE
  5
12A
330
107
100
AcDbEntity
  8
AM_9
100
AcDbPolyline
 90
        6
 70
     0
 43
0.0
 10
-0.1510741298357571
 20
-1.20520229571137
 10
-0.1564222384464443
 20
-1.205146258798399
 10
-0.1639940363880805
 20
-1.205585121917566
 10
-0.1744063212866123
 20
-1.206646289109958
 10
-0.1876759562813858
 20
-1.208363121169831
 10
-0.2099962668917054
 20
-1.211671457656344
  0
LINE
  5
12B
330
107
100
AcDbEntity
  8
AM_9
100
AcDbLine
 10
-0.1419624601539892
 20
-1.131354226355191
 30
0.0
 11
-0.141958509815605
 21
-1.132769408754154
 31
0.0
  0
LWPOLYLINE
  5
12C
330
107
100
AcDbEntity
  8
AM_9
100
AcDbPolyline
 90
        3
 70
     0
 43
0.0
 10
-0.1510741298357571
 20
-1.06457729571137
 10
-0.1458778226760521
 20
-1.088510622598914
 10
-0.1430508146905286
 20
-1.109447763652075
  0
LINE
  5
12D
330
107
100
AcDbEntity
  8
AM_9
100
AcDbLine
 10
-0.1782574536135628
 20
-0.9808586865607893
 30
0.0
 11
-0.1765789831125443
 21
-0.9842058555423607
 31
0.0
  0
LWPOLYLINE
  5
12E
330
107
100
AcDbEntity
  8
AM_9
100
AcDbPolyline
 90
        3
 70
     0
 43
0.0
 10
-0.1825664812822114
 20
-0.9727259568868561
 10
-0.1805491420332304
 20
-0.9764568843635378
 10
-0.1782574536135628
 20
-0.9808586865607893
  0
LWPOLYLINE
  5
12F
330
107
100
AcDbEntity
  8
AM_9
100
AcDbPolyline
 90
        3
 70
     0
 43
0.0
 10
-0.2099962668917054
 20
-0.9304214576563438
 10
-0.1943573015029059
 20
-0.9529928542882339
 10
-0.1825664812822114
 20
-0.9727259568868561
  0
LWPOLYLINE
  5
130
330
107
100
AcDbEntity
  8
AM_9
100
AcDbPolyline
 90
        3
 70
     0
 43
0.0
 10
-0.2258378743019628
 20
-0.9310526668938883
 10
-0.2189176876709015
 20
-0.9305103698475837
 10
-0.2099962668917054
 20
-0.9304214576563438
  0
LWPOLYLINE
  5
131
330
107
100
AcDbEntity
  8
AM_9
100
AcDbPolyline
 90
        3
 70
     0
 43
0.0
 10
-0.1426281925259832
 20
-1.151344783746632
 10
-0.1441228263802215
 20
-1.166595324422914
 10
-0.1510741298357571
 20
-1.20520229571137
  0
LWPOLYLINE
  5
132
330
107
100
AcDbEntity
  8
AM_9
100
AcDbPolyline
 90
        3
 70
     0
 43
0.0
 10
-0.141958509815605
 20
-1.132769408754154
 10
-0.1420496512545706
 20
-1.139566312422038
 10
-0.1422728519961582
 20
-1.14544193733466
  0
LWPOLYLINE
  5
133
330
107
100
AcDbEntity
  8
AM_9
100
AcDbPolyline
 90
        3
 70
     0
 43
0.0
 10
-0.1676100259475406
 20
-1.004409386982388
 10
-0.1598729403210871
 20
-1.026768689712644
 10
-0.1510741298357571
 20
-1.06457729571137
  0
LINE
  5
134
330
107
100
AcDbEntity
  8
AM_9
100
AcDbLine
 10
-0.1765789831125443
 20
-0.9842058555423607
 30
0.0
 11
-0.1722281493461441
 21
-0.9934543546264893
 31
0.0
  0
ELLIPSE
  5
135
330
107
100
AcDbEntity
  8
AM_9
100
AcDbEllipse
 10
-0.2013892028241885
 20
-1.068270244837341
 30
0.0
 11
-0.03193085011438276
 21
0.1369518580960949
 31
0.0
210
0.0
220
0.0
230
1.0
 40
0.3659981507706681
 41
2.150416404658208
 42
6.139946939636884
  0
LWPOLYLINE
  5
136
330
107
100
AcDbEntity
  8
AM_9
100
AcDbPolyline
 90
        3
 70
     0
 43
0.0
 10
-0.3055458577949631
 20
-1.032852494962034
 10
-0.3030753670497809
 20
-1.058922855181632
 10
-0.2987675689889718
 20
-1.084475066725467
  0
LWPOLYLINE
  5
137
330
107
100
AcDbEntity
  8
AM_9
100
AcDbPolyline
 90
        3
 70
     0
 43
0.0
 10
-0.2602304684431209
 20
-0.9880679499247962
 10
-0.2616913382589204
 20
-0.9734112730526002
 10
-0.2689146070947223
 20
-0.9368897343505177
  0
LINE
  5
138
330
107
100
AcDbEntity
  8
AM_9
100
AcDbLine
 10
-0.2689146070947223
 20
-0.9368897343505177
 30
0.0
 11
-0.2987675689889718
 21
-0.9438500667254667
 31
0.0
  0
LWPOLYLINE
  5
139
330
107
100
AcDbEntity
  8
AM_9
100
AcDbPolyline
 90
        3
 70
     0
 43
0.0
 10
-0.2987675689889718
 20
-0.9438500667254667
 10
-0.3030606061861223
 20
-0.9712941224080119
 10
-0.3055458577949631
 20
-0.9986334064683196
  0
LINE
  5
13A
330
107
100
AcDbEntity
  8
AM_9
100
AcDbLine
 10
-0.2711532636537957
 20
-0.9416181234374058
 30
0.0
 11
-0.28139190003636
 21
-0.942753048956784
 31
0.0
  0
ELLIPSE
  5
13B
330
107
100
AcDbEntity
  8
AM_9
100
AcDbEllipse
 10
-0.2467045921760208
 20
-1.078835701380858
 30
0.0
 11
-0.03193085011438253
 21
0.1369518580960944
 31
0.0
210
0.0
220
0.0
230
1.0
 40
0.3659981507706651
 41
2.150416404658199
 42
6.139946939636895
  0
ELLIPSE
  5
13C
330
107
100
AcDbEntity
  8
AM_9
100
AcDbEllipse
 10
-0.2467045921760219
 20
-1.078835701380858
 30
0.0
 11
-0.03193085011438263
 21
0.1369518580960939
 31
0.0
210
0.0
220
0.0
230
1.0
 40
0.3659981507706591
 41
1.144545279139738
 42
1.951156734850504
  0
LWPOLYLINE
  5
13D
330
107
100
AcDbEntity
  8
AM_9
100
AcDbPolyline
 90
        3
 70
     0
 43
0.0
 10
-0.3055458577949631
 20
-0.9986334064683196
 10
-0.3064767622622302
 20
-1.015869806845232
 10
-0.3055458577949631
 20
-1.032852494962034
  0
ELLIPSE
  5
13E
330
107
100
AcDbEntity
  8
AM_9
100
AcDbEllipse
 10
-0.2467045921760294
 20
-1.078835701380852
 30
0.0
 11
-0.0319308501143762
 21
0.136951858096086
 31
0.0
210
0.0
220
0.0
230
1.0
 40
0.3659981507706443
 41
0.0560213022649583
 42
0.8626327579757938
  0
LWPOLYLINE
  5
13F
330
107
100
AcDbEntity
  8
AM_9
100
AcDbPolyline
 90
       17
 70
     0
 43
0.0
 10
-0.3250054522537825
 20
-1.220024328127204
 10
-0.3249514687372382
 20
-1.21990729075423
 10
-0.3242400506101007
 20
-1.218577296999421
 10
-0.3225688908723703
 20
-1.216024506623539
 10
-0.3197051855048602
 20
-1.212486339679344
 10
-0.3154181628012493
 20
-1.208262281323068
 10
-0.3095352720152931
 20
-1.203756661289348
 10
-0.3020633886536072
 20
-1.199502476397498
 10
-0.2933260733488396
 20
-1.196088891779549
 10
-0.2839576404023222
 20
-1.193966973092756
 10
-0.2747053502837931
 20
-1.193283925196744
 10
-0.2662916206791886
 20
-1.193871205527566
 10
-0.2591974916512729
 20
-1.195335050038131
 10
-0.2536710993155477
 20
-1.197199215864271
 10
-0.2497190202523222
 20
-1.199031883269345
 10
-0.2472014554625989
 20
-1.200508573834097
 10
-0.2459430068086308
 20
-1.201396707613212
  0
LWPOLYLINE
  5
140
330
107
100
AcDbEntity
  8
AM_9
100
AcDbPolyline
 90
        4
 70
     0
 43
0.0
 10
-0.245724988250897
 20
-1.201571960916105
 10
-0.2457874988413642
 20
-1.20151646799445
 10
-0.2466033513117961
 20
-1.200717780513568
 10
-0.2471085671185645
 20
-1.200184075314281
  0
LWPOLYLINE
  5
141
330
107
100
AcDbEntity
  8
AM_9
100
AcDbPolyline
 90
        3
 70
     0
 43
0.0
 10
-0.3007036787797936
 20
-0.9700737491214153
 10
-0.3001952162717558
 20
-0.9685434913133641
 10
-0.3001080482840255
 20
-0.9683222637170429
  0
LWPOLYLINE
  5
142
330
107
100
AcDbEntity
  8
AM_9
100
AcDbPolyline
 90
       17
 70
     0
 43
0.0
 10
-0.3001749121345849
 20
-0.9684689348637463
 10
-0.3008782782554675
 20
-0.9697863007960319
 10
-0.3025391765981817
 20
-0.9723284558543343
 10
-0.3053903561467095
 20
-0.9758584882532361
 10
-0.3096627833479559
 20
-0.9800777002042136
 10
-0.3155300363151038
 20
-0.9845829597110508
 10
-0.3229876825065378
 20
-0.9888423764045723
 10
-0.3317155248594488
 20
-0.9922665323203153
 10
-0.3410814646003776
 20
-0.9944020369902021
 10
-0.3503388343686624
 20
-0.9950985142414763
 10
-0.3587631456543501
 20
-0.9945217174762244
 10
-0.3658714329090737
 20
-0.9930640017430944
 10
-0.3714131299236408
 20
-0.9912014619842667
 10
-0.3753796830460756
 20
-0.9893667876309155
 10
-0.3779100841858719
 20
-0.9878854931531584
 10
-0.3791797474439926
 20
-0.9869908454047692
 10
-0.3793927669547562
 20
-0.986820269763377
  0
LINE
  5
143
330
107
100
AcDbEntity
  8
AM_9
100
AcDbLine
 10
-0.1771207715546619
 20
-0.9496616924073271
 30
0.0
 11
-0.2263662233581053
 21
-0.9611434580599514
 31
0.0
  0
LINE
  5
144
330
107
100
AcDbEntity
  8
AM_9
100
AcDbLine
 10
-0.176412182290271
 20
-1.17539703161473
 30
0.0
 11
-0.1343592486638226
 21
-1.165592229115782
 31
0.0
  0
LWPOLYLINE
  5
145
330
107
100
AcDbEntity
  8
AM_9
100
AcDbPolyline
 90
       20
 70
     0
 43
0.0
 10
-0.1343659249938088
 20
-1.16559378540361
 10
-0.1293028157827817
 20
-1.162990967168627
 10
-0.1247141396218193
 20
-1.157417196040507
 10
-0.1208880884981781
 20
-1.148797239076489
 10
-0.1181545989145989
 20
-1.137880991490922
 10
-0.1164278875396128
 20
-1.124336212655024
 10
-0.1158549073091554
 20
-1.109330271317741
 10
-0.1164156227038168
 20
-1.092408286749774
 10
-0.1180609686233502
 20
-1.075004703027538
 10
-0.1208367673933812
 20
-1.056607393511457
 10
-0.1245107513506023
 20
-1.038747455120003
 10
-0.1291842652280563
 20
-1.020922481606624
 10
-0.134472979061152
 20
-1.0045960564441
 10
-0.1405186270901959
 20
-0.9893288727646309
 10
-0.1468270783017121
 20
-0.9763704784891934
 10
-0.1535654953592165
 20
-0.9653813720298788
 10
-0.1601799433259584
 20
-0.9572689428626643
 10
-0.1668493358980662
 20
-0.9518204774364152
 10
-0.1731116383367606
 20
-0.9494809397560725
 10
-0.1771125901748264
 20
-0.949659785344162
  0
LINE
  5
146
330
107
100
AcDbEntity
  8
AM_9
100
AcDbLine
 10
-0.1771125901748264
 20
-0.949659785344162
 30
0.0
 11
-0.1790373738502115
 21
-0.9503040540337613
 31
0.0
  0
LWPOLYLINE
  5
147
330
107
100
AcDbEntity
  8
AM_9
100
AcDbPolyline
 90
        3
 70
     0
 43
0.0
 10
-0.2689146070947223
 20
-1.077514734350518
 10
-0.2634308483997529
 20
-1.049890958955647
 10
-0.2602304684431306
 20
-1.022287038418517
  0
LWPOLYLINE
  5
148
330
107
100
AcDbEntity
  8
AM_9
100
AcDbPolyline
 90
        5
 70
     0
 43
0.0
 10
-0.179037373850178
 20
-1.104695945966246
 10
-0.1733931390117468
 20
-1.120209976006311
 10
-0.1670729780242511
 20
-1.13435797563067
 10
-0.1606047421316796
 20
-1.145955943415793
 10
-0.1545828277793896
 20
-1.154402086009654
  0
ARC
  5
149
330
107
100
AcDbEntity
  8
AM_9
100
AcDbCircle
 10
0.0
 20
-1.0275
 30
0.0
 40
0.1999999999999998
100
AcDbArc
 50
219.352364355163
 51
0.0000008537736463
  0
LWPOLYLINE
  5
14A
330
107
100
AcDbEntity
  8
AM_9
100
AcDbPolyline
 90
        6
 70
     0
 43
0.0
 10
-0.1545828277793896
 20
-1.154402086009654
 10
-0.1538031670974777
 20
-1.155334802540261
 10
-0.1472336073736393
 20
-1.161712011960484
 10
-0.1407130262602577
 20
-1.165261709638181
 10
-0.1347930597680667
 20
-1.165684256104104
 10
-0.1343659249938088
 20
-1.16559378540361
  0
LINE
  5
14B
330
107
100
AcDbEntity
  8
AM_9
100
AcDbLine
 10
-0.2360765106845275
 20
-0.9321875924132664
 30
0.0
 11
-0.2258378743019628
 21
-0.9310526668938883
 31
0.0
  0
ELLIPSE
  5
14C
330
107
100
AcDbEntity
  8
AM_9
100
AcDbEllipse
 10
-0.2013892028241871
 20
-1.068270244837344
 30
0.0
 11
-0.03193085011438421
 21
0.1369518580960978
 31
0.0
210
0.0
220
0.0
230
1.0
 40
0.3659981507705698
 41
0.0560213022650107
 42
0.8626327579757256
  0
LINE
  5
14D
330
107
100
AcDbEntity
  8
AM_9
100
AcDbLine
 10
-0.2602304684431306
 20
-1.022287038418517
 30
0.0
 11
-0.2602304684431209
 21
-0.9880679499247962
 31
0.0
  0
ELLIPSE
  5
14E
330
107
100
AcDbEntity
  8
AM_9
100
AcDbEllipse
 10
-0.2013892028241888
 20
-1.068270244837341
 30
0.0
 11
-0.03193085011438267
 21
0.1369518580960936
 31
0.0
210
0.0
220
0.0
230
1.0
 40
0.3659981507706636
 41
1.144545279139733
 42
1.951156734850495
  0
LWPOLYLINE
  5
14F
330
107
100
AcDbEntity
  8
AM_9
100
AcDbPolyline
 90
        3
 70
     0
 43
0.0
 10
-0.2099962668917054
 20
-1.211671457656344
 10
-0.2163479371246913
 20
-1.182339189975666
 10
-0.2258378743019629
 20
-1.153057477599441
  0
LINE
  5
150
330
107
100
AcDbEntity
  8
AM_9
100
AcDbLine
 10
-0.2258378743019629
 20
-1.153057477599441
 30
0.0
 11
-0.2360765106845278
 21
-1.129965725501071
 31
0.0
  0
LWPOLYLINE
  5
151
330
107
100
AcDbEntity
  8
AM_9
100
AcDbPolyline
 90
        3
 70
     0
 43
0.0
 10
-0.2360765106845278
 20
-1.129965725501071
 10
-0.2462091938631852
 20
-1.111421611213502
 10
-0.2689146070947223
 20
-1.077514734350518
  0
LINE
  5
152
330
107
100
AcDbEntity
  8
AM_9
100
AcDbLine
 10
-0.2689146070947223
 20
-1.077514734350518
 30
0.0
 11
-0.2987675689889718
 21
-1.084475066725467
 31
0.0
  0
LWPOLYLINE
  5
153
330
107
100
AcDbEntity
  8
AM_9
100
AcDbPolyline
 90
        3
 70
     0
 43
0.0
 10
-0.2987675689889718
 20
-1.084475066725467
 10
-0.2912216284034025
 20
-1.112576183495197
 10
-0.2813919000363599
 20
-1.140531182044589
  0
LINE
  5
154
330
107
100
AcDbEntity
  8
AM_9
100
AcDbLine
 10
-0.2813919000363599
 20
-1.140531182044589
 30
0.0
 11
-0.2711532636537957
 21
-1.163622934142958
 31
0.0
  0
LWPOLYLINE
  5
155
330
107
100
AcDbEntity
  8
AM_9
100
AcDbPolyline
 90
        3
 70
     0
 43
0.0
 10
-0.2711532636537957
 20
-1.163622934142958
 10
-0.2561815527589921
 20
-1.191327936735335
 10
-0.2389369657326277
 20
-1.218419092407284
  0
LINE
  5
156
330
107
100
AcDbEntity
  8
AM_9
100
AcDbLine
 10
-0.2099962668917054
 20
-1.211671457656344
 30
0.0
 11
-0.2389369657326277
 21
-1.218419092407284
 31
0.0
  0
LWPOLYLINE
  5
157
330
107
100
AcDbEntity
  8
AM_9
100
AcDbPolyline
 90
        3
 70
     0
 43
0.0
 10
0.1052664663373419
 20
-0.7379526245419931
 10
0.0546874999999999
 20
-0.7138529403925172
 10
-0.0000000000000001
 20
-0.6898462998483071
  0
LINE
  5
158
330
107
100
AcDbEntity
  8
AM_9
100
AcDbLine
 10
0.1093749999999999
 20
-0.7399999999999999
 30
0.0
 11
0.1052664663373419
 21
-0.7379526245419931
 31
0.0
  0
LWPOLYLINE
  5
159
330
107
100
AcDbEntity
  8
AM_9
100
AcDbPolyline
 90
        3
 70
     0
 43
0.0
 10
-0.0000000000000001
 20
-0.6898462998483071
 10
-0.0544416102741497
 20
-0.7137405676118846
 10
-0.1093750000000001
 20
-0.7399999999999999
  0
LWPOLYLINE
  5
15A
330
107
100
AcDbEntity
  8
AM_9
100
AcDbPolyline
 90
        3
 70
     0
 43
0.0
 10
0.1093749999999999
 20
-0.7899999999999999
 10
0.1640624999999999
 20
-0.8161470596074826
 10
0.2187499999999999
 20
-0.8401537001516927
  0
LWPOLYLINE
  5
15B
330
107
100
AcDbEntity
  8
AM_9
100
AcDbPolyline
 90
        3
 70
     0
 43
0.0
 10
-0.2187500000000001
 20
-0.8401537001516927
 10
-0.1643083897258505
 20
-0.8162594323881152
 10
-0.109375
 20
-0.7899999999999999
  0
LINE
  5
15C
330
107
100
AcDbEntity
  8
AM_9
100
AcDbLine
 10
-0.0000000000000001
 20
-0.7307787001516928
 30
0.0
 11
-0.0000000000000001
 21
-0.6898462998483071
 31
0.0
  0
LWPOLYLINE
  5
15D
330
107
100
AcDbEntity
  8
AM_9
100
AcDbPolyline
 90
        3
 70
     0
 43
0.0
 10
-0.1133753360966263
 20
-0.7420067012744889
 10
-0.1640625000000001
 20
-0.7685404403925172
 10
-0.2187500000000001
 20
-0.7992212998483071
  0
LINE
  5
15E
330
107
100
AcDbEntity
  8
AM_9
100
AcDbLine
 10
-0.1093750000000001
 20
-0.7399999999999999
 30
0.0
 11
-0.1133753360966263
 21
-0.7420067012744889
 31
0.0
  0
LWPOLYLINE
  5
15F
330
107
100
AcDbEntity
  8
AM_9
100
AcDbPolyline
 90
        3
 70
     0
 43
0.0
 10
0.2187499999999999
 20
-0.7992212998483071
 10
0.1643083897258503
 20
-0.768673957337735
 10
0.1093749999999999
 20
-0.7399999999999999
  0
LWPOLYLINE
  5
160
330
107
100
AcDbEntity
  8
AM_9
100
AcDbPolyline
 90
        7
 70
     0
 43
0.0
 10
-0.1790373738501785
 20
-1.104695945966246
 10
-0.1842628795203941
 20
-1.088701216295605
 10
-0.1891729979031394
 20
-1.072644458256412
 10
-0.1936098952159724
 20
-1.055877825105295
 10
-0.1971856748420371
 20
-1.038429808725254
 10
-0.1994144431868155
 20
-1.020957633207593
 10
-0.1999999999699529
 20
-1.00725755900097
  0
LINE
  5
161
330
107
100
AcDbEntity
  8
AM_9
100
AcDbLine
 10
-0.2000000000000001
 20
-0.9540624999999999
 30
0.0
 11
-0.2000000000000001
 21
-1.007346885409148
 31
0.0
  0
LINE
  5
162
330
107
100
AcDbEntity
  8
AM_9
100
AcDbLine
 10
0.1999999999999998
 20
-1.0275
 30
0.0
 11
0.1999999999999999
 21
-0.9540624999999999
 31
0.0
  0
ELLIPSE
  5
163
330
107
100
AcDbEntity
  8
AM_9
100
AcDbEllipse
 10
0.0
 20
-1.0275
 30
0.0
 11
-0.1999999999999994
 21
2.980232263262459E-9
 31
0.0
210
0.0
220
0.0
230
1.0
 40
0.866025403784438
 41
0.4619460369188717
 42
5.821239302964527
  0
LWPOLYLINE
  5
164
330
107
100
AcDbEntity
  8
AM_9
100
AcDbPolyline
 90
        8
 70
     0
 43
0.0
 10
-0.1999999999699529
 20
-1.00725755900097
 10
-0.1999786710855128
 20
-1.004747492794572
 10
-0.1988321115509053
 20
-0.9894770462991154
 10
-0.196164942998426
 20
-0.9765478285833823
 10
-0.1920694300574958
 20
-0.9654958498463314
 10
-0.1870948030566195
 20
-0.9572268040530577
 10
-0.181500594761393
 20
-0.9517034871441515
 10
-0.1790373738501784
 20
-0.9503040540337537
  0
LINE
  5
165
330
107
100
AcDbEntity
  8
AM_9
100
AcDbLine
 10
-0.2187500000000001
 20
-1.058903700151693
 30
0.0
 11
-0.2187500000000001
 21
-0.7992212998483071
 31
0.0
  0
LWPOLYLINE
  5
166
330
107
100
AcDbEntity
  8
AM_9
100
AcDbPolyline
 90
        3
 70
     0
 43
0.0
 10
-0.109375
 20
-1.118125
 10
-0.1640625000000001
 20
-1.089584559607483
 10
-0.2187500000000001
 20
-1.058903700151693
  0
LINE
  5
167
330
107
100
AcDbEntity
  8
AM_9
100
AcDbLine
 10
-0.1052622735105736
 20
-1.12017445780035
 30
0.0
 11
-0.109375
 21
-1.118125
 31
0.0
  0
LWPOLYLINE
  5
168
330
107
100
AcDbEntity
  8
AM_9
100
AcDbPolyline
 90
        3
 70
     0
 43
0.0
 10
-0.0000000000000001
 20
-1.168278700151693
 10
-0.0544416102741497
 20
-1.144384432388115
 10
-0.1052622735105736
 20
-1.12017445780035
  0
LWPOLYLINE
  5
169
330
107
100
AcDbEntity
  8
AM_9
100
AcDbPolyline
 90
        3
 70
     0
 43
0.0
 10
-0.2187500000000001
 20
-1.017971299848307
 10
-0.1643083897258505
 20
-1.041865567611885
 10
-0.1093750000000001
 20
-1.068125
  0
LINE
  5
16A
330
107
100
AcDbEntity
  8
AM_9
100
AcDbLine
 10
-0.0000000000000001
 20
-1.168278700151693
 30
0.0
 11
-0.0000000000000001
 21
-1.127346299848307
 31
0.0
  0
LWPOLYLINE
  5
16B
330
107
100
AcDbEntity
  8
AM_9
100
AcDbPolyline
 90
        3
 70
     0
 43
0.0
 10
0.1093749999999999
 20
-1.118125
 10
0.0546874999999999
 20
-1.144272059607483
 10
-0.0000000000000001
 20
-1.168278700151693
  0
LINE
  5
16C
330
107
100
AcDbEntity
  8
AM_9
100
AcDbLine
 10
0.1133788550680988
 20
-1.11611652774185
 30
0.0
 11
0.1093749999999999
 21
-1.118125
 31
0.0
  0
LWPOLYLINE
  5
16D
330
107
100
AcDbEntity
  8
AM_9
100
AcDbPolyline
 90
        3
 70
     0
 43
0.0
 10
0.2187499999999999
 20
-1.058903700151693
 10
0.1643083897258503
 20
-1.089451042662265
 10
0.1133788550680988
 20
-1.11611652774185
  0
LINE
  5
16E
330
107
100
AcDbEntity
  8
AM_9
100
AcDbLine
 10
0.2187499999999999
 20
-1.058903700151693
 30
0.0
 11
0.2187499999999999
 21
-0.7992212998483071
 31
0.0
  0
LWPOLYLINE
  5
16F
330
107
100
AcDbEntity
  8
AM_9
100
AcDbPolyline
 90
        3
 70
     0
 43
0.0
 10
0.1093749999999999
 20
-1.068125
 10
0.1640624999999999
 20
-1.041977940392517
 10
0.2187499999999999
 20
-1.017971299848307
  0
LWPOLYLINE
  5
170
330
107
100
AcDbEntity
  8
AM_9
100
AcDbPolyline
 90
        3
 70
     0
 43
0.0
 10
-0.1093750000000001
 20
-1.068125
 10
-0.0546875000000001
 20
-1.096665440392517
 10
-0.0000000000000001
 20
-1.127346299848307
  0
LWPOLYLINE
  5
171
330
107
100
AcDbEntity
  8
AM_9
100
AcDbPolyline
 90
        3
 70
     0
 43
0.0
 10
-0.0000000000000001
 20
-1.127346299848307
 10
0.0544416102741495
 20
-1.096798957337735
 10
0.1093749999999999
 20
-1.068125
  0
LINE
  5
172
330
107
100
AcDbEntity
  8
AM_9
100
AcDbLine
 10
-0.2
 20
-0.8649999999999999
 30
0.0
 11
-0.2
 21
-0.9040624999999999
 31
0.0
  0
LINE
  5
173
330
107
100
AcDbEntity
  8
AM_9
100
AcDbLine
 10
0.1999999999999998
 20
-0.9040625
 30
0.0
 11
0.1999999999999998
 21
-0.8649999999999999
 31
0.0
  0
LINE
  5
174
330
107
100
AcDbEntity
  8
AM_9
100
AcDbLine
 10
-0.1851454569549802
 20
-0.7588099125707269
 30
0.0
 11
-0.1912304659644924
 21
-0.856022462287446
 31
0.0
  0
LINE
  5
175
330
107
100
AcDbEntity
  8
AM_9
100
AcDbLine
 10
0.1912304659644922
 20
-0.856022462287446
 30
0.0
 11
0.18514545695498
 21
-0.7588099125707269
 31
0.0
  0
ELLIPSE
  5
176
330
107
100
AcDbEntity
  8
AM_9
100
AcDbEllipse
 10
-0.0000000000000001
 20
-0.755625
 30
0.0
 11
0.1616637258772237
 21
0.0
 31
0.0
210
0.0
220
0.0
230
1.0
 40
0.8660254037844384
 41
0.0
 42
6.283185307179586
  0
ELLIPSE
  5
177
330
107
100
AcDbEntity
  8
AM_9
100
AcDbEllipse
 10
-0.3729962569749801
 20
-1.108281086607304
 30
0.0
 11
-0.03024351534850105
 21
0.1297148559329916
 31
0.0
210
0.0
220
0.0
230
1.0
 40
0.3659981507690249
 41
0.0
 42
6.283185307179586
  0
ELLIPSE
  5
178
330
107
100
AcDbEntity
  8
AM_9
100
AcDbEllipse
 10
-0.2013892028241881
 20
-1.068270244837341
 30
0.0
 11
-0.02497702053391717
 21
0.1071267867773896
 31
0.0
210
0.0
220
0.0
230
1.0
 40
0.3659981507706669
 41
0.0
 42
6.283185307179586
  0
ELLIPSE
  5
179
330
107
100
AcDbEntity
  8
AM_9
100
AcDbEllipse
 10
0.0
 20
-0.9540624999999996
 30
0.0
 11
-0.2
 21
2.449293598294707E-17
 31
0.0
210
0.0
220
0.0
230
1.0
 40
0.8660254037844395
 41
0.0
 42
6.283185307179586
  0
ELLIPSE
  5
17A
330
107
100
AcDbEntity
  8
AM_9
100
AcDbEllipse
 10
-0.000000000000387
 20
-0.9540625000007594
 30
0.0
 11
-0.2187500000007532
 21
2.678914873144059E-17
 31
0.0
210
0.0
220
0.0
230
1.0
 40
0.8660254037792466
 41
0.0
 42
6.283185307179586
  0
ELLIPSE
  5
17B
330
107
100
AcDbEntity
  8
AM_9
100
AcDbEllipse
 10
-0.0000000000000004
 20
-0.9040625
 30
0.0
 11
-0.2187500000000003
 21
2.678914873134838E-17
 31
0.0
210
0.0
220
0.0
230
1.0
 40
0.8660254037844388
 41
0.0
 42
6.283185307179586
  0
ELLIPSE
  5
17C
330
107
100
AcDbEntity
  8
AM_9
100
AcDbEllipse
 10
-0.0000000000000002
 20
-0.9040625000000002
 30
0.0
 11
-0.1999999999999998
 21
2.449293598294704E-17
 31
0.0
210
0.0
220
0.0
230
1.0
 40
0.866025403784438
 41
0.0
 42
6.283185307179586
  0
ELLIPSE
  5
17D
330
107
100
AcDbEntity
  8
AM_9
100
AcDbEllipse
 10
-0.0000000000000002
 20
-0.8649999999999999
 30
0.0
 11
-0.1999999999999998
 21
2.980232263262465E-9
 31
0.0
210
0.0
220
0.0
230
1.0
 40
0.8660254037844395
 41
0.0
 42
6.283185307179586
  0
ELLIPSE
  5
17E
330
107
100
AcDbEntity
  8
AM_9
100
AcDbEllipse
 10
0.0
 20
-0.8649999999999999
 30
0.0
 11
-0.1915112338502297
 21
2.345336195354440E-17
 31
0.0
210
0.0
220
0.0
230
1.0
 40
0.866025403784438
 41
0.0
 42
6.283185307179586
  0
ELLIPSE
  5
17F
330
107
100
AcDbEntity
  8
AM_9
100
AcDbEllipse
 10
-0.0000000000000001
 20
-0.767501782423881
 30
0.0
 11
-0.1854172907249859
 21
2.270706915929281E-17
 31
0.0
210
0.0
220
0.0
230
1.0
 40
0.8660254037844288
 41
0.0
 42
6.283185307179586
  0
LINE
  5
180
330
107
100
AcDbEntity
  8
AM_4
100
AcDbLine
 10
-0.4524158089341449
 20
-1.231254016496842
 30
0.0
 11
-0.45135
 21
-1.231517472588915
 31
0.0
  0
LINE
  5
181
330
107
100
AcDbEntity
  8
AM_4
100
AcDbLine
 10
-0.4513499999999998
 20
-0.9932672785607412
 30
0.0
 11
-0.4986131040655763
 21
-1.033113178260487
 31
0.0
  0
ELLIPSE
  5
182
330
107
100
AcDbEntity
  8
AM_4
100
AcDbEllipse
 10
-0.4687500000000002
 20
-1.130606438444094
 30
0.0
 11
-0.02349716402074603
 21
0.1007796617096761
 31
0.0
210
0.0
220
0.0
230
1.0
 40
0.3659981507706665
 41
0.184436184925036
 42
2.957156468664756
  0
ELLIPSE
  5
183
330
107
100
AcDbEntity
  8
AM_4
100
AcDbEllipse
 10
-0.399430321788976
 20
-1.114444290038774
 30
0.0
 11
-0.03159560311146625
 21
0.1355139790604261
 31
0.0
210
0.0
220
0.0
230
1.0
 40
0.3659981507706671
 41
0.5147673728610807
 42
1.492410664254421
  0
ENDBLK
  5
10A
330
107
100
AcDbEntity
  8
0
100
AcDbBlockEnd
  0
BLOCK
  5
186
330
184
100
AcDbEntity
  8
0
100
AcDbBlockBegin
  2
4_131210H_0_in_131210_2
 70
     2
 10
0.0
 20
0.0
 30
0.0
  3
4_131210H_0_in_131210_2
  1

  0
ATTDEF
  5
188
330
184
100
AcDbEntity
  8
AM_6
100
AcDbText
 10
5.814254441252508
 20
2.065
 30
0.0
 40
0.5
  1
WSTU-SXR -I-Housing
100
AcDbAttributeDefinition
  3

  2
NN
 70
     8
280
     0
  0
ATTDEF
  5
189
330
184
100
AcDbEntity
  8
AM_6
100
AcDbText
 10
5.814254441252508
 20
1.565
 30
0.0
 40
0.5
  1
SXR Normal Duty Wide Slot Take-Up Bearings
100
AcDbAttributeDefinition
  3

  2
NT
 70
     8
280
     0
  0
ATTDEF
  5
18A
330
184
100
AcDbEntity
  8
AM_6
100
AcDbText
 10
5.814254441252508
 20
1.065
 30
0.0
 40
0.5
  1
131210H
100
AcDbAttributeDefinition
  3

  2
NB
 70
     8
280
     0
  0
ATTDEF
  5
18B
330
184
100
AcDbEntity
  8
AM_6
100
AcDbText
 10
5.814254441252508
 20
0.565
 30
0.0
 40
0.5
  1
$PN.H
100
AcDbAttributeDefinition
  3

  2
NBSYN
 70
     8
280
     0
  0
ATTDEF
  5
18C
330
184
100
AcDbEntity
  8
AM_6
100
AcDbText
 10
5.814254441252508
 20
0.0649999999999999
 30
0.0
 40
0.5
  1
131210
100
AcDbAttributeDefinition
  3

  2
LINA
 70
     8
280
     0
  0
ATTDEF
  5
18D
330
184
100
AcDbEntity
  8
AM_6
100
AcDbText
 10
5.814254441252508
 20
-0.4350000000000001
 30
0.0
 40
0.5
  1
206
100
AcDbAttributeDefinition
  3

  2
SERIES
 70
     8
280
     0
  0
ATTDEF
  5
18E
330
184
100
AcDbEntity
  8
AM_6
100
AcDbText
 10
5.814254441252508
 20
-0.935
 30
0.0
 40
0.5
  1
1-1/8
100
AcDbAttributeDefinition
  3

  2
SS
 70
     8
280
     0
  0
ATTDEF
  5
18F
330
184
100
AcDbEntity
  8
AM_6
100
AcDbText
 10
5.814254441252508
 20
-1.435
 30
0.0
 40
0.5
  1
1.125000
100
AcDbAttributeDefinition
  3

  2
SS1
 70
     8
280
     0
  0
ATTDEF
  5
190
330
184
100
AcDbEntity
  8
AM_6
100
AcDbText
 10
5.814254441252508
 20
-1.935
 30
0.0
 40
0.5
  1
131210
100
AcDbAttributeDefinition
  3

  2
PN
 70
     8
280
     0
  0
ATTDEF
  5
191
330
184
100
AcDbEntity
  8
AM_6
100
AcDbText
 10
5.814254441252508
 20
-2.435
 30
0.0
 40
0.5
  1
WSTU-SXR-102
100
AcDbAttributeDefinition
  3

  2
DESCRIPTION
 70
     8
280
     0
  0
ATTDEF
  5
192
330
184
100
AcDbEntity
  8
AM_6
100
AcDbText
 10
5.814254441252508
 20
-2.935
 30
0.0
 40
0.5
  1
RE-LUBE
100
AcDbAttributeDefinition
  3

  2
LF
 70
     8
280
     0
  0
ATTDEF
  5
193
330
184
100
AcDbEntity
  8
AM_6
100
AcDbText
 10
5.814254441252508
 20
-3.435
 30
0.0
 40
0.5
  1
2.440900
100
AcDbAttributeDefinition
  3

  2
BOD
 70
     8
280
     0
  0
ATTDEF
  5
194
330
184
100
AcDbEntity
  8
AM_6
100
AcDbText
 10
5.814254441252508
 20
-3.935
 30
0.0
 40
0.5
  1
0.706700
100
AcDbAttributeDefinition
  3

  2
BW
 70
     8
280
     0
  0
ATTDEF
  5
195
330
184
100
AcDbEntity
  8
AM_6
100
AcDbText
 10
5.814254441252508
 20
-4.435
 30
0.0
 40
0.5
  1
2.9
100
AcDbAttributeDefinition
  3

  2
W
 70
     8
280
     0
  0
ATTDEF
  5
196
330
184
100
AcDbEntity
  8
AM_6
100
AcDbText
 10
5.814254441252508
 20
-4.935
 30
0.0
 40
0.5
  1
WS308
100
AcDbAttributeDefinition
  3

  2
FS
 70
     8
280
     0
  0
ATTDEF
  5
197
330
184
100
AcDbEntity
  8
AM_6
100
AcDbText
 10
5.814254441252508
 20
-5.435
 30
0.0
 40
0.5
  1
1.77
100
AcDbAttributeDefinition
  3

  2
A
 70
     8
280
     0
  0
ATTDEF
  5
198
330
184
100
AcDbEntity
  8
AM_6
100
AcDbText
 10
5.814254441252508
 20
-5.935
 30
0.0
 40
0.5
  1
1.770000
100
AcDbAttributeDefinition
  3

  2
A1
 70
     8
280
     0
  0
ATTDEF
  5
199
330
184
100
AcDbEntity
  8
AM_6
100
AcDbText
 10
5.814254441252508
 20
-6.435
 30
0.0
 40
0.5
  1
4.38
100
AcDbAttributeDefinition
  3

  2
B
 70
     8
280
     0
  0
ATTDEF
  5
19A
330
184
100
AcDbEntity
  8
AM_6
100
AcDbText
 10
5.814254441252508
 20
-6.935
 30
0.0
 40
0.5
  1
4.380000
100
AcDbAttributeDefinition
  3

  2
B1
 70
     8
280
     0
  0
ATTDEF
  5
19B
330
184
100
AcDbEntity
  8
AM_6
100
AcDbText
 10
5.814254441252508
 20
-7.435
 30
0.0
 40
0.5
  1
0.531
100
AcDbAttributeDefinition
  3

  2
C
 70
     8
280
     0
  0
ATTDEF
  5
19C
330
184
100
AcDbEntity
  8
AM_6
100
AcDbText
 10
5.814254441252508
 20
-7.935
 30
0.0
 40
0.5
  1
0.531000
100
AcDbAttributeDefinition
  3

  2
C1
 70
     8
280
     0
  0
ATTDEF
  5
19D
330
184
100
AcDbEntity
  8
AM_6
100
AcDbText
 10
5.814254441252508
 20
-8.435
 30
0.0
 40
0.5
  1
2.25
100
AcDbAttributeDefinition
  3

  2
D
 70
     8
280
     0
  0
ATTDEF
  5
19E
330
184
100
AcDbEntity
  8
AM_6
100
AcDbText
 10
5.814254441252508
 20
-8.935
 30
0.0
 40
0.5
  1
2.250000
100
AcDbAttributeDefinition
  3

  2
D1
 70
     8
280
     0
  0
ATTDEF
  5
19F
330
184
100
AcDbEntity
  8
AM_6
100
AcDbText
 10
5.814254441252508
 20
-9.435
 30
0.0
 40
0.5
  1
2.75
100
AcDbAttributeDefinition
  3

  2
E
 70
     8
280
     0
  0
ATTDEF
  5
1A0
330
184
100
AcDbEntity
  8
AM_6
100
AcDbText
 10
5.814254441252508
 20
-9.935
 30
0.0
 40
0.5
  1
2.750000
100
AcDbAttributeDefinition
  3

  2
E1
 70
     8
280
     0
  0
ATTDEF
  5
1A1
330
184
100
AcDbEntity
  8
AM_6
100
AcDbText
 10
5.814254441252508
 20
-10.435
 30
0.0
 40
0.5
  1
3/4
100
AcDbAttributeDefinition
  3

  2
F
 70
     8
280
     0
  0
ATTDEF
  5
1A2
330
184
100
AcDbEntity
  8
AM_6
100
AcDbText
 10
5.814254441252508
 20
-10.935
 30
0.0
 40
0.5
  1
0.750000
100
AcDbAttributeDefinition
  3

  2
F1
 70
     8
280
     0
  0
ATTDEF
  5
1A3
330
184
100
AcDbEntity
  8
AM_6
100
AcDbText
 10
5.814254441252508
 20
-11.435
 30
0.0
 40
0.5
  1
0.38
100
AcDbAttributeDefinition
  3

  2
G
 70
     8
280
     0
  0
ATTDEF
  5
1A4
330
184
100
AcDbEntity
  8
AM_6
100
AcDbText
 10
5.814254441252508
 20
-11.935
 30
0.0
 40
0.5
  1
0.380000
100
AcDbAttributeDefinition
  3

  2
G1
 70
     8
280
     0
  0
ATTDEF
  5
1A5
330
184
100
AcDbEntity
  8
AM_6
100
AcDbText
 10
5.814254441252508
 20
-12.435
 30
0.0
 40
0.5
  1
0.63
100
AcDbAttributeDefinition
  3

  2
H
 70
     8
280
     0
  0
ATTDEF
  5
1A6
330
184
100
AcDbEntity
  8
AM_6
100
AcDbText
 10
5.814254441252508
 20
-12.935
 30
0.0
 40
0.5
  1
0.630000
100
AcDbAttributeDefinition
  3

  2
H1
 70
     8
280
     0
  0
ATTDEF
  5
1A7
330
184
100
AcDbEntity
  8
AM_6
100
AcDbText
 10
5.814254441252508
 20
-13.435
 30
0.0
 40
0.5
  1
2.19
100
AcDbAttributeDefinition
  3

  2
J
 70
     8
280
     0
  0
ATTDEF
  5
1A8
330
184
100
AcDbEntity
  8
AM_6
100
AcDbText
 10
5.814254441252508
 20
-13.935
 30
0.0
 40
0.5
  1
2.190000
100
AcDbAttributeDefinition
  3

  2
J1
 70
     8
280
     0
  0
ATTDEF
  5
1A9
330
184
100
AcDbEntity
  8
AM_6
100
AcDbText
 10
5.814254441252508
 20
-14.435
 30
0.0
 40
0.5
  1
1.44
100
AcDbAttributeDefinition
  3

  2
K
 70
     8
280
     0
  0
ATTDEF
  5
1AA
330
184
100
AcDbEntity
  8
AM_6
100
AcDbText
 10
5.814254441252508
 20
-14.935
 30
0.0
 40
0.5
  1
1.75
100
AcDbAttributeDefinition
  3

  2
L
 70
     8
280
     0
  0
ATTDEF
  5
1AB
330
184
100
AcDbEntity
  8
AM_6
100
AcDbText
 10
5.814254441252508
 20
-15.435
 30
0.0
 40
0.5
  1
1.750000
100
AcDbAttributeDefinition
  3

  2
L1
 70
     8
280
     0
  0
ATTDEF
  5
1AC
330
184
100
AcDbEntity
  8
AM_6
100
AcDbText
 10
5.814254441252508
 20
-15.935
 30
0.0
 40
0.5
  1
3.480/3.510
100
AcDbAttributeDefinition
  3

  2
M
 70
     8
280
     0
  0
ATTDEF
  5
1AD
330
184
100
AcDbEntity
  8
AM_6
100
AcDbText
 10
5.814254441252508
 20
-16.435
 30
0.0
 40
0.5
  1
3.510000
100
AcDbAttributeDefinition
  3

  2
M1
 70
     8
280
     0
  0
ATTDEF
  5
1AE
330
184
100
AcDbEntity
  8
AM_6
100
AcDbText
 10
5.814254441252508
 20
-16.935
 30
0.0
 40
0.5
  1
4.13
100
AcDbAttributeDefinition
  3

  2
N
 70
     8
280
     0
  0
ATTDEF
  5
1AF
330
184
100
AcDbEntity
  8
AM_6
100
AcDbText
 10
5.814254441252508
 20
-17.435
 30
0.0
 40
0.5
  1
4.130000
100
AcDbAttributeDefinition
  3

  2
N1
 70
     8
280
     0
  0
ATTDEF
  5
1B0
330
184
100
AcDbEntity
  8
AM_6
100
AcDbText
 10
5.814254441252508
 20
-17.935
 30
0.0
 40
0.5
  1
0.58
100
AcDbAttributeDefinition
  3

  2
R
 70
     8
280
     0
  0
ATTDEF
  5
1B1
330
184
100
AcDbEntity
  8
AM_6
100
AcDbText
 10
5.814254441252508
 20
-18.435
 30
0.0
 40
0.5
  1
0.580000
100
AcDbAttributeDefinition
  3

  2
R1
 70
     8
280
     0
  0
ATTDEF
  5
1B2
330
184
100
AcDbEntity
  8
AM_6
100
AcDbText
 10
5.814254441252508
 20
-18.935
 30
0.0
 40
0.5
  1
1.19
100
AcDbAttributeDefinition
  3

  2
S
 70
     8
280
     0
  0
ATTDEF
  5
1B3
330
184
100
AcDbEntity
  8
AM_6
100
AcDbText
 10
5.814254441252508
 20
-19.435
 30
0.0
 40
0.5
  1
1.190000
100
AcDbAttributeDefinition
  3

  2
S1
 70
     8
280
     0
  0
ATTDEF
  5
1B4
330
184
100
AcDbEntity
  8
AM_6
100
AcDbText
 10
5.814254441252508
 20
-19.935
 30
0.0
 40
0.5
  1
1.63
100
AcDbAttributeDefinition
  3

  2
T
 70
     8
280
     0
  0
ATTDEF
  5
1B5
330
184
100
AcDbEntity
  8
AM_6
100
AcDbText
 10
5.814254441252508
 20
-20.435
 30
0.0
 40
0.5
  1
2250
100
AcDbAttributeDefinition
  3

  2
CAPS
 70
     8
280
     0
  0
ATTDEF
  5
1B6
330
184
100
AcDbEntity
  8
AM_6
100
AcDbText
 10
5.814254441252508
 20
-20.935
 30
0.0
 40
0.5
  1
4368
100
AcDbAttributeDefinition
  3

  2
CAPD
 70
     8
280
     0
  0
ATTDEF
  5
1B7
330
184
100
AcDbEntity
  8
AM_6
100
AcDbText
 10
5.814254441252508
 20
-21.435
 30
0.0
 40
0.5
  1
baldor
100
AcDbAttributeDefinition
  3

  2
COMPANY
 70
     8
280
     0
  0
ELLIPSE
  5
1B8
330
184
100
AcDbEntity
  8
AM_9
100
AcDbEllipse
 10
-0.0000000000000001
 20
-0.8649999999999999
 30
0.0
 11
-0.32
 21
3.918869757271530E-17
 31
0.0
210
0.0
220
0.0
230
1.0
 40
0.8660254037844386
 41
0.0
 42
6.283185307179586
  0
LINE
  5
1B9
330
184
100
AcDbEntity
  8
AM_9
100
AcDbLine
 10
0.4199694514037827
 20
-0.8195576613407959
 30
0.0
 11
0.4199999999999412
 21
-0.8143748075730817
 31
0.0
  0
LWPOLYLINE
  5
1BA
330
184
100
AcDbEntity
  8
AM_9
100
AcDbPolyline
 90
       53
 70
     0
 43
0.0
 10
-0.418841136051222
 20
-0.8430521224292089
 10
-0.4169056523333672
 20
-0.860785065870897
 10
-0.4132061059181418
 20
-0.8826893508556231
 10
-0.4080875241110534
 20
-0.9043514561316013
 10
-0.4015673160414872
 20
-0.9257007420998947
 10
-0.3936666210107685
 20
-0.9466673951998026
 10
-0.3844104051283918
 20
-0.9671824157272076
 10
-0.3738276062426346
 20
-0.9871776529451836
 10
-0.3619513064892698
 20
-1.006585901838003
 10
-0.348818907732382
 20
-1.025341070302366
 10
-0.3344722833757569
 20
-1.043378418582563
 10
-0.3189578810758426
 20
-1.060634865021887
 10
-0.3023267549940546
 20
-1.0770493447211
 10
-0.284634513052222
 20
-1.092563201602418
 10
-0.2659411733075465
 20
-1.107120590683251
 10
-0.2463109327419955
 20
-1.120668866684632
 10
-0.2258118600423544
 20
-1.133158937484976
 10
-0.2045155301205359
 20
-1.144545565845144
 10
-0.1824966214598822
 20
-1.154787609302977
 10
-0.1598324977465611
 20
-1.163848195012831
 10
-0.1366027930790281
 20
-1.171694832536204
 10
-0.1128890161270143
 20
-1.178299472429774
 10
-0.088774183837948
 20
-1.183638521582468
 10
-0.0643424904703597
 20
-1.187692827648787
 10
-0.0396790134481269
 20
-1.190447644897942
 10
-0.0148694540799347
 20
-1.191892592757518
 10
0.0100000913633893
 20
-1.192021616687558
 10
0.0348433364835399
 20
-1.190832959105075
 10
0.0595733808629977
 20
-1.188329224562407
 10
0.0841040302465181
 20
-1.184517344807295
 10
0.1083494937150285
 20
-1.179408582178327
 10
0.1322245141766494
 20
-1.173018587154247
 10
0.1556445876511826
 20
-1.165367470664525
 10
0.1785262136505555
 20
-1.156479886492117
 10
0.2007871845108394
 20
-1.146385114878559
 10
0.2223469197164447
 20
-1.135117135555118
 10
0.2431268482539843
 20
-1.122714675806926
 10
0.263050837746872
 20
-1.109221217320796
 10
0.2820456636647002
 20
-1.094684945064663
 10
0.3000415057101502
 20
-1.079158622869751
 10
0.3169724523441617
 20
-1.062699384119319
 10
0.3327769893728599
 20
-1.045368432001368
 10
0.3473984457179723
 20
-1.027230651665236
 10
0.3607853698447073
 20
-1.008354145328774
 10
0.3728918142358597
 20
-0.9888097095541817
 10
0.3836775124811292
 20
-0.9686702801367381
 10
0.3931079429949182
 20
-0.9480103732373576
 10
0.4011542836011179
 20
-0.9269055510534048
 10
0.4077932706413636
 20
-0.9054319367003758
 10
0.4130069835750633
 20
-0.8836657969138737
 10
0.4167825805057584
 20
-0.8616832038437015
 10
0.4191120115781372
 20
-0.8395597797490776
 10
0.4199251782864302
 20
-0.8221326120662645
  0
LWPOLYLINE
  5
1BB
330
184
100
AcDbEntity
  8
AM_9
100
AcDbPolyline
 90
        3
 70
     0
 43
0.0
 10
-0.4196566241715563
 20
-0.8302773841032174
 10
-0.4191724511791657
 20
-0.8387101083153373
 10
-0.418841136051222
 20
-0.8430521224292089
  0
LWPOLYLINE
  5
1BC
330
184
100
AcDbEntity
  8
AM_9
100
AcDbPolyline
 90
        3
 70
     0
 43
0.0
 10
-0.4199999992343879
 20
-0.8149771829831547
 10
-0.4199965195679257
 20
-0.8165384030144114
 10
-0.4198292792347576
 20
-0.8257733986426111
  0
LWPOLYLINE
  5
1BD
330
184
100
AcDbEntity
  8
AM_9
100
AcDbPolyline
 90
        3
 70
     0
 43
0.0
 10
0.41875
 20
-0.7867976379929852
 10
0.4199999732121112
 20
-0.8142451008590482
 10
0.4199999999999412
 20
-0.8143748075730817
  0
LINE
  5
1BE
330
184
100
AcDbEntity
  8
AM_9
100
AcDbLine
 10
-0.4187499999999998
 20
-0.8428807236784239
 30
0.0
 11
-0.4199985472424839
 21
-0.8153322185635116
 31
0.0
  0
LWPOLYLINE
  5
1BF
330
184
100
AcDbEntity
  8
AM_9
100
AcDbPolyline
 90
       37
 70
     0
 43
0.0
 10
0.4187499999999998
 20
-0.842880723678421
 10
0.4146846664839159
 20
-0.8719888434916457
 10
0.407840656039924
 20
-0.9003425256786127
 10
0.3979385357151104
 20
-0.9285543271567419
 10
0.3852323956162521
 20
-0.9555981832050565
 10
0.3703004817578745
 20
-0.9805829552768414
 10
0.3529285119214636
 20
-1.004192593946591
 10
0.3326467204649653
 20
-1.026907419454003
 10
0.310054598706322
 20
-1.047950918369736
 10
0.2854912964286115
 20
-1.067089771784
 10
0.2589599844694285
 20
-1.084418719024234
 10
0.2297876125601131
 20
-1.100279058975953
 10
0.1989085965275842
 20
-1.114089325437702
 10
0.1672470725698134
 20
-1.125554288170181
 10
0.1343669878693806
 20
-1.134955298557818
 10
0.0994380518026971
 20
-1.142435426088953
 10
0.0637214672144976
 20
-1.147644493456395
 10
0.029534930357979
 20
-1.150447185166044
 10
-0.0048629341970516
 20
-1.151190200199306
 10
-0.0402618452304933
 20
-1.149791146678249
 10
-0.0753554180487177
 20
-1.146209415067481
 10
-0.1082733662458585
 20
-1.140773829683766
 10
-0.1404561775489923
 20
-1.133394086955269
 10
-0.1725505957952266
 20
-1.123807162301774
 10
-0.20343515732014
 20
-1.112237044754917
 10
-0.2326729579886646
 20
-1.098841068611287
 10
-0.2603432763683209
 20
-1.083588986521836
 10
-0.2869584705538907
 20
-1.066037641653918
 10
-0.3115683730196498
 20
-1.04665500926463
 10
-0.3339906236843087
 20
-1.025528396732898
 10
-0.3540990203152772
 20
-1.00274055381732
 10
-0.3722254365621971
 20
-0.9776507435833447
 10
-0.3876119918804042
 20
-0.9510415038608243
 10
-0.3990783031060368
 20
-0.9257298346389079
 10
-0.4081101293303393
 20
-0.8994221042306392
 10
-0.4147744604496196
 20
-0.8715148569341818
 10
-0.4187499999999998
 20
-0.8428807236784239
  0
LWPOLYLINE
  5
1C0
330
184
100
AcDbEntity
  8
AM_9
100
AcDbPolyline
 90
       37
 70
     0
 43
0.0
 10
-0.41875
 20
-0.7867976379929824
 10
-0.4146846664839156
 20
-0.7566491330700531
 10
-0.4078406560399233
 20
-0.7265668143643608
 10
-0.3979385357151093
 20
-0.6959005449585792
 10
-0.3852323956162507
 20
-0.6657913439080999
 10
-0.3703004817578729
 20
-0.6373236466364278
 10
-0.3529285119214619
 20
-0.6098267784672243
 10
-0.3326467204649632
 20
-0.5827987322693401
 10
-0.3100545987063195
 20
-0.5572387446230604
 10
-0.2854912964286089
 20
-0.5335370524814999
 10
-0.2589599844694257
 20
-0.5116891324558585
 10
-0.2297876125601101
 20
-0.4913567558150348
 10
-0.198908596527581
 20
-0.473381817535475
 10
-0.1672470725698101
 20
-0.458262230655668
 10
-0.1343669878693771
 20
-0.445726354220212
 10
-0.0994380518026934
 20
-0.4356623830527738
 10
-0.0637214672144938
 20
-0.4286043528188255
 10
-0.0295349303579752
 20
-0.424791413545741
 10
0.0048629341970554
 20
-0.4237776242748965
 10
0.040261845230497
 20
-0.4256852385744037
 10
0.0753554180487213
 20
-0.4305525958362881
 10
0.1082733662458621
 20
-0.4379049042640047
 10
0.1404561775489958
 20
-0.4478168217509912
 10
0.1725505957952299
 20
-0.4605780749500959
 10
0.2034351573201431
 20
-0.475807621881974
 10
0.2326729579886676
 20
-0.4932137313283541
 10
0.2603432763683238
 20
-0.512743880254451
 10
0.2869584705538935
 20
-0.5348515215824567
 10
0.3115683730196523
 20
-0.5588277377825377
 10
0.3339906236843109
 20
-0.5844560018036581
 10
0.3540990203152794
 20
-0.6115351711405472
 10
0.3722254365621989
 20
-0.6406974529911563
 10
0.3876119918804057
 20
-0.6709150480386107
 10
0.3990783031060379
 20
-0.6990047238969104
 10
0.4081101293303401
 20
-0.727554809453767
 10
0.41477446044962
 20
-0.7571460183921643
 10
0.41875
 20
-0.7867976379929854
  0
ELLIPSE
  5
1C1
330
184
100
AcDbEntity
  8
AM_9
100
AcDbEllipse
 10
-0.0000000000000001
 20
-0.8149999999999997
 30
0.0
 11
0.42
 21
0.0
 31
0.0
210
0.0
220
0.0
230
1.0
 40
0.8660254037844387
 41
1.570796326794897
 42
3.141592653589793
  0
LINE
  5
1C2
330
184
100
AcDbEntity
  8
AM_9
100
AcDbLine
 10
-0.4199999999999414
 20
-0.8143751924269612
 30
0.0
 11
-0.4187499999999998
 21
-0.7867976379929822
 31
0.0
  0
LINE
  5
1C3
330
184
100
AcDbEntity
  8
AM_9
100
AcDbLine
 10
0.4199979886253216
 20
-0.8155014297090444
 30
0.0
 11
0.41875
 21
-0.8428807236784209
 31
0.0
  0
ELLIPSE
  5
1C4
330
184
100
AcDbEntity
  8
AM_9
100
AcDbEllipse
 10
0.0000000000000004
 20
-0.8150000000000022
 30
0.0
 11
0.4199999999999995
 21
0.0
 31
0.0
210
0.0
220
0.0
230
1.0
 40
0.8660254037844372
 41
5.404656991993861
 42
6.283185307179586
  0
ELLIPSE
  5
1C5
330
184
100
AcDbEntity
  8
AM_9
100
AcDbEllipse
 10
0.0000000000000001
 20
-0.815
 30
0.0
 11
0.4199999999999995
 21
0.0
 31
0.0
210
0.0
220
0.0
230
1.0
 40
0.8660254037844392
 41
4.23760890681918
 42
5.404656991993858
  0
ELLIPSE
  5
1C6
330
184
100
AcDbEntity
  8
AM_9
100
AcDbEllipse
 10
0.0000000000000027
 20
-0.8149999999999946
 30
0.0
 11
0.4200000000000058
 21
0.0
 31
0.0
210
0.0
220
0.0
230
1.0
 40
0.8660254037844405
 41
4.020120968775522
 42
4.237608906819178
  0
ELLIPSE
  5
1C7
330
184
100
AcDbEntity
  8
AM_9
100
AcDbEllipse
 10
0.0000000000000007
 20
-0.8150000000000006
 30
0.0
 11
0.4200000000000005
 21
0.0
 31
0.0
210
0.0
220
0.0
230
1.0
 40
0.866025403784437
 41
3.141592653589793
 42
4.020120968775519
  0
LINE
  5
1C8
330
184
100
AcDbEntity
  8
AM_9
100
AcDbLine
 10
0.4513500000000001
 20
-1.134046630434569
 30
0.0
 11
0.41875
 21
-1.179523208758522
 31
0.0
  0
LINE
  5
1C9
330
184
100
AcDbEntity
  8
AM_9
100
AcDbLine
 10
-0.4187499999999998
 20
-1.179523208758522
 30
0.0
 11
-0.45135
 21
-1.134046630434569
 31
0.0
  0
LINE
  5
1CA
330
184
100
AcDbEntity
  8
AM_9
100
AcDbLine
 10
0.41875
 20
-1.179523208758522
 30
0.0
 11
-0.4187499999999998
 21
-1.179523208758522
 31
0.0
  0
LINE
  5
1CB
330
184
100
AcDbEntity
  8
AM_9
100
AcDbLine
 10
0.4187499999999998
 20
-0.7867976379929855
 30
0.0
 11
0.41875
 21
1.179523208758522
 31
0.0
  0
LINE
  5
1CC
330
184
100
AcDbEntity
  8
AM_9
100
AcDbLine
 10
-0.4187499999999998
 20
-0.7867976379929821
 30
0.0
 11
-0.4187499999999998
 21
1.179523208758522
 31
0.0
  0
LINE
  5
1CD
330
184
100
AcDbEntity
  8
AM_9
100
AcDbLine
 10
-0.4187499999999998
 20
1.179523208758522
 30
0.0
 11
0.41875
 21
1.179523208758522
 31
0.0
  0
LINE
  5
1CE
330
184
100
AcDbEntity
  8
AM_9
100
AcDbLine
 10
0.41875
 20
-1.179523208758522
 30
0.0
 11
0.4187499999999998
 21
-0.842880723678421
 31
0.0
  0
LINE
  5
1CF
330
184
100
AcDbEntity
  8
AM_9
100
AcDbLine
 10
-0.4187499999999998
 20
-1.179523208758522
 30
0.0
 11
-0.41875
 21
-0.842880723678424
 31
0.0
  0
LINE
  5
1D0
330
184
100
AcDbEntity
  8
AM_9
100
AcDbLine
 10
0.41875
 20
1.179523208758522
 30
0.0
 11
0.45135
 21
1.134046630434569
 31
0.0
  0
LINE
  5
1D1
330
184
100
AcDbEntity
  8
AM_9
100
AcDbLine
 10
-0.45135
 20
1.134046630434569
 30
0.0
 11
-0.4187499999999998
 21
1.179523208758522
 31
0.0
  0
LINE
  5
1D2
330
184
100
AcDbEntity
  8
AM_9
100
AcDbLine
 10
-0.4513500000000001
 20
-1.22045
 30
0.0
 11
0.45135
 21
-1.220384320613797
 31
0.0
  0
LINE
  5
1D3
330
184
100
AcDbEntity
  8
AM_9
100
AcDbLine
 10
-0.2389499999999999
 20
-1.2767
 30
0.0
 11
0.4513499999999998
 21
-1.2767
 31
0.0
  0
LINE
  5
1D4
330
184
100
AcDbEntity
  8
AM_9
100
AcDbLine
 10
-0.2389499999999999
 20
-1.2767
 30
0.0
 11
-0.2389499999999999
 21
-1.161410006199361
 31
0.0
  0
LINE
  5
1D5
330
184
100
AcDbEntity
  8
AM_9
100
AcDbLine
 10
-0.2389499999999999
 20
1.161410006199361
 30
0.0
 11
-0.2389499999999999
 21
1.2767
 31
0.0
  0
LINE
  5
1D6
330
184
100
AcDbEntity
  8
AM_9
100
AcDbLine
 10
-0.45135
 20
1.22045
 30
0.0
 11
0.45135
 21
1.220384320613797
 31
0.0
  0
LINE
  5
1D7
330
184
100
AcDbEntity
  8
AM_9
100
AcDbLine
 10
0.4513500000000001
 20
1.2767
 30
0.0
 11
-0.2389499999999999
 21
1.2767
 31
0.0
  0
LINE
  5
1D8
330
184
100
AcDbEntity
  8
AM_9
100
AcDbLine
 10
-0.2389499999999999
 20
1.161410006199361
 30
0.0
 11
0.4513499999999998
 21
1.161410006199361
 31
0.0
  0
LINE
  5
1D9
330
184
100
AcDbEntity
  8
AM_9
100
AcDbLine
 10
0.4513499999999998
 20
-1.161410006199361
 30
0.0
 11
-0.2389499999999999
 21
-1.161410006199361
 31
0.0
  0
LINE
  5
1DA
330
184
100
AcDbEntity
  8
AM_9
100
AcDbLine
 10
0.45135
 20
-0.6786075283254672
 30
0.0
 11
0.4513500000000001
 21
0.6786075283254672
 31
0.0
  0
LINE
  5
1DB
330
184
100
AcDbEntity
  8
AM_9
100
AcDbLine
 10
-0.45135
 20
0.6786075283254671
 30
0.0
 11
-0.4513500000000001
 21
-0.6786075283254671
 31
0.0
  0
LINE
  5
1DC
330
184
100
AcDbEntity
  8
AM_9
100
AcDbLine
 10
-0.45135
 20
0.6669000000000005
 30
0.0
 11
0.4513500000000001
 21
0.6669000000000005
 31
0.0
  0
LINE
  5
1DD
330
184
100
AcDbEntity
  8
AM_9
100
AcDbLine
 10
-0.45135
 20
0.72
 30
0.0
 11
0.4513500000000001
 21
0.72
 31
0.0
  0
LINE
  5
1DE
330
184
100
AcDbEntity
  8
AM_9
100
AcDbLine
 10
-0.45135
 20
-0.72
 30
0.0
 11
0.45135
 21
-0.72
 31
0.0
  0
LINE
  5
1DF
330
184
100
AcDbEntity
  8
AM_9
100
AcDbLine
 10
-0.45135
 20
-0.6669000000000007
 30
0.0
 11
0.45135
 21
-0.6669000000000007
 31
0.0
  0
LINE
  5
1E0
330
184
100
AcDbEntity
  8
AM_7
100
AcDbLine
 10
0.0000000000000002
 20
-0.3937499999999999
 30
0.0
 11
0.0000000000000002
 21
0.3937499999999999
 31
0.0
  0
LWPOLYLINE
  5
1E1
330
184
100
AcDbEntity
  8
AM_4
100
AcDbPolyline
 90
       19
 70
     0
 43
0.0
 10
0.4779000000000009
 20
2.065
 10
0.4825279699399014
 20
2.064797938468672
 10
0.4871207182341147
 20
2.064193291684948
 10
0.4916432912949444
 20
2.06319066137595
 10
0.4960612696105935
 20
2.061797678163732
 10
0.5003410296984315
 20
2.060024943491646
 10
0.5044500000000003
 20
2.057885948940954
 10
0.5083569087702409
 20
2.055396973551746
 10
0.5120320220743555
 20
2.052576959929618
 10
0.5154473700810058
 20
2.049447370081006
 10
0.5185769599296178
 20
2.046032022074356
 10
0.5213969735517455
 20
2.042356908770241
 10
0.5238859489409537
 20
2.038450000000001
 10
0.5260249434916462
 20
2.034341029698432
 10
0.5277976781637317
 20
2.030061269610594
 10
0.5291906613759495
 20
2.025643291294945
 10
0.5301932916849482
 20
2.021120718234115
 10
0.5307979384686716
 20
2.016527969939902
 10
0.5309999999999999
 20
2.011900000000001
  0
LINE
  5
1E2
330
184
100
AcDbEntity
  8
AM_4
100
AcDbLine
 10
0.2655000000000001
 20
1.755
 30
0.0
 11
0.2655000000000001
 21
2.065
 31
0.0
  0
LINE
  5
1E3
330
184
100
AcDbEntity
  8
AM_4
100
AcDbLine
 10
0.2655000000000001
 20
2.065
 30
0.0
 11
0.4779000000000009
 21
2.065
 31
0.0
  0
LINE
  5
1E4
330
184
100
AcDbEntity
  8
AM_4
100
AcDbLine
 10
0.2654999999999998
 20
-2.065
 30
0.0
 11
0.2654999999999998
 21
-1.755
 31
0.0
  0
LWPOLYLINE
  5
1E5
330
184
100
AcDbEntity
  8
AM_4
100
AcDbPolyline
 90
       19
 70
     0
 43
0.0
 10
0.5309999999999997
 20
-2.011899998061838
 10
0.5307979386375935
 20
-2.016527968009113
 10
0.5301932920215064
 20
-2.021120716325397
 10
0.5291906618775828
 20
-2.025643289422823
 10
0.5277976788266223
 20
-2.030061267789316
 10
0.526024944310749
 20
-2.034341027941859
 10
0.5238859499100349
 20
-2.038449998321502
 10
0.5213969746634298
 20
-2.042356907182591
 10
0.5185769611754447
 20
-2.046032020589637
 10
0.5154473714514938
 20
-2.049447368710517
 10
0.5120320235590741
 20
-2.052576958683791
 10
0.5083569103578905
 20
-2.055396972440061
 10
0.5044500016784984
 20
-2.057885947971872
 10
0.5003410314550033
 20
-2.060024942672543
 10
0.4960612714318705
 20
-2.061797677500841
 10
0.4916432931670656
 20
-2.063190660874316
 10
0.487120720142832
 20
-2.06419329134839
 10
0.4825279718706886
 20
-2.064797938299749
 10
0.4779000019381632
 20
-2.065
  0
LINE
  5
1E6
330
184
100
AcDbEntity
  8
AM_4
100
AcDbLine
 10
0.2654999999999998
 20
-2.065
 30
0.0
 11
0.4779000000000003
 21
-2.065
 31
0.0
  0
LINE
  5
1E7
330
184
100
AcDbEntity
  8
AM_4
100
AcDbLine
 10
-0.2655000000000001
 20
-1.755
 30
0.0
 11
-0.2655000000000001
 21
-2.065
 31
0.0
  0
LWPOLYLINE
  5
1E8
330
184
100
AcDbEntity
  8
AM_4
100
AcDbPolyline
 90
       19
 70
     0
 43
0.0
 10
-0.4779000000000008
 20
-2.065
 10
-0.4825279699399014
 20
-2.064797938468672
 10
-0.4871207182341147
 20
-2.064193291684948
 10
-0.4916432912949444
 20
-2.06319066137595
 10
-0.4960612696105935
 20
-2.061797678163732
 10
-0.5003410296984316
 20
-2.060024943491646
 10
-0.5044500000000005
 20
-2.057885948940954
 10
-0.508356908770241
 20
-2.055396973551746
 10
-0.5120320220743556
 20
-2.052576959929618
 10
-0.515447370081006
 20
-2.049447370081006
 10
-0.518576959929618
 20
-2.046032022074356
 10
-0.5213969735517457
 20
-2.042356908770241
 10
-0.523885948940954
 20
-2.038450000000001
 10
-0.5260249434916464
 20
-2.034341029698432
 10
-0.527797678163732
 20
-2.030061269610594
 10
-0.5291906613759498
 20
-2.025643291294945
 10
-0.5301932916849486
 20
-2.021120718234115
 10
-0.530797938468672
 20
-2.016527969939902
 10
-0.5310000000000002
 20
-2.011900000000001
  0
LINE
  5
1E9
330
184
100
AcDbEntity
  8
AM_4
100
AcDbLine
 10
-0.477900000000001
 20
-2.065
 30
0.0
 11
-0.2655000000000001
 21
-2.065
 31
0.0
  0
LWPOLYLINE
  5
1EA
330
184
100
AcDbEntity
  8
AM_4
100
AcDbPolyline
 90
       19
 70
     0
 43
0.0
 10
-0.5309999999999998
 20
2.011900000000001
 10
-0.5307979384686715
 20
2.016527969939902
 10
-0.5301932916849481
 20
2.021120718234115
 10
-0.5291906613759494
 20
2.025643291294945
 10
-0.5277976781637316
 20
2.030061269610594
 10
-0.526024943491646
 20
2.034341029698432
 10
-0.5238859489409536
 20
2.038450000000001
 10
-0.5213969735517454
 20
2.042356908770241
 10
-0.5185769599296178
 20
2.046032022074356
 10
-0.5154473700810057
 20
2.049447370081006
 10
-0.5120320220743554
 20
2.052576959929618
 10
-0.5083569087702408
 20
2.055396973551745
 10
-0.5044500000000003
 20
2.057885948940954
 10
-0.5003410296984315
 20
2.060024943491646
 10
-0.4960612696105935
 20
2.061797678163732
 10
-0.4916432912949444
 20
2.06319066137595
 10
-0.4871207182341146
 20
2.064193291684948
 10
-0.4825279699399014
 20
2.064797938468672
 10
-0.4779000000000009
 20
2.065
  0
LINE
  5
1EB
330
184
100
AcDbEntity
  8
AM_4
100
AcDbLine
 10
-0.2655
 20
2.065
 30
0.0
 11
-0.2655
 21
1.755
 31
0.0
  0
LINE
  5
1EC
330
184
100
AcDbEntity
  8
AM_4
100
AcDbLine
 10
-0.4779000000000007
 20
2.065
 30
0.0
 11
-0.2655
 21
2.065
 31
0.0
  0
LINE
  5
1ED
330
184
100
AcDbEntity
  8
AM_4
100
AcDbLine
 10
0.4513500000000001
 20
0.6786075283254667
 30
0.0
 11
0.4513500000000001
 21
1.6
 31
0.0
  0
LINE
  5
1EE
330
184
100
AcDbEntity
  8
AM_4
100
AcDbLine
 10
-0.45135
 20
1.6
 30
0.0
 11
-0.45135
 21
0.6786075283254671
 31
0.0
  0
LINE
  5
1EF
330
184
100
AcDbEntity
  8
AM_4
100
AcDbLine
 10
0.5310000000000001
 20
1.67965
 30
0.0
 11
0.5310000000000001
 21
2.0119
 31
0.0
  0
LINE
  5
1F0
330
184
100
AcDbEntity
  8
AM_4
100
AcDbLine
 10
-0.5309999999999999
 20
2.011900000000001
 30
0.0
 11
-0.5309999999999999
 21
1.67965
 31
0.0
  0
LINE
  5
1F1
330
184
100
AcDbEntity
  8
AM_4
100
AcDbLine
 10
-0.5309999999999999
 20
1.67965
 30
0.0
 11
-0.45135
 21
1.6
 31
0.0
  0
LINE
  5
1F2
330
184
100
AcDbEntity
  8
AM_4
100
AcDbLine
 10
0.4513500000000001
 20
1.6
 30
0.0
 11
0.5310000000000001
 21
1.67965
 31
0.0
  0
LINE
  5
1F3
330
184
100
AcDbEntity
  8
AM_4
100
AcDbLine
 10
0.5310000000000001
 20
2.0119
 30
0.0
 11
0.2655000000000001
 21
2.011900000000001
 31
0.0
  0
LINE
  5
1F4
330
184
100
AcDbEntity
  8
AM_4
100
AcDbLine
 10
-0.2655
 20
1.755
 30
0.0
 11
0.2655000000000001
 21
1.755
 31
0.0
  0
LINE
  5
1F5
330
184
100
AcDbEntity
  8
AM_4
100
AcDbLine
 10
-0.2655
 20
2.011900000000001
 30
0.0
 11
-0.5309999999999999
 21
2.011900000000001
 31
0.0
  0
LINE
  5
1F6
330
184
100
AcDbEntity
  8
AM_4
100
AcDbLine
 10
0.4513499999999999
 20
-1.6
 30
0.0
 11
0.45135
 21
-0.6786075283254672
 31
0.0
  0
LINE
  5
1F7
330
184
100
AcDbEntity
  8
AM_4
100
AcDbLine
 10
-0.4513499999999999
 20
-0.6786075283254667
 30
0.0
 11
-0.4513500000000001
 21
-1.6
 31
0.0
  0
LINE
  5
1F8
330
184
100
AcDbEntity
  8
AM_4
100
AcDbLine
 10
0.5309999999999999
 20
-1.67965
 30
0.0
 11
0.4513499999999999
 21
-1.6
 31
0.0
  0
LINE
  5
1F9
330
184
100
AcDbEntity
  8
AM_4
100
AcDbLine
 10
-0.4513500000000001
 20
-1.6
 30
0.0
 11
-0.5310000000000001
 21
-1.67965
 31
0.0
  0
LINE
  5
1FA
330
184
100
AcDbEntity
  8
AM_4
100
AcDbLine
 10
-0.5310000000000001
 20
-1.67965
 30
0.0
 11
-0.5310000000000001
 21
-2.011900000000001
 31
0.0
  0
LINE
  5
1FB
330
184
100
AcDbEntity
  8
AM_4
100
AcDbLine
 10
-0.2655000000000002
 20
-2.011900000000001
 30
0.0
 11
-0.5310000000000001
 21
-2.011900000000001
 31
0.0
  0
LINE
  5
1FC
330
184
100
AcDbEntity
  8
AM_4
100
AcDbLine
 10
0.2654999999999998
 20
-1.755
 30
0.0
 11
-0.2655000000000001
 21
-1.755
 31
0.0
  0
LINE
  5
1FD
330
184
100
AcDbEntity
  8
AM_4
100
AcDbLine
 10
0.5309999999999997
 20
-2.011900000000001
 30
0.0
 11
0.2654999999999998
 21
-2.011900000000001
 31
0.0
  0
LINE
  5
1FE
330
184
100
AcDbEntity
  8
AM_4
100
AcDbLine
 10
0.5309999999999997
 20
-2.011900000000001
 30
0.0
 11
0.5309999999999999
 21
-1.67965
 31
0.0
  0
LWPOLYLINE
  5
1FF
330
184
100
AcDbEntity
  8
AM_4
100
AcDbPolyline
 90
       19
 70
     0
 43
0.0
 10
-0.4513499999999995
 20
1.041899997259024
 10
-0.451147938707563
 20
1.046527967209355
 10
-0.4505432921609132
 20
1.051120715534779
 10
-0.4495406620853658
 20
1.055643288647364
 10
-0.4481476791012002
 20
1.060061267034918
 10
-0.4463749446500322
 20
1.064341027214263
 10
-0.4442359503114413
 20
1.068449997626245
 10
-0.4417469751239043
 20
1.072356906524964
 10
-0.4389269616914827
 20
1.076032019974646
 10
-0.435797372019168
 20
1.079447368142843
 10
-0.4323820241740643
 20
1.082576958167752
 10
-0.4287069110155163
 20
1.085396971979586
 10
-0.4248000023737545
 20
1.087885947570465
 10
-0.4206910321825987
 20
1.090024942333259
 10
-0.4164112721862677
 20
1.091797677226263
 10
-0.411993293942523
 20
1.093190660666532
 10
-0.4074707209334482
 20
1.094193291208982
 10
-0.4028779726704461
 20
1.09479793822978
 10
-0.3982500027409758
 20
1.095
  0
LINE
  5
200
330
184
100
AcDbEntity
  8
AM_4
100
AcDbLine
 10
-0.3982499999999989
 20
1.095
 30
0.0
 11
0.39825
 21
1.095
 31
0.0
  0
LWPOLYLINE
  5
201
330
184
100
AcDbEntity
  8
AM_4
100
AcDbPolyline
 90
       19
 70
     0
 43
0.0
 10
0.3982499999999998
 20
1.095
 10
0.4028779699399004
 20
1.094797938468672
 10
0.4074707182341137
 20
1.094193291684948
 10
0.4119932912949436
 20
1.09319066137595
 10
0.4164112696105927
 20
1.091797678163732
 10
0.4206910296984309
 20
1.090024943491646
 10
0.4247999999999997
 20
1.087885948940954
 10
0.4287069087702403
 20
1.085396973551746
 10
0.4323820220743549
 20
1.082576959929618
 10
0.4357973700810054
 20
1.079447370081006
 10
0.4389269599296174
 20
1.076032022074356
 10
0.4417469735517452
 20
1.072356908770241
 10
0.4442359489409535
 20
1.06845
 10
0.4463749434916459
 20
1.064341029698432
 10
0.4481476781637315
 20
1.060061269610593
 10
0.4495406613759493
 20
1.055643291294944
 10
0.4505432916849481
 20
1.051120718234114
 10
0.4511479384686716
 20
1.046527969939901
 10
0.4513499999999999
 20
1.041900001938163
  0
CIRCLE
  5
202
330
184
100
AcDbEntity
  8
AM_4
100
AcDbCircle
 10
0.0000000000000002
 20
0.0
 30
0.0
 40
0.3749999999999999
  0
ARC
  5
203
330
184
100
AcDbEntity
  8
AM_4
100
AcDbCircle
 10
0.0000000000000009
 20
-0.0000000000000003
 30
0.0
 40
0.8149999999999991
100
AcDbArc
 50
303.6283547731773
 51
56.37164522682266
  0
LINE
  5
204
330
184
100
AcDbEntity
  8
AM_4
100
AcDbLine
 10
0.4513500000000003
 20
1.0419
 30
0.0
 11
-0.45135
 21
1.041899999999999
 31
0.0
  0
ARC
  5
205
330
184
100
AcDbEntity
  8
AM_4
100
AcDbCircle
 10
-0.0000000000000003
 20
0.0000000000000003
 30
0.0
 40
0.8149999999999994
100
AcDbArc
 50
123.6283547731774
 51
236.3716452268227
  0
LINE
  5
206
330
184
100
AcDbEntity
  8
AM_4
100
AcDbLine
 10
-0.3982499999999995
 20
-1.095
 30
0.0
 11
0.3982500000000002
 21
-1.095
 31
0.0
  0
LWPOLYLINE
  5
207
330
184
100
AcDbEntity
  8
AM_4
100
AcDbPolyline
 90
       19
 70
     0
 43
0.0
 10
0.4513499999999999
 20
-1.0419
 10
0.4511479384686716
 20
-1.046527969939901
 10
0.4505432916849481
 20
-1.051120718234114
 10
0.4495406613759494
 20
-1.055643291294944
 10
0.4481476781637316
 20
-1.060061269610593
 10
0.446374943491646
 20
-1.064341029698431
 10
0.4442359489409536
 20
-1.06845
 10
0.4417469735517454
 20
-1.07235690877024
 10
0.4389269599296177
 20
-1.076032022074355
 10
0.4357973700810057
 20
-1.079447370081005
 10
0.4323820220743553
 20
-1.082576959929618
 10
0.4287069087702406
 20
-1.085396973551745
 10
0.4248000000000001
 20
-1.087885948940954
 10
0.4206910296984313
 20
-1.090024943491646
 10
0.4164112696105932
 20
-1.091797678163732
 10
0.4119932912949441
 20
-1.093190661375949
 10
0.4074707182341142
 20
-1.094193291684948
 10
0.4028779699399009
 20
-1.094797938468671
 10
0.3982500000000003
 20
-1.095
  0
LINE
  5
208
330
184
100
AcDbEntity
  8
AM_4
100
AcDbLine
 10
0.4513500000000001
 20
-1.0419
 30
0.0
 11
-0.4513499999999999
 21
-1.0419
 31
0.0
  0
LWPOLYLINE
  5
209
330
184
100
AcDbEntity
  8
AM_4
100
AcDbPolyline
 90
       19
 70
     0
 43
0.0
 10
-0.3982499999999995
 20
-1.095
 10
-0.4028779699399002
 20
-1.094797938468671
 10
-0.4074707182341136
 20
-1.094193291684948
 10
-0.4119932912949433
 20
-1.093190661375949
 10
-0.4164112696105925
 20
-1.091797678163732
 10
-0.4206910296984307
 20
-1.090024943491646
 10
-0.4247999999999995
 20
-1.087885948940954
 10
-0.42870690877024
 20
-1.085396973551745
 10
-0.4323820220743547
 20
-1.082576959929618
 10
-0.4357973700810052
 20
-1.079447370081005
 10
-0.4389269599296172
 20
-1.076032022074355
 10
-0.4417469735517449
 20
-1.07235690877024
 10
-0.4442359489409531
 20
-1.06845
 10
-0.4463749434916455
 20
-1.064341029698431
 10
-0.4481476781637311
 20
-1.060061269610593
 10
-0.449540661375949
 20
-1.055643291294944
 10
-0.4505432916849477
 20
-1.051120718234114
 10
-0.4511479384686712
 20
-1.046527969939901
 10
-0.4513499999999995
 20
-1.0419
  0
ENDBLK
  5
187
330
184
100
AcDbEntity
  8
0
100
AcDbBlockEnd
  0
ENDSEC
  0
SECTION
  2
ENTITIES
  0
INSERT
  5
6F
330
1F
100
AcDbEntity
  8
0
100
AcDbBlockReference
  2
1_131210_2
 10
0.0
 20
0.0
 30
0.0
  0
POINT
  5
20B
330
1F
100
AcDbEntity
  8
ConnectionPoints
100
AcDbPoint
 10
-0.0000000000000001
 20
-0.8649999999999999
 30
-1.498223948547079
  0
POINT
  5
20C
330
1F
100
AcDbEntity
  8
ConnectionPoints
100
AcDbPoint
 10
-0.0000000000000001
 20
-0.8649999999999999
 30
-1.498223948547079
  0
POINT
  5
20D
330
1F
100
AcDbEntity
  8
ConnectionPoints
100
AcDbPoint
 10
-1.19
 20
0.0
 30
0.0000000000000001
  0
ENDSEC
  0
SECTION
  2
OBJECTS
  0
DICTIONARY
  5
C
330
0
100
AcDbDictionary
281
     1
  3
ACAD_DETAILVIEWSTYLE
350
215
  3
ACAD_GROUP
350
D
  3
ACAD_LAYOUT
350
1A
  3
ACAD_MATERIAL
350
43
  3
ACAD_MLEADERSTYLE
350
6B
  3
ACAD_MLINESTYLE
350
17
  3
ACAD_PLOTSETTINGS
350
19
  3
ACAD_PLOTSTYLENAME
350
E
  3
ACAD_SCALELIST
350
47
  3
ACAD_SECTIONVIEWSTYLE
350
216
  3
ACAD_TABLESTYLE
350
69
  3
ACAD_VISUALSTYLE
350
2A
  3
ACDB_RECOMPOSE_DATA
350
212
  3
AcDbVariableDictionary
350
20E
  0
SUN
  5
6D
330
29
100
AcDbSun
 90
        1
290
     0
 63
     7
421
 16777215
 40
1.0
291
     1
 91
  2455826
 92
 54000000
292
     0
 70
     2
 71
   256
280
     1
  0
DICTIONARY
  5
215
102
{ACAD_REACTORS
330
C
102
}
330
C
100
AcDbDictionary
281
     1
  0
DICTIONARY
  5
D
102
{ACAD_REACTORS
330
C
102
}
330
C
100
AcDbDictionary
281
     1
  0
DICTIONARY
  5
1A
102
{ACAD_REACTORS
330
C
102
}
330
C
100
AcDbDictionary
281
     1
  3
Layout1
350
1E
  3
Layout2
350
26
  3
Model
350
22
  0
DICTIONARY
  5
43
102
{ACAD_REACTORS
330
C
102
}
330
C
100
AcDbDictionary
281
     1
  3
ByBlock
350
45
  3
ByLayer
350
44
  3
Global
350
46
  0
DICTIONARY
  5
6B
102
{ACAD_REACTORS
330
C
102
}
330
C
100
AcDbDictionary
281
     1
  3
Standard
350
6C
  0
DICTIONARY
  5
17
102
{ACAD_REACTORS
330
C
102
}
330
C
100
AcDbDictionary
281
     1
  3
Standard
350
18
  0
DICTIONARY
  5
19
102
{ACAD_REACTORS
330
C
102
}
330
C
100
AcDbDictionary
281
     1
  0
ACDBDICTIONARYWDFLT
  5
E
102
{ACAD_REACTORS
330
C
102
}
330
C
100
AcDbDictionary
281
     1
  3
Normal
350
F
100
AcDbDictionaryWithDefault
340
F
  0
DICTIONARY
  5
47
102
{ACAD_REACTORS
330
C
102
}
330
C
100
AcDbDictionary
281
     1
  3
A0
350
48
  3
A1
350
49
  3
A2
350
4A
  3
A3
350
4B
  3
A4
350
4C
  3
A5
350
4D
  3
A6
350
4E
  3
A7
350
4F
  3
A8
350
50
  3
A9
350
51
  3
B0
350
52
  3
B1
350
53
  3
B2
350
54
  3
B3
350
55
  3
B4
350
56
  3
B5
350
57
  3
B6
350
58
  3
B7
350
59
  3
B8
350
5A
  3
B9
350
5B
  3
C0
350
5C
  3
C1
350
5D
  3
C2
350
5E
  3
C3
350
5F
  3
C4
350
60
  3
C5
350
61
  3
C6
350
62
  3
C7
350
63
  3
C8
350
64
  3
C9
350
65
  3
D0
350
66
  3
D1
350
67
  3
D2
350
68
  0
DICTIONARY
  5
216
102
{ACAD_REACTORS
330
C
102
}
330
C
100
AcDbDictionary
281
     1
  0
DICTIONARY
  5
69
102
{ACAD_REACTORS
330
C
102
}
330
C
100
AcDbDictionary
281
     1
  3
Standard
350
6A
  0
DICTIONARY
  5
2A
102
{ACAD_REACTORS
330
C
102
}
330
C
100
AcDbDictionary
281
     1
  3
2dWireframe
350
2F
  3
Basic
350
32
  3
Brighten
350
36
  3
ColorChange
350
3A
  3
Conceptual
350
34
  3
Dim
350
35
  3
EdgeColorOff
350
3D
  3
Facepattern
350
39
  3
Flat
350
2B
  3
FlatWithEdges
350
2C
  3
Gouraud
350
2D
  3
GouraudWithEdges
350
2E
  3
Hidden
350
31
  3
JitterOff
350
3B
  3
Linepattern
350
38
  3
OverhangOff
350
3C
  3
Realistic
350
33
  3
Shaded
350
42
  3
Shaded with edges
350
41
  3
Shades of Gray
350
3E
  3
Sketchy
350
3F
  3
Thicken
350
37
  3
Wireframe
350
30
  3
X-Ray
350
40
  0
XRECORD
  5
212
102
{ACAD_REACTORS
330
C
102
}
330
C
100
AcDbXrecord
280
     1
 90
        1
330
6A
  0
DICTIONARY
  5
20E
102
{ACAD_REACTORS
330
C
102
}
330
C
100
AcDbDictionary
281
     1
  3
CANNOSCALE
350
20F
  3
CMLEADERSTYLE
350
214
  3
CTABLESTYLE
350
213
  0
LAYOUT
  5
1E
102
{ACAD_REACTORS
330
1A
102
}
330
1A
100
AcDbPlotSettings
  1

  2
none_device
  4

  6

 40
0.0
 41
0.0
 42
0.0
 43
0.0
 44
0.0
 45
0.0
 46
0.0
 47
0.0
 48
0.0
 49
0.0
140
0.0
141
0.0
142
1.0
143
1.0
 70
   688
 72
     0
 73
     0
 74
     5
  7

 75
    16
 76
     0
 77
     2
 78
   300
147
1.0
148
0.0
149
0.0
100
AcDbLayout
  1
Layout1
 70
     1
 71
     1
 10
0.0
 20
0.0
 11
12.0
 21
9.0
 12
0.0
 22
0.0
 32
0.0
 14
1.000000000000000E+20
 24
1.000000000000000E+20
 34
1.000000000000000E+20
 15
-1.000000000000000E+20
 25
-1.000000000000000E+20
 35
-1.000000000000000E+20
146
0.0
 13
0.0
 23
0.0
 33
0.0
 16
1.0
 26
0.0
 36
0.0
 17
0.0
 27
1.0
 37
0.0
 76
     0
330
1B
  0
LAYOUT
  5
26
102
{ACAD_REACTORS
330
1A
102
}
330
1A
100
AcDbPlotSettings
  1

  2
none_device
  4

  6

 40
0.0
 41
0.0
 42
0.0
 43
0.0
 44
0.0
 45
0.0
 46
0.0
 47
0.0
 48
0.0
 49
0.0
140
0.0
141
0.0
142
1.0
143
1.0
 70
   688
 72
     0
 73
     0
 74
     5
  7

 75
    16
 76
     0
 77
     2
 78
   300
147
1.0
148
0.0
149
0.0
100
AcDbLayout
  1
Layout2
 70
     1
 71
     2
 10
0.0
 20
0.0
 11
0.0
 21
0.0
 12
0.0
 22
0.0
 32
0.0
 14
0.0
 24
0.0
 34
0.0
 15
0.0
 25
0.0
 35
0.0
146
0.0
 13
0.0
 23
0.0
 33
0.0
 16
1.0
 26
0.0
 36
0.0
 17
0.0
 27
1.0
 37
0.0
 76
     0
330
23
  0
LAYOUT
  5
22
102
{ACAD_REACTORS
330
1A
102
}
330
1A
100
AcDbPlotSettings
  1

  2
none_device
  4
Letter_(8.50_x_11.00_Inches)
  6

 40
6.35
 41
6.35
 42
6.35000508
 43
6.35000508
 44
215.9
 45
279.4
 46
0.0
 47
0.0
 48
0.0
 49
0.0
140
0.0
141
0.0
142
1.0
143
1.0
 70
  1712
 72
     0
 73
     0
 74
     0
  7

 75
     0
 76
     0
 77
     2
 78
   300
147
1.0
148
0.0
149
0.0
100
AcDbLayout
  1
Model
 70
     1
 71
     0
 10
0.0
 20
0.0
 11
12.0
 21
9.0
 12
0.0
 22
0.0
 32
0.0
 14
1.000000000000000E+20
 24
1.000000000000000E+20
 34
1.000000000000000E+20
 15
-1.000000000000000E+20
 25
-1.000000000000000E+20
 35
-1.000000000000000E+20
146
0.0
 13
0.0
 23
0.0
 33
0.0
 16
1.0
 26
0.0
 36
0.0
 17
0.0
 27
1.0
 37
0.0
 76
     0
330
1F
331
29
  0
MATERIAL
  5
45
102
{ACAD_REACTORS
330
43
102
}
330
43
100
AcDbMaterial
  1
ByBlock
 72
     1
 94
      127
  0
MATERIAL
  5
44
102
{ACAD_REACTORS
330
43
102
}
330
43
100
AcDbMaterial
  1
ByLayer
 72
     1
 94
      127
  0
MATERIAL
  5
46
102
{ACAD_REACTORS
330
43
102
}
330
43
100
AcDbMaterial
  1
Global
 72
     1
 94
      127
  0
MLEADERSTYLE
  5
6C
102
{ACAD_REACTORS
330
6B
102
}
330
6B
100
AcDbMLeaderStyle
179
     2
170
     2
171
     1
172
     0
 90
        2
 40
0.0
 41
0.0
173
     1
 91
-1056964608
340
14
 92
       -2
290
     1
 42
0.09
291
     1
 43
0.36
  3
Standard
341
0
 44
0.18
300

342
11
174
     1
178
     6
175
     1
176
     0
 93
-1056964608
 45
0.18
292
     0
297
     0
 46
0.18
343
0
 94
-1056964608
 47
1.0
 49
1.0
140
1.0
293
     1
141
0.0
294
     1
177
     0
142
1.0
295
     0
296
     0
143
0.125
271
     0
272
     9
273
     9
298
     0
  0
MLINESTYLE
  5
18
102
{ACAD_REACTORS
330
17
102
}
330
17
100
AcDbMlineStyle
  2
Standard
 70
     0
  3

 62
   256
 51
90.0
 52
90.0
 71
     2
 49
0.5
 62
   256
  6
BYLAYER
 49
-0.5
 62
   256
  6
BYLAYER
  0
ACDBPLACEHOLDER
  5
F
102
{ACAD_REACTORS
330
E
102
}
330
E
  0
SCALE
  5
48
102
{ACAD_REACTORS
330
47
102
}
330
47
100
AcDbScale
 70
     0
300
1:1
140
1.0
141
1.0
290
     1
  0
SCALE
  5
49
102
{ACAD_REACTORS
330
47
102
}
330
47
100
AcDbScale
 70
     0
300
1:2
140
1.0
141
2.0
290
     0
  0
SCALE
  5
4A
102
{ACAD_REACTORS
330
47
102
}
330
47
100
AcDbScale
 70
     0
300
1:4
140
1.0
141
4.0
290
     0
  0
SCALE
  5
4B
102
{ACAD_REACTORS
330
47
102
}
330
47
100
AcDbScale
 70
     0
300
1:5
140
1.0
141
5.0
290
     0
  0
SCALE
  5
4C
102
{ACAD_REACTORS
330
47
102
}
330
47
100
AcDbScale
 70
     0
300
1:8
140
1.0
141
8.0
290
     0
  0
SCALE
  5
4D
102
{ACAD_REACTORS
330
47
102
}
330
47
100
AcDbScale
 70
     0
300
1:10
140
1.0
141
10.0
290
     0
  0
SCALE
  5
4E
102
{ACAD_REACTORS
330
47
102
}
330
47
100
AcDbScale
 70
     0
300
1:16
140
1.0
141
16.0
290
     0
  0
SCALE
  5
4F
102
{ACAD_REACTORS
330
47
102
}
330
47
100
AcDbScale
 70
     0
300
1:20
140
1.0
141
20.0
290
     0
  0
SCALE
  5
50
102
{ACAD_REACTORS
330
47
102
}
330
47
100
AcDbScale
 70
     0
300
1:30
140
1.0
141
30.0
290
     0
  0
SCALE
  5
51
102
{ACAD_REACTORS
330
47
102
}
330
47
100
AcDbScale
 70
     0
300
1:40
140
1.0
141
40.0
290
     0
  0
SCALE
  5
52
102
{ACAD_REACTORS
330
47
102
}
330
47
100
AcDbScale
 70
     0
300
1:50
140
1.0
141
50.0
290
     0
  0
SCALE
  5
53
102
{ACAD_REACTORS
330
47
102
}
330
47
100
AcDbScale
 70
     0
300
1:100
140
1.0
141
100.0
290
     0
  0
SCALE
  5
54
102
{ACAD_REACTORS
330
47
102
}
330
47
100
AcDbScale
 70
     0
300
2:1
140
2.0
141
1.0
290
     0
  0
SCALE
  5
55
102
{ACAD_REACTORS
330
47
102
}
330
47
100
AcDbScale
 70
     0
300
4:1
140
4.0
141
1.0
290
     0
  0
SCALE
  5
56
102
{ACAD_REACTORS
330
47
102
}
330
47
100
AcDbScale
 70
     0
300
8:1
140
8.0
141
1.0
290
     0
  0
SCALE
  5
57
102
{ACAD_REACTORS
330
47
102
}
330
47
100
AcDbScale
 70
     0
300
10:1
140
10.0
141
1.0
290
     0
  0
SCALE
  5
58
102
{ACAD_REACTORS
330
47
102
}
330
47
100
AcDbScale
 70
     0
300
100:1
140
100.0
141
1.0
290
     0
  0
SCALE
  5
59
102
{ACAD_REACTORS
330
47
102
}
330
47
100
AcDbScale
 70
     0
300
1/128" = 1'-0"
140
0.0078125
141
12.0
290
     0
  0
SCALE
  5
5A
102
{ACAD_REACTORS
330
47
102
}
330
47
100
AcDbScale
 70
     0
300
1/64" = 1'-0"
140
0.015625
141
12.0
290
     0
  0
SCALE
  5
5B
102
{ACAD_REACTORS
330
47
102
}
330
47
100
AcDbScale
 70
     0
300
1/32" = 1'-0"
140
0.03125
141
12.0
290
     0
  0
SCALE
  5
5C
102
{ACAD_REACTORS
330
47
102
}
330
47
100
AcDbScale
 70
     0
300
1/16" = 1'-0"
140
0.0625
141
12.0
290
     0
  0
SCALE
  5
5D
102
{ACAD_REACTORS
330
47
102
}
330
47
100
AcDbScale
 70
     0
300
3/32" = 1'-0"
140
0.09375
141
12.0
290
     0
  0
SCALE
  5
5E
102
{ACAD_REACTORS
330
47
102
}
330
47
100
AcDbScale
 70
     0
300
1/8" = 1'-0"
140
0.125
141
12.0
290
     0
  0
SCALE
  5
5F
102
{ACAD_REACTORS
330
47
102
}
330
47
100
AcDbScale
 70
     0
300
3/16" = 1'-0"
140
0.1875
141
12.0
290
     0
  0
SCALE
  5
60
102
{ACAD_REACTORS
330
47
102
}
330
47
100
AcDbScale
 70
     0
300
1/4" = 1'-0"
140
0.25
141
12.0
290
     0
  0
SCALE
  5
61
102
{ACAD_REACTORS
330
47
102
}
330
47
100
AcDbScale
 70
     0
300
3/8" = 1'-0"
140
0.375
141
12.0
290
     0
  0
SCALE
  5
62
102
{ACAD_REACTORS
330
47
102
}
330
47
100
AcDbScale
 70
     0
300
1/2" = 1'-0"
140
0.5
141
12.0
290
     0
  0
SCALE
  5
63
102
{ACAD_REACTORS
330
47
102
}
330
47
100
AcDbScale
 70
     0
300
3/4" = 1'-0"
140
0.75
141
12.0
290
     0
  0
SCALE
  5
64
102
{ACAD_REACTORS
330
47
102
}
330
47
100
AcDbScale
 70
     0
300
1" = 1'-0"
140
1.0
141
12.0
290
     0
  0
SCALE
  5
65
102
{ACAD_REACTORS
330
47
102
}
330
47
100
AcDbScale
 70
     0
300
1-1/2" = 1'-0"
140
1.5
141
12.0
290
     0
  0
SCALE
  5
66
102
{ACAD_REACTORS
330
47
102
}
330
47
100
AcDbScale
 70
     0
300
3" = 1'-0"
140
3.0
141
12.0
290
     0
  0
SCALE
  5
67
102
{ACAD_REACTORS
330
47
102
}
330
47
100
AcDbScale
 70
     0
300
6" = 1'-0"
140
6.0
141
12.0
290
     0
  0
SCALE
  5
68
102
{ACAD_REACTORS
330
47
102
}
330
47
100
AcDbScale
 70
     0
300
1'-0" = 1'-0"
140
12.0
141
12.0
290
     0
  0
TABLESTYLE
  5
6A
102
{ACAD_REACTORS
330
69
102
}
102
{ACAD_XDICTIONARY
360
210
102
}
330
69
100
AcDbTableStyle
  3
Standard
 70
     0
 71
     0
 40
0.06
 41
0.06
280
     0
281
     0
  7
Standard
140
0.18
170
     2
 62
     0
 63
   257
283
     0
 90
        4
 91
        0
  1

274
    -2
284
     1
 64
     0
275
    -2
285
     1
 65
     0
276
    -2
286
     1
 66
     0
277
    -2
287
     1
 67
     0
278
    -2
288
     1
 68
     0
279
    -2
289
     1
 69
     0
  7
Standard
140
0.25
170
     5
 62
     0
 63
   257
283
     0
 90
        4
 91
        0
  1

274
    -2
284
     1
 64
     0
275
    -2
285
     1
 65
     0
276
    -2
286
     1
 66
     0
277
    -2
287
     1
 67
     0
278
    -2
288
     1
 68
     0
279
    -2
289
     1
 69
     0
  7
Standard
140
0.18
170
     5
 62
     0
 63
   257
283
     0
 90
        4
 91
        0
  1

274
    -2
284
     1
 64
     0
275
    -2
285
     1
 65
     0
276
    -2
286
     1
 66
     0
277
    -2
287
     1
 67
     0
278
    -2
288
     1
 68
     0
279
    -2
289
     1
 69
     0
  0
VISUALSTYLE
  5
2F
102
{ACAD_REACTORS
330
2A
102
}
330
2A
100
AcDbVisualStyle
  2
2dWireframe
 70
     4
177
     3
291
     0
 70
    58
 90
        0
176
     1
 90
        2
176
     1
 90
        0
176
     1
 90
        0
176
     1
 40
0.6
176
     1
 40
30.0
176
     1
 62
     7
420
 16777215
176
     1
 90
        1
176
     1
 90
        4
176
     1
 62
     7
176
     1
 62
   257
176
     1
 90
        1
176
     1
 90
        1
176
     1
 40
1.0
176
     1
 90
        0
176
     1
 62
   257
176
     1
 40
1.0
176
     1
 90
        1
176
     1
 90
        6
176
     1
 90
        2
176
     1
 62
     7
176
     1
 90
        5
176
     1
 90
        0
176
     1
 90
        0
176
     1
290
     0
176
     1
 90
        1
176
     1
 40
0.0
176
     1
 90
        0
176
     1
290
     1
176
     1
290
     1
176
     1
290
     0
176
     1
290
     0
176
     1
290
     0
176
     1
290
     0
176
     1
290
     0
176
     1
290
     0
176
     1
290
     0
176
     1
 90
       50
176
     1
 40
0.0
176
     1
 40
1.0
176
     1
 90
        0
176
     1
 62
    18
420
        0
176
     1
 90
       50
176
     1
 90
        3
176
     1
 62
     5
420
      255
176
     1
290
     0
176
     1
 90
       50
176
     1
 90
       50
176
     1
 90
       50
176
     1
290
     0
176
     1
 90
       50
176
     1
 62
   256
176
     0
 40
1.0
176
     0
 90
        2
176
     1
  1
strokes_ogs.tif
176
     1
290
     0
176
     1
 40
1.0
176
     1
 40
1.0
176
     1
  0
VISUALSTYLE
  5
32
102
{ACAD_REACTORS
330
2A
102
}
330
2A
100
AcDbVisualStyle
  2
Basic
 70
     7
177
     3
291
     1
 70
    58
 90
        1
176
     1
 90
        0
176
     1
 90
        1
176
     1
 90
        0
176
     1
 40
0.6
176
     1
 40
30.0
176
     1
 62
     7
420
 16777215
176
     1
 90
        0
176
     1
 90
        4
176
     1
 62
     7
176
     1
 62
   257
176
     1
 90
        1
176
     1
 90
        1
176
     1
 40
1.0
176
     1
 90
        8
176
     1
 62
     7
176
     1
 40
1.0
176
     1
 90
        1
176
     1
 90
        6
176
     1
 90
        2
176
     1
 62
     7
176
     1
 90
        5
176
     1
 90
        0
176
     1
 90
        0
176
     1
290
     0
176
     1
 90
        1
176
     1
 40
0.0
176
     1
 90
        0
176
     1
290
     0
176
     1
290
     1
176
     1
290
     1
176
     1
290
     0
176
     1
290
     0
176
     1
290
     0
176
     1
290
     0
176
     1
290
     0
176
     1
290
     0
176
     1
 90
       50
176
     1
 40
0.0
176
     1
 40
1.0
176
     1
 90
        0
176
     1
 62
    18
420
        0
176
     1
 90
       50
176
     1
 90
        3
176
     1
 62
     5
420
      255
176
     1
290
     0
176
     1
 90
       50
176
     1
 90
       50
176
     1
 90
       50
176
     1
290
     0
176
     1
 90
       50
176
     1
 62
   256
176
     0
 40
1.0
176
     0
 90
        2
176
     1
  1
strokes_ogs.tif
176
     1
290
     0
176
     1
 40
1.0
176
     1
 40
1.0
176
     1
  0
VISUALSTYLE
  5
36
102
{ACAD_REACTORS
330
2A
102
}
330
2A
100
AcDbVisualStyle
  2
Brighten
 70
    12
177
     3
291
     1
 70
    58
 90
        2
176
     1
 90
        2
176
     1
 90
        0
176
     1
 90
        0
176
     1
 40
0.6
176
     1
 40
30.0
176
     1
 62
     7
420
 16777215
176
     1
 90
        1
176
     1
 90
        4
176
     1
 62
     7
176
     1
 62
   257
176
     1
 90
        1
176
     1
 90
        1
176
     1
 40
1.0
176
     1
 90
        8
176
     1
 62
     7
176
     1
 40
1.0
176
     1
 90
        1
176
     1
 90
        6
176
     1
 90
        2
176
     1
 62
     7
176
     1
 90
        5
176
     1
 90
        0
176
     1
 90
        0
176
     1
290
     0
176
     1
 90
        1
176
     1
 40
50.0
176
     1
 90
        0
176
     1
290
     0
176
     1
290
     1
176
     1
290
     1
176
     1
290
     0
176
     1
290
     0
176
     1
290
     0
176
     1
290
     0
176
     1
290
     0
176
     1
290
     0
176
     1
 90
       50
176
     1
 40
0.0
176
     1
 40
1.0
176
     1
 90
        0
176
     1
 62
    18
420
        0
176
     1
 90
       50
176
     1
 90
        3
176
     1
 62
     5
420
      255
176
     1
290
     0
176
     1
 90
       50
176
     1
 90
       50
176
     1
 90
       50
176
     1
290
     0
176
     1
 90
       50
176
     1
 62
   256
176
     0
 40
1.0
176
     0
 90
        2
176
     1
  1
strokes_ogs.tif
176
     1
290
     0
176
     1
 40
1.0
176
     1
 40
1.0
176
     1
  0
VISUALSTYLE
  5
3A
102
{ACAD_REACTORS
330
2A
102
}
330
2A
100
AcDbVisualStyle
  2
ColorChange
 70
    16
177
     3
291
     1
 70
    58
 90
        2
176
     1
 90
        2
176
     1
 90
        3
176
     1
 90
        0
176
     1
 40
0.6
176
     1
 40
30.0
176
     1
 62
     8
420
  8421504
176
     1
 90
        1
176
     1
 90
        4
176
     1
 62
     7
176
     1
 62
   257
176
     1
 90
        1
176
     1
 90
        1
176
     1
 40
1.0
176
     1
 90
        8
176
     1
 62
     8
420
  8421504
176
     1
 40
1.0
176
     1
 90
        1
176
     1
 90
        6
176
     1
 90
        2
176
     1
 62
     7
176
     1
 90
        5
176
     1
 90
        0
176
     1
 90
        0
176
     1
290
     0
176
     1
 90
        1
176
     1
 40
0.0
176
     1
 90
        0
176
     1
290
     0
176
     1
290
     1
176
     1
290
     1
176
     1
290
     0
176
     1
290
     0
176
     1
290
     0
176
     1
290
     0
176
     1
290
     0
176
     1
290
     0
176
     1
 90
       50
176
     1
 40
0.0
176
     1
 40
1.0
176
     1
 90
        0
176
     1
 62
    18
420
        0
176
     1
 90
       50
176
     1
 90
        3
176
     1
 62
     5
420
      255
176
     1
290
     0
176
     1
 90
       50
176
     1
 90
       50
176
     1
 90
       50
176
     1
290
     0
176
     1
 90
       50
176
     1
 62
   256
176
     0
 40
1.0
176
     0
 90
        2
176
     1
  1
strokes_ogs.tif
176
     1
290
     0
176
     1
 40
1.0
176
     1
 40
1.0
176
     1
  0
VISUALSTYLE
  5
34
102
{ACAD_REACTORS
330
2A
102
}
330
2A
100
AcDbVisualStyle
  2
Conceptual
 70
     9
177
     3
291
     0
 70
    58
 90
        3
176
     1
 90
        2
176
     1
 90
        0
176
     1
 90
        0
176
     1
 40
0.6
176
     1
 40
30.0
176
     1
 62
     7
420
 16777215
176
     1
 90
        2
176
     1
 90
        2
176
     1
 62
     7
176
     1
 62
   257
176
     1
 90
        1
176
     1
 90
        1
176
     1
 40
179.0
176
     1
 90
        8
176
     1
 62
     7
176
     1
 40
1.0
176
     1
 90
        1
176
     1
 90
        6
176
     1
 90
        2
176
     1
 62
     7
176
     1
 90
        3
176
     1
 90
        0
176
     1
 90
        0
176
     1
290
     0
176
     1
 90
        1
176
     1
 40
0.0
176
     1
 90
        0
176
     1
290
     0
176
     1
290
     1
176
     1
290
     1
176
     1
290
     0
176
     1
290
     0
176
     1
290
     0
176
     1
290
     0
176
     1
290
     0
176
     1
290
     0
176
     1
 90
       50
176
     1
 40
0.0
176
     1
 40
1.0
176
     1
 90
        0
176
     1
 62
    18
420
        0
176
     1
 90
       50
176
     1
 90
        3
176
     1
 62
     5
420
      255
176
     1
290
     0
176
     1
 90
       50
176
     1
 90
       50
176
     1
 90
       50
176
     1
290
     0
176
     1
 90
       50
176
     1
 62
   256
176
     0
 40
1.0
176
     0
 90
        2
176
     1
  1
strokes_ogs.tif
176
     1
290
     0
176
     1
 40
1.0
176
     1
 40
1.0
176
     1
  0
VISUALSTYLE
  5
35
102
{ACAD_REACTORS
330
2A
102
}
330
2A
100
AcDbVisualStyle
  2
Dim
 70
    11
177
     3
291
     1
 70
    58
 90
        2
176
     1
 90
        2
176
     1
 90
        0
176
     1
 90
        0
176
     1
 40
0.6
176
     1
 40
30.0
176
     1
 62
     7
420
 16777215
176
     1
 90
        1
176
     1
 90
        4
176
     1
 62
     7
176
     1
 62
   257
176
     1
 90
        1
176
     1
 90
        1
176
     1
 40
1.0
176
     1
 90
        8
176
     1
 62
     7
176
     1
 40
1.0
176
     1
 90
        1
176
     1
 90
        6
176
     1
 90
        2
176
     1
 62
     7
176
     1
 90
        5
176
     1
 90
        0
176
     1
 90
        0
176
     1
290
     0
176
     1
 90
        1
176
     1
 40
-50.0
176
     1
 90
        0
176
     1
290
     0
176
     1
290
     1
176
     1
290
     1
176
     1
290
     0
176
     1
290
     0
176
     1
290
     0
176
     1
290
     0
176
     1
290
     0
176
     1
290
     0
176
     1
 90
       50
176
     1
 40
0.0
176
     1
 40
1.0
176
     1
 90
        0
176
     1
 62
    18
420
        0
176
     1
 90
       50
176
     1
 90
        3
176
     1
 62
     5
420
      255
176
     1
290
     0
176
     1
 90
       50
176
     1
 90
       50
176
     1
 90
       50
176
     1
290
     0
176
     1
 90
       50
176
     1
 62
   256
176
     0
 40
1.0
176
     0
 90
        2
176
     1
  1
strokes_ogs.tif
176
     1
290
     0
176
     1
 40
1.0
176
     1
 40
1.0
176
     1
  0
VISUALSTYLE
  5
3D
102
{ACAD_REACTORS
330
2A
102
}
330
2A
100
AcDbVisualStyle
  2
EdgeColorOff
 70
    22
177
     3
291
     1
 70
    58
 90
        2
176
     0
 90
        2
176
     0
 90
        0
176
     0
 90
        0
176
     0
 40
0.6
176
     0
 40
30.0
176
     0
 62
     7
420
 16777215
176
     0
 90
        1
176
     0
 90
        4
176
     0
 62
     7
176
     0
 62
   257
176
     0
 90
        1
176
     0
 90
        1
176
     0
 40
1.0
176
     0
 90
        8
176
     2
 62
     7
176
     0
 40
1.0
176
     0
 90
        1
176
     0
 90
        6
176
     0
 90
        2
176
     0
 62
     7
176
     0
 90
        5
176
     0
 90
        0
176
     0
 90
        0
176
     0
290
     0
176
     0
 90
        1
176
     0
 40
0.0
176
     0
 90
        0
176
     0
290
     0
176
     0
290
     1
176
     0
290
     1
176
     0
290
     0
176
     0
290
     0
176
     0
290
     0
176
     0
290
     0
176
     0
290
     0
176
     0
290
     0
176
     0
 90
       50
176
     0
 40
0.0
176
     0
 40
1.0
176
     0
 90
        0
176
     0
 62
    18
420
        0
176
     0
 90
       50
176
     0
 90
        3
176
     0
 62
     5
420
      255
176
     0
290
     0
176
     0
 90
       50
176
     0
 90
       50
176
     0
 90
       50
176
     0
290
     0
176
     0
 90
       50
176
     0
 62
   256
176
     0
 40
1.0
176
     0
 90
        2
176
     0
  1
strokes_ogs.tif
176
     0
290
     0
176
     0
 40
1.0
176
     0
 40
1.0
176
     0
  0
VISUALSTYLE
  5
39
102
{ACAD_REACTORS
330
2A
102
}
330
2A
100
AcDbVisualStyle
  2
Facepattern
 70
    15
177
     3
291
     1
 70
    58
 90
        2
176
     1
 90
        2
176
     1
 90
        0
176
     1
 90
        0
176
     1
 40
0.6
176
     1
 40
30.0
176
     1
 62
     7
420
 16777215
176
     1
 90
        1
176
     1
 90
        4
176
     1
 62
     7
176
     1
 62
   257
176
     1
 90
        1
176
     1
 90
        1
176
     1
 40
1.0
176
     1
 90
        8
176
     1
 62
     7
176
     1
 40
1.0
176
     1
 90
        1
176
     1
 90
        6
176
     1
 90
        2
176
     1
 62
     7
176
     1
 90
        5
176
     1
 90
        0
176
     1
 90
        0
176
     1
290
     0
176
     1
 90
        1
176
     1
 40
0.0
176
     1
 90
        0
176
     1
290
     0
176
     1
290
     1
176
     1
290
     1
176
     1
290
     0
176
     1
290
     0
176
     1
290
     0
176
     1
290
     0
176
     1
290
     0
176
     1
290
     0
176
     1
 90
       50
176
     1
 40
0.0
176
     1
 40
1.0
176
     1
 90
        0
176
     1
 62
    18
420
        0
176
     1
 90
       50
176
     1
 90
        3
176
     1
 62
     5
420
      255
176
     1
290
     0
176
     1
 90
       50
176
     1
 90
       50
176
     1
 90
       50
176
     1
290
     0
176
     1
 90
       50
176
     1
 62
   256
176
     0
 40
1.0
176
     0
 90
        2
176
     1
  1
strokes_ogs.tif
176
     1
290
     0
176
     1
 40
1.0
176
     1
 40
1.0
176
     1
  0
VISUALSTYLE
  5
2B
102
{ACAD_REACTORS
330
2A
102
}
330
2A
100
AcDbVisualStyle
  2
Flat
 70
     0
177
     3
291
     1
 70
    58
 90
        2
176
     1
 90
        1
176
     1
 90
        1
176
     1
 90
        2
176
     1
 40
0.6
176
     1
 40
30.0
176
     1
 62
     7
420
 16777215
176
     1
 90
        0
176
     1
 90
        0
176
     1
 62
     7
176
     1
 62
   257
176
     1
 90
        1
176
     1
 90
        1
176
     1
 40
1.0
176
     1
 90
        8
176
     1
 62
     7
176
     1
 40
1.0
176
     1
 90
        1
176
     1
 90
        6
176
     1
 90
        2
176
     1
 62
     7
176
     1
 90
        5
176
     1
 90
        0
176
     1
 90
        0
176
     1
290
     0
176
     1
 90
       13
176
     1
 40
0.0
176
     1
 90
        0
176
     1
290
     0
176
     1
290
     1
176
     1
290
     1
176
     1
290
     0
176
     1
290
     0
176
     1
290
     0
176
     1
290
     0
176
     1
290
     0
176
     1
290
     0
176
     1
 90
       50
176
     1
 40
0.0
176
     1
 40
1.0
176
     1
 90
        0
176
     1
 62
    18
420
        0
176
     1
 90
       50
176
     1
 90
        3
176
     1
 62
     5
420
      255
176
     1
290
     0
176
     1
 90
       50
176
     1
 90
       50
176
     1
 90
       50
176
     1
290
     0
176
     1
 90
       50
176
     1
 62
   256
176
     0
 40
1.0
176
     0
 90
        2
176
     1
  1
strokes_ogs.tif
176
     1
290
     0
176
     1
 40
1.0
176
     1
 40
1.0
176
     1
  0
VISUALSTYLE
  5
2C
102
{ACAD_REACTORS
330
2A
102
}
330
2A
100
AcDbVisualStyle
  2
FlatWithEdges
 70
     1
177
     3
291
     1
 70
    58
 90
        2
176
     1
 90
        1
176
     1
 90
        1
176
     1
 90
        2
176
     1
 40
0.6
176
     1
 40
30.0
176
     1
 62
     7
420
 16777215
176
     1
 90
        1
176
     1
 90
        0
176
     1
 62
     7
176
     1
 62
   257
176
     1
 90
        1
176
     1
 90
        1
176
     1
 40
1.0
176
     1
 90
        0
176
     1
 62
   257
176
     1
 40
1.0
176
     1
 90
        1
176
     1
 90
        6
176
     1
 90
        2
176
     1
 62
     7
176
     1
 90
        5
176
     1
 90
        0
176
     1
 90
        0
176
     1
290
     0
176
     1
 90
       13
176
     1
 40
0.0
176
     1
 90
        0
176
     1
290
     0
176
     1
290
     1
176
     1
290
     1
176
     1
290
     0
176
     1
290
     0
176
     1
290
     0
176
     1
290
     0
176
     1
290
     0
176
     1
290
     0
176
     1
 90
       50
176
     1
 40
0.0
176
     1
 40
1.0
176
     1
 90
        0
176
     1
 62
    18
420
        0
176
     1
 90
       50
176
     1
 90
        3
176
     1
 62
     5
420
      255
176
     1
290
     0
176
     1
 90
       50
176
     1
 90
       50
176
     1
 90
       50
176
     1
290
     0
176
     1
 90
       50
176
     1
 62
   256
176
     0
 40
1.0
176
     0
 90
        2
176
     1
  1
strokes_ogs.tif
176
     1
290
     0
176
     1
 40
1.0
176
     1
 40
1.0
176
     1
  0
VISUALSTYLE
  5
2D
102
{ACAD_REACTORS
330
2A
102
}
330
2A
100
AcDbVisualStyle
  2
Gouraud
 70
     2
177
     3
291
     1
 70
    58
 90
        2
176
     1
 90
        2
176
     1
 90
        1
176
     1
 90
        2
176
     1
 40
0.6
176
     1
 40
30.0
176
     1
 62
     7
420
 16777215
176
     1
 90
        0
176
     1
 90
        0
176
     1
 62
     7
176
     1
 62
   257
176
     1
 90
        1
176
     1
 90
        1
176
     1
 40
1.0
176
     1
 90
        0
176
     1
 62
     7
176
     1
 40
1.0
176
     1
 90
        1
176
     1
 90
        6
176
     1
 90
        2
176
     1
 62
     7
176
     1
 90
        5
176
     1
 90
        0
176
     1
 90
        0
176
     1
290
     0
176
     1
 90
       13
176
     1
 40
0.0
176
     1
 90
        0
176
     1
290
     0
176
     1
290
     1
176
     1
290
     1
176
     1
290
     0
176
     1
290
     0
176
     1
290
     0
176
     1
290
     0
176
     1
290
     0
176
     1
290
     0
176
     1
 90
       50
176
     1
 40
0.0
176
     1
 40
1.0
176
     1
 90
        0
176
     1
 62
    18
420
        0
176
     1
 90
       50
176
     1
 90
        3
176
     1
 62
     5
420
      255
176
     1
290
     0
176
     1
 90
       50
176
     1
 90
       50
176
     1
 90
       50
176
     1
290
     0
176
     1
 90
       50
176
     1
 62
   256
176
     0
 40
1.0
176
     0
 90
        2
176
     1
  1
strokes_ogs.tif
176
     1
290
     0
176
     1
 40
1.0
176
     1
 40
1.0
176
     1
  0
VISUALSTYLE
  5
2E
102
{ACAD_REACTORS
330
2A
102
}
330
2A
100
AcDbVisualStyle
  2
GouraudWithEdges
 70
     3
177
     3
291
     1
 70
    58
 90
        2
176
     1
 90
        2
176
     1
 90
        1
176
     1
 90
        2
176
     1
 40
0.6
176
     1
 40
30.0
176
     1
 62
     7
420
 16777215
176
     1
 90
        1
176
     1
 90
        0
176
     1
 62
     7
176
     1
 62
   257
176
     1
 90
        1
176
     1
 90
        1
176
     1
 40
1.0
176
     1
 90
        0
176
     1
 62
   257
176
     1
 40
1.0
176
     1
 90
        1
176
     1
 90
        6
176
     1
 90
        2
176
     1
 62
     7
176
     1
 90
        5
176
     1
 90
        0
176
     1
 90
        0
176
     1
290
     0
176
     1
 90
       13
176
     1
 40
0.0
176
     1
 90
        0
176
     1
290
     0
176
     1
290
     1
176
     1
290
     1
176
     1
290
     0
176
     1
290
     0
176
     1
290
     0
176
     1
290
     0
176
     1
290
     0
176
     1
290
     0
176
     1
 90
       50
176
     1
 40
0.0
176
     1
 40
1.0
176
     1
 90
        0
176
     1
 62
    18
420
        0
176
     1
 90
       50
176
     1
 90
        3
176
     1
 62
     5
420
      255
176
     1
290
     0
176
     1
 90
       50
176
     1
 90
       50
176
     1
 90
       50
176
     1
290
     0
176
     1
 90
       50
176
     1
 62
   256
176
     0
 40
1.0
176
     0
 90
        2
176
     1
  1
strokes_ogs.tif
176
     1
290
     0
176
     1
 40
1.0
176
     1
 40
1.0
176
     1
  0
VISUALSTYLE
  5
31
102
{ACAD_REACTORS
330
2A
102
}
330
2A
100
AcDbVisualStyle
  2
Hidden
 70
     6
177
     3
291
     0
 70
    58
 90
        1
176
     1
 90
        2
176
     1
 90
        2
176
     1
 90
        0
176
     1
 40
0.6
176
     1
 40
30.0
176
     1
 62
     7
420
 16777215
176
     1
 90
        2
176
     1
 90
        2
176
     1
 62
     7
176
     1
 62
   257
176
     1
 90
        2
176
     1
 90
        1
176
     1
 40
40.0
176
     1
 90
        0
176
     1
 62
   257
176
     1
 40
1.0
176
     1
 90
        1
176
     1
 90
        6
176
     1
 90
        2
176
     1
 62
     7
176
     1
 90
        3
176
     1
 90
        0
176
     1
 90
        0
176
     1
290
     0
176
     1
 90
        1
176
     1
 40
0.0
176
     1
 90
        0
176
     1
290
     0
176
     1
290
     1
176
     1
290
     1
176
     1
290
     0
176
     1
290
     0
176
     1
290
     0
176
     1
290
     0
176
     1
290
     0
176
     1
290
     0
176
     1
 90
       50
176
     1
 40
0.0
176
     1
 40
1.0
176
     1
 90
        0
176
     1
 62
    18
420
        0
176
     1
 90
       50
176
     1
 90
        3
176
     1
 62
     5
420
      255
176
     1
290
     0
176
     1
 90
       50
176
     1
 90
       50
176
     1
 90
       50
176
     1
290
     0
176
     1
 90
       50
176
     1
 62
   256
176
     0
 40
1.0
176
     0
 90
        2
176
     1
  1
strokes_ogs.tif
176
     1
290
     0
176
     1
 40
1.0
176
     1
 40
1.0
176
     1
  0
VISUALSTYLE
  5
3B
102
{ACAD_REACTORS
330
2A
102
}
330
2A
100
AcDbVisualStyle
  2
JitterOff
 70
    20
177
     3
291
     1
 70
    58
 90
        2
176
     0
 90
        2
176
     0
 90
        0
176
     0
 90
        0
176
     0
 40
0.6
176
     0
 40
30.0
176
     0
 62
     7
420
 16777215
176
     0
 90
        1
176
     0
 90
        4
176
     0
 62
     7
176
     0
 62
   257
176
     0
 90
        1
176
     0
 90
        1
176
     0
 40
1.0
176
     0
 90
       10
176
     2
 62
     7
176
     0
 40
1.0
176
     0
 90
        1
176
     0
 90
        6
176
     0
 90
        2
176
     0
 62
     7
176
     0
 90
        5
176
     0
 90
        0
176
     0
 90
        0
176
     0
290
     0
176
     0
 90
        1
176
     0
 40
0.0
176
     0
 90
        0
176
     0
290
     0
176
     0
290
     1
176
     0
290
     1
176
     0
290
     0
176
     0
290
     0
176
     0
290
     0
176
     0
290
     0
176
     0
290
     0
176
     0
290
     0
176
     0
 90
       50
176
     0
 40
0.0
176
     0
 40
1.0
176
     0
 90
        0
176
     0
 62
    18
420
        0
176
     0
 90
       50
176
     0
 90
        3
176
     0
 62
     5
420
      255
176
     0
290
     0
176
     0
 90
       50
176
     0
 90
       50
176
     0
 90
       50
176
     0
290
     0
176
     0
 90
       50
176
     0
 62
   256
176
     0
 40
1.0
176
     0
 90
        2
176
     0
  1
strokes_ogs.tif
176
     0
290
     0
176
     0
 40
1.0
176
     0
 40
1.0
176
     0
  0
VISUALSTYLE
  5
38
102
{ACAD_REACTORS
330
2A
102
}
330
2A
100
AcDbVisualStyle
  2
Linepattern
 70
    14
177
     3
291
     1
 70
    58
 90
        2
176
     1
 90
        2
176
     1
 90
        0
176
     1
 90
        0
176
     1
 40
0.6
176
     1
 40
30.0
176
     1
 62
     7
420
 16777215
176
     1
 90
        1
176
     1
 90
        4
176
     1
 62
     7
176
     1
 62
   257
176
     1
 90
        7
176
     1
 90
        7
176
     1
 40
1.0
176
     1
 90
        8
176
     1
 62
     7
176
     1
 40
1.0
176
     1
 90
        1
176
     1
 90
        6
176
     1
 90
        2
176
     1
 62
     7
176
     1
 90
        5
176
     1
 90
        0
176
     1
 90
        0
176
     1
290
     0
176
     1
 90
        1
176
     1
 40
0.0
176
     1
 90
        0
176
     1
290
     0
176
     1
290
     1
176
     1
290
     1
176
     1
290
     0
176
     1
290
     0
176
     1
290
     0
176
     1
290
     0
176
     1
290
     0
176
     1
290
     0
176
     1
 90
       50
176
     1
 40
0.0
176
     1
 40
1.0
176
     1
 90
        0
176
     1
 62
    18
420
        0
176
     1
 90
       50
176
     1
 90
        3
176
     1
 62
     5
420
      255
176
     1
290
     0
176
     1
 90
       50
176
     1
 90
       50
176
     1
 90
       50
176
     1
290
     0
176
     1
 90
       50
176
     1
 62
   256
176
     0
 40
1.0
176
     0
 90
        2
176
     1
  1
strokes_ogs.tif
176
     1
290
     0
176
     1
 40
1.0
176
     1
 40
1.0
176
     1
  0
VISUALSTYLE
  5
3C
102
{ACAD_REACTORS
330
2A
102
}
330
2A
100
AcDbVisualStyle
  2
OverhangOff
 70
    21
177
     3
291
     1
 70
    58
 90
        2
176
     0
 90
        2
176
     0
 90
        0
176
     0
 90
        0
176
     0
 40
0.6
176
     0
 40
30.0
176
     0
 62
     7
420
 16777215
176
     0
 90
        1
176
     0
 90
        4
176
     0
 62
     7
176
     0
 62
   257
176
     0
 90
        1
176
     0
 90
        1
176
     0
 40
1.0
176
     0
 90
        9
176
     2
 62
     7
176
     0
 40
1.0
176
     0
 90
        1
176
     0
 90
        6
176
     0
 90
        2
176
     0
 62
     7
176
     0
 90
        5
176
     0
 90
        0
176
     0
 90
        0
176
     0
290
     0
176
     0
 90
        1
176
     0
 40
0.0
176
     0
 90
        0
176
     0
290
     0
176
     0
290
     1
176
     0
290
     1
176
     0
290
     0
176
     0
290
     0
176
     0
290
     0
176
     0
290
     0
176
     0
290
     0
176
     0
290
     0
176
     0
 90
       50
176
     0
 40
0.0
176
     0
 40
1.0
176
     0
 90
        0
176
     0
 62
    18
420
        0
176
     0
 90
       50
176
     0
 90
        3
176
     0
 62
     5
420
      255
176
     0
290
     0
176
     0
 90
       50
176
     0
 90
       50
176
     0
 90
       50
176
     0
290
     0
176
     0
 90
       50
176
     0
 62
   256
176
     0
 40
1.0
176
     0
 90
        2
176
     0
  1
strokes_ogs.tif
176
     0
290
     0
176
     0
 40
1.0
176
     0
 40
1.0
176
     0
  0
VISUALSTYLE
  5
33
102
{ACAD_REACTORS
330
2A
102
}
330
2A
100
AcDbVisualStyle
  2
Realistic
 70
     8
177
     3
291
     0
 70
    58
 90
        2
176
     1
 90
        3
176
     1
 90
        0
176
     1
 90
        2
176
     1
 40
0.6
176
     1
 40
30.0
176
     1
 62
     7
420
 16777215
176
     1
 90
        0
176
     1
 90
        0
176
     1
 62
     7
176
     1
 62
   257
176
     1
 90
        1
176
     1
 90
        1
176
     1
 40
1.0
176
     1
 90
        8
176
     1
 62
   257
176
     1
 40
1.0
176
     1
 90
        1
176
     1
 90
        6
176
     1
 90
        2
176
     1
 62
     7
176
     1
 90
        3
176
     1
 90
        0
176
     1
 90
        0
176
     1
290
     0
176
     1
 90
       13
176
     1
 40
0.0
176
     1
 90
        0
176
     1
290
     0
176
     1
290
     1
176
     1
290
     1
176
     1
290
     0
176
     1
290
     0
176
     1
290
     0
176
     1
290
     0
176
     1
290
     0
176
     1
290
     0
176
     1
 90
       50
176
     1
 40
0.0
176
     1
 40
1.0
176
     1
 90
        0
176
     1
 62
    18
420
        0
176
     1
 90
       50
176
     1
 90
        3
176
     1
 62
     5
420
      255
176
     1
290
     0
176
     1
 90
       50
176
     1
 90
       50
176
     1
 90
       50
176
     1
290
     0
176
     1
 90
       50
176
     1
 62
   256
176
     0
 40
1.0
176
     0
 90
        2
176
     1
  1
strokes_ogs.tif
176
     1
290
     0
176
     1
 40
1.0
176
     1
 40
1.0
176
     1
  0
VISUALSTYLE
  5
42
102
{ACAD_REACTORS
330
2A
102
}
330
2A
100
AcDbVisualStyle
  2
Shaded
 70
    27
177
     3
291
     0
 70
    58
 90
        2
176
     1
 90
        2
176
     1
 90
        1
176
     1
 90
        2
176
     1
 40
0.6
176
     1
 40
30.0
176
     1
 62
     7
420
 16777215
176
     1
 90
        0
176
     1
 90
        4
176
     1
 62
     7
176
     1
 62
   257
176
     1
 90
        1
176
     1
 90
        1
176
     1
 40
1.0
176
     1
 90
        8
176
     1
 62
   257
176
     1
 40
1.0
176
     1
 90
        1
176
     1
 90
        6
176
     1
 90
        2
176
     1
 62
     8
420
  7895160
176
     1
 90
        3
176
     1
 90
        0
176
     1
 90
        0
176
     1
290
     0
176
     1
 90
        5
176
     1
 40
0.0
176
     1
 90
        0
176
     1
290
     0
176
     1
290
     1
176
     1
290
     1
176
     1
290
     0
176
     1
290
     0
176
     1
290
     0
176
     1
290
     0
176
     1
290
     0
176
     1
290
     0
176
     1
 90
       50
176
     1
 40
0.0
176
     1
 40
1.0
176
     1
 90
        0
176
     1
 62
    18
420
        0
176
     1
 90
       50
176
     1
 90
        3
176
     1
 62
     5
420
      255
176
     1
290
     0
176
     1
 90
       50
176
     1
 90
       50
176
     1
 90
       50
176
     1
290
     0
176
     1
 90
       50
176
     1
 62
   256
176
     0
 40
1.0
176
     0
 90
        2
176
     1
  1
strokes_ogs.tif
176
     1
290
     0
176
     1
 40
1.0
176
     1
 40
1.0
176
     1
  0
VISUALSTYLE
  5
41
102
{ACAD_REACTORS
330
2A
102
}
330
2A
100
AcDbVisualStyle
  2
Shaded with edges
 70
    26
177
     3
291
     0
 70
    58
 90
        2
176
     1
 90
        2
176
     1
 90
        1
176
     1
 90
        2
176
     1
 40
0.6
176
     1
 40
30.0
176
     1
 62
     7
420
 16777215
176
     1
 90
        1
176
     1
 90
       10
176
     1
 62
     7
176
     1
 62
   257
176
     1
 90
        2
176
     1
 90
        1
176
     1
 40
1.0
176
     1
 90
        8
176
     1
 62
   257
176
     1
 40
1.0
176
     1
 90
        1
176
     1
 90
        6
176
     1
 90
        2
176
     1
 62
     7
176
     1
 90
        3
176
     1
 90
        0
176
     1
 90
        0
176
     1
290
     0
176
     1
 90
        5
176
     1
 40
0.0
176
     1
 90
        0
176
     1
290
     0
176
     1
290
     1
176
     1
290
     1
176
     1
290
     0
176
     1
290
     0
176
     1
290
     0
176
     1
290
     0
176
     1
290
     0
176
     1
290
     0
176
     1
 90
       50
176
     1
 40
0.0
176
     1
 40
1.0
176
     1
 90
        0
176
     1
 62
    18
420
        0
176
     1
 90
       50
176
     1
 90
        3
176
     1
 62
     5
420
      255
176
     1
290
     0
176
     1
 90
       50
176
     1
 90
       50
176
     1
 90
       50
176
     1
290
     0
176
     1
 90
       50
176
     1
 62
   256
176
     0
 40
1.0
176
     0
 90
        2
176
     1
  1
strokes_ogs.tif
176
     1
290
     0
176
     1
 40
1.0
176
     1
 40
1.0
176
     1
  0
VISUALSTYLE
  5
3E
102
{ACAD_REACTORS
330
2A
102
}
330
2A
100
AcDbVisualStyle
  2
Shades of Gray
 70
    23
177
     3
291
     0
 70
    58
 90
        2
176
     1
 90
        2
176
     1
 90
        3
176
     1
 90
        0
176
     1
 40
0.6
176
     1
 40
30.0
176
     1
 62
     7
420
 16777215
176
     1
 90
        2
176
     1
 90
        2
176
     1
 62
     7
176
     1
 62
     7
176
     1
 90
        1
176
     1
 90
        1
176
     1
 40
40.0
176
     1
 90
        8
176
     1
 62
     7
176
     1
 40
1.0
176
     1
 90
        1
176
     1
 90
        6
176
     1
 90
        2
176
     1
 62
     7
176
     1
 90
        3
176
     1
 90
        0
176
     1
 90
        0
176
     1
290
     0
176
     1
 90
        1
176
     1
 40
0.0
176
     1
 90
        0
176
     1
290
     0
176
     1
290
     1
176
     1
290
     1
176
     1
290
     0
176
     1
290
     0
176
     1
290
     0
176
     1
290
     0
176
     1
290
     0
176
     1
290
     0
176
     1
 90
       50
176
     1
 40
0.0
176
     1
 40
1.0
176
     1
 90
        0
176
     1
 62
    18
420
        0
176
     1
 90
       50
176
     1
 90
        3
176
     1
 62
     5
420
      255
176
     1
290
     0
176
     1
 90
       50
176
     1
 90
       50
176
     1
 90
       50
176
     1
290
     0
176
     1
 90
       50
176
     1
 62
   256
176
     0
 40
1.0
176
     0
 90
        2
176
     1
  1
strokes_ogs.tif
176
     1
290
     0
176
     1
 40
1.0
176
     1
 40
1.0
176
     1
  0
VISUALSTYLE
  5
3F
102
{ACAD_REACTORS
330
2A
102
}
330
2A
100
AcDbVisualStyle
  2
Sketchy
 70
    24
177
     3
291
     0
 70
    58
 90
        1
176
     1
 90
        2
176
     1
 90
        2
176
     1
 90
        0
176
     1
 40
0.6
176
     1
 40
30.0
176
     1
 62
     7
420
 16777215
176
     1
 90
        2
176
     1
 90
        2
176
     1
 62
     7
176
     1
 62
     7
176
     1
 90
        1
176
     1
 90
        1
176
     1
 40
40.0
176
     1
 90
       11
176
     1
 62
     7
176
     1
 40
1.0
176
     1
 90
        1
176
     1
 90
        6
176
     1
 90
        2
176
     1
 62
     7
176
     1
 90
        6
176
     1
 90
        0
176
     1
 90
        0
176
     1
290
     0
176
     1
 90
        1
176
     1
 40
0.0
176
     1
 90
        0
176
     1
290
     0
176
     1
290
     1
176
     1
290
     1
176
     1
290
     0
176
     1
290
     0
176
     1
290
     0
176
     1
290
     0
176
     1
290
     0
176
     1
290
     0
176
     1
 90
       50
176
     1
 40
0.0
176
     1
 40
1.0
176
     1
 90
        0
176
     1
 62
    18
420
        0
176
     1
 90
       50
176
     1
 90
        3
176
     1
 62
     5
420
      255
176
     1
290
     0
176
     1
 90
       50
176
     1
 90
       50
176
     1
 90
       50
176
     1
290
     0
176
     1
 90
       50
176
     1
 62
   256
176
     0
 40
1.0
176
     0
 90
        2
176
     1
  1
strokes_ogs.tif
176
     1
290
     0
176
     1
 40
1.0
176
     1
 40
1.0
176
     1
  0
VISUALSTYLE
  5
37
102
{ACAD_REACTORS
330
2A
102
}
330
2A
100
AcDbVisualStyle
  2
Thicken
 70
    13
177
     3
291
     1
 70
    58
 90
        2
176
     1
 90
        2
176
     1
 90
        0
176
     1
 90
        0
176
     1
 40
0.6
176
     1
 40
30.0
176
     1
 62
     7
420
 16777215
176
     1
 90
        1
176
     1
 90
        4
176
     1
 62
     7
176
     1
 62
   257
176
     1
 90
        1
176
     1
 90
        1
176
     1
 40
1.0
176
     1
 90
       12
176
     1
 62
     7
176
     1
 40
1.0
176
     1
 90
        1
176
     1
 90
        6
176
     1
 90
        2
176
     1
 62
     7
176
     1
 90
        5
176
     1
 90
        0
176
     1
 90
        0
176
     1
290
     0
176
     1
 90
        1
176
     1
 40
0.0
176
     1
 90
        0
176
     1
290
     0
176
     1
290
     1
176
     1
290
     1
176
     1
290
     0
176
     1
290
     0
176
     1
290
     0
176
     1
290
     0
176
     1
290
     0
176
     1
290
     0
176
     1
 90
       50
176
     1
 40
0.0
176
     1
 40
1.0
176
     1
 90
        0
176
     1
 62
    18
420
        0
176
     1
 90
       50
176
     1
 90
        3
176
     1
 62
     5
420
      255
176
     1
290
     0
176
     1
 90
       50
176
     1
 90
       50
176
     1
 90
       50
176
     1
290
     0
176
     1
 90
       50
176
     1
 62
   256
176
     0
 40
1.0
176
     0
 90
        2
176
     1
  1
strokes_ogs.tif
176
     1
290
     0
176
     1
 40
1.0
176
     1
 40
1.0
176
     1
  0
VISUALSTYLE
  5
30
102
{ACAD_REACTORS
330
2A
102
}
330
2A
100
AcDbVisualStyle
  2
Wireframe
 70
     5
177
     3
291
     0
 70
    58
 90
        0
176
     1
 90
        2
176
     1
 90
        0
176
     1
 90
        0
176
     1
 40
0.6
176
     1
 40
30.0
176
     1
 62
     7
420
 16777215
176
     1
 90
        1
176
     1
 90
        4
176
     1
 62
     7
176
     1
 62
   257
176
     1
 90
        1
176
     1
 90
        1
176
     1
 40
1.0
176
     1
 90
        0
176
     1
 62
   257
176
     1
 40
1.0
176
     1
 90
        1
176
     1
 90
        6
176
     1
 90
        2
176
     1
 62
     7
176
     1
 90
        3
176
     1
 90
        0
176
     1
 90
        0
176
     1
290
     0
176
     1
 90
        1
176
     1
 40
0.0
176
     1
 90
        0
176
     1
290
     0
176
     1
290
     1
176
     1
290
     1
176
     1
290
     0
176
     1
290
     0
176
     1
290
     0
176
     1
290
     0
176
     1
290
     0
176
     1
290
     0
176
     1
 90
       50
176
     1
 40
0.0
176
     1
 40
1.0
176
     1
 90
        0
176
     1
 62
    18
420
        0
176
     1
 90
       50
176
     1
 90
        3
176
     1
 62
     5
420
      255
176
     1
290
     0
176
     1
 90
       50
176
     1
 90
       50
176
     1
 90
       50
176
     1
290
     0
176
     1
 90
       50
176
     1
 62
   256
176
     0
 40
1.0
176
     0
 90
        2
176
     1
  1
strokes_ogs.tif
176
     1
290
     0
176
     1
 40
1.0
176
     1
 40
1.0
176
     1
  0
VISUALSTYLE
  5
40
102
{ACAD_REACTORS
330
2A
102
}
330
2A
100
AcDbVisualStyle
  2
X-Ray
 70
    25
177
     3
291
     0
 70
    58
 90
        2
176
     1
 90
        2
176
     1
 90
        1
176
     1
 90
        1
176
     1
 40
0.5
176
     1
 40
30.0
176
     1
 62
     7
420
 16777215
176
     1
 90
        1
176
     1
 90
        0
176
     1
 62
     7
176
     1
 62
   257
176
     1
 90
        1
176
     1
 90
        1
176
     1
 40
1.0
176
     1
 90
        8
176
     1
 62
     7
176
     1
 40
1.0
176
     1
 90
        1
176
     1
 90
        6
176
     1
 90
        2
176
     1
 62
     7
176
     1
 90
        3
176
     1
 90
        0
176
     1
 90
        0
176
     1
290
     0
176
     1
 90
       13
176
     1
 40
0.0
176
     1
 90
        0
176
     1
290
     0
176
     1
290
     1
176
     1
290
     1
176
     1
290
     0
176
     1
290
     0
176
     1
290
     0
176
     1
290
     0
176
     1
290
     0
176
     1
290
     0
176
     1
 90
       50
176
     1
 40
0.0
176
     1
 40
1.0
176
     1
 90
        0
176
     1
 62
    18
420
        0
176
     1
 90
       50
176
     1
 90
        3
176
     1
 62
     5
420
      255
176
     1
290
     0
176
     1
 90
       50
176
     1
 90
       50
176
     1
 90
       50
176
     1
290
     0
176
     1
 90
       50
176
     1
 62
   256
176
     0
 40
1.0
176
     0
 90
        2
176
     1
  1
strokes_ogs.tif
176
     1
290
     0
176
     1
 40
1.0
176
     1
 40
1.0
176
     1
  0
DICTIONARYVAR
  5
20F
102
{ACAD_REACTORS
330
20E
102
}
330
20E
100
DictionaryVariables
280
     0
  1
1:1
  0
DICTIONARYVAR
  5
214
102
{ACAD_REACTORS
330
20E
102
}
330
20E
100
DictionaryVariables
280
     0
  1
Standard
  0
DICTIONARYVAR
  5
213
102
{ACAD_REACTORS
330
20E
102
}
330
20E
100
DictionaryVariables
280
     0
  1
Standard
  0
DICTIONARY
  5
210
330
6A
100
AcDbDictionary
280
     1
281
     1
  3
ACAD_ROUNDTRIP_2008_TABLESTYLE_CELLSTYLEMAP
360
211
  0
CELLSTYLEMAP
  5
211
102
{ACAD_REACTORS
330
210
102
}
330
210
100
AcDbCellStyleMap
 90
        3
300
CELLSTYLE
  1
TABLEFORMAT_BEGIN
 90
        5
170
     1
 91
        0
 92
    32768
 62
   257
 93
        1
300
CONTENTFORMAT
  1
CONTENTFORMAT_BEGIN
 90
        0
 91
        0
 92
        4
 93
        0
300

 40
0.0
140
1.0
 94
        5
 62
     0
340
11
144
0.25
309
CONTENTFORMAT_END
171
     1
301
MARGIN
  1
CELLMARGIN_BEGIN
 40
0.06
 40
0.06
 40
0.06
 40
0.06
 40
0.06
 40
0.06
309
CELLMARGIN_END
 94
        6
 95
        1
302
GRIDFORMAT
  1
GRIDFORMAT_BEGIN
 90
        0
 91
        1
 62
     0
 92
       -2
340
14
 93
        0
 40
0.045
309
GRIDFORMAT_END
 95
        2
302
GRIDFORMAT
  1
GRIDFORMAT_BEGIN
 90
        0
 91
        1
 62
     0
 92
       -2
340
14
 93
        0
 40
0.045
309
GRIDFORMAT_END
 95
        4
302
GRIDFORMAT
  1
GRIDFORMAT_BEGIN
 90
        0
 91
        1
 62
     0
 92
       -2
340
14
 93
        0
 40
0.045
309
GRIDFORMAT_END
 95
        8
302
GRIDFORMAT
  1
GRIDFORMAT_BEGIN
 90
        0
 91
        1
 62
     0
 92
       -2
340
14
 93
        0
 40
0.045
309
GRIDFORMAT_END
 95
       16
302
GRIDFORMAT
  1
GRIDFORMAT_BEGIN
 90
        0
 91
        1
 62
     0
 92
       -2
340
14
 93
        0
 40
0.045
309
GRIDFORMAT_END
 95
       32
302
GRIDFORMAT
  1
GRIDFORMAT_BEGIN
 90
        0
 91
        1
 62
     0
 92
       -2
340
14
 93
        0
 40
0.045
309
GRIDFORMAT_END
309
TABLEFORMAT_END
  1
CELLSTYLE_BEGIN
 90
        1
 91
        1
300
_TITLE
309
CELLSTYLE_END
300
CELLSTYLE
  1
TABLEFORMAT_BEGIN
 90
        5
170
     1
 91
        0
 92
        0
 62
   257
 93
        1
300
CONTENTFORMAT
  1
CONTENTFORMAT_BEGIN
 90
        0
 91
        0
 92
        4
 93
        0
300

 40
0.0
140
1.0
 94
        5
 62
     0
340
11
144
0.18
309
CONTENTFORMAT_END
171
     1
301
MARGIN
  1
CELLMARGIN_BEGIN
 40
0.06
 40
0.06
 40
0.06
 40
0.06
 40
0.06
 40
0.06
309
CELLMARGIN_END
 94
        6
 95
        1
302
GRIDFORMAT
  1
GRIDFORMAT_BEGIN
 90
        0
 91
        1
 62
     0
 92
       -2
340
14
 93
        0
 40
0.045
309
GRIDFORMAT_END
 95
        2
302
GRIDFORMAT
  1
GRIDFORMAT_BEGIN
 90
        0
 91
        1
 62
     0
 92
       -2
340
14
 93
        0
 40
0.045
309
GRIDFORMAT_END
 95
        4
302
GRIDFORMAT
  1
GRIDFORMAT_BEGIN
 90
        0
 91
        1
 62
     0
 92
       -2
340
14
 93
        0
 40
0.045
309
GRIDFORMAT_END
 95
        8
302
GRIDFORMAT
  1
GRIDFORMAT_BEGIN
 90
        0
 91
        1
 62
     0
 92
       -2
340
14
 93
        0
 40
0.045
309
GRIDFORMAT_END
 95
       16
302
GRIDFORMAT
  1
GRIDFORMAT_BEGIN
 90
        0
 91
        1
 62
     0
 92
       -2
340
14
 93
        0
 40
0.045
309
GRIDFORMAT_END
 95
       32
302
GRIDFORMAT
  1
GRIDFORMAT_BEGIN
 90
        0
 91
        1
 62
     0
 92
       -2
340
14
 93
        0
 40
0.045
309
GRIDFORMAT_END
309
TABLEFORMAT_END
  1
CELLSTYLE_BEGIN
 90
        2
 91
        1
300
_HEADER
309
CELLSTYLE_END
300
CELLSTYLE
  1
TABLEFORMAT_BEGIN
 90
        5
170
     1
 91
        0
 92
        0
 62
   257
 93
        1
300
CONTENTFORMAT
  1
CONTENTFORMAT_BEGIN
 90
        0
 91
        0
 92
        4
 93
        0
300

 40
0.0
140
1.0
 94
        2
 62
     0
340
11
144
0.18
309
CONTENTFORMAT_END
171
     1
301
MARGIN
  1
CELLMARGIN_BEGIN
 40
0.06
 40
0.06
 40
0.06
 40
0.06
 40
0.06
 40
0.06
309
CELLMARGIN_END
 94
        6
 95
        1
302
GRIDFORMAT
  1
GRIDFORMAT_BEGIN
 90
        0
 91
        1
 62
     0
 92
       -2
340
14
 93
        0
 40
0.045
309
GRIDFORMAT_END
 95
        2
302
GRIDFORMAT
  1
GRIDFORMAT_BEGIN
 90
        0
 91
        1
 62
     0
 92
       -2
340
14
 93
        0
 40
0.045
309
GRIDFORMAT_END
 95
        4
302
GRIDFORMAT
  1
GRIDFORMAT_BEGIN
 90
        0
 91
        1
 62
     0
 92
       -2
340
14
 93
        0
 40
0.045
309
GRIDFORMAT_END
 95
        8
302
GRIDFORMAT
  1
GRIDFORMAT_BEGIN
 90
        0
 91
        1
 62
     0
 92
       -2
340
14
 93
        0
 40
0.045
309
GRIDFORMAT_END
 95
       16
302
GRIDFORMAT
  1
GRIDFORMAT_BEGIN
 90
        0
 91
        1
 62
     0
 92
       -2
340
14
 93
        0
 40
0.045
309
GRIDFORMAT_END
 95
       32
302
GRIDFORMAT
  1
GRIDFORMAT_BEGIN
 90
        0
 91
        1
 62
     0
 92
       -2
340
14
 93
        0
 40
0.045
309
GRIDFORMAT_END
309
TABLEFORMAT_END
  1
CELLSTYLE_BEGIN
 90
        3
 91
        2
300
_DATA
309
CELLSTYLE_END
  0
ENDSEC
  0
EOF