0
SECTION
  2
HEADER
  9
$ACADVER
  1
AC1027
  9
$ACADMAINTVER
 70
     8
  9
$DWGCODEPAGE
  3
ANSI_1252
  9
$REQUIREDVERSIONS
160
                 0
  9
$COMMENTS
  1
File was created by Cadenas
  9
$CUSTOMPROPERTYTAG
  1
NN
  9
$CUSTOMPROPERTY
  1
Eccentric Collar Wide Slot Take Up Inch Bore
  9
$CUSTOMPROPERTYTAG
  1
NT
  9
$CUSTOMPROPERTY
  1
SXR Normal Duty Wide Slot Take-Up Bearings
  9
$CUSTOMPROPERTYTAG
  1
NB
  9
$CUSTOMPROPERTY
  1
131208
  9
$CUSTOMPROPERTYTAG
  1
NBSYN
  9
$CUSTOMPROPERTY
  1
$PN.
  9
$CUSTOMPROPERTYTAG
  1
LINA
  9
$CUSTOMPROPERTY
  1
131208
  9
$CUSTOMPROPERTYTAG
  1
SERIES
  9
$CUSTOMPROPERTY
  1
205
  9
$CUSTOMPROPERTYTAG
  1
SS
  9
$CUSTOMPROPERTY
  1
1
  9
$CUSTOMPROPERTYTAG
  1
PN
  9
$CUSTOMPROPERTY
  1
131208
  9
$CUSTOMPROPERTYTAG
  1
DESCRIPTION
  9
$CUSTOMPROPERTY
  1
WSTU-SXR-100
  9
$CUSTOMPROPERTYTAG
  1
LF
  9
$CUSTOMPROPERTY
  1
RE-LUBE
  9
$CUSTOMPROPERTYTAG
  1
W
  9
$CUSTOMPROPERTY
  1
2.1
  9
$CUSTOMPROPERTYTAG
  1
FS
  9
$CUSTOMPROPERTY
  1
WS300
  9
$CUSTOMPROPERTYTAG
  1
A
  9
$CUSTOMPROPERTY
  1
1.62
  9
$CUSTOMPROPERTYTAG
  1
B
  9
$CUSTOMPROPERTY
  1
3.81
  9
$CUSTOMPROPERTYTAG
  1
C
  9
$CUSTOMPROPERTY
  1
0.531
  9
$CUSTOMPROPERTYTAG
  1
D
  9
$CUSTOMPROPERTY
  1
2.00
  9
$CUSTOMPROPERTYTAG
  1
E
  9
$CUSTOMPROPERTY
  1
2.44
  9
$CUSTOMPROPERTYTAG
  1
F
  9
$CUSTOMPROPERTY
  1
5/8
  9
$CUSTOMPROPERTYTAG
  1
G
  9
$CUSTOMPROPERTY
  1
0.38
  9
$CUSTOMPROPERTYTAG
  1
H
  9
$CUSTOMPROPERTY
  1
0.63
  9
$CUSTOMPROPERTYTAG
  1
J
  9
$CUSTOMPROPERTY
  1
2.00
  9
$CUSTOMPROPERTYTAG
  1
K
  9
$CUSTOMPROPERTY
  1
1.31
  9
$CUSTOMPROPERTYTAG
  1
L
  9
$CUSTOMPROPERTY
  1
1.50
  9
$CUSTOMPROPERTYTAG
  1
M
  9
$CUSTOMPROPERTY
  1
2.985/3.015
  9
$CUSTOMPROPERTYTAG
  1
N
  9
$CUSTOMPROPERTY
  1
3.63
  9
$CUSTOMPROPERTYTAG
  1
R
  9
$CUSTOMPROPERTY
  1
0.56
  9
$CUSTOMPROPERTYTAG
  1
S
  9
$CUSTOMPROPERTY
  1
1.06
  9
$CUSTOMPROPERTYTAG
  1
T
  9
$CUSTOMPROPERTY
  1
1.38
  9
$CUSTOMPROPERTYTAG
  1
COMPANY
  9
$CUSTOMPROPERTY
  1
baldor
  9
$INSBASE
 10
0.0
 20
0.0
 30
0.0
  9
$EXTMIN
 10
1.000000000000000E+20
 20
1.000000000000000E+20
 30
1.000000000000000E+20
  9
$EXTMAX
 10
-1.000000000000000E+20
 20
-1.000000000000000E+20
 30
-1.000000000000000E+20
  9
$LIMMIN
 10
0.0
 20
0.0
  9
$LIMMAX
 10
12.0
 20
9.0
  9
$ORTHOMODE
 70
     0
  9
$REGENMODE
 70
     1
  9
$FILLMODE
 70
     1
  9
$QTEXTMODE
 70
     0
  9
$MIRRTEXT
 70
     1
  9
$LTSCALE
 40
1.0
  9
$ATTMODE
 70
     1
  9
$TEXTSIZE
 40
0.2
  9
$TRACEWID
 40
0.05
  9
$TEXTSTYLE
  7
Standard
  9
$CLAYER
  8
0
  9
$CELTYPE
  6
ByLayer
  9
$CECOLOR
 62
   256
  9
$CELTSCALE
 40
1.0
  9
$DISPSILH
 70
     0
  9
$DIMSCALE
 40
1.0
  9
$DIMASZ
 40
0.18
  9
$DIMEXO
 40
0.0625
  9
$DIMDLI
 40
0.38
  9
$DIMRND
 40
0.0
  9
$DIMDLE
 40
0.0
  9
$DIMEXE
 40
0.18
  9
$DIMTP
 40
0.0
  9
$DIMTM
 40
0.0
  9
$DIMTXT
 40
0.18
  9
$DIMCEN
 40
0.09
  9
$DIMTSZ
 40
0.0
  9
$DIMTOL
 70
     0
  9
$DIMLIM
 70
     0
  9
$DIMTIH
 70
     1
  9
$DIMTOH
 70
     1
  9
$DIMSE1
 70
     0
  9
$DIMSE2
 70
     0
  9
$DIMTAD
 70
     0
  9
$DIMZIN
 70
     0
  9
$DIMBLK
  1

  9
$DIMASO
 70
     1
  9
$DIMSHO
 70
     1
  9
$DIMPOST
  1

  9
$DIMAPOST
  1

  9
$DIMALT
 70
     0
  9
$DIMALTD
 70
     2
  9
$DIMALTF
 40
25.4
  9
$DIMLFAC
 40
1.0
  9
$DIMTOFL
 70
     0
  9
$DIMTVP
 40
0.0
  9
$DIMTIX
 70
     0
  9
$DIMSOXD
 70
     0
  9
$DIMSAH
 70
     0
  9
$DIMBLK1
  1

  9
$DIMBLK2
  1

  9
$DIMSTYLE
  2
Standard
  9
$DIMCLRD
 70
     0
  9
$DIMCLRE
 70
     0
  9
$DIMCLRT
 70
     0
  9
$DIMTFAC
 40
1.0
  9
$DIMGAP
 40
0.09
  9
$DIMJUST
 70
     0
  9
$DIMSD1
 70
     0
  9
$DIMSD2
 70
     0
  9
$DIMTOLJ
 70
     1
  9
$DIMTZIN
 70
     0
  9
$DIMALTZ
 70
     0
  9
$DIMALTTZ
 70
     0
  9
$DIMUPT
 70
     0
  9
$DIMDEC
 70
     4
  9
$DIMTDEC
 70
     4
  9
$DIMALTU
 70
     2
  9
$DIMALTTD
 70
     2
  9
$DIMTXSTY
  7
Standard
  9
$DIMAUNIT
 70
     0
  9
$DIMADEC
 70
     0
  9
$DIMALTRND
 40
0.0
  9
$DIMAZIN
 70
     0
  9
$DIMDSEP
 70
    46
  9
$DIMATFIT
 70
     3
  9
$DIMFRAC
 70
     0
  9
$DIMLDRBLK
  1

  9
$DIMLUNIT
 70
     2
  9
$DIMLWD
 70
    -2
  9
$DIMLWE
 70
    -2
  9
$DIMTMOVE
 70
     0
  9
$DIMFXL
 40
1.0
  9
$DIMFXLON
 70
     0
  9
$DIMJOGANG
 40
0.7853981633974483
  9
$DIMTFILL
 70
     0
  9
$DIMTFILLCLR
 70
     0
  9
$DIMARCSYM
 70
     0
  9
$DIMLTYPE
  6

  9
$DIMLTEX1
  6

  9
$DIMLTEX2
  6

  9
$DIMTXTDIRECTION
 70
     0
  9
$LUNITS
 70
     2
  9
$LUPREC
 70
     4
  9
$SKETCHINC
 40
0.1
  9
$FILLETRAD
 40
0.5
  9
$AUNITS
 70
     0
  9
$AUPREC
 70
     0
  9
$MENU
  1
.
  9
$ELEVATION
 40
0.0
  9
$PELEVATION
 40
0.0
  9
$THICKNESS
 40
0.0
  9
$LIMCHECK
 70
     0
  9
$CHAMFERA
 40
0.0
  9
$CHAMFERB
 40
0.0
  9
$CHAMFERC
 40
0.0
  9
$CHAMFERD
 40
0.0
  9
$SKPOLY
 70
     0
  9
$TDCREATE
 40
2458168.980258623
  9
$TDUCREATE
 40
2458168.938591956
  9
$TDUPDATE
 40
2458168.980258796
  9
$TDUUPDATE
 40
2458168.93859213
  9
$TDINDWG
 40
0.0000000116
  9
$TDUSRTIMER
 40
0.0000000116
  9
$USRTIMER
 70
     1
  9
$ANGBASE
 50
0.0
  9
$ANGDIR
 70
     0
  9
$PDMODE
 70
     0
  9
$PDSIZE
 40
0.0
  9
$PLINEWID
 40
0.0
  9
$SPLFRAME
 70
     0
  9
$SPLINETYPE
 70
     6
  9
$SPLINESEGS
 70
     8
  9
$HANDSEED
  5
219
  9
$SURFTAB1
 70
     6
  9
$SURFTAB2
 70
     6
  9
$SURFTYPE
 70
     6
  9
$SURFU
 70
     6
  9
$SURFV
 70
     6
  9
$UCSBASE
  2

  9
$UCSNAME
  2

  9
$UCSORG
 10
0.0
 20
0.0
 30
0.0
  9
$UCSXDIR
 10
1.0
 20
0.0
 30
0.0
  9
$UCSYDIR
 10
0.0
 20
1.0
 30
0.0
  9
$UCSORTHOREF
  2

  9
$UCSORTHOVIEW
 70
     0
  9
$UCSORGTOP
 10
0.0
 20
0.0
 30
0.0
  9
$UCSORGBOTTOM
 10
0.0
 20
0.0
 30
0.0
  9
$UCSORGLEFT
 10
0.0
 20
0.0
 30
0.0
  9
$UCSORGRIGHT
 10
0.0
 20
0.0
 30
0.0
  9
$UCSORGFRONT
 10
0.0
 20
0.0
 30
0.0
  9
$UCSORGBACK
 10
0.0
 20
0.0
 30
0.0
  9
$PUCSBASE
  2

  9
$PUCSNAME
  2

  9
$PUCSORG
 10
0.0
 20
0.0
 30
0.0
  9
$PUCSXDIR
 10
1.0
 20
0.0
 30
0.0
  9
$PUCSYDIR
 10
0.0
 20
1.0
 30
0.0
  9
$PUCSORTHOREF
  2

  9
$PUCSORTHOVIEW
 70
     0
  9
$PUCSORGTOP
 10
0.0
 20
0.0
 30
0.0
  9
$PUCSORGBOTTOM
 10
0.0
 20
0.0
 30
0.0
  9
$PUCSORGLEFT
 10
0.0
 20
0.0
 30
0.0
  9
$PUCSORGRIGHT
 10
0.0
 20
0.0
 30
0.0
  9
$PUCSORGFRONT
 10
0.0
 20
0.0
 30
0.0
  9
$PUCSORGBACK
 10
0.0
 20
0.0
 30
0.0
  9
$USERI1
 70
     0
  9
$USERI2
 70
     0
  9
$USERI3
 70
     0
  9
$USERI4
 70
     0
  9
$USERI5
 70
     0
  9
$USERR1
 40
0.0
  9
$USERR2
 40
0.0
  9
$USERR3
 40
0.0
  9
$USERR4
 40
0.0
  9
$USERR5
 40
0.0
  9
$WORLDVIEW
 70
     1
  9
$SHADEDGE
 70
     3
  9
$SHADEDIF
 70
    70
  9
$TILEMODE
 70
     1
  9
$MAXACTVP
 70
    64
  9
$PINSBASE
 10
0.0
 20
0.0
 30
0.0
  9
$PLIMCHECK
 70
     0
  9
$PEXTMIN
 10
1.000000000000000E+20
 20
1.000000000000000E+20
 30
1.000000000000000E+20
  9
$PEXTMAX
 10
-1.000000000000000E+20
 20
-1.000000000000000E+20
 30
-1.000000000000000E+20
  9
$PLIMMIN
 10
0.0
 20
0.0
  9
$PLIMMAX
 10
12.0
 20
9.0
  9
$UNITMODE
 70
     0
  9
$VISRETAIN
 70
     1
  9
$PLINEGEN
 70
     0
  9
$PSLTSCALE
 70
     1
  9
$TREEDEPTH
 70
  3020
  9
$CMLSTYLE
  2
Standard
  9
$CMLJUST
 70
     0
  9
$CMLSCALE
 40
1.0
  9
$PROXYGRAPHICS
 70
     1
  9
$MEASUREMENT
 70
     0
  9
$CELWEIGHT
370
    -1
  9
$ENDCAPS
280
     0
  9
$JOINSTYLE
280
     0
  9
$LWDISPLAY
290
     0
  9
$INSUNITS
 70
     1
  9
$HYPERLINKBASE
  1

  9
$STYLESHEET
  1

  9
$XEDIT
290
     1
  9
$CEPSNTYPE
380
     0
  9
$PSTYLEMODE
290
     1
  9
$FINGERPRINTGUID
  2
{0A726566-375A-4E70-B808-4EE23E1305BF}
  9
$VERSIONGUID
  2
{FAEB1C32-E019-11D5-929B-00C0DF256EC4}
  9
$EXTNAMES
290
     1
  9
$PSVPSCALE
 40
0.0
  9
$OLESTARTUP
290
     0
  9
$SORTENTS
280
   127
  9
$INDEXCTL
280
     0
  9
$HIDETEXT
280
     1
  9
$XCLIPFRAME
280
     2
  9
$HALOGAP
280
     0
  9
$OBSCOLOR
 70
   257
  9
$OBSLTYPE
280
     0
  9
$INTERSECTIONDISPLAY
280
     0
  9
$INTERSECTIONCOLOR
 70
   257
  9
$DIMASSOC
280
     2
  9
$PROJECTNAME
  1

  9
$CAMERADISPLAY
290
     0
  9
$LENSLENGTH
 40
50.0
  9
$CAMERAHEIGHT
 40
0.0
  9
$STEPSPERSEC
 40
2.0
  9
$STEPSIZE
 40
6.0
  9
$3DDWFPREC
 40
2.0
  9
$PSOLWIDTH
 40
0.25
  9
$PSOLHEIGHT
 40
4.0
  9
$LOFTANG1
 40
1.570796326794897
  9
$LOFTANG2
 40
1.570796326794897
  9
$LOFTMAG1
 40
0.0
  9
$LOFTMAG2
 40
0.0
  9
$LOFTPARAM
 70
     7
  9
$LOFTNORMALS
280
     1
  9
$LATITUDE
 40
37.795
  9
$LONGITUDE
 40
-122.394
  9
$NORTHDIRECTION
 40
0.0
  9
$TIMEZONE
 70
 -8000
  9
$LIGHTGLYPHDISPLAY
280
     1
  9
$TILEMODELIGHTSYNCH
280
     1
  9
$CMATERIAL
347
44
  9
$SOLIDHIST
280
     0
  9
$SHOWHIST
280
     1
  9
$DWFFRAME
280
     2
  9
$DGNFRAME
280
     2
  9
$REALWORLDSCALE
290
     1
  9
$INTERFERECOLOR
 62
   256
  9
$CSHADOW
280
     0
  9
$SHADOWPLANELOCATION
 40
0.0
  0
ENDSEC
  0
SECTION
  2
CLASSES
  0
CLASS
  1
ACDBDICTIONARYWDFLT
  2
AcDbDictionaryWithDefault
  3
ObjectDBX Classes
 90
        0
 91
        4
280
     0
281
     0
  0
CLASS
  1
VISUALSTYLE
  2
AcDbVisualStyle
  3
ObjectDBX Classes
 90
     4095
 91
        4
280
     0
281
     0
  0
CLASS
  1
MATERIAL
  2
AcDbMaterial
  3
ObjectDBX Classes
 90
     1153
 91
        4
280
     0
281
     0
  0
CLASS
  1
SCALE
  2
AcDbScale
  3
ObjectDBX Classes
 90
     1153
 91
        4
280
     0
281
     0
  0
CLASS
  1
TABLESTYLE
  2
AcDbTableStyle
  3
ObjectDBX Classes
 90
     4095
 91
        4
280
     0
281
     0
  0
CLASS
  1
MLEADERSTYLE
  2
AcDbMLeaderStyle
  3
ACDB_MLEADERSTYLE_CLASS
 90
     4095
 91
        4
280
     0
281
     0
  0
CLASS
  1
SUN
  2
AcDbSun
  3
SCENEOE
 90
     1153
 91
        4
280
     0
281
     0
  0
CLASS
  1
DICTIONARYVAR
  2
AcDbDictionaryVar
  3
ObjectDBX Classes
 90
        0
 91
        4
280
     0
281
     0
  0
CLASS
  1
CELLSTYLEMAP
  2
AcDbCellStyleMap
  3
ObjectDBX Classes
 90
     1152
 91
        4
280
     0
281
     0
  0
ENDSEC
  0
SECTION
  2
TABLES
  0
TABLE
  2
VPORT
  5
8
330
0
100
AcDbSymbolTable
 70
     1
  0
VPORT
  5
29
330
8
100
AcDbSymbolTableRecord
100
AcDbViewportTableRecord
  2
*Active
 70
     0
 10
0.0
 20
0.0
 11
1.0
 21
1.0
 12
-0.2255000000000003
 22
0.0
 13
0.0
 23
0.0
 14
0.5
 24
0.5
 15
0.5
 25
0.5
 16
0.0
 26
0.0
 36
1.0
 17
0.0
 27
0.0
 37
0.0
 40
3.702599999999999
 41
0.5044077134986226
 42
50.0
 43
0.0
 44
0.0
 50
0.0
 51
0.0
 71
     0
 72
   100
 73
     1
 74
     3
 75
     0
 76
     0
 77
     0
 78
     0
281
     0
 65
     1
110
0.0
120
0.0
130
0.0
111
1.0
121
0.0
131
0.0
112
0.0
122
1.0
132
0.0
 79
     0
146
0.0
348
2F
 60
     3
 61
     5
292
     1
282
     1
141
0.0
142
0.0
 63
   250
361
6D
  0
ENDTAB
  0
TABLE
  2
LTYPE
  5
5
330
0
100
AcDbSymbolTable
 70
     3
  0
LTYPE
  5
14
330
5
100
AcDbSymbolTableRecord
100
AcDbLinetypeTableRecord
  2
ByBlock
 70
     0
  3

 72
    65
 73
     0
 40
0.0
  0
LTYPE
  5
15
330
5
100
AcDbSymbolTableRecord
100
AcDbLinetypeTableRecord
  2
ByLayer
 70
     0
  3

 72
    65
 73
     0
 40
0.0
  0
LTYPE
  5
16
330
5
100
AcDbSymbolTableRecord
100
AcDbLinetypeTableRecord
  2
Continuous
 70
     0
  3
Solid line
 72
    65
 73
     0
 40
0.0
  0
LTYPE
  5
A8
330
5
100
AcDbSymbolTableRecord
100
AcDbLinetypeTableRecord
  2
Dashed
 70
     0
  3

 72
    65
 73
     2
 40
2.0
 49
1.0
 74
     0
 49
-1.0
 74
     0
  0
LTYPE
  5
DF
330
5
100
AcDbSymbolTableRecord
100
AcDbLinetypeTableRecord
  2
Center
 70
     0
  3

 72
    65
 73
     4
 40
1.5
 49
0.45
 74
     0
 49
-0.5
 74
     0
 49
0.05
 74
     0
 49
-0.5
 74
     0
  0
ENDTAB
  0
TABLE
  2
LAYER
  5
2
330
0
100
AcDbSymbolTable
 70
     7
  0
LAYER
  5
10
330
2
100
AcDbSymbolTableRecord
100
AcDbLayerTableRecord
  2
0
 70
     0
 62
     7
  6
Continuous
370
    -3
390
F
347
46
348
0
  0
LAYER
  5
72
330
2
100
AcDbSymbolTableRecord
100
AcDbLayerTableRecord
  2
AM_6
 70
     0
 62
    -2
  6
Continuous
370
    35
390
F
347
46
348
0
  0
LAYER
  5
A9
330
2
100
AcDbSymbolTableRecord
100
AcDbLayerTableRecord
  2
AM_9
 70
     0
 62
     6
  6
Dashed
370
    25
390
F
347
46
348
0
  0
LAYER
  5
DC
330
2
100
AcDbSymbolTableRecord
100
AcDbLayerTableRecord
  2
AM_5
 70
     0
 62
     3
  6
Continuous
370
    25
390
F
347
46
348
0
  0
LAYER
  5
E0
330
2
100
AcDbSymbolTableRecord
100
AcDbLayerTableRecord
  2
AM_7
 70
     0
 62
     7
  6
Center
370
    25
390
F
347
46
348
0
  0
LAYER
  5
E3
330
2
100
AcDbSymbolTableRecord
100
AcDbLayerTableRecord
  2
AM_4
 70
     0
 62
     7
  6
Continuous
370
    50
390
F
347
46
348
0
  0
LAYER
  5
20C
330
2
100
AcDbSymbolTableRecord
100
AcDbLayerTableRecord
  2
ConnectionPoints
 70
     0
 62
     7
  6
Continuous
370
    50
390
F
347
46
348
0
  0
ENDTAB
  0
TABLE
  2
STYLE
  5
3
330
0
100
AcDbSymbolTable
 70
     1
  0
STYLE
  5
11
330
3
100
AcDbSymbolTableRecord
100
AcDbTextStyleTableRecord
  2
Standard
 70
     0
 40
0.0
 41
1.0
 50
0.0
 71
     0
 42
0.2
  3
txt
  4

  0
ENDTAB
  0
TABLE
  2
VIEW
  5
6
330
0
100
AcDbSymbolTable
 70
     0
  0
ENDTAB
  0
TABLE
  2
UCS
  5
7
330
0
100
AcDbSymbolTable
 70
     0
  0
ENDTAB
  0
TABLE
  2
APPID
  5
9
330
0
100
AcDbSymbolTable
 70
     1
  0
APPID
  5
12
330
9
100
AcDbSymbolTableRecord
100
AcDbRegAppTableRecord
  2
ACAD
 70
     0
  0
ENDTAB
  0
TABLE
  2
DIMSTYLE
  5
A
330
0
100
AcDbSymbolTable
 70
     1
100
AcDbDimStyleTable
  0
DIMSTYLE
105
27
330
A
100
AcDbSymbolTableRecord
100
AcDbDimStyleTableRecord
  2
Standard
 70
     0
178
     0
340
11
  0
ENDTAB
  0
TABLE
  2
BLOCK_RECORD
  5
1
330
0
100
AcDbSymbolTable
 70
     5
  0
BLOCK_RECORD
  5
1F
330
1
100
AcDbSymbolTableRecord
100
AcDbBlockTableRecord
  2
*Model_Space
340
22
 70
     0
280
     1
281
     0
  0
BLOCK_RECORD
  5
1B
330
1
100
AcDbSymbolTableRecord
100
AcDbBlockTableRecord
  2
*Paper_Space
340
1E
 70
     0
280
     1
281
     0
  0
BLOCK_RECORD
  5
23
330
1
100
AcDbSymbolTableRecord
100
AcDbBlockTableRecord
  2
*Paper_Space0
340
26
 70
     0
280
     1
281
     0
  0
BLOCK_RECORD
  5
6E
330
1
100
AcDbSymbolTableRecord
100
AcDbBlockTableRecord
  2
1_131208_2
340
0
102
{BLKREFS
331
6F
102
}
 70
     0
280
     1
281
     0
  0
BLOCK_RECORD
  5
90
330
1
100
AcDbSymbolTableRecord
100
AcDbBlockTableRecord
  2
2_131908_0_in_131208_2
340
0
102
{BLKREFS
331
91
102
}
 70
     0
280
     1
281
     0
  0
BLOCK_RECORD
  5
104
330
1
100
AcDbSymbolTableRecord
100
AcDbBlockTableRecord
  2
3_405016_Inch_0_in_131208_2
340
0
102
{BLKREFS
331
105
102
}
 70
     0
280
     1
281
     0
  0
BLOCK_RECORD
  5
183
330
1
100
AcDbSymbolTableRecord
100
AcDbBlockTableRecord
  2
4_131208H_0_in_131208_2
340
0
102
{BLKREFS
331
184
102
}
 70
     0
280
     1
281
     0
  0
ENDTAB
  0
ENDSEC
  0
SECTION
  2
BLOCKS
  0
BLOCK
  5
20
330
1F
100
AcDbEntity
  8
0
100
AcDbBlockBegin
  2
*Model_Space
 70
     0
 10
0.0
 20
0.0
 30
0.0
  3
*Model_Space
  1

  0
ENDBLK
  5
21
330
1F
100
AcDbEntity
  8
0
100
AcDbBlockEnd
  0
BLOCK
  5
1C
330
1B
100
AcDbEntity
 67
     1
  8
0
100
AcDbBlockBegin
  2
*Paper_Space
 70
     0
 10
0.0
 20
0.0
 30
0.0
  3
*Paper_Space
  1

  0
ENDBLK
  5
1D
330
1B
100
AcDbEntity
 67
     1
  8
0
100
AcDbBlockEnd
  0
BLOCK
  5
24
330
23
100
AcDbEntity
  8
0
100
AcDbBlockBegin
  2
*Paper_Space0
 70
     0
 10
0.0
 20
0.0
 30
0.0
  3
*Paper_Space0
  1

  0
ENDBLK
  5
25
330
23
100
AcDbEntity
  8
0
100
AcDbBlockEnd
  0
BLOCK
  5
70
330
6E
100
AcDbEntity
  8
0
100
AcDbBlockBegin
  2
1_131208_2
 70
     2
 10
0.0
 20
0.0
 30
0.0
  3
1_131208_2
  1

  0
ATTDEF
  5
73
330
6E
100
AcDbEntity
  8
AM_6
100
AcDbText
 10
5.69
 20
1.815
 30
0.0
 40
0.5
  1
Eccentric Collar Wide Slot Take Up Inch Bore
100
AcDbAttributeDefinition
  3

  2
NN
 70
     8
280
     0
  0
ATTDEF
  5
74
330
6E
100
AcDbEntity
  8
AM_6
100
AcDbText
 10
5.69
 20
1.315
 30
0.0
 40
0.5
  1
SXR Normal Duty Wide Slot Take-Up Bearings
100
AcDbAttributeDefinition
  3

  2
NT
 70
     8
280
     0
  0
ATTDEF
  5
75
330
6E
100
AcDbEntity
  8
AM_6
100
AcDbText
 10
5.69
 20
0.815
 30
0.0
 40
0.5
  1
131208
100
AcDbAttributeDefinition
  3

  2
NB
 70
     8
280
     0
  0
ATTDEF
  5
76
330
6E
100
AcDbEntity
  8
AM_6
100
AcDbText
 10
5.69
 20
0.3149999999999999
 30
0.0
 40
0.5
  1
$PN.
100
AcDbAttributeDefinition
  3

  2
NBSYN
 70
     8
280
     0
  0
ATTDEF
  5
77
330
6E
100
AcDbEntity
  8
AM_6
100
AcDbText
 10
5.69
 20
-0.1850000000000001
 30
0.0
 40
0.5
  1
131208
100
AcDbAttributeDefinition
  3

  2
LINA
 70
     8
280
     0
  0
ATTDEF
  5
78
330
6E
100
AcDbEntity
  8
AM_6
100
AcDbText
 10
5.69
 20
-0.685
 30
0.0
 40
0.5
  1
205
100
AcDbAttributeDefinition
  3

  2
SERIES
 70
     8
280
     0
  0
ATTDEF
  5
79
330
6E
100
AcDbEntity
  8
AM_6
100
AcDbText
 10
5.69
 20
-1.185
 30
0.0
 40
0.5
  1
1
100
AcDbAttributeDefinition
  3

  2
SS
 70
     8
280
     0
  0
ATTDEF
  5
7A
330
6E
100
AcDbEntity
  8
AM_6
100
AcDbText
 10
5.69
 20
-1.685
 30
0.0
 40
0.5
  1
131208
100
AcDbAttributeDefinition
  3

  2
PN
 70
     8
280
     0
  0
ATTDEF
  5
7B
330
6E
100
AcDbEntity
  8
AM_6
100
AcDbText
 10
5.69
 20
-2.185
 30
0.0
 40
0.5
  1
WSTU-SXR-100
100
AcDbAttributeDefinition
  3

  2
DESCRIPTION
 70
     8
280
     0
  0
ATTDEF
  5
7C
330
6E
100
AcDbEntity
  8
AM_6
100
AcDbText
 10
5.69
 20
-2.685
 30
0.0
 40
0.5
  1
RE-LUBE
100
AcDbAttributeDefinition
  3

  2
LF
 70
     8
280
     0
  0
ATTDEF
  5
7D
330
6E
100
AcDbEntity
  8
AM_6
100
AcDbText
 10
5.69
 20
-3.185
 30
0.0
 40
0.5
  1
2.1
100
AcDbAttributeDefinition
  3

  2
W
 70
     8
280
     0
  0
ATTDEF
  5
7E
330
6E
100
AcDbEntity
  8
AM_6
100
AcDbText
 10
5.69
 20
-3.685
 30
0.0
 40
0.5
  1
WS300
100
AcDbAttributeDefinition
  3

  2
FS
 70
     8
280
     0
  0
ATTDEF
  5
7F
330
6E
100
AcDbEntity
  8
AM_6
100
AcDbText
 10
5.69
 20
-4.185
 30
0.0
 40
0.5
  1
1.62
100
AcDbAttributeDefinition
  3

  2
A
 70
     8
280
     0
  0
ATTDEF
  5
80
330
6E
100
AcDbEntity
  8
AM_6
100
AcDbText
 10
5.69
 20
-4.685
 30
0.0
 40
0.5
  1
3.81
100
AcDbAttributeDefinition
  3

  2
B
 70
     8
280
     0
  0
ATTDEF
  5
81
330
6E
100
AcDbEntity
  8
AM_6
100
AcDbText
 10
5.69
 20
-5.185
 30
0.0
 40
0.5
  1
0.531
100
AcDbAttributeDefinition
  3

  2
C
 70
     8
280
     0
  0
ATTDEF
  5
82
330
6E
100
AcDbEntity
  8
AM_6
100
AcDbText
 10
5.69
 20
-5.685
 30
0.0
 40
0.5
  1
2.00
100
AcDbAttributeDefinition
  3

  2
D
 70
     8
280
     0
  0
ATTDEF
  5
83
330
6E
100
AcDbEntity
  8
AM_6
100
AcDbText
 10
5.69
 20
-6.185
 30
0.0
 40
0.5
  1
2.44
100
AcDbAttributeDefinition
  3

  2
E
 70
     8
280
     0
  0
ATTDEF
  5
84
330
6E
100
AcDbEntity
  8
AM_6
100
AcDbText
 10
5.69
 20
-6.685
 30
0.0
 40
0.5
  1
5/8
100
AcDbAttributeDefinition
  3

  2
F
 70
     8
280
     0
  0
ATTDEF
  5
85
330
6E
100
AcDbEntity
  8
AM_6
100
AcDbText
 10
5.69
 20
-7.185
 30
0.0
 40
0.5
  1
0.38
100
AcDbAttributeDefinition
  3

  2
G
 70
     8
280
     0
  0
ATTDEF
  5
86
330
6E
100
AcDbEntity
  8
AM_6
100
AcDbText
 10
5.69
 20
-7.685
 30
0.0
 40
0.5
  1
0.63
100
AcDbAttributeDefinition
  3

  2
H
 70
     8
280
     0
  0
ATTDEF
  5
87
330
6E
100
AcDbEntity
  8
AM_6
100
AcDbText
 10
5.69
 20
-8.185
 30
0.0
 40
0.5
  1
2.00
100
AcDbAttributeDefinition
  3

  2
J
 70
     8
280
     0
  0
ATTDEF
  5
88
330
6E
100
AcDbEntity
  8
AM_6
100
AcDbText
 10
5.69
 20
-8.685
 30
0.0
 40
0.5
  1
1.31
100
AcDbAttributeDefinition
  3

  2
K
 70
     8
280
     0
  0
ATTDEF
  5
89
330
6E
100
AcDbEntity
  8
AM_6
100
AcDbText
 10
5.69
 20
-9.185
 30
0.0
 40
0.5
  1
1.50
100
AcDbAttributeDefinition
  3

  2
L
 70
     8
280
     0
  0
ATTDEF
  5
8A
330
6E
100
AcDbEntity
  8
AM_6
100
AcDbText
 10
5.69
 20
-9.685
 30
0.0
 40
0.5
  1
2.985/3.015
100
AcDbAttributeDefinition
  3

  2
M
 70
     8
280
     0
  0
ATTDEF
  5
8B
330
6E
100
AcDbEntity
  8
AM_6
100
AcDbText
 10
5.69
 20
-10.185
 30
0.0
 40
0.5
  1
3.63
100
AcDbAttributeDefinition
  3

  2
N
 70
     8
280
     0
  0
ATTDEF
  5
8C
330
6E
100
AcDbEntity
  8
AM_6
100
AcDbText
 10
5.69
 20
-10.685
 30
0.0
 40
0.5
  1
0.56
100
AcDbAttributeDefinition
  3

  2
R
 70
     8
280
     0
  0
ATTDEF
  5
8D
330
6E
100
AcDbEntity
  8
AM_6
100
AcDbText
 10
5.69
 20
-11.185
 30
0.0
 40
0.5
  1
1.06
100
AcDbAttributeDefinition
  3

  2
S
 70
     8
280
     0
  0
ATTDEF
  5
8E
330
6E
100
AcDbEntity
  8
AM_6
100
AcDbText
 10
5.69
 20
-11.685
 30
0.0
 40
0.5
  1
1.38
100
AcDbAttributeDefinition
  3

  2
T
 70
     8
280
     0
  0
ATTDEF
  5
8F
330
6E
100
AcDbEntity
  8
AM_6
100
AcDbText
 10
5.69
 20
-12.185
 30
0.0
 40
0.5
  1
baldor
100
AcDbAttributeDefinition
  3

  2
COMPANY
 70
     8
280
     0
  0
INSERT
  5
91
330
6E
100
AcDbEntity
  8
0
100
AcDbBlockReference
  2
2_131908_0_in_131208_2
 10
0.0
 20
0.0
 30
0.0
  0
INSERT
  5
105
330
6E
100
AcDbEntity
  8
0
100
AcDbBlockReference
  2
3_405016_Inch_0_in_131208_2
 10
0.0
 20
0.0
 30
0.0
  0
INSERT
  5
184
330
6E
100
AcDbEntity
  8
0
100
AcDbBlockReference
  2
4_131208H_0_in_131208_2
 10
0.0
 20
0.0
 30
0.0
  0
ENDBLK
  5
71
330
6E
100
AcDbEntity
  8
0
100
AcDbBlockEnd
  0
BLOCK
  5
92
330
90
100
AcDbEntity
  8
0
100
AcDbBlockBegin
  2
2_131908_0_in_131208_2
 70
     2
 10
0.0
 20
0.0
 30
0.0
  3
2_131908_0_in_131208_2
  1

  0
ATTDEF
  5
94
330
90
100
AcDbEntity
  8
AM_6
100
AcDbText
 10
5.641
 20
1.022983357735381
 30
0.0
 40
0.5
  1
Eccentric Collar Insert Inch Bore
100
AcDbAttributeDefinition
  3

  2
NN
 70
     8
280
     0
  0
ATTDEF
  5
95
330
90
100
AcDbEntity
  8
AM_6
100
AcDbText
 10
5.641
 20
0.5229833577353806
 30
0.0
 40
0.5
  1
SXR Normal Duty Bearing Inserts
100
AcDbAttributeDefinition
  3

  2
NT
 70
     8
280
     0
  0
ATTDEF
  5
96
330
90
100
AcDbEntity
  8
AM_6
100
AcDbText
 10
5.641
 20
0.0229833577353806
 30
0.0
 40
0.5
  1
131908
100
AcDbAttributeDefinition
  3

  2
NB
 70
     8
280
     0
  0
ATTDEF
  5
97
330
90
100
AcDbEntity
  8
AM_6
100
AcDbText
 10
5.641
 20
-0.4770166422646194
 30
0.0
 40
0.5
  1
$PN.
100
AcDbAttributeDefinition
  3

  2
NBSYN
 70
     8
280
     0
  0
ATTDEF
  5
98
330
90
100
AcDbEntity
  8
AM_6
100
AcDbText
 10
5.641
 20
-0.9770166422646194
 30
0.0
 40
0.5
  1
131908
100
AcDbAttributeDefinition
  3

  2
LINA
 70
     8
280
     0
  0
ATTDEF
  5
99
330
90
100
AcDbEntity
  8
AM_6
100
AcDbText
 10
5.641
 20
-1.477016642264619
 30
0.0
 40
0.5
  1
205
100
AcDbAttributeDefinition
  3

  2
SERIES
 70
     8
280
     0
  0
ATTDEF
  5
9A
330
90
100
AcDbEntity
  8
AM_6
100
AcDbText
 10
5.641
 20
-1.977016642264619
 30
0.0
 40
0.5
  1
1
100
AcDbAttributeDefinition
  3

  2
SS
 70
     8
280
     0
  0
ATTDEF
  5
9B
330
90
100
AcDbEntity
  8
AM_6
100
AcDbText
 10
5.641
 20
-2.477016642264619
 30
0.0
 40
0.5
  1
131908
100
AcDbAttributeDefinition
  3

  2
PN
 70
     8
280
     0
  0
ATTDEF
  5
9C
330
90
100
AcDbEntity
  8
AM_6
100
AcDbText
 10
5.641
 20
-2.977016642264619
 30
0.0
 40
0.5
  1
INS-SXR-100
100
AcDbAttributeDefinition
  3

  2
DESCRIPTION
 70
     8
280
     0
  0
ATTDEF
  5
9D
330
90
100
AcDbEntity
  8
AM_6
100
AcDbText
 10
5.641
 20
-3.477016642264619
 30
0.0
 40
0.5
  1
0.5
100
AcDbAttributeDefinition
  3

  2
WEIGHT
 70
     8
280
     0
  0
ATTDEF
  5
9E
330
90
100
AcDbEntity
  8
AM_6
100
AcDbText
 10
5.641
 20
-3.977016642264619
 30
0.0
 40
0.5
  1
1.62
100
AcDbAttributeDefinition
  3

  2
A
 70
     8
280
     0
  0
ATTDEF
  5
9F
330
90
100
AcDbEntity
  8
AM_6
100
AcDbText
 10
5.641
 20
-4.477016642264619
 30
0.0
 40
0.5
  1
0.59
100
AcDbAttributeDefinition
  3

  2
C
 70
     8
280
     0
  0
ATTDEF
  5
A0
330
90
100
AcDbEntity
  8
AM_6
100
AcDbText
 10
5.641
 20
-4.977016642264619
 30
0.0
 40
0.5
  1
2.0472
100
AcDbAttributeDefinition
  3

  2
D
 70
     8
280
     0
  0
ATTDEF
  5
A1
330
90
100
AcDbEntity
  8
AM_6
100
AcDbText
 10
5.641
 20
-5.477016642264619
 30
0.0
 40
0.5
  1
0.16
100
AcDbAttributeDefinition
  3

  2
J
 70
     8
280
     0
  0
ATTDEF
  5
A2
330
90
100
AcDbEntity
  8
AM_6
100
AcDbText
 10
5.641
 20
-5.977016642264619
 30
0.0
 40
0.5
  1
1.50
100
AcDbAttributeDefinition
  3

  2
L
 70
     8
280
     0
  0
ATTDEF
  5
A3
330
90
100
AcDbEntity
  8
AM_6
100
AcDbText
 10
5.641
 20
-6.477016642264619
 30
0.0
 40
0.5
  1
1/4 - 28
100
AcDbAttributeDefinition
  3

  2
N
 70
     8
280
     0
  0
ATTDEF
  5
A4
330
90
100
AcDbEntity
  8
AM_6
100
AcDbText
 10
5.641
 20
-6.977016642264619
 30
0.0
 40
0.5
  1
0.56
100
AcDbAttributeDefinition
  3

  2
W
 70
     8
280
     0
  0
ATTDEF
  5
A5
330
90
100
AcDbEntity
  8
AM_6
100
AcDbText
 10
5.641
 20
-7.477016642264619
 30
0.0
 40
0.5
  1
1.06
100
AcDbAttributeDefinition
  3

  2
Y
 70
     8
280
     0
  0
ATTDEF
  5
A6
330
90
100
AcDbEntity
  8
AM_6
100
AcDbText
 10
5.641
 20
-7.977016642264619
 30
0.0
 40
0.5
  1
1.32
100
AcDbAttributeDefinition
  3

  2
Z
 70
     8
280
     0
  0
ATTDEF
  5
A7
330
90
100
AcDbEntity
  8
AM_6
100
AcDbText
 10
5.641
 20
-8.47701664226462
 30
0.0
 40
0.5
  1
baldor
100
AcDbAttributeDefinition
  3

  2
COMPANY
 70
     8
280
     0
  0
LINE
  5
AA
330
90
100
AcDbEntity
  8
AM_9
100
AcDbLine
 10
-0.7644000000000001
 20
0.5000000000000001
 30
0.0
 11
-0.7644000000000001
 21
0.7421099728874522
 31
0.0
  0
LINE
  5
AB
330
90
100
AcDbEntity
  8
AM_9
100
AcDbLine
 10
-0.9806
 20
0.7421099728874522
 30
0.0
 11
-0.9806
 21
0.5000000000000001
 31
0.0
  0
LINE
  5
AC
330
90
100
AcDbEntity
  8
AM_9
100
AcDbLine
 10
-0.9806
 20
0.7421099728874522
 30
0.0
 11
-0.7644000000000001
 21
0.7421099728874522
 31
0.0
  0
LINE
  5
AD
330
90
100
AcDbEntity
  8
AM_9
100
AcDbLine
 10
-0.7644000000000001
 20
0.7421099728874522
 30
0.0
 11
-0.7565099728874523
 21
0.7499999999999999
 31
0.0
  0
LINE
  5
AE
330
90
100
AcDbEntity
  8
AM_9
100
AcDbLine
 10
-0.9884900271125479
 20
0.7499999999999999
 30
0.0
 11
-0.9806
 21
0.7421099728874522
 31
0.0
  0
LINE
  5
AF
330
90
100
AcDbEntity
  8
AM_9
100
AcDbLine
 10
-0.6766561399819989
 20
-0.5000000000000001
 30
0.0
 11
0.5482
 21
-0.5000000000000001
 31
0.0
  0
LINE
  5
B0
330
90
100
AcDbEntity
  8
AM_9
100
AcDbLine
 10
0.5482
 20
0.5000000000000001
 30
0.0
 11
-0.6766561399819989
 21
0.5000000000000001
 31
0.0
  0
LWPOLYLINE
  5
B1
330
90
100
AcDbEntity
  8
AM_9
100
AcDbPolyline
 90
       20
 70
     0
 43
0.0
 10
-0.9806
 20
0.5000000000000001
 10
-0.9791480199952252
 20
0.4996880928828524
 10
-0.9746683447825585
 20
0.4987512011771079
 10
-0.9675535764558074
 20
0.4973425101447091
 10
-0.9576131034641034
 20
0.4955387274283326
 10
-0.9454767434660191
 20
0.4935990225749088
 10
-0.9309159497222016
 20
0.4916572110545587
 10
-0.9149458946895739
 20
0.4900163711305965
 10
-0.8972266059066585
 20
0.4888003631746435
 10
-0.8795641689999011
 20
0.4882256573385501
 10
-0.8611637131845306
 20
0.4883061553971675
 10
-0.843919872299855
 20
0.4890104433438581
 10
-0.8269999532087152
 20
0.4902903672906589
 10
-0.8116669524862844
 20
0.4919502512142931
 10
-0.7976126947153946
 20
0.4938851065711436
 10
-0.7857336458268227
 20
0.4958253626192446
 10
-0.7760069354878736
 20
0.4976196353631371
 10
-0.7692446239040054
 20
0.4989750120925149
 10
-0.7652845913259949
 20
0.4998094975659567
 10
-0.7644000000013321
 20
0.4999999999997121
  0
LINE
  5
B2
330
90
100
AcDbEntity
  8
AM_9
100
AcDbLine
 10
-1.0482
 20
-0.5000000000000001
 30
0.0
 11
-0.6933438600180015
 21
-0.5000000000000001
 31
0.0
  0
LINE
  5
B3
330
90
100
AcDbEntity
  8
AM_9
100
AcDbLine
 10
-0.6933438600180015
 20
0.5000000000000001
 30
0.0
 11
-0.7644000000000001
 21
0.5000000000000001
 31
0.0
  0
LINE
  5
B4
330
90
100
AcDbEntity
  8
AM_9
100
AcDbLine
 10
-0.9805999999999999
 20
0.5000000000000001
 30
0.0
 11
-1.0482
 21
0.5000000000000001
 31
0.0
  0
LINE
  5
B5
330
90
100
AcDbEntity
  8
AM_9
100
AcDbLine
 10
-0.6933438600180015
 20
-0.5000000000000001
 30
0.0
 11
-0.6849999999999999
 21
-0.5083438600180015
 31
0.0
  0
LINE
  5
B6
330
90
100
AcDbEntity
  8
AM_9
100
AcDbLine
 10
-0.6849999999999999
 20
0.5083438600180015
 30
0.0
 11
-0.6933438600180015
 21
0.5000000000000001
 31
0.0
  0
LINE
  5
B7
330
90
100
AcDbEntity
  8
AM_9
100
AcDbLine
 10
-0.6933438600180015
 20
0.5000000000000001
 30
0.0
 11
-0.6933438600180015
 21
-0.5000000000000001
 31
0.0
  0
LINE
  5
B8
330
90
100
AcDbEntity
  8
AM_9
100
AcDbLine
 10
-0.6766561399819989
 20
0.5000000000000001
 30
0.0
 11
-0.6849999999999999
 21
0.5083438600180015
 31
0.0
  0
LINE
  5
B9
330
90
100
AcDbEntity
  8
AM_9
100
AcDbLine
 10
-0.6849999999999999
 20
-0.5083438600180015
 30
0.0
 11
-0.6766561399819989
 21
-0.5000000000000001
 31
0.0
  0
LINE
  5
BA
330
90
100
AcDbEntity
  8
AM_9
100
AcDbLine
 10
-0.6766561399819989
 20
0.5000000000000001
 30
0.0
 11
-0.6766561399819989
 21
-0.5000000000000001
 31
0.0
  0
LINE
  5
BB
330
90
100
AcDbEntity
  8
AM_9
100
AcDbLine
 10
-0.6849999999999999
 20
0.5083438600180015
 30
0.0
 11
-0.6849999999999999
 21
-0.5083438600180015
 31
0.0
  0
LINE
  5
BC
330
90
100
AcDbEntity
  8
AM_9
100
AcDbLine
 10
0.5482
 20
-0.5
 30
0.0
 11
0.56
 21
-0.5118
 31
0.0
  0
LINE
  5
BD
330
90
100
AcDbEntity
  8
AM_9
100
AcDbLine
 10
0.56
 20
0.5118
 30
0.0
 11
0.5482
 21
0.5
 31
0.0
  0
LINE
  5
BE
330
90
100
AcDbEntity
  8
AM_9
100
AcDbLine
 10
-1.0482
 20
0.5000000000000001
 30
0.0
 11
-1.06
 21
0.5118000000000001
 31
0.0
  0
LINE
  5
BF
330
90
100
AcDbEntity
  8
AM_9
100
AcDbLine
 10
-1.06
 20
-0.5118000000000001
 30
0.0
 11
-1.0482
 21
-0.5000000000000001
 31
0.0
  0
LINE
  5
C0
330
90
100
AcDbEntity
  8
AM_9
100
AcDbLine
 10
-1.0482
 20
0.5000000000000001
 30
0.0
 11
-1.0482
 21
-0.5000000000000001
 31
0.0
  0
LINE
  5
C1
330
90
100
AcDbEntity
  8
AM_9
100
AcDbLine
 10
0.56
 20
0.4031128874149272
 30
0.0
 11
0.56
 21
-0.4031128874149272
 31
0.0
  0
LINE
  5
C2
330
90
100
AcDbEntity
  8
AM_9
100
AcDbLine
 10
-0.61
 20
0.3224903099319416
 30
0.0
 11
-0.61
 21
-0.3224903099319416
 31
0.0
  0
LINE
  5
C3
330
90
100
AcDbEntity
  8
AM_9
100
AcDbLine
 10
0.295
 20
-0.66
 30
0.0
 11
0.4513500000000001
 21
-0.66
 31
0.0
  0
LINE
  5
C4
330
90
100
AcDbEntity
  8
AM_9
100
AcDbLine
 10
0.4513500000000001
 20
0.66
 30
0.0
 11
0.295
 21
0.66
 31
0.0
  0
LINE
  5
C5
330
90
100
AcDbEntity
  8
AM_9
100
AcDbLine
 10
0.5482
 20
0.4190188062605303
 30
0.0
 11
0.5482
 21
-0.4190188062605303
 31
0.0
  0
LINE
  5
C6
330
90
100
AcDbEntity
  8
AM_9
100
AcDbLine
 10
-0.4513499999999998
 20
-0.66
 30
0.0
 11
-0.295
 21
-0.66
 31
0.0
  0
LINE
  5
C7
330
90
100
AcDbEntity
  8
AM_9
100
AcDbLine
 10
-0.295
 20
0.66
 30
0.0
 11
-0.45135
 21
0.66
 31
0.0
  0
LINE
  5
C8
330
90
100
AcDbEntity
  8
AM_9
100
AcDbLine
 10
-0.5982
 20
0.3438848062942005
 30
0.0
 11
-0.5982
 21
-0.3438848062942005
 31
0.0
  0
LINE
  5
C9
330
90
100
AcDbEntity
  8
AM_9
100
AcDbLine
 10
-0.635
 20
0.2699536997338614
 30
0.0
 11
-0.635
 21
-0.2699536997338614
 31
0.0
  0
LINE
  5
CA
330
90
100
AcDbEntity
  8
AM_9
100
AcDbLine
 10
-0.6662499999999998
 20
0.1794740580139653
 30
0.0
 11
-0.6662499999999998
 21
-0.1794740580139653
 31
0.0
  0
LINE
  5
CB
330
90
100
AcDbEntity
  8
AM_9
100
AcDbLine
 10
-0.192
 20
-0.9748571428571433
 30
0.0
 11
-0.128
 21
-0.9748571428571433
 31
0.0
  0
LINE
  5
CC
330
90
100
AcDbEntity
  8
AM_9
100
AcDbLine
 10
-0.128
 20
0.9748571428571433
 30
0.0
 11
-0.192
 21
0.9748571428571433
 31
0.0
  0
LINE
  5
CD
330
90
100
AcDbEntity
  8
AM_9
100
AcDbLine
 10
0.295
 20
0.9624666435778437
 30
0.0
 11
0.295
 21
-0.9624666435778437
 31
0.0
  0
ARC
  5
CE
330
90
100
AcDbEntity
  8
AM_9
100
AcDbCircle
 10
0.2714000000000001
 20
-0.962466643577844
 30
0.0
 40
0.0235999999999999
100
AcDbArc
 50
285.7475919993695
 51
0.0
  0
ARC
  5
CF
330
90
100
AcDbEntity
  8
AM_9
100
AcDbCircle
 10
0.2714000000000001
 20
0.962466643577844
 30
0.0
 40
0.0235999999999999
100
AcDbArc
 50
0.0
 51
74.25240800063051
  0
LINE
  5
D0
330
90
100
AcDbEntity
  8
AM_9
100
AcDbLine
 10
-0.295
 20
0.9624666435778437
 30
0.0
 11
-0.295
 21
-0.9624666435778437
 31
0.0
  0
ARC
  5
D1
330
90
100
AcDbEntity
  8
AM_9
100
AcDbCircle
 10
-0.2713999999999998
 20
-0.9624666435778438
 30
0.0
 40
0.0236000000000002
100
AcDbArc
 50
180.0
 51
254.2524080006297
  0
ARC
  5
D2
330
90
100
AcDbEntity
  8
AM_9
100
AcDbCircle
 10
-0.2713999999999998
 20
0.9624666435778438
 30
0.0
 40
0.0236000000000001
100
AcDbArc
 50
105.7475919993702
 51
180.0
  0
ARC
  5
D3
330
90
100
AcDbEntity
  8
AM_9
100
AcDbCircle
 10
-0.0000000000000183
 20
0.0000000000000679
 30
0.0
 40
1.02359999999993
100
AcDbArc
 50
100.8111968128523
 51
105.7475919993696
  0
ARC
  5
D4
330
90
100
AcDbEntity
  8
AM_9
100
AcDbCircle
 10
-0.0000000000052374
 20
-0.0000000000221237
 30
0.0
 40
1.023599999977236
100
AcDbArc
 50
254.2524080005757
 51
259.1888031872026
  0
LINE
  5
D5
330
90
100
AcDbEntity
  8
AM_9
100
AcDbLine
 10
-0.2778050400000001
 20
0.9851808563662809
 30
0.0
 11
-0.2778050400000001
 21
-0.9851808563662295
 31
0.0
  0
LINE
  5
D6
330
90
100
AcDbEntity
  8
AM_9
100
AcDbLine
 10
-0.192
 20
1.005431728164573
 30
0.0
 11
-0.192
 21
-1.005431728164522
 31
0.0
  0
ARC
  5
D7
330
90
100
AcDbEntity
  8
AM_9
100
AcDbCircle
 10
0.0000000000000005
 20
0.0000000000000004
 30
0.0
 40
1.0236
100
AcDbArc
 50
74.25240800063042
 51
97.18357665371073
  0
ARC
  5
D8
330
90
100
AcDbEntity
  8
AM_9
100
AcDbCircle
 10
-0.0000000000001618
 20
0.0000000000021665
 30
0.0
 40
1.023600000002133
100
AcDbArc
 50
262.8164233463135
 51
285.7475919993453
  0
LINE
  5
D9
330
90
100
AcDbEntity
  8
AM_9
100
AcDbLine
 10
-0.128
 20
1.015565340093881
 30
0.0
 11
-0.128
 21
-1.015565340093885
 31
0.0
  0
LINE
  5
DA
330
90
100
AcDbEntity
  8
AM_9
100
AcDbLine
 10
0.27780504
 20
0.9851808563662809
 30
0.0
 11
0.27780504
 21
-0.9851808563662848
 31
0.0
  0
ELLIPSE
  5
DB
330
90
100
AcDbEntity
  8
AM_9
100
AcDbEllipse
 10
0.1627496306602746
 20
0.0000000000000001
 30
0.0
 11
4.992322767840503E-18
 21
0.08153081805001006
 31
0.0
210
0.0
220
0.0
230
1.0
 40
0.9871972709502105
 41
0.0
 42
6.283185307179586
  0
LINE
  5
DD
330
90
100
AcDbEntity
  8
AM_5
100
AcDbLine
 10
-0.7475
 20
0.5000000000000001
 30
0.0
 11
-0.7475
 21
0.7499999999999999
 31
0.0
  0
LINE
  5
DE
330
90
100
AcDbEntity
  8
AM_5
100
AcDbLine
 10
-0.9975
 20
0.5000000000000001
 30
0.0
 11
-0.9975
 21
0.7499999999999999
 31
0.0
  0
LINE
  5
E1
330
90
100
AcDbEntity
  8
AM_7
100
AcDbLine
 10
-1.141
 20
0.0
 30
0.0
 11
0.6410000000000002
 21
0.0
 31
0.0
  0
LINE
  5
E2
330
90
100
AcDbEntity
  8
AM_7
100
AcDbLine
 10
-0.8725
 20
0.7737293256180284
 30
0.0
 11
-0.8725
 21
0.4499035655453509
 31
0.0
  0
LINE
  5
E4
330
90
100
AcDbEntity
  8
AM_4
100
AcDbLine
 10
-0.635
 20
-0.6285714285714284
 30
0.0
 11
-0.6100000000000001
 21
-0.6285714285714284
 31
0.0
  0
LINE
  5
E5
330
90
100
AcDbEntity
  8
AM_4
100
AcDbLine
 10
-0.6100000000000001
 20
0.6285714285714284
 30
0.0
 11
-0.635
 21
0.6285714285714284
 31
0.0
  0
LINE
  5
E6
330
90
100
AcDbEntity
  8
AM_4
100
AcDbLine
 10
0.56
 20
0.6481999999999999
 30
0.0
 11
0.5482
 21
0.66
 31
0.0
  0
LINE
  5
E7
330
90
100
AcDbEntity
  8
AM_4
100
AcDbLine
 10
0.5482
 20
-0.66
 30
0.0
 11
0.56
 21
-0.6481999999999999
 31
0.0
  0
LINE
  5
E8
330
90
100
AcDbEntity
  8
AM_4
100
AcDbLine
 10
0.56
 20
-0.4031128874149272
 30
0.0
 11
0.56
 21
-0.6481999999999999
 31
0.0
  0
LINE
  5
E9
330
90
100
AcDbEntity
  8
AM_4
100
AcDbLine
 10
0.56
 20
0.6481999999999999
 30
0.0
 11
0.56
 21
0.4031128874149272
 31
0.0
  0
LINE
  5
EA
330
90
100
AcDbEntity
  8
AM_4
100
AcDbLine
 10
-0.6100000000000001
 20
-0.6481999999999999
 30
0.0
 11
-0.5982000000000001
 21
-0.66
 31
0.0
  0
LINE
  5
EB
330
90
100
AcDbEntity
  8
AM_4
100
AcDbLine
 10
-0.5982000000000001
 20
0.66
 30
0.0
 11
-0.6100000000000001
 21
0.6481999999999999
 31
0.0
  0
LINE
  5
EC
330
90
100
AcDbEntity
  8
AM_4
100
AcDbLine
 10
-0.61
 20
-0.3224903099319416
 30
0.0
 11
-0.6100000000000001
 21
-0.6481999999999999
 31
0.0
  0
LINE
  5
ED
330
90
100
AcDbEntity
  8
AM_4
100
AcDbLine
 10
-0.6100000000000001
 20
0.6481999999999999
 30
0.0
 11
-0.61
 21
0.3224903099319416
 31
0.0
  0
LINE
  5
EE
330
90
100
AcDbEntity
  8
AM_4
100
AcDbLine
 10
0.4513500000000001
 20
-0.66
 30
0.0
 11
0.5482
 21
-0.66
 31
0.0
  0
LINE
  5
EF
330
90
100
AcDbEntity
  8
AM_4
100
AcDbLine
 10
0.5482
 20
0.66
 30
0.0
 11
0.4513500000000001
 21
0.66
 31
0.0
  0
LINE
  5
F0
330
90
100
AcDbEntity
  8
AM_4
100
AcDbLine
 10
0.5482
 20
-0.4190188062605303
 30
0.0
 11
0.5482
 21
-0.66
 31
0.0
  0
LINE
  5
F1
330
90
100
AcDbEntity
  8
AM_4
100
AcDbLine
 10
0.5482
 20
0.66
 30
0.0
 11
0.5482
 21
0.4190188062605303
 31
0.0
  0
LINE
  5
F2
330
90
100
AcDbEntity
  8
AM_4
100
AcDbLine
 10
-0.5982000000000001
 20
-0.66
 30
0.0
 11
-0.4513499999999998
 21
-0.66
 31
0.0
  0
LINE
  5
F3
330
90
100
AcDbEntity
  8
AM_4
100
AcDbLine
 10
-0.45135
 20
0.66
 30
0.0
 11
-0.5982000000000001
 21
0.66
 31
0.0
  0
LINE
  5
F4
330
90
100
AcDbEntity
  8
AM_4
100
AcDbLine
 10
-0.5982
 20
-0.3438848062942005
 30
0.0
 11
-0.5982000000000001
 21
-0.66
 31
0.0
  0
LINE
  5
F5
330
90
100
AcDbEntity
  8
AM_4
100
AcDbLine
 10
-0.5982000000000001
 20
0.66
 30
0.0
 11
-0.5982
 21
0.3438848062942005
 31
0.0
  0
LINE
  5
F6
330
90
100
AcDbEntity
  8
AM_4
100
AcDbLine
 10
-0.635
 20
-0.2699536997338614
 30
0.0
 11
-0.635
 21
-0.71875
 31
0.0
  0
LINE
  5
F7
330
90
100
AcDbEntity
  8
AM_4
100
AcDbLine
 10
-0.635
 20
0.71875
 30
0.0
 11
-0.635
 21
0.2699536997338614
 31
0.0
  0
ARC
  5
F8
330
90
100
AcDbEntity
  8
AM_4
100
AcDbCircle
 10
-0.6662499999999999
 20
-0.7187499999999999
 30
0.0
 40
0.0312499999999999
100
AcDbArc
 50
270.0
 51
0.0
  0
ARC
  5
F9
330
90
100
AcDbEntity
  8
AM_4
100
AcDbCircle
 10
-0.66625
 20
0.7187499999999998
 30
0.0
 40
0.03125
100
AcDbArc
 50
0.0
 51
90.0
  0
LINE
  5
FA
330
90
100
AcDbEntity
  8
AM_4
100
AcDbLine
 10
-1.02875
 20
-0.7499999999999999
 30
0.0
 11
-0.6662499999999998
 21
-0.7499999999999999
 31
0.0
  0
LINE
  5
FB
330
90
100
AcDbEntity
  8
AM_4
100
AcDbLine
 10
-0.6662499999999998
 20
0.7499999999999999
 30
0.0
 11
-0.7565099728874523
 21
0.7499999999999999
 31
0.0
  0
LINE
  5
FC
330
90
100
AcDbEntity
  8
AM_4
100
AcDbLine
 10
-0.9884900271125479
 20
0.7499999999999999
 30
0.0
 11
-1.02875
 21
0.7499999999999999
 31
0.0
  0
LWPOLYLINE
  5
FD
330
90
100
AcDbEntity
  8
AM_4
100
AcDbPolyline
 90
       20
 70
     0
 43
0.0
 10
-0.7565099728874898
 20
0.7499999999999949
 10
-0.7579372461174044
 20
0.749809966611925
 10
-0.7620393308165357
 20
0.7492764500959576
 10
-0.7688769337709233
 20
0.7484290336376335
 10
-0.7781160588059292
 20
0.747367627419306
 10
-0.7897734132510357
 20
0.746166590792694
 10
-0.8038477998635465
 20
0.7449236713145796
 10
-0.8199451776021799
 20
0.7437822623716346
 10
-0.8380075375650441
 20
0.7428602477147668
 10
-0.8574571222723582
 20
0.7422942793432504
 10
-0.8775691464581739
 20
0.7421763480060027
 10
-0.8981045073653557
 20
0.7425465636938513
 10
-0.9175662140515511
 20
0.7433538112272396
 10
-0.936276229094068
 20
0.7445462619581992
 10
-0.9522828833004996
 20
0.7458878291918167
 10
-0.9663630971765224
 20
0.7473106674143561
 10
-0.9766068018320243
 20
0.7484872591545052
 10
-0.9840549066247527
 20
0.7494169279599632
 10
-0.9877161670241632
 20
0.7498966832244369
 10
-0.988490027112322
 20
0.7499999999999697
  0
LINE
  5
FE
330
90
100
AcDbEntity
  8
AM_4
100
AcDbLine
 10
-0.6662499999999998
 20
-0.1794740580139653
 30
0.0
 11
-0.6662499999999998
 21
-0.7499999999999999
 31
0.0
  0
LINE
  5
FF
330
90
100
AcDbEntity
  8
AM_4
100
AcDbLine
 10
-0.6662499999999998
 20
0.7499999999999999
 30
0.0
 11
-0.6662499999999998
 21
0.1794740580139653
 31
0.0
  0
LINE
  5
100
330
90
100
AcDbEntity
  8
AM_4
100
AcDbLine
 10
-1.06
 20
0.7187500000000001
 30
0.0
 11
-1.06
 21
-0.7187500000000001
 31
0.0
  0
ARC
  5
101
330
90
100
AcDbEntity
  8
AM_4
100
AcDbCircle
 10
-1.02875
 20
-0.7187499999999997
 30
0.0
 40
0.03125
100
AcDbArc
 50
180.0
 51
270.0
  0
ARC
  5
102
330
90
100
AcDbEntity
  8
AM_4
100
AcDbCircle
 10
-1.02875
 20
0.7187499999999997
 30
0.0
 40
0.0312500000000002
100
AcDbArc
 50
90.0
 51
180.0
  0
LINE
  5
103
330
90
100
AcDbEntity
  8
AM_4
100
AcDbLine
 10
-1.02875
 20
0.7499999999999999
 30
0.0
 11
-1.02875
 21
-0.7499999999999999
 31
0.0
  0
ENDBLK
  5
93
330
90
100
AcDbEntity
  8
0
100
AcDbBlockEnd
  0
BLOCK
  5
106
330
104
100
AcDbEntity
  8
0
100
AcDbBlockBegin
  2
3_405016_Inch_0_in_131208_2
 70
     2
 10
0.0
 20
0.0
 30
0.0
  3
3_405016_Inch_0_in_131208_2
  1

  0
ATTDEF
  5
108
330
104
100
AcDbEntity
  8
AM_6
100
AcDbText
 10
5.21875
 20
-0.4769256983551579
 30
0.0
 40
0.5
  1
405016 -Inch
100
AcDbAttributeDefinition
  3

  2
NN
 70
     8
280
     0
  0
ATTDEF
  5
109
330
104
100
AcDbEntity
  8
AM_6
100
AcDbText
 10
5.21875
 20
-0.976925698355158
 30
0.0
 40
0.5
  1
Grease Fitting
100
AcDbAttributeDefinition
  3

  2
NT
 70
     8
280
     0
  0
ATTDEF
  5
10A
330
104
100
AcDbEntity
  8
AM_6
100
AcDbText
 10
5.21875
 20
-1.476925698355158
 30
0.0
 40
0.5
  1
405016-Inch
100
AcDbAttributeDefinition
  3

  2
NB
 70
     8
280
     0
  0
ATTDEF
  5
10B
330
104
100
AcDbEntity
  8
AM_6
100
AcDbText
 10
5.21875
 20
-1.976925698355158
 30
0.0
 40
0.5
  1
$MN.-Inch
100
AcDbAttributeDefinition
  3

  2
NBSYN
 70
     8
280
     0
  0
ATTDEF
  5
10C
330
104
100
AcDbEntity
  8
AM_6
100
AcDbText
 10
5.21875
 20
-2.476925698355158
 30
0.0
 40
0.5
  1
405016
100
AcDbAttributeDefinition
  3

  2
LINA
 70
     8
280
     0
  0
ATTDEF
  5
10D
330
104
100
AcDbEntity
  8
AM_6
100
AcDbText
 10
5.21875
 20
-2.976925698355158
 30
0.0
 40
0.5
  1
405016
100
AcDbAttributeDefinition
  3

  2
MN
 70
     8
280
     0
  0
ATTDEF
  5
10E
330
104
100
AcDbEntity
  8
AM_6
100
AcDbText
 10
5.21875
 20
-3.476925698355158
 30
0.0
 40
0.5
  1
7/16 HEX
100
AcDbAttributeDefinition
  3

  2
H
 70
     8
280
     0
  0
ATTDEF
  5
10F
330
104
100
AcDbEntity
  8
AM_6
100
AcDbText
 10
5.21875
 20
-3.976925698355158
 30
0.0
 40
0.5
  1
0.383
100
AcDbAttributeDefinition
  3

  2
NDR
 70
     8
280
     0
  0
ATTDEF
  5
110
330
104
100
AcDbEntity
  8
AM_6
100
AcDbText
 10
5.21875
 20
-4.476925698355158
 30
0.0
 40
0.5
  1
0.337
100
AcDbAttributeDefinition
  3

  2
KDR
 70
     8
280
     0
  0
ATTDEF
  5
111
330
104
100
AcDbEntity
  8
AM_6
100
AcDbText
 10
5.21875
 20
-4.976925698355158
 30
0.0
 40
0.5
  1
0.1575
100
AcDbAttributeDefinition
  3

  2
BZE
 70
     8
280
     0
  0
ATTDEF
  5
112
330
104
100
AcDbEntity
  8
AM_6
100
AcDbText
 10
5.21875
 20
-5.476925698355158
 30
0.0
 40
0.5
  1
0.4375
100
AcDbAttributeDefinition
  3

  2
HEX
 70
     8
280
     0
  0
ATTDEF
  5
113
330
104
100
AcDbEntity
  8
AM_6
100
AcDbText
 10
5.21875
 20
-5.976925698355158
 30
0.0
 40
0.5
  1
0.281250
100
AcDbAttributeDefinition
  3

  2
HEX2
 70
     8
280
     0
  0
ATTDEF
  5
114
330
104
100
AcDbEntity
  8
AM_6
100
AcDbText
 10
5.21875
 20
-6.476925698355158
 30
0.0
 40
0.5
  1
baldor
100
AcDbAttributeDefinition
  3

  2
COMPANY
 70
     8
280
     0
  0
LWPOLYLINE
  5
115
330
104
100
AcDbEntity
  8
AM_9
100
AcDbPolyline
 90
        5
 70
     0
 43
0.0
 10
-0.1791093260592887
 20
-1.081738809059826
 10
-0.1842540823997054
 20
-1.048670119967152
 10
-0.1862220679364951
 20
-1.014312409178914
 10
-0.1844124966919382
 20
-0.9781264462853559
 10
-0.1791093260592887
 20
-0.9411138090598259
  0
LINE
  5
116
330
104
100
AcDbEntity
  8
AM_9
100
AcDbLine
 10
-0.1510741298357571
 20
-0.9345772957113703
 30
0.0
 11
-0.1791093260592887
 21
-0.9411138090598259
 31
0.0
  0
LWPOLYLINE
  5
117
330
104
100
AcDbEntity
  8
AM_9
100
AcDbPolyline
 90
        5
 70
     0
 43
0.0
 10
-0.1791093260592887
 20
-0.9411138090598259
 10
-0.1988355121406939
 20
-0.909688517736611
 10
-0.2156330920108725
 20
-0.8769977243283276
 10
-0.2290462109660021
 20
-0.8425061536907938
 10
-0.2389369657326277
 20
-0.8071690924072835
  0
LINE
  5
118
330
104
100
AcDbEntity
  8
AM_9
100
AcDbLine
 10
-0.2099962668917054
 20
-0.8004214576563438
 30
0.0
 11
-0.2389369657326277
 21
-0.8071690924072835
 31
0.0
  0
LINE
  5
119
330
104
100
AcDbEntity
  8
AM_9
100
AcDbLine
 10
-0.2389369657326277
 20
-0.8071690924072835
 30
0.0
 11
-0.2711532636537957
 21
-0.8116181234374058
 31
0.0
  0
LWPOLYLINE
  5
11A
330
104
100
AcDbEntity
  8
AM_9
100
AcDbPolyline
 90
        3
 70
     0
 43
0.0
 10
-0.2813919000363599
 20
-0.812753048956784
 10
-0.2911775952746243
 20
-0.8135555934942604
 10
-0.2987675689889718
 20
-0.8138500667254667
  0
LWPOLYLINE
  5
11B
330
104
100
AcDbEntity
  8
AM_9
100
AcDbPolyline
 90
        5
 70
     0
 43
0.0
 10
-0.2389369657326277
 20
-1.088419092407284
 10
-0.2295338871417796
 20
-1.08799806213629
 10
-0.2166871171046321
 20
-1.086802555641742
 10
-0.1996402057054678
 20
-1.084676787031713
 10
-0.1791093260592887
 20
-1.081738809059826
  0
LINE
  5
11C
330
104
100
AcDbEntity
  8
AM_9
100
AcDbLine
 10
-0.1510741298357571
 20
-1.07520229571137
 30
0.0
 11
-0.1791093260592887
 21
-1.081738809059826
 31
0.0
  0
ELLIPSE
  5
11D
330
104
100
AcDbEntity
  8
AM_9
100
AcDbEllipse
 10
-0.4687500000000002
 20
-1.000606438444094
 30
0.0
 11
-0.0234971640207461
 21
0.1007796617096759
 31
0.0
210
0.0
220
0.0
230
1.0
 40
0.3659981507706677
 41
2.957156468664755
 42
6.467621492104615
  0
LINE
  5
11E
330
104
100
AcDbEntity
  8
AM_9
100
AcDbLine
 10
-0.45135
 20
-1.101517472588915
 30
0.0
 11
-0.3774664534000949
 21
-1.119780662014441
 31
0.0
  0
LINE
  5
11F
330
104
100
AcDbEntity
  8
AM_9
100
AcDbLine
 10
-0.4395859245204075
 20
-0.8533493905826324
 30
0.0
 11
-0.4513499999999998
 21
-0.8632672785607411
 31
0.0
  0
LWPOLYLINE
  5
120
330
104
100
AcDbEntity
  8
AM_9
100
AcDbPolyline
 90
        3
 70
     0
 43
0.0
 10
-0.2689146070947222
 20
-0.8068897343505177
 10
-0.251275593729576
 20
-0.8042388430145476
 10
-0.2360765106845275
 20
-0.8021875924132664
  0
ELLIPSE
  5
121
330
104
100
AcDbEntity
  8
AM_9
100
AcDbEllipse
 10
-0.3994303217889756
 20
-0.9844442900387738
 30
0.0
 11
-0.03159560311146585
 21
0.1355139790604257
 31
0.0
210
0.0
220
0.0
230
1.0
 40
0.3659981507706651
 41
1.492410664254424
 42
4.145181672147549
  0
LWPOLYLINE
  5
122
330
104
100
AcDbEntity
  8
AM_9
100
AcDbPolyline
 90
       10
 70
     0
 43
0.0
 10
-0.3839474267298742
 20
-0.8532972160862832
 10
-0.3890879582954379
 20
-0.8500027947810974
 10
-0.3959552710605447
 20
-0.8466716787842601
 10
-0.4028089251516667
 20
-0.8445066970983652
 10
-0.4096647428961115
 20
-0.843459701945232
 10
-0.4164800600956723
 20
-0.8435259595042295
 10
-0.423684363995771
 20
-0.8448525005239522
 10
-0.4303534259875866
 20
-0.8473600248792845
 10
-0.4363911737726427
 20
-0.8508910091062253
 10
-0.4399056383096266
 20
-0.8536214332923311
  0
LWPOLYLINE
  5
123
330
104
100
AcDbEntity
  8
AM_9
100
AcDbPolyline
 90
        3
 70
     0
 43
0.0
 10
-0.3780074420543422
 20
-0.8580087116871367
 10
-0.3821698041614862
 20
-0.8546031017349517
 10
-0.3839474267298742
 20
-0.8532972160862832
  0
LINE
  5
124
330
104
100
AcDbEntity
  8
AM_9
100
AcDbLine
 10
-0.3269761666589845
 20
-1.094149863282451
 30
0.0
 11
-0.3244266236616649
 21
-1.088676066448678
 31
0.0
  0
LWPOLYLINE
  5
125
330
104
100
AcDbEntity
  8
AM_9
100
AcDbPolyline
 90
       11
 70
     0
 43
0.0
 10
-0.3776913641906623
 20
-1.119724464916565
 10
-0.3750640391629912
 20
-1.120306053798586
 10
-0.3682124378446603
 20
-1.121055404680349
 10
-0.3607040330979576
 20
-1.120584643766493
 10
-0.3536639680703526
 20
-1.118833463503976
 10
-0.3472024070607996
 20
-1.115955078098139
 10
-0.3413855687874316
 20
-1.112100056413323
 10
-0.3361856019488031
 20
-1.107345694333817
 10
-0.331550756199391
 20
-1.101684205003804
 10
-0.3274316129181344
 20
-1.095015028764493
 10
-0.3269761666589845
 20
-1.094149863282451
  0
ELLIPSE
  5
126
330
104
100
AcDbEntity
  8
AM_9
100
AcDbEllipse
 10
-0.3994303217889776
 20
-0.984444290038775
 30
0.0
 11
-0.03159560311146442
 21
0.1355139790604275
 31
0.0
210
0.0
220
0.0
230
1.0
 40
0.3659981507706596
 41
0.1883504986369413
 42
0.5147673728610854
  0
LWPOLYLINE
  5
127
330
104
100
AcDbEntity
  8
AM_9
100
AcDbPolyline
 90
        3
 70
     0
 43
0.0
 10
-0.0000000000000001
 20
-0.6007787001516928
 10
0.0544416102741495
 20
-0.6313260426622648
 10
0.1093749999999999
 20
-0.6599999999999999
  0
LWPOLYLINE
  5
128
330
104
100
AcDbEntity
  8
AM_9
100
AcDbPolyline
 90
        3
 70
     0
 43
0.0
 10
-0.109375
 20
-0.6599999999999999
 10
-0.0546875
 20
-0.6314595596074827
 10
-0.0000000000000001
 20
-0.6007787001516928
  0
LWPOLYLINE
  5
129
330
104
100
AcDbEntity
  8
AM_9
100
AcDbPolyline
 90
        6
 70
     0
 43
0.0
 10
-0.1510741298357571
 20
-1.07520229571137
 10
-0.1564222384464443
 20
-1.075146258798399
 10
-0.1639940363880805
 20
-1.075585121917566
 10
-0.1744063212866123
 20
-1.076646289109958
 10
-0.1876759562813858
 20
-1.078363121169831
 10
-0.2099962668917054
 20
-1.081671457656344
  0
LWPOLYLINE
  5
12A
330
104
100
AcDbEntity
  8
AM_9
100
AcDbPolyline
 90
        4
 70
     0
 43
0.0
 10
-0.1510741298357571
 20
-0.9345772957113703
 10
-0.1458778226760521
 20
-0.958510622598914
 10
-0.1427138007556463
 20
-0.9833672121093315
 10
-0.141958509815605
 20
-1.002769408754154
  0
LINE
  5
12B
330
104
100
AcDbEntity
  8
AM_9
100
AcDbLine
 10
-0.1780586483152108
 20
-0.8512494424434778
 30
0.0
 11
-0.1765789831125442
 21
-0.8542058555423607
 31
0.0
  0
LWPOLYLINE
  5
12C
330
104
100
AcDbEntity
  8
AM_9
100
AcDbPolyline
 90
        3
 70
     0
 43
0.0
 10
-0.2099962668917054
 20
-0.8004214576563438
 10
-0.1943573015029059
 20
-0.8229928542882339
 10
-0.1853383250830408
 20
-0.8377936360443697
  0
LWPOLYLINE
  5
12D
330
104
100
AcDbEntity
  8
AM_9
100
AcDbPolyline
 90
        4
 70
     0
 43
0.0
 10
-0.2258378743019627
 20
-0.8010526668938883
 10
-0.2189176876709015
 20
-0.8005103698475838
 10
-0.2138633349839128
 20
-0.8003309118621996
 10
-0.2099962668917054
 20
-0.8004214576563438
  0
LINE
  5
12E
330
104
100
AcDbEntity
  8
AM_9
100
AcDbLine
 10
-0.144447814010446
 20
-1.039133202786976
 30
0.0
 11
-0.1510741298357571
 21
-1.07520229571137
 31
0.0
  0
LINE
  5
12F
330
104
100
AcDbEntity
  8
AM_9
100
AcDbLine
 10
-0.1440559725782566
 20
-1.036052015700917
 30
0.0
 11
-0.144447814010446
 21
-1.039133202786976
 31
0.0
  0
LWPOLYLINE
  5
130
330
104
100
AcDbEntity
  8
AM_9
100
AcDbPolyline
 90
        3
 70
     0
 43
0.0
 10
-0.141958509815605
 20
-1.002769408754154
 10
-0.1420496512545706
 20
-1.009566312422038
 10
-0.1440559725782566
 20
-1.036052015700917
  0
LWPOLYLINE
  5
131
330
104
100
AcDbEntity
  8
AM_9
100
AcDbPolyline
 90
        5
 70
     0
 43
0.0
 10
-0.1765789831125442
 20
-0.8542058555423607
 10
-0.1688997677199809
 20
-0.8712101678463051
 10
-0.1598729403210871
 20
-0.8967686897126438
 10
-0.1549033058439656
 20
-0.9156071719614788
 10
-0.1510741298357571
 20
-0.9345772957113703
  0
ELLIPSE
  5
132
330
104
100
AcDbEntity
  8
AM_9
100
AcDbEllipse
 10
-0.201389202821187
 20
-0.9382702448395734
 30
0.0
 11
-0.03193085011271259
 21
0.1369518580909626
 31
0.0
210
0.0
220
0.0
230
1.0
 40
0.3659981507661673
 41
2.150416404613399
 42
6.139946939693312
  0
LWPOLYLINE
  5
133
330
104
100
AcDbEntity
  8
AM_9
100
AcDbPolyline
 90
        3
 70
     0
 43
0.0
 10
-0.3055458577949631
 20
-0.902852494962034
 10
-0.3030753670497808
 20
-0.9289228551816321
 10
-0.2987675689889718
 20
-0.9544750667254667
  0
LWPOLYLINE
  5
134
330
104
100
AcDbEntity
  8
AM_9
100
AcDbPolyline
 90
        4
 70
     0
 43
0.0
 10
-0.2602304684431209
 20
-0.8580679499247962
 10
-0.2616913382589203
 20
-0.8434112730526003
 10
-0.2647402074337707
 20
-0.8249547701127596
 10
-0.2689146070947222
 20
-0.8068897343505177
  0
LINE
  5
135
330
104
100
AcDbEntity
  8
AM_9
100
AcDbLine
 10
-0.2689146070947222
 20
-0.8068897343505177
 30
0.0
 11
-0.2987675689889718
 21
-0.8138500667254667
 31
0.0
  0
LWPOLYLINE
  5
136
330
104
100
AcDbEntity
  8
AM_9
100
AcDbPolyline
 90
        3
 70
     0
 43
0.0
 10
-0.2987675689889718
 20
-0.8138500667254667
 10
-0.3030606061861223
 20
-0.8412941224080119
 10
-0.3055458577949631
 20
-0.8686334064683195
  0
LINE
  5
137
330
104
100
AcDbEntity
  8
AM_9
100
AcDbLine
 10
-0.2711532636537957
 20
-0.8116181234374058
 30
0.0
 11
-0.2813919000363599
 21
-0.812753048956784
 31
0.0
  0
ELLIPSE
  5
138
330
104
100
AcDbEntity
  8
AM_9
100
AcDbEllipse
 10
-0.2467045921760208
 20
-0.9488357013808582
 30
0.0
 11
-0.03193085011438278
 21
0.1369518580960946
 31
0.0
210
0.0
220
0.0
230
1.0
 40
0.3659981507706656
 41
2.150416404658199
 42
6.139946939636892
  0
ELLIPSE
  5
139
330
104
100
AcDbEntity
  8
AM_9
100
AcDbEllipse
 10
-0.2467045921760201
 20
-0.9488357013808585
 30
0.0
 11
-0.03193085011438319
 21
0.1369518580960959
 31
0.0
210
0.0
220
0.0
230
1.0
 40
0.3659981507706658
 41
1.167836862122888
 42
1.951156734850496
  0
LWPOLYLINE
  5
13A
330
104
100
AcDbEntity
  8
AM_9
100
AcDbPolyline
 90
        3
 70
     0
 43
0.0
 10
-0.3055458577949631
 20
-0.8686334064683195
 10
-0.3064767622622302
 20
-0.8858698068452319
 10
-0.3055458577949631
 20
-0.902852494962034
  0
ELLIPSE
  5
13B
330
104
100
AcDbEntity
  8
AM_9
100
AcDbEllipse
 10
-0.2467045921760219
 20
-0.948835701380856
 30
0.0
 11
-0.0319308501143817
 21
0.1369518580960922
 31
0.0
210
0.0
220
0.0
230
1.0
 40
0.3659981507706664
 41
0.0560213022650027
 42
0.8626327579757798
  0
LWPOLYLINE
  5
13C
330
104
100
AcDbEntity
  8
AM_9
100
AcDbPolyline
 90
       18
 70
     0
 43
0.0
 10
-0.3250084966681596
 20
-1.09003113741548
 10
-0.32475311059154
 20
-1.089507334600895
 10
-0.3237700524996652
 20
-1.087802202797528
 10
-0.3218826653881012
 20
-1.085102414514928
 10
-0.318897417711866
 20
-1.081609779275028
 10
-0.3146284045488027
 20
-1.077582929709075
 10
-0.3089498428341234
 20
-1.073370452038484
 10
-0.3018927964657123
 20
-1.069420959655536
 10
-0.2937396540986941
 20
-1.066217559839001
 10
-0.2850076166485311
 20
-1.064131684232433
 10
-0.2763023029308529
 20
-1.063303694281224
 10
-0.2682300453027133
 20
-1.06363044355159
 10
-0.2612238534622684
 20
-1.064818748898263
 10
-0.255546238568567
 20
-1.066485849194436
 10
-0.2512642637490309
 20
-1.068255968633346
 10
-0.2482987418570531
 20
-1.069826945003163
 10
-0.2465114484087775
 20
-1.070977018922923
 10
-0.2457643913261107
 20
-1.071539068204203
  0
LWPOLYLINE
  5
13D
330
104
100
AcDbEntity
  8
AM_9
100
AcDbPolyline
 90
        4
 70
     0
 43
0.0
 10
-0.245724988250897
 20
-1.071571960916105
 10
-0.245940154812898
 20
-1.071375383413023
 10
-0.2469343942058329
 20
-1.070370741339682
 10
-0.2472087258013782
 20
-1.070075546888451
  0
LWPOLYLINE
  5
13E
330
104
100
AcDbEntity
  8
AM_9
100
AcDbPolyline
 90
        4
 70
     0
 43
0.0
 10
-0.3007314393780592
 20
-0.8401665011803391
 10
-0.3004205966649402
 20
-0.8391800904966824
 10
-0.3001140860230919
 20
-0.8383366972085312
 10
-0.3001080482840255
 20
-0.8383222637170429
  0
LWPOLYLINE
  5
13F
330
104
100
AcDbEntity
  8
AM_9
100
AcDbPolyline
 90
       18
 70
     0
 43
0.0
 10
-0.3003205014459804
 20
-0.8387661560869893
 10
-0.3012232359110128
 20
-0.8403617279181884
 10
-0.3030114726957234
 20
-0.8429703587373676
 10
-0.305878039795821
 20
-0.8463940643797182
 10
-0.3100112390253887
 20
-0.8503814145537526
 10
-0.3155465860097334
 20
-0.8545940464479228
 10
-0.3224737820940945
 20
-0.8585920417226586
 10
-0.3305374894626727
 20
-0.8618899758739186
 10
-0.3392387431875615
 20
-0.8640982955172765
 10
-0.3479732943934642
 20
-0.8650513760459226
 10
-0.3561310950287759
 20
-0.8648295846752496
 10
-0.3632593542634237
 20
-0.8637112120486276
 10
-0.3690764812760688
 20
-0.8620743743222178
 10
-0.3734967042928187
 20
-0.8602994978599602
 10
-0.3765884980451981
 20
-0.8586973497069237
 10
-0.3784875673339706
 20
-0.8574968047946329
 10
-0.3793333720579916
 20
-0.8568691699022003
 10
-0.3793752031102915
 20
-0.8568349033176164
  0
LINE
  5
140
330
104
100
AcDbEntity
  8
AM_9
100
AcDbLine
 10
-0.1771207715546619
 20
-0.8196616924073272
 30
0.0
 11
-0.2263662233581052
 21
-0.8311434580599515
 31
0.0
  0
LINE
  5
141
330
104
100
AcDbEntity
  8
AM_9
100
AcDbLine
 10
-0.1764121822902709
 20
-1.04539703161473
 30
0.0
 11
-0.1343592486638226
 21
-1.035592229115782
 31
0.0
  0
LWPOLYLINE
  5
142
330
104
100
AcDbEntity
  8
AM_9
100
AcDbPolyline
 90
       20
 70
     0
 43
0.0
 10
-0.1343659249938088
 20
-1.03559378540361
 10
-0.1293028157827817
 20
-1.032990967168627
 10
-0.1247141396218193
 20
-1.027417196040507
 10
-0.1208880884981781
 20
-1.018797239076489
 10
-0.1181545989145989
 20
-1.007880991490922
 10
-0.1164278875396128
 20
-0.9943362126550239
 10
-0.1158549073091554
 20
-0.9793302713177414
 10
-0.1164156227038168
 20
-0.9624082867497737
 10
-0.1180609686233502
 20
-0.9450047030275385
 10
-0.1208367673933812
 20
-0.926607393511457
 10
-0.1245107513506023
 20
-0.9087474551200029
 10
-0.1291842652280563
 20
-0.8909224816066245
 10
-0.134472979061152
 20
-0.8745960564441003
 10
-0.1405186270901959
 20
-0.8593288727646309
 10
-0.1468270783017121
 20
-0.8463704784891934
 10
-0.1535654953592165
 20
-0.8353813720298789
 10
-0.1601799433259583
 20
-0.8272689428626643
 10
-0.1668493358980661
 20
-0.8218204774364152
 10
-0.1731116383367606
 20
-0.8194809397560726
 10
-0.1771125901748263
 20
-0.819659785344162
  0
LINE
  5
143
330
104
100
AcDbEntity
  8
AM_9
100
AcDbLine
 10
-0.1771125901748263
 20
-0.819659785344162
 30
0.0
 11
-0.1790373738502115
 21
-0.8203040540337613
 31
0.0
  0
LWPOLYLINE
  5
144
330
104
100
AcDbEntity
  8
AM_9
100
AcDbPolyline
 90
        3
 70
     0
 43
0.0
 10
-0.2689146070947222
 20
-0.9475147343505178
 10
-0.2634308483997528
 20
-0.9198909589556474
 10
-0.2602304684431305
 20
-0.8922870384185166
  0
LWPOLYLINE
  5
145
330
104
100
AcDbEntity
  8
AM_9
100
AcDbPolyline
 90
        4
 70
     0
 43
0.0
 10
-0.1690619248830174
 20
-1.000227432419554
 10
-0.1670729780242511
 20
-1.00435797563067
 10
-0.1606047421316796
 20
-1.015955943415793
 10
-0.1545861214540575
 20
-1.024398067675334
  0
LWPOLYLINE
  5
146
330
104
100
AcDbEntity
  8
AM_9
100
AcDbPolyline
 90
        3
 70
     0
 43
0.0
 10
-0.179037373850178
 20
-0.9746959459662461
 10
-0.1733931390117467
 20
-0.990209976006311
 10
-0.1690619248830174
 20
-1.000227432419554
  0
ARC
  5
147
330
104
100
AcDbEntity
  8
AM_9
100
AcDbCircle
 10
0.0000000000000154
 20
-0.8975000000000428
 30
0.0
 40
0.1999999999999845
100
AcDbArc
 50
219.3498172334326
 51
0.0000008537736463
  0
LWPOLYLINE
  5
148
330
104
100
AcDbEntity
  8
AM_9
100
AcDbPolyline
 90
        6
 70
     0
 43
0.0
 10
-0.1545861214540575
 20
-1.024398067675334
 10
-0.1538031670974777
 20
-1.025334802540261
 10
-0.1472336073736393
 20
-1.031712011960484
 10
-0.1407130262602577
 20
-1.035261709638181
 10
-0.1347930597680667
 20
-1.035684256104104
 10
-0.1343659249938088
 20
-1.03559378540361
  0
LINE
  5
149
330
104
100
AcDbEntity
  8
AM_9
100
AcDbLine
 10
-0.2360765106845275
 20
-0.8021875924132664
 30
0.0
 11
-0.2258378743019627
 21
-0.8010526668938883
 31
0.0
  0
ELLIPSE
  5
14A
330
104
100
AcDbEntity
  8
AM_9
100
AcDbEllipse
 10
-0.2013892028241868
 20
-0.9382702448373434
 30
0.0
 11
-0.03193085011438453
 21
0.1369518580960972
 31
0.0
210
0.0
220
0.0
230
1.0
 40
0.365998150770571
 41
0.056021302265008
 42
0.8626327579757262
  0
LINE
  5
14B
330
104
100
AcDbEntity
  8
AM_9
100
AcDbLine
 10
-0.2602304684431305
 20
-0.8922870384185166
 30
0.0
 11
-0.2602304684431209
 21
-0.8580679499247962
 31
0.0
  0
ELLIPSE
  5
14C
330
104
100
AcDbEntity
  8
AM_9
100
AcDbEllipse
 10
-0.2013892028248642
 20
-0.938270244838173
 30
0.0
 11
-0.03193085011403961
 21
0.1369518580942622
 31
0.0
210
0.0
220
0.0
230
1.0
 40
0.3659981507692651
 41
1.144545279129671
 42
1.951156734850547
  0
LWPOLYLINE
  5
14D
330
104
100
AcDbEntity
  8
AM_9
100
AcDbPolyline
 90
        3
 70
     0
 43
0.0
 10
-0.2099962668917054
 20
-1.081671457656344
 10
-0.2163479371246913
 20
-1.052339189975666
 10
-0.2258378743019629
 20
-1.023057477599441
  0
LINE
  5
14E
330
104
100
AcDbEntity
  8
AM_9
100
AcDbLine
 10
-0.2258378743019629
 20
-1.023057477599441
 30
0.0
 11
-0.2360613137375731
 21
-1.0
 31
0.0
  0
LWPOLYLINE
  5
14F
330
104
100
AcDbEntity
  8
AM_9
100
AcDbPolyline
 90
        4
 70
     0
 43
0.0
 10
-0.2388654170295362
 20
-0.9945378581416072
 10
-0.2462091938631851
 20
-0.9814216112135015
 10
-0.2570505402207574
 20
-0.9642846905716822
 10
-0.2689146070947222
 20
-0.9475147343505178
  0
LINE
  5
150
330
104
100
AcDbEntity
  8
AM_9
100
AcDbLine
 10
-0.2360765106845277
 20
-0.9999657255010712
 30
0.0
 11
-0.2384305360639744
 21
-0.9953657251061293
 31
0.0
  0
LINE
  5
151
330
104
100
AcDbEntity
  8
AM_9
100
AcDbLine
 10
-0.2689146070947222
 20
-0.9475147343505178
 30
0.0
 11
-0.2987675689889718
 21
-0.9544750667254667
 31
0.0
  0
LWPOLYLINE
  5
152
330
104
100
AcDbEntity
  8
AM_9
100
AcDbPolyline
 90
        3
 70
     0
 43
0.0
 10
-0.2987675689889718
 20
-0.9544750667254667
 10
-0.2912216284034025
 20
-0.9825761834951973
 10
-0.2813919000363599
 20
-1.010531182044589
  0
LINE
  5
153
330
104
100
AcDbEntity
  8
AM_9
100
AcDbLine
 10
-0.2813919000363599
 20
-1.010531182044589
 30
0.0
 11
-0.2711532636537957
 21
-1.033622934142958
 31
0.0
  0
LWPOLYLINE
  5
154
330
104
100
AcDbEntity
  8
AM_9
100
AcDbPolyline
 90
        3
 70
     0
 43
0.0
 10
-0.2711532636537957
 20
-1.033622934142958
 10
-0.2561815527589921
 20
-1.061327936735335
 10
-0.2389369657326277
 20
-1.088419092407284
  0
LINE
  5
155
330
104
100
AcDbEntity
  8
AM_9
100
AcDbLine
 10
-0.2099962668917054
 20
-1.081671457656344
 30
0.0
 11
-0.2389369657326277
 21
-1.088419092407284
 31
0.0
  0
LWPOLYLINE
  5
156
330
104
100
AcDbEntity
  8
AM_9
100
AcDbPolyline
 90
        3
 70
     0
 43
0.0
 10
0.1093749999999999
 20
-0.6099999999999999
 10
0.0546874999999999
 20
-0.5838529403925173
 10
-0.0000000000000001
 20
-0.5598462998483071
  0
LWPOLYLINE
  5
157
330
104
100
AcDbEntity
  8
AM_9
100
AcDbPolyline
 90
        3
 70
     0
 43
0.0
 10
-0.0000000000000001
 20
-0.5598462998483071
 10
-0.0544416102741497
 20
-0.5837405676118848
 10
-0.1093750000000001
 20
-0.6099999999999999
  0
LWPOLYLINE
  5
158
330
104
100
AcDbEntity
  8
AM_9
100
AcDbPolyline
 90
        3
 70
     0
 43
0.0
 10
0.1093749999999999
 20
-0.6599999999999999
 10
0.1640624999999999
 20
-0.6861470596074826
 10
0.2187499999999999
 20
-0.7101537001516927
  0
LWPOLYLINE
  5
159
330
104
100
AcDbEntity
  8
AM_9
100
AcDbPolyline
 90
        3
 70
     0
 43
0.0
 10
-0.2187500000000001
 20
-0.7101537001516927
 10
-0.1643083897258504
 20
-0.6862594323881152
 10
-0.109375
 20
-0.6599999999999999
  0
LINE
  5
15A
330
104
100
AcDbEntity
  8
AM_9
100
AcDbLine
 10
-0.0000000000000001
 20
-0.6007787001516928
 30
0.0
 11
-0.0000000000000001
 21
-0.5598462998483071
 31
0.0
  0
LWPOLYLINE
  5
15B
330
104
100
AcDbEntity
  8
AM_9
100
AcDbPolyline
 90
        3
 70
     0
 43
0.0
 10
0.2187499999999999
 20
-0.6692212998483071
 10
0.1643083897258503
 20
-0.6386739573377351
 10
0.1093749999999999
 20
-0.6099999999999999
  0
LWPOLYLINE
  5
15C
330
104
100
AcDbEntity
  8
AM_9
100
AcDbPolyline
 90
        3
 70
     0
 43
0.0
 10
-0.1093750000000001
 20
-0.6099999999999999
 10
-0.1640625
 20
-0.6385404403925172
 10
-0.2187500000000001
 20
-0.6692212998483071
  0
ELLIPSE
  5
15D
330
104
100
AcDbEntity
  8
AM_9
100
AcDbEllipse
 10
-0.0000000000000002
 20
-0.8975000000000001
 30
0.0
 11
-0.2000000000000001
 21
2.449293598294708E-17
 31
0.0
210
0.0
220
0.0
230
1.0
 40
0.8660254037844388
 41
0.4619460205669652
 42
5.821239286612619
  0
LWPOLYLINE
  5
15E
330
104
100
AcDbEntity
  8
AM_9
100
AcDbPolyline
 90
        7
 70
     0
 43
0.0
 10
-0.1790373738501784
 20
-0.9746959459662461
 10
-0.1842628795203941
 20
-0.958701216295605
 10
-0.1891729979031393
 20
-0.9426444582564122
 10
-0.1936098952159724
 20
-0.9258778251052954
 10
-0.1971856748420371
 20
-0.9084298087252539
 10
-0.1994144431868155
 20
-0.8909576332075927
 10
-0.1999999999699529
 20
-0.8772575590009699
  0
LINE
  5
15F
330
104
100
AcDbEntity
  8
AM_9
100
AcDbLine
 10
-0.2
 20
-0.8240624999999999
 30
0.0
 11
-0.2
 21
-0.8773468854091477
 31
0.0
  0
LINE
  5
160
330
104
100
AcDbEntity
  8
AM_9
100
AcDbLine
 10
0.1999999999999999
 20
-0.8975
 30
0.0
 11
0.1999999999999999
 21
-0.8240624999999999
 31
0.0
  0
LWPOLYLINE
  5
161
330
104
100
AcDbEntity
  8
AM_9
100
AcDbPolyline
 90
        8
 70
     0
 43
0.0
 10
-0.1999999999699529
 20
-0.8772575590009699
 10
-0.1999786710855128
 20
-0.8747474927945716
 10
-0.1988321115509053
 20
-0.8594770462991154
 10
-0.1961649429984259
 20
-0.8465478285833823
 10
-0.1920694300574958
 20
-0.8354958498463314
 10
-0.1870948030566195
 20
-0.8272268040530578
 10
-0.181500594761393
 20
-0.8217034871441516
 10
-0.1790373738501785
 20
-0.8203040540337537
  0
LINE
  5
162
330
104
100
AcDbEntity
  8
AM_9
100
AcDbLine
 10
-0.2187500000000001
 20
-0.9289037001516928
 30
0.0
 11
-0.2187500000000001
 21
-0.6692212998483071
 31
0.0
  0
LWPOLYLINE
  5
163
330
104
100
AcDbEntity
  8
AM_9
100
AcDbPolyline
 90
        3
 70
     0
 43
0.0
 10
-0.109375
 20
-0.988125
 10
-0.1640625
 20
-0.9595845596074827
 10
-0.2187500000000001
 20
-0.9289037001516928
  0
LINE
  5
164
330
104
100
AcDbEntity
  8
AM_9
100
AcDbLine
 10
-0.0845153126513654
 20
-1.000303587479261
 30
0.0
 11
-0.109375
 21
-0.988125
 31
0.0
  0
LWPOLYLINE
  5
165
330
104
100
AcDbEntity
  8
AM_9
100
AcDbPolyline
 90
        3
 70
     0
 43
0.0
 10
-0.0359878492176076
 20
-1.02269641980505
 10
-0.0544416102741496
 20
-1.014384432388115
 10
-0.0845153126513654
 20
-1.000303587479261
  0
LINE
  5
166
330
104
100
AcDbEntity
  8
AM_9
100
AcDbLine
 10
-0.0000000000000001
 20
-1.038278700151693
 30
0.0
 11
-0.0359878492176076
 21
-1.02269641980505
 31
0.0
  0
LWPOLYLINE
  5
167
330
104
100
AcDbEntity
  8
AM_9
100
AcDbPolyline
 90
        3
 70
     0
 43
0.0
 10
-0.2187500000000001
 20
-0.8879712998483072
 10
-0.1643083897258505
 20
-0.9118655676118848
 10
-0.1093750000000001
 20
-0.938125
  0
LWPOLYLINE
  5
168
330
104
100
AcDbEntity
  8
AM_9
100
AcDbPolyline
 90
        3
 70
     0
 43
0.0
 10
-0.1093750000000001
 20
-0.938125
 10
-0.0546875000000001
 20
-0.9666654403925172
 10
-0.0000000000000001
 20
-0.9973462998483071
  0
LINE
  5
169
330
104
100
AcDbEntity
  8
AM_9
100
AcDbLine
 10
-0.0000000000000001
 20
-1.038278700151693
 30
0.0
 11
-0.0000000000000001
 21
-0.9973462998483071
 31
0.0
  0
LINE
  5
16A
330
104
100
AcDbEntity
  8
AM_9
100
AcDbLine
 10
0.0357728881191573
 20
-1.022791872611786
 30
0.0
 11
-0.0000000000000001
 21
-1.038278700151693
 31
0.0
  0
LWPOLYLINE
  5
16B
330
104
100
AcDbEntity
  8
AM_9
100
AcDbPolyline
 90
        3
 70
     0
 43
0.0
 10
0.0845203685105036
 20
-1.00030116130402
 10
0.0546874999999999
 20
-1.014272059607483
 10
0.0357728881191573
 20
-1.022791872611786
  0
LINE
  5
16C
330
104
100
AcDbEntity
  8
AM_9
100
AcDbLine
 10
0.1093749999999999
 20
-0.988125
 30
0.0
 11
0.0845203685105036
 21
-1.00030116130402
 31
0.0
  0
LWPOLYLINE
  5
16D
330
104
100
AcDbEntity
  8
AM_9
100
AcDbPolyline
 90
        3
 70
     0
 43
0.0
 10
0.2187499999999999
 20
-0.9289037001516928
 10
0.1643083897258503
 20
-0.9594510426622647
 10
0.1093749999999999
 20
-0.988125
  0
LINE
  5
16E
330
104
100
AcDbEntity
  8
AM_9
100
AcDbLine
 10
0.2187499999999999
 20
-0.9289037001516928
 30
0.0
 11
0.2187499999999999
 21
-0.6692212998483071
 31
0.0
  0
LWPOLYLINE
  5
16F
330
104
100
AcDbEntity
  8
AM_9
100
AcDbPolyline
 90
        3
 70
     0
 43
0.0
 10
0.1093749999999999
 20
-0.938125
 10
0.1640624999999999
 20
-0.9119779403925172
 10
0.2187499999999999
 20
-0.8879712998483071
  0
LWPOLYLINE
  5
170
330
104
100
AcDbEntity
  8
AM_9
100
AcDbPolyline
 90
        3
 70
     0
 43
0.0
 10
-0.0000000000000001
 20
-0.9973462998483071
 10
0.0544416102741495
 20
-0.9667989573377351
 10
0.1093749999999999
 20
-0.938125
  0
LINE
  5
171
330
104
100
AcDbEntity
  8
AM_9
100
AcDbLine
 10
-0.2
 20
-0.735
 30
0.0
 11
-0.2
 21
-0.7740624999999999
 31
0.0
  0
LINE
  5
172
330
104
100
AcDbEntity
  8
AM_9
100
AcDbLine
 10
0.1999999999999999
 20
-0.7740625
 30
0.0
 11
0.1999999999999999
 21
-0.735
 31
0.0
  0
LINE
  5
173
330
104
100
AcDbEntity
  8
AM_9
100
AcDbLine
 10
-0.1851454569549801
 20
-0.6288099125707269
 30
0.0
 11
-0.1912304659644924
 21
-0.726022462287446
 31
0.0
  0
LINE
  5
174
330
104
100
AcDbEntity
  8
AM_9
100
AcDbLine
 10
0.1912304659644923
 20
-0.726022462287446
 30
0.0
 11
0.18514545695498
 21
-0.6288099125707269
 31
0.0
  0
ELLIPSE
  5
175
330
104
100
AcDbEntity
  8
AM_9
100
AcDbEllipse
 10
-0.0000000000000001
 20
-0.625625
 30
0.0
 11
0.1616637258772237
 21
0.0
 31
0.0
210
0.0
220
0.0
230
1.0
 40
0.8660254037844384
 41
0.0
 42
6.283185307179586
  0
ELLIPSE
  5
176
330
104
100
AcDbEntity
  8
AM_9
100
AcDbEllipse
 10
-0.3729962569746642
 20
-0.9782810866092341
 30
0.0
 11
-0.03024351534849248
 21
0.1297148559307583
 31
0.0
210
0.0
220
0.0
230
1.0
 40
0.3659981507706673
 41
0.0
 42
6.283185307179586
  0
ELLIPSE
  5
177
330
104
100
AcDbEntity
  8
AM_9
100
AcDbEllipse
 10
-0.201389202824195
 20
-0.938270244837334
 30
0.0
 11
-0.024977020533924
 21
0.1071267867774008
 31
0.0
210
0.0
220
0.0
230
1.0
 40
0.3659981507705938
 41
0.0
 42
6.283185307179586
  0
ELLIPSE
  5
178
330
104
100
AcDbEntity
  8
AM_9
100
AcDbEllipse
 10
0.0000000000000001
 20
-0.8240624999999995
 30
0.0
 11
-0.2000000000000003
 21
2.449293598294710E-17
 31
0.0
210
0.0
220
0.0
230
1.0
 40
0.8660254037844395
 41
0.0
 42
6.283185307179586
  0
ELLIPSE
  5
179
330
104
100
AcDbEntity
  8
AM_9
100
AcDbEllipse
 10
-0.0000000000000001
 20
-0.8240624999999993
 30
0.0
 11
-0.2187500000000004
 21
3.259629037943330E-9
 31
0.0
210
0.0
220
0.0
230
1.0
 40
0.8660254037844404
 41
0.0
 42
6.283185307179586
  0
ELLIPSE
  5
17A
330
104
100
AcDbEntity
  8
AM_9
100
AcDbEllipse
 10
-0.0000000000000001
 20
-0.7740624999999991
 30
0.0
 11
-0.2187500000000005
 21
2.678914873134842E-17
 31
0.0
210
0.0
220
0.0
230
1.0
 40
0.8660254037844405
 41
0.0
 42
6.283185307179586
  0
ELLIPSE
  5
17B
330
104
100
AcDbEntity
  8
AM_9
100
AcDbEllipse
 10
-0.0000000000000003
 20
-0.7740625000000002
 30
0.0
 11
-0.1999999999999996
 21
2.449293598294702E-17
 31
0.0
210
0.0
220
0.0
230
1.0
 40
0.8660254037844384
 41
0.0
 42
6.283185307179586
  0
ELLIPSE
  5
17C
330
104
100
AcDbEntity
  8
AM_9
100
AcDbEllipse
 10
-0.0000000000000001
 20
-0.7349999999999998
 30
0.0
 11
-0.1999999999999999
 21
2.449293598294705E-17
 31
0.0
210
0.0
220
0.0
230
1.0
 40
0.8660254037844382
 41
0.0
 42
6.283185307179586
  0
ELLIPSE
  5
17D
330
104
100
AcDbEntity
  8
AM_9
100
AcDbEllipse
 10
-0.0000000000000002
 20
-0.7350000000000001
 30
0.0
 11
-0.1915112338502294
 21
2.345336195354437E-17
 31
0.0
210
0.0
220
0.0
230
1.0
 40
0.8660254037844385
 41
0.0
 42
6.283185307179586
  0
ELLIPSE
  5
17E
330
104
100
AcDbEntity
  8
AM_9
100
AcDbEllipse
 10
-0.0000000000000001
 20
-0.6375017824238809
 30
0.0
 11
-0.185417290724986
 21
2.270706915929283E-17
 31
0.0
210
0.0
220
0.0
230
1.0
 40
0.8660254037844406
 41
0.0
 42
6.283185307179586
  0
LINE
  5
17F
330
104
100
AcDbEntity
  8
AM_4
100
AcDbLine
 10
-0.4524158089341449
 20
-1.101254016496842
 30
0.0
 11
-0.45135
 21
-1.101517472588915
 31
0.0
  0
LINE
  5
180
330
104
100
AcDbEntity
  8
AM_4
100
AcDbLine
 10
-0.4513499999999998
 20
-0.8632672785607411
 30
0.0
 11
-0.4986131040655763
 21
-0.9031131782604874
 31
0.0
  0
ELLIPSE
  5
181
330
104
100
AcDbEntity
  8
AM_4
100
AcDbEllipse
 10
-0.4687500000000001
 20
-1.000606438444094
 30
0.0
 11
-0.02349716402074598
 21
0.1007796617096759
 31
0.0
210
0.0
220
0.0
230
1.0
 40
0.3659981507706628
 41
0.1844361849250395
 42
2.957156468664753
  0
ELLIPSE
  5
182
330
104
100
AcDbEntity
  8
AM_4
100
AcDbEllipse
 10
-0.3994303217889759
 20
-0.9844442900387739
 30
0.0
 11
-0.03159560311146631
 21
0.1355139790604261
 31
0.0
210
0.0
220
0.0
230
1.0
 40
0.3659981507706666
 41
0.5147673728610789
 42
1.492410664254422
  0
ENDBLK
  5
107
330
104
100
AcDbEntity
  8
0
100
AcDbBlockEnd
  0
BLOCK
  5
185
330
183
100
AcDbEntity
  8
0
100
AcDbBlockBegin
  2
4_131208H_0_in_131208_2
 70
     2
 10
0.0
 20
0.0
 30
0.0
  3
4_131208H_0_in_131208_2
  1

  0
ATTDEF
  5
187
330
183
100
AcDbEntity
  8
AM_6
100
AcDbText
 10
5.69
 20
1.815
 30
0.0
 40
0.5
  1
WSTU-SXR -I-Housing
100
AcDbAttributeDefinition
  3

  2
NN
 70
     8
280
     0
  0
ATTDEF
  5
188
330
183
100
AcDbEntity
  8
AM_6
100
AcDbText
 10
5.69
 20
1.315
 30
0.0
 40
0.5
  1
SXR Normal Duty Wide Slot Take-Up Bearings
100
AcDbAttributeDefinition
  3

  2
NT
 70
     8
280
     0
  0
ATTDEF
  5
189
330
183
100
AcDbEntity
  8
AM_6
100
AcDbText
 10
5.69
 20
0.815
 30
0.0
 40
0.5
  1
131208H
100
AcDbAttributeDefinition
  3

  2
NB
 70
     8
280
     0
  0
ATTDEF
  5
18A
330
183
100
AcDbEntity
  8
AM_6
100
AcDbText
 10
5.69
 20
0.3149999999999999
 30
0.0
 40
0.5
  1
$PN.H
100
AcDbAttributeDefinition
  3

  2
NBSYN
 70
     8
280
     0
  0
ATTDEF
  5
18B
330
183
100
AcDbEntity
  8
AM_6
100
AcDbText
 10
5.69
 20
-0.1850000000000001
 30
0.0
 40
0.5
  1
131208
100
AcDbAttributeDefinition
  3

  2
LINA
 70
     8
280
     0
  0
ATTDEF
  5
18C
330
183
100
AcDbEntity
  8
AM_6
100
AcDbText
 10
5.69
 20
-0.685
 30
0.0
 40
0.5
  1
205
100
AcDbAttributeDefinition
  3

  2
SERIES
 70
     8
280
     0
  0
ATTDEF
  5
18D
330
183
100
AcDbEntity
  8
AM_6
100
AcDbText
 10
5.69
 20
-1.185
 30
0.0
 40
0.5
  1
1
100
AcDbAttributeDefinition
  3

  2
SS
 70
     8
280
     0
  0
ATTDEF
  5
18E
330
183
100
AcDbEntity
  8
AM_6
100
AcDbText
 10
5.69
 20
-1.685
 30
0.0
 40
0.5
  1
1.000000
100
AcDbAttributeDefinition
  3

  2
SS1
 70
     8
280
     0
  0
ATTDEF
  5
18F
330
183
100
AcDbEntity
  8
AM_6
100
AcDbText
 10
5.69
 20
-2.185
 30
0.0
 40
0.5
  1
131208
100
AcDbAttributeDefinition
  3

  2
PN
 70
     8
280
     0
  0
ATTDEF
  5
190
330
183
100
AcDbEntity
  8
AM_6
100
AcDbText
 10
5.69
 20
-2.685
 30
0.0
 40
0.5
  1
WSTU-SXR-100
100
AcDbAttributeDefinition
  3

  2
DESCRIPTION
 70
     8
280
     0
  0
ATTDEF
  5
191
330
183
100
AcDbEntity
  8
AM_6
100
AcDbText
 10
5.69
 20
-3.185
 30
0.0
 40
0.5
  1
RE-LUBE
100
AcDbAttributeDefinition
  3

  2
LF
 70
     8
280
     0
  0
ATTDEF
  5
192
330
183
100
AcDbEntity
  8
AM_6
100
AcDbText
 10
5.69
 20
-3.685
 30
0.0
 40
0.5
  1
2.047200
100
AcDbAttributeDefinition
  3

  2
BOD
 70
     8
280
     0
  0
ATTDEF
  5
193
330
183
100
AcDbEntity
  8
AM_6
100
AcDbText
 10
5.69
 20
-4.185
 30
0.0
 40
0.5
  1
0.590600
100
AcDbAttributeDefinition
  3

  2
BW
 70
     8
280
     0
  0
ATTDEF
  5
194
330
183
100
AcDbEntity
  8
AM_6
100
AcDbText
 10
5.69
 20
-4.685
 30
0.0
 40
0.5
  1
2.1
100
AcDbAttributeDefinition
  3

  2
W
 70
     8
280
     0
  0
ATTDEF
  5
195
330
183
100
AcDbEntity
  8
AM_6
100
AcDbText
 10
5.69
 20
-5.185
 30
0.0
 40
0.5
  1
WS300
100
AcDbAttributeDefinition
  3

  2
FS
 70
     8
280
     0
  0
ATTDEF
  5
196
330
183
100
AcDbEntity
  8
AM_6
100
AcDbText
 10
5.69
 20
-5.685
 30
0.0
 40
0.5
  1
1.62
100
AcDbAttributeDefinition
  3

  2
A
 70
     8
280
     0
  0
ATTDEF
  5
197
330
183
100
AcDbEntity
  8
AM_6
100
AcDbText
 10
5.69
 20
-6.185
 30
0.0
 40
0.5
  1
1.620000
100
AcDbAttributeDefinition
  3

  2
A1
 70
     8
280
     0
  0
ATTDEF
  5
198
330
183
100
AcDbEntity
  8
AM_6
100
AcDbText
 10
5.69
 20
-6.685
 30
0.0
 40
0.5
  1
3.81
100
AcDbAttributeDefinition
  3

  2
B
 70
     8
280
     0
  0
ATTDEF
  5
199
330
183
100
AcDbEntity
  8
AM_6
100
AcDbText
 10
5.69
 20
-7.185
 30
0.0
 40
0.5
  1
3.810000
100
AcDbAttributeDefinition
  3

  2
B1
 70
     8
280
     0
  0
ATTDEF
  5
19A
330
183
100
AcDbEntity
  8
AM_6
100
AcDbText
 10
5.69
 20
-7.685
 30
0.0
 40
0.5
  1
0.531
100
AcDbAttributeDefinition
  3

  2
C
 70
     8
280
     0
  0
ATTDEF
  5
19B
330
183
100
AcDbEntity
  8
AM_6
100
AcDbText
 10
5.69
 20
-8.185
 30
0.0
 40
0.5
  1
0.531000
100
AcDbAttributeDefinition
  3

  2
C1
 70
     8
280
     0
  0
ATTDEF
  5
19C
330
183
100
AcDbEntity
  8
AM_6
100
AcDbText
 10
5.69
 20
-8.685
 30
0.0
 40
0.5
  1
2.00
100
AcDbAttributeDefinition
  3

  2
D
 70
     8
280
     0
  0
ATTDEF
  5
19D
330
183
100
AcDbEntity
  8
AM_6
100
AcDbText
 10
5.69
 20
-9.185
 30
0.0
 40
0.5
  1
2.000000
100
AcDbAttributeDefinition
  3

  2
D1
 70
     8
280
     0
  0
ATTDEF
  5
19E
330
183
100
AcDbEntity
  8
AM_6
100
AcDbText
 10
5.69
 20
-9.685
 30
0.0
 40
0.5
  1
2.44
100
AcDbAttributeDefinition
  3

  2
E
 70
     8
280
     0
  0
ATTDEF
  5
19F
330
183
100
AcDbEntity
  8
AM_6
100
AcDbText
 10
5.69
 20
-10.185
 30
0.0
 40
0.5
  1
2.440000
100
AcDbAttributeDefinition
  3

  2
E1
 70
     8
280
     0
  0
ATTDEF
  5
1A0
330
183
100
AcDbEntity
  8
AM_6
100
AcDbText
 10
5.69
 20
-10.685
 30
0.0
 40
0.5
  1
5/8
100
AcDbAttributeDefinition
  3

  2
F
 70
     8
280
     0
  0
ATTDEF
  5
1A1
330
183
100
AcDbEntity
  8
AM_6
100
AcDbText
 10
5.69
 20
-11.185
 30
0.0
 40
0.5
  1
0.625000
100
AcDbAttributeDefinition
  3

  2
F1
 70
     8
280
     0
  0
ATTDEF
  5
1A2
330
183
100
AcDbEntity
  8
AM_6
100
AcDbText
 10
5.69
 20
-11.685
 30
0.0
 40
0.5
  1
0.38
100
AcDbAttributeDefinition
  3

  2
G
 70
     8
280
     0
  0
ATTDEF
  5
1A3
330
183
100
AcDbEntity
  8
AM_6
100
AcDbText
 10
5.69
 20
-12.185
 30
0.0
 40
0.5
  1
0.380000
100
AcDbAttributeDefinition
  3

  2
G1
 70
     8
280
     0
  0
ATTDEF
  5
1A4
330
183
100
AcDbEntity
  8
AM_6
100
AcDbText
 10
5.69
 20
-12.685
 30
0.0
 40
0.5
  1
0.63
100
AcDbAttributeDefinition
  3

  2
H
 70
     8
280
     0
  0
ATTDEF
  5
1A5
330
183
100
AcDbEntity
  8
AM_6
100
AcDbText
 10
5.69
 20
-13.185
 30
0.0
 40
0.5
  1
0.630000
100
AcDbAttributeDefinition
  3

  2
H1
 70
     8
280
     0
  0
ATTDEF
  5
1A6
330
183
100
AcDbEntity
  8
AM_6
100
AcDbText
 10
5.69
 20
-13.685
 30
0.0
 40
0.5
  1
2.00
100
AcDbAttributeDefinition
  3

  2
J
 70
     8
280
     0
  0
ATTDEF
  5
1A7
330
183
100
AcDbEntity
  8
AM_6
100
AcDbText
 10
5.69
 20
-14.185
 30
0.0
 40
0.5
  1
2.000000
100
AcDbAttributeDefinition
  3

  2
J1
 70
     8
280
     0
  0
ATTDEF
  5
1A8
330
183
100
AcDbEntity
  8
AM_6
100
AcDbText
 10
5.69
 20
-14.685
 30
0.0
 40
0.5
  1
1.31
100
AcDbAttributeDefinition
  3

  2
K
 70
     8
280
     0
  0
ATTDEF
  5
1A9
330
183
100
AcDbEntity
  8
AM_6
100
AcDbText
 10
5.69
 20
-15.185
 30
0.0
 40
0.5
  1
1.50
100
AcDbAttributeDefinition
  3

  2
L
 70
     8
280
     0
  0
ATTDEF
  5
1AA
330
183
100
AcDbEntity
  8
AM_6
100
AcDbText
 10
5.69
 20
-15.685
 30
0.0
 40
0.5
  1
1.500000
100
AcDbAttributeDefinition
  3

  2
L1
 70
     8
280
     0
  0
ATTDEF
  5
1AB
330
183
100
AcDbEntity
  8
AM_6
100
AcDbText
 10
5.69
 20
-16.185
 30
0.0
 40
0.5
  1
2.985/3.015
100
AcDbAttributeDefinition
  3

  2
M
 70
     8
280
     0
  0
ATTDEF
  5
1AC
330
183
100
AcDbEntity
  8
AM_6
100
AcDbText
 10
5.69
 20
-16.685
 30
0.0
 40
0.5
  1
3.015000
100
AcDbAttributeDefinition
  3

  2
M1
 70
     8
280
     0
  0
ATTDEF
  5
1AD
330
183
100
AcDbEntity
  8
AM_6
100
AcDbText
 10
5.69
 20
-17.185
 30
0.0
 40
0.5
  1
3.63
100
AcDbAttributeDefinition
  3

  2
N
 70
     8
280
     0
  0
ATTDEF
  5
1AE
330
183
100
AcDbEntity
  8
AM_6
100
AcDbText
 10
5.69
 20
-17.685
 30
0.0
 40
0.5
  1
3.630000
100
AcDbAttributeDefinition
  3

  2
N1
 70
     8
280
     0
  0
ATTDEF
  5
1AF
330
183
100
AcDbEntity
  8
AM_6
100
AcDbText
 10
5.69
 20
-18.185
 30
0.0
 40
0.5
  1
0.56
100
AcDbAttributeDefinition
  3

  2
R
 70
     8
280
     0
  0
ATTDEF
  5
1B0
330
183
100
AcDbEntity
  8
AM_6
100
AcDbText
 10
5.69
 20
-18.685
 30
0.0
 40
0.5
  1
0.560000
100
AcDbAttributeDefinition
  3

  2
R1
 70
     8
280
     0
  0
ATTDEF
  5
1B1
330
183
100
AcDbEntity
  8
AM_6
100
AcDbText
 10
5.69
 20
-19.185
 30
0.0
 40
0.5
  1
1.06
100
AcDbAttributeDefinition
  3

  2
S
 70
     8
280
     0
  0
ATTDEF
  5
1B2
330
183
100
AcDbEntity
  8
AM_6
100
AcDbText
 10
5.69
 20
-19.685
 30
0.0
 40
0.5
  1
1.060000
100
AcDbAttributeDefinition
  3

  2
S1
 70
     8
280
     0
  0
ATTDEF
  5
1B3
330
183
100
AcDbEntity
  8
AM_6
100
AcDbText
 10
5.69
 20
-20.185
 30
0.0
 40
0.5
  1
1.38
100
AcDbAttributeDefinition
  3

  2
T
 70
     8
280
     0
  0
ATTDEF
  5
1B4
330
183
100
AcDbEntity
  8
AM_6
100
AcDbText
 10
5.69
 20
-20.685
 30
0.0
 40
0.5
  1
1565
100
AcDbAttributeDefinition
  3

  2
CAPS
 70
     8
280
     0
  0
ATTDEF
  5
1B5
330
183
100
AcDbEntity
  8
AM_6
100
AcDbText
 10
5.69
 20
-21.185
 30
0.0
 40
0.5
  1
3146
100
AcDbAttributeDefinition
  3

  2
CAPD
 70
     8
280
     0
  0
ATTDEF
  5
1B6
330
183
100
AcDbEntity
  8
AM_6
100
AcDbText
 10
5.69
 20
-21.685
 30
0.0
 40
0.5
  1
baldor
100
AcDbAttributeDefinition
  3

  2
COMPANY
 70
     8
280
     0
  0
LWPOLYLINE
  5
1B7
330
183
100
AcDbEntity
  8
AM_9
100
AcDbPolyline
 90
       39
 70
     0
 43
0.0
 10
-0.4200000000000001
 20
-0.6849999999999996
 10
-0.418434306869155
 20
-0.6533828987979847
 10
-0.4137016759215276
 20
-0.6212861114362268
 10
-0.406638406698291
 20
-0.5919733103200705
 10
-0.3970281360094559
 20
-0.5629220537097674
 10
-0.3845672890270204
 20
-0.5335603065481765
 10
-0.3695931353432971
 20
-0.5049246318969989
 10
-0.3522853791888371
 20
-0.4773493112129767
 10
-0.3327130894122677
 20
-0.4509206744101977
 10
-0.310383160299895
 20
-0.4251893457515135
 10
-0.2859430440038088
 20
-0.4010912957009776
 10
-0.2592599107118877
 20
-0.3786188679415755
 10
-0.2307448658943999
 20
-0.3582244541260188
 10
-0.1996649987959852
 20
-0.3396172667428318
 10
-0.167042412091859
 20
-0.3236183667424845
 10
-0.1342294404558645
 20
-0.3108097468937632
 10
-0.1004101174239936
 20
-0.3007629587271655
 10
-0.064713655380924
 20
-0.2934354193374171
 10
-0.0284861705043099
 20
-0.289278551262223
 10
0.0053420146461799
 20
-0.2883234570981676
 10
0.0391320904484232
 20
-0.2901611486569204
 10
0.0736405665749655
 20
-0.2949622047206633
 10
0.107598492480914
 20
-0.3026399005120287
 10
0.1393833384441439
 20
-0.312615698990625
 10
0.1702380868054955
 20
-0.3250366457125884
 10
0.2007580244469936
 20
-0.340212777300341
 10
0.2299128939754958
 20
-0.3576795783685733
 10
0.2577937810543848
 20
-0.3774843623699205
 10
0.2839405392342931
 20
-0.3992760550371112
 10
0.3088264762655945
 20
-0.4235389745247437
 10
0.3315607819680782
 20
-0.4494891282346998
 10
0.352043915648201
 20
-0.4769966351537698
 10
0.3700678259605011
 20
-0.5057531530195367
 10
0.3859141334083983
 20
-0.5364387359727103
 10
0.3988739777072374
 20
-0.5679294641380878
 10
0.4079468391556844
 20
-0.5966711812959326
 10
0.4145263352667941
 20
-0.6256344175299933
 10
0.4186259123907701
 20
-0.655419336856046
 10
0.42
 20
-0.6849999999999996
  0
LINE
  5
1B8
330
183
100
AcDbEntity
  8
AM_9
100
AcDbLine
 10
0.42375
 20
-0.9364293886887577
 30
0.0
 11
0.42375
 21
0.9364293886887577
 31
0.0
  0
LINE
  5
1B9
330
183
100
AcDbEntity
  8
AM_9
100
AcDbLine
 10
0.45135
 20
-0.895565608986857
 30
0.0
 11
0.42375
 21
-0.9364293886887577
 31
0.0
  0
LINE
  5
1BA
330
183
100
AcDbEntity
  8
AM_9
100
AcDbLine
 10
0.42375
 20
0.9364293886887577
 30
0.0
 11
0.45135
 21
0.8955656089868567
 31
0.0
  0
LWPOLYLINE
  5
1BB
330
183
100
AcDbEntity
  8
AM_9
100
AcDbPolyline
 90
       13
 70
     0
 43
0.0
 10
-0.1932315333413444
 20
-1.007949192431123
 10
-0.182832502956662
 20
-1.013904999397533
 10
-0.1467878428908182
 20
-1.030917775998443
 10
-0.1089147778596864
 20
-1.04378922106473
 10
-0.0699978716366308
 20
-1.052587387593211
 10
-0.0351277124160379
 20
-1.057074763622543
 10
-0.0000000000000001
 20
-1.058565380252616
 10
0.0340603423320702
 20
-1.057159293223324
 10
0.068010162544893
 20
-1.052917443729224
 10
0.1014601694556038
 20
-1.045804449160975
 10
0.1340210718813382
 20
-1.035784926909239
 10
0.1643055259318305
 20
-1.023302544854792
 10
0.1932315333413439
 20
-1.007949192431123
  0
ELLIPSE
  5
1BC
330
183
100
AcDbEntity
  8
AM_9
100
AcDbEllipse
 10
-0.0000000000000001
 20
-0.735
 30
0.0
 11
-0.3199999999999998
 21
3.918869757271528E-17
 31
0.0
210
0.0
220
0.0
230
1.0
 40
0.8660254037844387
 41
0.0
 42
6.283185307179586
  0
ELLIPSE
  5
1BD
330
183
100
AcDbEntity
  8
AM_9
100
AcDbEllipse
 10
-0.0000000000000001
 20
-0.6849999999999999
 30
0.0
 11
0.4199999999999999
 21
0.0
 31
0.0
210
0.0
220
0.0
230
1.0
 40
0.8660254037844388
 41
0.0
 42
3.141592653589793
  0
LINE
  5
1BE
330
183
100
AcDbEntity
  8
AM_9
100
AcDbLine
 10
0.4199206340610697
 20
-0.6923459955839323
 30
0.0
 11
0.4199998211642532
 21
-0.6846512762104311
 31
0.0
  0
LWPOLYLINE
  5
1BF
330
183
100
AcDbEntity
  8
AM_9
100
AcDbPolyline
 90
       18
 70
     0
 43
0.0
 10
0.2393858827711324
 20
-0.9950672396176139
 10
0.2529893130098517
 20
-0.9862443405900807
 10
0.271211173411562
 20
-0.9731906107212638
 10
0.2885959007335372
 20
-0.9592464001541531
 10
0.3050878759727361
 20
-0.944456140309855
 10
0.3206345997587814
 20
-0.9288674936812997
 10
0.335187027909701
 20
-0.9125311172310256
 10
0.3486998721666408
 20
-0.8955003699206692
 10
0.3611318503278198
 20
-0.8778309729725527
 10
0.3724458728803989
 20
-0.8595806359113474
 10
0.3826091577631835
 20
-0.8408086646399018
 10
0.391593270500863
 20
-0.8215755692763607
 10
0.3993740928526798
 20
-0.801942689038397
 10
0.4059317285131755
 20
-0.7819718492674526
 10
0.4112503586403824
 20
-0.7617250621850313
 10
0.415318062687566
 20
-0.7412642787594322
 10
0.4181266211007187
 20
-0.7206511947282966
 10
0.4193776788839964
 20
-0.7055635461110941
  0
LINE
  5
1C0
330
183
100
AcDbEntity
  8
AM_9
100
AcDbLine
 10
0.2311407171666991
 20
-1.000063494084928
 30
0.0
 11
0.2393858827711324
 21
-0.9950672396176139
 31
0.0
  0
LWPOLYLINE
  5
1C1
330
183
100
AcDbEntity
  8
AM_9
100
AcDbPolyline
 90
       23
 70
     0
 43
0.0
 10
-0.2311120526945464
 20
-1.000080421078896
 10
-0.2271475366790481
 20
-1.002392693672596
 10
-0.2073154999289189
 20
-1.013134805672357
 10
-0.1868443930630682
 20
-1.022881608708738
 10
-0.1657970671183725
 20
-1.031602514333366
 10
-0.1442381459343474
 20
-1.03927027217079
 10
-0.1222337412084867
 20
-1.045861015625895
 10
-0.0998511865041902
 20
-1.05135427741003
 10
-0.0771587943471773
 20
-1.055732982536834
 10
-0.0542256379513472
 20
-1.058983426572633
 10
-0.0311213569544745
 20
-1.061095246446766
 10
-0.0079159848809584
 20
-1.062061390252261
 10
0.0153202051484667
 20
-1.061878091385015
 10
0.0385167528357309
 20
-1.060544858457986
 10
0.061602850962199
 20
-1.058064530240716
 10
0.0845083017823055
 20
-1.054443228630122
 10
0.1071631814848171
 20
-1.049690378425338
 10
0.1294979815948619
 20
-1.043818747803408
 10
0.1514437656725673
 20
-1.036844499222121
 10
0.1729323466070519
 20
-1.028787246908416
 10
0.1938964893730929
 20
-1.019670115468734
 10
0.2142701430841141
 20
-1.009519792500013
 10
0.2311407171666991
 20
-1.000063494084928
  0
LINE
  5
1C2
330
183
100
AcDbEntity
  8
AM_9
100
AcDbLine
 10
-0.2405679701411583
 20
-0.9943297554781277
 30
0.0
 11
-0.2311120526945464
 21
-1.000080421078896
 31
0.0
  0
LWPOLYLINE
  5
1C3
330
183
100
AcDbEntity
  8
AM_9
100
AcDbPolyline
 90
       20
 70
     0
 43
0.0
 10
-0.4199979582293432
 20
-0.6861783041260687
 10
-0.4199752131233303
 20
-0.6891054317882984
 10
-0.4190934912998219
 20
-0.7098142943204847
 10
-0.4169528002451367
 20
-0.7304362200035713
 10
-0.4135611359498259
 20
-0.7509112660799842
 10
-0.4089293452295407
 20
-0.7711810025281733
 10
-0.4030711145945854
 20
-0.7911876227348382
 10
-0.3960029958384357
 20
-0.8108739186902724
 10
-0.3877444733068103
 20
-0.8301832750808367
 10
-0.3783180638496557
 20
-0.8490596934720035
 10
-0.3677494371891287
 20
-0.8674478557810679
 10
-0.3560675418947588
 20
-0.8852932332393108
 10
-0.3433047207357001
 20
-0.9025422432035458
 10
-0.3294967992227599
 20
-0.9191424517897085
 10
-0.3146831328476447
 20
-0.9350428158305926
 10
-0.2989066018219039
 20
-0.9501939536759381
 10
-0.2822135466856978
 20
-0.9645484314234414
 10
-0.2646536434256433
 20
-0.9780610497333703
 10
-0.2462797219972596
 20
-0.990689116642532
 10
-0.2405679701411583
 20
-0.9943297554781277
  0
LINE
  5
1C4
330
183
100
AcDbEntity
  8
AM_9
100
AcDbLine
 10
-0.42375
 20
-0.9364293886887577
 30
0.0
 11
-0.42375
 21
0.9364293886887577
 31
0.0
  0
LINE
  5
1C5
330
183
100
AcDbEntity
  8
AM_9
100
AcDbLine
 10
-0.42375
 20
-0.9364293886887577
 30
0.0
 11
-0.45135
 21
-0.8955656089868571
 31
0.0
  0
LINE
  5
1C6
330
183
100
AcDbEntity
  8
AM_9
100
AcDbLine
 10
-0.45135
 20
0.8955656089868574
 30
0.0
 11
-0.42375
 21
0.9364293886887577
 31
0.0
  0
LINE
  5
1C7
330
183
100
AcDbEntity
  8
AM_9
100
AcDbLine
 10
-0.42375
 20
0.9364293886887577
 30
0.0
 11
0.42375
 21
0.9364293886887577
 31
0.0
  0
LINE
  5
1C8
330
183
100
AcDbEntity
  8
AM_9
100
AcDbLine
 10
-0.2823059323762006
 20
-0.9364293886887577
 30
0.0
 11
-0.42375
 21
-0.9364293886887577
 31
0.0
  0
LINE
  5
1C9
330
183
100
AcDbEntity
  8
AM_9
100
AcDbLine
 10
0.42375
 20
-0.9364293886887577
 30
0.0
 11
0.2823059323762001
 21
-0.936429388688758
 31
0.0
  0
LWPOLYLINE
  5
1CA
330
183
100
AcDbEntity
  8
AM_9
100
AcDbPolyline
 90
       12
 70
     0
 43
0.0
 10
0.42
 20
-0.6849999999999996
 10
0.4199229064538783
 20
-0.6919570054674594
 10
0.4179303819968102
 20
-0.7207255610187391
 10
0.4132675475738994
 20
-0.7488403873737403
 10
0.4057132932405063
 20
-0.7768961668687347
 10
0.3954395150418329
 20
-0.8038944632162901
 10
0.3828998616765317
 20
-0.8290062002405844
 10
0.3679578107692248
 20
-0.8528474900299708
 10
0.3502158579472625
 20
-0.8758947696457594
 10
0.3301746690652604
 20
-0.8973988609319055
 10
0.3073938973558189
 20
-0.9177406520491457
 10
0.2823059323761999
 20
-0.9364293886887581
  0
LWPOLYLINE
  5
1CB
330
183
100
AcDbEntity
  8
AM_9
100
AcDbPolyline
 90
        4
 70
     0
 43
0.0
 10
0.2823059323762003
 20
-0.936429388688758
 10
0.2541287088628778
 20
-0.9634739097189025
 10
0.2240174124279991
 20
-0.9875797966967904
 10
0.193231533341344
 20
-1.007949192431123
  0
ELLIPSE
  5
1CC
330
183
100
AcDbEntity
  8
AM_9
100
AcDbEllipse
 10
-0.0000000000000007
 20
-0.6849999999999995
 30
0.0
 11
0.4200000000000007
 21
0.0
 31
0.0
210
0.0
220
0.0
230
1.0
 40
0.8660254037844389
 41
5.218367708825936
 42
6.283185307179586
  0
ELLIPSE
  5
1CD
330
183
100
AcDbEntity
  8
AM_9
100
AcDbEllipse
 10
-0.0000000000000957
 20
-0.6849999999999372
 30
0.0
 11
0.42000000000019
 21
0.0
 31
0.0
210
0.0
220
0.0
230
1.0
 40
0.8660254037842725
 41
-1.092716569846651
 42
-1.064817598353617
  0
ELLIPSE
  5
1CE
330
183
100
AcDbEntity
  8
AM_9
100
AcDbEllipse
 10
-0.0000000000000844
 20
-0.6850000000001245
 30
0.0
 11
0.4199999999998421
 21
0.0
 31
0.0
210
0.0
220
0.0
230
1.0
 40
0.8660254037844208
 41
4.10718654099186
 42
4.234309223436517
  0
ELLIPSE
  5
1CF
330
183
100
AcDbEntity
  8
AM_9
100
AcDbEllipse
 10
0.0000000000000002
 20
-0.6849999999999997
 30
0.0
 11
0.4200000000000003
 21
0.0
 31
0.0
210
0.0
220
0.0
230
1.0
 40
0.866025403784439
 41
3.141592653589793
 42
4.107186540991879
  0
LWPOLYLINE
  5
1D0
330
183
100
AcDbEntity
  8
AM_9
100
AcDbPolyline
 90
        4
 70
     0
 43
0.0
 10
-0.1932315333413444
 20
-1.007949192431123
 10
-0.2249974427396443
 20
-0.9868640471599083
 10
-0.255050985741525
 20
-0.9626622547671597
 10
-0.2823059323762007
 20
-0.9364293886887577
  0
LWPOLYLINE
  5
1D1
330
183
100
AcDbEntity
  8
AM_9
100
AcDbPolyline
 90
       11
 70
     0
 43
0.0
 10
-0.2823059323762002
 20
-0.936429388688758
 10
-0.3070050888992977
 20
-0.9180572394181054
 10
-0.3297630141973567
 20
-0.8978010792536114
 10
-0.3506681455875307
 20
-0.8753638995787852
 10
-0.3691884612197763
 20
-0.8510641886581191
 10
-0.3845215599461685
 20
-0.8260840395260176
 10
-0.3973102442096376
 20
-0.7995415497850427
 10
-0.4075254561075287
 20
-0.7711037105076904
 10
-0.4147925525094179
 20
-0.7413057744746467
 10
-0.4186865164527832
 20
-0.7135426556582535
 10
-0.4200000000000001
 20
-0.6849999999999996
  0
LINE
  5
1D2
330
183
100
AcDbEntity
  8
AM_9
100
AcDbLine
 10
-0.2389499999999999
 20
-1.020541938819218
 30
0.0
 11
0.45135
 21
-1.020541938819218
 31
0.0
  0
LINE
  5
1D3
330
183
100
AcDbEntity
  8
AM_9
100
AcDbLine
 10
-0.2389499999999999
 20
-1.0736
 30
0.0
 11
0.45135
 21
-1.0736
 31
0.0
  0
LINE
  5
1D4
330
183
100
AcDbEntity
  8
AM_9
100
AcDbLine
 10
-0.2389499999999999
 20
1.020541938819218
 30
0.0
 11
0.45135
 21
1.020541938819218
 31
0.0
  0
LINE
  5
1D5
330
183
100
AcDbEntity
  8
AM_9
100
AcDbLine
 10
0.45135
 20
1.0736
 30
0.0
 11
-0.2389499999999999
 21
1.0736
 31
0.0
  0
LINE
  5
1D6
330
183
100
AcDbEntity
  8
AM_9
100
AcDbLine
 10
-0.2389499999999999
 20
0.9678046543021424
 30
0.0
 11
-0.2389499999999999
 21
1.0736
 31
0.0
  0
LINE
  5
1D7
330
183
100
AcDbEntity
  8
AM_9
100
AcDbLine
 10
-0.2389499999999999
 20
-1.0736
 30
0.0
 11
-0.2389499999999999
 21
-0.9678046543021424
 31
0.0
  0
LINE
  5
1D8
330
183
100
AcDbEntity
  8
AM_9
100
AcDbLine
 10
-0.2389499999999999
 20
0.9678046543021424
 30
0.0
 11
0.4513499999999998
 21
0.9678046543021424
 31
0.0
  0
LINE
  5
1D9
330
183
100
AcDbEntity
  8
AM_9
100
AcDbLine
 10
0.4513499999999998
 20
-0.9678046543021424
 30
0.0
 11
-0.2389499999999999
 21
-0.9678046543021424
 31
0.0
  0
LINE
  5
1DA
330
183
100
AcDbEntity
  8
AM_9
100
AcDbLine
 10
-0.4513500000000001
 20
-1.0236
 30
0.0
 11
-0.2389499999999999
 21
-1.0236
 31
0.0
  0
LINE
  5
1DB
330
183
100
AcDbEntity
  8
AM_9
100
AcDbLine
 10
-0.2389499999999999
 20
1.0236
 30
0.0
 11
-0.45135
 21
1.0236
 31
0.0
  0
LINE
  5
1DC
330
183
100
AcDbEntity
  8
AM_9
100
AcDbLine
 10
0.45135
 20
-0.5219034177891537
 30
0.0
 11
0.4513500000000001
 21
0.5219034177891533
 31
0.0
  0
LINE
  5
1DD
330
183
100
AcDbEntity
  8
AM_9
100
AcDbLine
 10
-0.45135
 20
0.5219034177891534
 30
0.0
 11
-0.45135
 21
-0.5219034177891534
 31
0.0
  0
LINE
  5
1DE
330
183
100
AcDbEntity
  8
AM_9
100
AcDbLine
 10
-0.45135
 20
-0.6019000000000007
 30
0.0
 11
0.4513500000000001
 21
-0.6019000000000007
 31
0.0
  0
LINE
  5
1DF
330
183
100
AcDbEntity
  8
AM_9
100
AcDbLine
 10
-0.45135
 20
-0.655
 30
0.0
 11
0.4513500000000001
 21
-0.655
 31
0.0
  0
LINE
  5
1E0
330
183
100
AcDbEntity
  8
AM_9
100
AcDbLine
 10
-0.45135
 20
0.6019
 30
0.0
 11
0.4513500000000003
 21
0.6019
 31
0.0
  0
LINE
  5
1E1
330
183
100
AcDbEntity
  8
AM_9
100
AcDbLine
 10
-0.45135
 20
0.6550000000000001
 30
0.0
 11
0.4513500000000001
 21
0.6550000000000001
 31
0.0
  0
LINE
  5
1E2
330
183
100
AcDbEntity
  8
AM_7
100
AcDbLine
 10
0.0000000000000001
 20
-0.328125
 30
0.0
 11
0.0000000000000001
 21
0.328125
 31
0.0
  0
LINE
  5
1E3
330
183
100
AcDbEntity
  8
AM_4
100
AcDbLine
 10
0.2654999999999997
 20
-1.815
 30
0.0
 11
0.2654999999999999
 21
-1.5075
 31
0.0
  0
LWPOLYLINE
  5
1E4
330
183
100
AcDbEntity
  8
AM_4
100
AcDbPolyline
 90
       19
 70
     0
 43
0.0
 10
0.5309999999999997
 20
-1.7619
 10
0.5307979384686714
 20
-1.766527969939901
 10
0.5301932916849479
 20
-1.771120718234114
 10
0.5291906613759492
 20
-1.775643291294944
 10
0.5277976781637315
 20
-1.780061269610593
 10
0.5260249434916459
 20
-1.784341029698431
 10
0.5238859489409534
 20
-1.78845
 10
0.5213969735517452
 20
-1.79235690877024
 10
0.5185769599296175
 20
-1.796032022074355
 10
0.5154473700810054
 20
-1.799447370081006
 10
0.512032022074355
 20
-1.802576959929618
 10
0.5083569087702404
 20
-1.805396973551745
 10
0.5044499999999998
 20
-1.807885948940954
 10
0.500341029698431
 20
-1.810024943491646
 10
0.4960612696105929
 20
-1.811797678163731
 10
0.4916432912949438
 20
-1.813190661375949
 10
0.487120718234114
 20
-1.814193291684948
 10
0.4825279699399006
 20
-1.814797938468672
 10
0.4779
 20
-1.815
  0
LINE
  5
1E5
330
183
100
AcDbEntity
  8
AM_4
100
AcDbLine
 10
0.2654999999999997
 20
-1.815
 30
0.0
 11
0.4778999999999999
 21
-1.815
 31
0.0
  0
LINE
  5
1E6
330
183
100
AcDbEntity
  8
AM_4
100
AcDbLine
 10
0.4513500000000001
 20
0.5219034177891537
 30
0.0
 11
0.4513500000000001
 21
1.353750000000001
 31
0.0
  0
LINE
  5
1E7
330
183
100
AcDbEntity
  8
AM_4
100
AcDbLine
 10
-0.45135
 20
1.353750000000001
 30
0.0
 11
-0.45135
 21
0.5219034177891535
 31
0.0
  0
LINE
  5
1E8
330
183
100
AcDbEntity
  8
AM_4
100
AcDbLine
 10
0.5310000000000001
 20
1.4334
 30
0.0
 11
0.5310000000000002
 21
1.7619
 31
0.0
  0
LINE
  5
1E9
330
183
100
AcDbEntity
  8
AM_4
100
AcDbLine
 10
-0.5309999999999997
 20
1.7619
 30
0.0
 11
-0.5309999999999999
 21
1.4334
 31
0.0
  0
LINE
  5
1EA
330
183
100
AcDbEntity
  8
AM_4
100
AcDbLine
 10
-0.5309999999999999
 20
1.4334
 30
0.0
 11
-0.45135
 21
1.353750000000001
 31
0.0
  0
LINE
  5
1EB
330
183
100
AcDbEntity
  8
AM_4
100
AcDbLine
 10
-0.2655
 20
1.5075
 30
0.0
 11
0.2655000000000001
 21
1.5075
 31
0.0
  0
LINE
  5
1EC
330
183
100
AcDbEntity
  8
AM_4
100
AcDbLine
 10
0.4513500000000001
 20
1.353750000000001
 30
0.0
 11
0.5310000000000001
 21
1.4334
 31
0.0
  0
LINE
  5
1ED
330
183
100
AcDbEntity
  8
AM_4
100
AcDbLine
 10
0.2655000000000001
 20
1.5075
 30
0.0
 11
0.2655
 21
1.815
 31
0.0
  0
LINE
  5
1EE
330
183
100
AcDbEntity
  8
AM_4
100
AcDbLine
 10
-0.2654999999999998
 20
1.815
 30
0.0
 11
-0.2655
 21
1.5075
 31
0.0
  0
LINE
  5
1EF
330
183
100
AcDbEntity
  8
AM_4
100
AcDbLine
 10
0.45135
 20
-1.353750000000001
 30
0.0
 11
0.4513500000000001
 21
-0.5219034177891536
 31
0.0
  0
LINE
  5
1F0
330
183
100
AcDbEntity
  8
AM_4
100
AcDbLine
 10
-0.4513499999999999
 20
-0.5219034177891528
 30
0.0
 11
-0.4513500000000001
 21
-1.353750000000001
 31
0.0
  0
LINE
  5
1F1
330
183
100
AcDbEntity
  8
AM_4
100
AcDbLine
 10
-0.2655000000000001
 20
-1.5075
 30
0.0
 11
-0.2655000000000001
 21
-1.815
 31
0.0
  0
LINE
  5
1F2
330
183
100
AcDbEntity
  8
AM_4
100
AcDbLine
 10
0.2654999999999999
 20
-1.5075
 30
0.0
 11
-0.2655000000000001
 21
-1.5075
 31
0.0
  0
LINE
  5
1F3
330
183
100
AcDbEntity
  8
AM_4
100
AcDbLine
 10
-0.4513500000000001
 20
-1.353750000000001
 30
0.0
 11
-0.5310000000000001
 21
-1.4334
 31
0.0
  0
LINE
  5
1F4
330
183
100
AcDbEntity
  8
AM_4
100
AcDbLine
 10
-0.5310000000000001
 20
-1.4334
 30
0.0
 11
-0.5310000000000001
 21
-1.7619
 31
0.0
  0
LINE
  5
1F5
330
183
100
AcDbEntity
  8
AM_4
100
AcDbLine
 10
0.5309999999999997
 20
-1.7619
 30
0.0
 11
0.2654999999999998
 21
-1.7619
 31
0.0
  0
LINE
  5
1F6
330
183
100
AcDbEntity
  8
AM_4
100
AcDbLine
 10
0.5309999999999997
 20
-1.7619
 30
0.0
 11
0.5309999999999999
 21
-1.4334
 31
0.0
  0
LINE
  5
1F7
330
183
100
AcDbEntity
  8
AM_4
100
AcDbLine
 10
0.5309999999999999
 20
-1.4334
 30
0.0
 11
0.45135
 21
-1.353750000000001
 31
0.0
  0
LINE
  5
1F8
330
183
100
AcDbEntity
  8
AM_4
100
AcDbLine
 10
-0.2655000000000001
 20
-1.7619
 30
0.0
 11
-0.5310000000000001
 21
-1.7619
 31
0.0
  0
LWPOLYLINE
  5
1F9
330
183
100
AcDbEntity
  8
AM_4
100
AcDbPolyline
 90
       19
 70
     0
 43
0.0
 10
-0.4778999999999998
 20
-1.815
 10
-0.4825279699399004
 20
-1.814797938468672
 10
-0.4871207182341137
 20
-1.814193291684948
 10
-0.4916432912949436
 20
-1.813190661375949
 10
-0.4960612696105928
 20
-1.811797678163731
 10
-0.5003410296984309
 20
-1.810024943491646
 10
-0.5044499999999998
 20
-1.807885948940954
 10
-0.5083569087702403
 20
-1.805396973551745
 10
-0.512032022074355
 20
-1.802576959929618
 10
-0.5154473700810055
 20
-1.799447370081006
 10
-0.5185769599296175
 20
-1.796032022074355
 10
-0.5213969735517453
 20
-1.792356908770241
 10
-0.5238859489409535
 20
-1.78845
 10
-0.526024943491646
 20
-1.784341029698431
 10
-0.5277976781637316
 20
-1.780061269610593
 10
-0.5291906613759494
 20
-1.775643291294944
 10
-0.5301932916849481
 20
-1.771120718234114
 10
-0.5307979384686715
 20
-1.766527969939901
 10
-0.5309999999999999
 20
-1.761900000791252
  0
LINE
  5
1FA
330
183
100
AcDbEntity
  8
AM_4
100
AcDbLine
 10
-0.4778999999999999
 20
-1.815
 30
0.0
 11
-0.2655000000000001
 21
-1.815
 31
0.0
  0
LWPOLYLINE
  5
1FB
330
183
100
AcDbEntity
  8
AM_4
100
AcDbPolyline
 90
       19
 70
     0
 43
0.0
 10
0.4778999999999999
 20
1.815
 10
0.4825279699399005
 20
1.814797938468672
 10
0.487120718234114
 20
1.814193291684948
 10
0.4916432912949438
 20
1.813190661375949
 10
0.4960612696105929
 20
1.811797678163731
 10
0.5003410296984311
 20
1.810024943491646
 10
0.50445
 20
1.807885948940954
 10
0.5083569087702405
 20
1.805396973551745
 10
0.5120320220743553
 20
1.802576959929618
 10
0.5154473700810057
 20
1.799447370081005
 10
0.5185769599296178
 20
1.796032022074355
 10
0.5213969735517455
 20
1.79235690877024
 10
0.5238859489409537
 20
1.78845
 10
0.5260249434916462
 20
1.784341029698431
 10
0.5277976781637318
 20
1.780061269610593
 10
0.5291906613759496
 20
1.775643291294944
 10
0.5301932916849483
 20
1.771120718234114
 10
0.5307979384686717
 20
1.7665279699399
 10
0.5310000000000001
 20
1.7619
  0
LINE
  5
1FC
330
183
100
AcDbEntity
  8
AM_4
100
AcDbLine
 10
0.5310000000000002
 20
1.7619
 30
0.0
 11
0.2655
 21
1.7619
 31
0.0
  0
LINE
  5
1FD
330
183
100
AcDbEntity
  8
AM_4
100
AcDbLine
 10
0.2655
 20
1.815
 30
0.0
 11
0.4778999999999999
 21
1.815
 31
0.0
  0
LWPOLYLINE
  5
1FE
330
183
100
AcDbEntity
  8
AM_4
100
AcDbPolyline
 90
       19
 70
     0
 43
0.0
 10
-0.5309999999999999
 20
1.7619
 10
-0.5307979384686716
 20
1.766527969939901
 10
-0.5301932916849482
 20
1.771120718234114
 10
-0.5291906613759495
 20
1.775643291294944
 10
-0.5277976781637317
 20
1.780061269610593
 10
-0.5260249434916461
 20
1.784341029698431
 10
-0.5238859489409536
 20
1.78845
 10
-0.5213969735517454
 20
1.79235690877024
 10
-0.5185769599296177
 20
1.796032022074355
 10
-0.5154473700810056
 20
1.799447370081005
 10
-0.5120320220743553
 20
1.802576959929618
 10
-0.5083569087702405
 20
1.805396973551745
 10
-0.50445
 20
1.807885948940954
 10
-0.5003410296984312
 20
1.810024943491646
 10
-0.496061269610593
 20
1.811797678163731
 10
-0.4916432912949439
 20
1.813190661375949
 10
-0.4871207182341141
 20
1.814193291684948
 10
-0.4825279699399007
 20
1.814797938468672
 10
-0.4779000000000001
 20
1.815
  0
LINE
  5
1FF
330
183
100
AcDbEntity
  8
AM_4
100
AcDbLine
 10
-0.4779
 20
1.815
 30
0.0
 11
-0.2654999999999998
 21
1.815
 31
0.0
  0
LINE
  5
200
330
183
100
AcDbEntity
  8
AM_4
100
AcDbLine
 10
-0.2655
 20
1.7619
 30
0.0
 11
-0.5309999999999997
 21
1.7619
 31
0.0
  0
LINE
  5
201
330
183
100
AcDbEntity
  8
AM_4
100
AcDbLine
 10
-0.3982499999999999
 20
-1.0
 30
0.0
 11
0.3982500000000002
 21
-1.0
 31
0.0
  0
LWPOLYLINE
  5
202
330
183
100
AcDbEntity
  8
AM_4
100
AcDbPolyline
 90
       19
 70
     0
 43
0.0
 10
0.4513499999999998
 20
-0.9469000000000005
 10
0.4511479384686715
 20
-0.9515279699399012
 10
0.450543291684948
 20
-0.9561207182341144
 10
0.4495406613759493
 20
-0.9606432912949442
 10
0.4481476781637315
 20
-0.9650612696105934
 10
0.446374943491646
 20
-0.9693410296984314
 10
0.4442359489409535
 20
-0.9734500000000003
 10
0.4417469735517453
 20
-0.9773569087702407
 10
0.4389269599296176
 20
-0.9810320220743554
 10
0.4357973700810056
 20
-0.9844473700810059
 10
0.4323820220743552
 20
-0.9875769599296179
 10
0.4287069087702405
 20
-0.9903969735517456
 10
0.4248
 20
-0.9928859489409537
 10
0.4206910296984312
 20
-0.9950249434916462
 10
0.4164112696105932
 20
-0.9967976781637318
 10
0.4119932912949441
 20
-0.9981906613759496
 10
0.4074707182341142
 20
-0.9991932916849483
 10
0.4028779699399009
 20
-0.9997979384686717
 10
0.3982500000000003
 20
-1.0
  0
LWPOLYLINE
  5
203
330
183
100
AcDbEntity
  8
AM_4
100
AcDbPolyline
 90
       19
 70
     0
 43
0.0
 10
-0.3982499999999999
 20
-1.0
 10
-0.4028779699399005
 20
-0.9997979384686717
 10
-0.4074707182341138
 20
-0.9991932916849482
 10
-0.4119932912949436
 20
-0.9981906613759495
 10
-0.4164112696105927
 20
-0.9967976781637317
 10
-0.4206910296984309
 20
-0.9950249434916462
 10
-0.4247999999999997
 20
-0.9928859489409537
 10
-0.4287069087702402
 20
-0.9903969735517455
 10
-0.4323820220743548
 20
-0.9875769599296178
 10
-0.4357973700810052
 20
-0.9844473700810057
 10
-0.4389269599296173
 20
-0.9810320220743554
 10
-0.441746973551745
 20
-0.9773569087702407
 10
-0.4442359489409532
 20
-0.9734500000000003
 10
-0.4463749434916456
 20
-0.9693410296984314
 10
-0.4481476781637312
 20
-0.9650612696105934
 10
-0.449540661375949
 20
-0.9606432912949442
 10
-0.4505432916849478
 20
-0.9561207182341144
 10
-0.4511479384686712
 20
-0.951527969939901
 10
-0.4513499999999995
 20
-0.9469000000000005
  0
LINE
  5
204
330
183
100
AcDbEntity
  8
AM_4
100
AcDbLine
 10
-0.3982499999999991
 20
1.0
 30
0.0
 11
0.3982500000000003
 21
1.0
 31
0.0
  0
LWPOLYLINE
  5
205
330
183
100
AcDbEntity
  8
AM_4
100
AcDbPolyline
 90
       19
 70
     0
 43
0.0
 10
-0.4513499999999995
 20
0.9468999953862499
 10
-0.451147938870786
 20
0.9515279653437072
 10
-0.4505432924861171
 20
0.956120713690457
 10
-0.4495406625700755
 20
0.9606432868384033
 10
-0.4481476797417268
 20
0.965061265275086
 10
-0.4463749454415008
 20
0.9693410255169532
 10
-0.4442359512478284
 20
0.9734499960043749
 10
-0.4417469761980835
 20
0.9773569049908775
 10
-0.4389269628952789
 20
0.9810320185400173
 10
-0.4357973733434195
 20
0.9844473668185914
 10
-0.4323820256086927
 20
0.987576956963956
 10
-0.4287069125496033
 20
0.9903969709054068
 10
-0.4248000039956248
 20
0.9928859466340784
 10
-0.4206910338799088
 20
0.9950249415417907
 10
-0.4164112739460999
 20
0.9967976765857359
 10
-0.4119932957514844
 20
0.9981906601818228
 10
-0.407470722777771
 20
0.9991932908837787
 10
-0.4028779745360943
 20
0.9997979380665566
 10
-0.3982500046137504
 20
0.9999999999999997
  0
LWPOLYLINE
  5
206
330
183
100
AcDbEntity
  8
AM_4
100
AcDbPolyline
 90
       19
 70
     0
 43
0.0
 10
0.3982499999999999
 20
1.0
 10
0.4028779699399005
 20
0.9997979384686717
 10
0.4074707182341139
 20
0.9991932916849482
 10
0.4119932912949437
 20
0.9981906613759496
 10
0.4164112696105929
 20
0.9967976781637318
 10
0.420691029698431
 20
0.9950249434916463
 10
0.4247999999999998
 20
0.9928859489409539
 10
0.4287069087702403
 20
0.9903969735517457
 10
0.432382022074355
 20
0.987576959929618
 10
0.4357973700810055
 20
0.984447370081006
 10
0.4389269599296176
 20
0.9810320220743557
 10
0.4417469735517453
 20
0.9773569087702411
 10
0.4442359489409535
 20
0.9734500000000005
 10
0.446374943491646
 20
0.9693410296984316
 10
0.4481476781637316
 20
0.9650612696105936
 10
0.4495406613759494
 20
0.9606432912949445
 10
0.4505432916849482
 20
0.9561207182341147
 10
0.4511479384686717
 20
0.9515279699399013
 10
0.45135
 20
0.9469000033569966
  0
CIRCLE
  5
207
330
183
100
AcDbEntity
  8
AM_4
100
AcDbCircle
 10
0.0000000000000001
 20
0.0
 30
0.0
 40
0.3125
  0
ARC
  5
208
330
183
100
AcDbEntity
  8
AM_4
100
AcDbCircle
 10
0.0
 20
0.0000000000000002
 30
0.0
 40
0.6900000000000001
100
AcDbArc
 50
310.8537477580518
 51
49.14625224194816
  0
LINE
  5
209
330
183
100
AcDbEntity
  8
AM_4
100
AcDbLine
 10
0.4513500000000001
 20
0.9469000000000004
 30
0.0
 11
-0.4513499999999998
 21
0.9469000000000001
 31
0.0
  0
ARC
  5
20A
330
183
100
AcDbEntity
  8
AM_4
100
AcDbCircle
 10
-0.0000000000000007
 20
0.0000000000000004
 30
0.0
 40
0.6899999999999991
100
AcDbArc
 50
130.8537477580518
 51
229.1462522419482
  0
LINE
  5
20B
330
183
100
AcDbEntity
  8
AM_4
100
AcDbLine
 10
0.4513500000000001
 20
-0.9469000000000001
 30
0.0
 11
-0.4513499999999999
 21
-0.9469
 31
0.0
  0
ENDBLK
  5
186
330
183
100
AcDbEntity
  8
0
100
AcDbBlockEnd
  0
ENDSEC
  0
SECTION
  2
ENTITIES
  0
INSERT
  5
6F
330
1F
100
AcDbEntity
  8
0
100
AcDbBlockReference
  2
1_131208_2
 10
0.0
 20
0.0
 30
0.0
  0
POINT
  5
20D
330
1F
100
AcDbEntity
  8
ConnectionPoints
100
AcDbPoint
 10
-0.0000000000000001
 20
-0.735
 30
-1.273057343563125
  0
POINT
  5
20E
330
1F
100
AcDbEntity
  8
ConnectionPoints
100
AcDbPoint
 10
-0.0000000000000001
 20
-0.735
 30
-1.273057343563125
  0
POINT
  5
20F
330
1F
100
AcDbEntity
  8
ConnectionPoints
100
AcDbPoint
 10
-1.06
 20
0.0
 30
0.0000000000000001
  0
ENDSEC
  0
SECTION
  2
OBJECTS
  0
DICTIONARY
  5
C
330
0
100
AcDbDictionary
281
     1
  3
ACAD_DETAILVIEWSTYLE
350
217
  3
ACAD_GROUP
350
D
  3
ACAD_LAYOUT
350
1A
  3
ACAD_MATERIAL
350
43
  3
ACAD_MLEADERSTYLE
350
6B
  3
ACAD_MLINESTYLE
350
17
  3
ACAD_PLOTSETTINGS
350
19
  3
ACAD_PLOTSTYLENAME
350
E
  3
ACAD_SCALELIST
350
47
  3
ACAD_SECTIONVIEWSTYLE
350
218
  3
ACAD_TABLESTYLE
350
69
  3
ACAD_VISUALSTYLE
350
2A
  3
ACDB_RECOMPOSE_DATA
350
214
  3
AcDbVariableDictionary
350
210
  0
SUN
  5
6D
330
29
100
AcDbSun
 90
        1
290
     0
 63
     7
421
 16777215
 40
1.0
291
     1
 91
  2455826
 92
 54000000
292
     0
 70
     2
 71
   256
280
     1
  0
DICTIONARY
  5
217
102
{ACAD_REACTORS
330
C
102
}
330
C
100
AcDbDictionary
281
     1
  0
DICTIONARY
  5
D
102
{ACAD_REACTORS
330
C
102
}
330
C
100
AcDbDictionary
281
     1
  0
DICTIONARY
  5
1A
102
{ACAD_REACTORS
330
C
102
}
330
C
100
AcDbDictionary
281
     1
  3
Layout1
350
1E
  3
Layout2
350
26
  3
Model
350
22
  0
DICTIONARY
  5
43
102
{ACAD_REACTORS
330
C
102
}
330
C
100
AcDbDictionary
281
     1
  3
ByBlock
350
45
  3
ByLayer
350
44
  3
Global
350
46
  0
DICTIONARY
  5
6B
102
{ACAD_REACTORS
330
C
102
}
330
C
100
AcDbDictionary
281
     1
  3
Standard
350
6C
  0
DICTIONARY
  5
17
102
{ACAD_REACTORS
330
C
102
}
330
C
100
AcDbDictionary
281
     1
  3
Standard
350
18
  0
DICTIONARY
  5
19
102
{ACAD_REACTORS
330
C
102
}
330
C
100
AcDbDictionary
281
     1
  0
ACDBDICTIONARYWDFLT
  5
E
102
{ACAD_REACTORS
330
C
102
}
330
C
100
AcDbDictionary
281
     1
  3
Normal
350
F
100
AcDbDictionaryWithDefault
340
F
  0
DICTIONARY
  5
47
102
{ACAD_REACTORS
330
C
102
}
330
C
100
AcDbDictionary
281
     1
  3
A0
350
48
  3
A1
350
49
  3
A2
350
4A
  3
A3
350
4B
  3
A4
350
4C
  3
A5
350
4D
  3
A6
350
4E
  3
A7
350
4F
  3
A8
350
50
  3
A9
350
51
  3
B0
350
52
  3
B1
350
53
  3
B2
350
54
  3
B3
350
55
  3
B4
350
56
  3
B5
350
57
  3
B6
350
58
  3
B7
350
59
  3
B8
350
5A
  3
B9
350
5B
  3
C0
350
5C
  3
C1
350
5D
  3
C2
350
5E
  3
C3
350
5F
  3
C4
350
60
  3
C5
350
61
  3
C6
350
62
  3
C7
350
63
  3
C8
350
64
  3
C9
350
65
  3
D0
350
66
  3
D1
350
67
  3
D2
350
68
  0
DICTIONARY
  5
218
102
{ACAD_REACTORS
330
C
102
}
330
C
100
AcDbDictionary
281
     1
  0
DICTIONARY
  5
69
102
{ACAD_REACTORS
330
C
102
}
330
C
100
AcDbDictionary
281
     1
  3
Standard
350
6A
  0
DICTIONARY
  5
2A
102
{ACAD_REACTORS
330
C
102
}
330
C
100
AcDbDictionary
281
     1
  3
2dWireframe
350
2F
  3
Basic
350
32
  3
Brighten
350
36
  3
ColorChange
350
3A
  3
Conceptual
350
34
  3
Dim
350
35
  3
EdgeColorOff
350
3D
  3
Facepattern
350
39
  3
Flat
350
2B
  3
FlatWithEdges
350
2C
  3
Gouraud
350
2D
  3
GouraudWithEdges
350
2E
  3
Hidden
350
31
  3
JitterOff
350
3B
  3
Linepattern
350
38
  3
OverhangOff
350
3C
  3
Realistic
350
33
  3
Shaded
350
42
  3
Shaded with edges
350
41
  3
Shades of Gray
350
3E
  3
Sketchy
350
3F
  3
Thicken
350
37
  3
Wireframe
350
30
  3
X-Ray
350
40
  0
XRECORD
  5
214
102
{ACAD_REACTORS
330
C
102
}
330
C
100
AcDbXrecord
280
     1
 90
        1
330
6A
  0
DICTIONARY
  5
210
102
{ACAD_REACTORS
330
C
102
}
330
C
100
AcDbDictionary
281
     1
  3
CANNOSCALE
350
211
  3
CMLEADERSTYLE
350
216
  3
CTABLESTYLE
350
215
  0
LAYOUT
  5
1E
102
{ACAD_REACTORS
330
1A
102
}
330
1A
100
AcDbPlotSettings
  1

  2
none_device
  4

  6

 40
0.0
 41
0.0
 42
0.0
 43
0.0
 44
0.0
 45
0.0
 46
0.0
 47
0.0
 48
0.0
 49
0.0
140
0.0
141
0.0
142
1.0
143
1.0
 70
   688
 72
     0
 73
     0
 74
     5
  7

 75
    16
 76
     0
 77
     2
 78
   300
147
1.0
148
0.0
149
0.0
100
AcDbLayout
  1
Layout1
 70
     1
 71
     1
 10
0.0
 20
0.0
 11
12.0
 21
9.0
 12
0.0
 22
0.0
 32
0.0
 14
1.000000000000000E+20
 24
1.000000000000000E+20
 34
1.000000000000000E+20
 15
-1.000000000000000E+20
 25
-1.000000000000000E+20
 35
-1.000000000000000E+20
146
0.0
 13
0.0
 23
0.0
 33
0.0
 16
1.0
 26
0.0
 36
0.0
 17
0.0
 27
1.0
 37
0.0
 76
     0
330
1B
  0
LAYOUT
  5
26
102
{ACAD_REACTORS
330
1A
102
}
330
1A
100
AcDbPlotSettings
  1

  2
none_device
  4

  6

 40
0.0
 41
0.0
 42
0.0
 43
0.0
 44
0.0
 45
0.0
 46
0.0
 47
0.0
 48
0.0
 49
0.0
140
0.0
141
0.0
142
1.0
143
1.0
 70
   688
 72
     0
 73
     0
 74
     5
  7

 75
    16
 76
     0
 77
     2
 78
   300
147
1.0
148
0.0
149
0.0
100
AcDbLayout
  1
Layout2
 70
     1
 71
     2
 10
0.0
 20
0.0
 11
0.0
 21
0.0
 12
0.0
 22
0.0
 32
0.0
 14
0.0
 24
0.0
 34
0.0
 15
0.0
 25
0.0
 35
0.0
146
0.0
 13
0.0
 23
0.0
 33
0.0
 16
1.0
 26
0.0
 36
0.0
 17
0.0
 27
1.0
 37
0.0
 76
     0
330
23
  0
LAYOUT
  5
22
102
{ACAD_REACTORS
330
1A
102
}
330
1A
100
AcDbPlotSettings
  1

  2
none_device
  4
Letter_(8.50_x_11.00_Inches)
  6

 40
6.35
 41
6.35
 42
6.35000508
 43
6.35000508
 44
215.9
 45
279.4
 46
0.0
 47
0.0
 48
0.0
 49
0.0
140
0.0
141
0.0
142
1.0
143
1.0
 70
  1712
 72
     0
 73
     0
 74
     0
  7

 75
     0
 76
     0
 77
     2
 78
   300
147
1.0
148
0.0
149
0.0
100
AcDbLayout
  1
Model
 70
     1
 71
     0
 10
0.0
 20
0.0
 11
12.0
 21
9.0
 12
0.0
 22
0.0
 32
0.0
 14
1.000000000000000E+20
 24
1.000000000000000E+20
 34
1.000000000000000E+20
 15
-1.000000000000000E+20
 25
-1.000000000000000E+20
 35
-1.000000000000000E+20
146
0.0
 13
0.0
 23
0.0
 33
0.0
 16
1.0
 26
0.0
 36
0.0
 17
0.0
 27
1.0
 37
0.0
 76
     0
330
1F
331
29
  0
MATERIAL
  5
45
102
{ACAD_REACTORS
330
43
102
}
330
43
100
AcDbMaterial
  1
ByBlock
 72
     1
 94
      127
  0
MATERIAL
  5
44
102
{ACAD_REACTORS
330
43
102
}
330
43
100
AcDbMaterial
  1
ByLayer
 72
     1
 94
      127
  0
MATERIAL
  5
46
102
{ACAD_REACTORS
330
43
102
}
330
43
100
AcDbMaterial
  1
Global
 72
     1
 94
      127
  0
MLEADERSTYLE
  5
6C
102
{ACAD_REACTORS
330
6B
102
}
330
6B
100
AcDbMLeaderStyle
179
     2
170
     2
171
     1
172
     0
 90
        2
 40
0.0
 41
0.0
173
     1
 91
-1056964608
340
14
 92
       -2
290
     1
 42
0.09
291
     1
 43
0.36
  3
Standard
341
0
 44
0.18
300

342
11
174
     1
178
     6
175
     1
176
     0
 93
-1056964608
 45
0.18
292
     0
297
     0
 46
0.18
343
0
 94
-1056964608
 47
1.0
 49
1.0
140
1.0
293
     1
141
0.0
294
     1
177
     0
142
1.0
295
     0
296
     0
143
0.125
271
     0
272
     9
273
     9
298
     0
  0
MLINESTYLE
  5
18
102
{ACAD_REACTORS
330
17
102
}
330
17
100
AcDbMlineStyle
  2
Standard
 70
     0
  3

 62
   256
 51
90.0
 52
90.0
 71
     2
 49
0.5
 62
   256
  6
BYLAYER
 49
-0.5
 62
   256
  6
BYLAYER
  0
ACDBPLACEHOLDER
  5
F
102
{ACAD_REACTORS
330
E
102
}
330
E
  0
SCALE
  5
48
102
{ACAD_REACTORS
330
47
102
}
330
47
100
AcDbScale
 70
     0
300
1:1
140
1.0
141
1.0
290
     1
  0
SCALE
  5
49
102
{ACAD_REACTORS
330
47
102
}
330
47
100
AcDbScale
 70
     0
300
1:2
140
1.0
141
2.0
290
     0
  0
SCALE
  5
4A
102
{ACAD_REACTORS
330
47
102
}
330
47
100
AcDbScale
 70
     0
300
1:4
140
1.0
141
4.0
290
     0
  0
SCALE
  5
4B
102
{ACAD_REACTORS
330
47
102
}
330
47
100
AcDbScale
 70
     0
300
1:5
140
1.0
141
5.0
290
     0
  0
SCALE
  5
4C
102
{ACAD_REACTORS
330
47
102
}
330
47
100
AcDbScale
 70
     0
300
1:8
140
1.0
141
8.0
290
     0
  0
SCALE
  5
4D
102
{ACAD_REACTORS
330
47
102
}
330
47
100
AcDbScale
 70
     0
300
1:10
140
1.0
141
10.0
290
     0
  0
SCALE
  5
4E
102
{ACAD_REACTORS
330
47
102
}
330
47
100
AcDbScale
 70
     0
300
1:16
140
1.0
141
16.0
290
     0
  0
SCALE
  5
4F
102
{ACAD_REACTORS
330
47
102
}
330
47
100
AcDbScale
 70
     0
300
1:20
140
1.0
141
20.0
290
     0
  0
SCALE
  5
50
102
{ACAD_REACTORS
330
47
102
}
330
47
100
AcDbScale
 70
     0
300
1:30
140
1.0
141
30.0
290
     0
  0
SCALE
  5
51
102
{ACAD_REACTORS
330
47
102
}
330
47
100
AcDbScale
 70
     0
300
1:40
140
1.0
141
40.0
290
     0
  0
SCALE
  5
52
102
{ACAD_REACTORS
330
47
102
}
330
47
100
AcDbScale
 70
     0
300
1:50
140
1.0
141
50.0
290
     0
  0
SCALE
  5
53
102
{ACAD_REACTORS
330
47
102
}
330
47
100
AcDbScale
 70
     0
300
1:100
140
1.0
141
100.0
290
     0
  0
SCALE
  5
54
102
{ACAD_REACTORS
330
47
102
}
330
47
100
AcDbScale
 70
     0
300
2:1
140
2.0
141
1.0
290
     0
  0
SCALE
  5
55
102
{ACAD_REACTORS
330
47
102
}
330
47
100
AcDbScale
 70
     0
300
4:1
140
4.0
141
1.0
290
     0
  0
SCALE
  5
56
102
{ACAD_REACTORS
330
47
102
}
330
47
100
AcDbScale
 70
     0
300
8:1
140
8.0
141
1.0
290
     0
  0
SCALE
  5
57
102
{ACAD_REACTORS
330
47
102
}
330
47
100
AcDbScale
 70
     0
300
10:1
140
10.0
141
1.0
290
     0
  0
SCALE
  5
58
102
{ACAD_REACTORS
330
47
102
}
330
47
100
AcDbScale
 70
     0
300
100:1
140
100.0
141
1.0
290
     0
  0
SCALE
  5
59
102
{ACAD_REACTORS
330
47
102
}
330
47
100
AcDbScale
 70
     0
300
1/128" = 1'-0"
140
0.0078125
141
12.0
290
     0
  0
SCALE
  5
5A
102
{ACAD_REACTORS
330
47
102
}
330
47
100
AcDbScale
 70
     0
300
1/64" = 1'-0"
140
0.015625
141
12.0
290
     0
  0
SCALE
  5
5B
102
{ACAD_REACTORS
330
47
102
}
330
47
100
AcDbScale
 70
     0
300
1/32" = 1'-0"
140
0.03125
141
12.0
290
     0
  0
SCALE
  5
5C
102
{ACAD_REACTORS
330
47
102
}
330
47
100
AcDbScale
 70
     0
300
1/16" = 1'-0"
140
0.0625
141
12.0
290
     0
  0
SCALE
  5
5D
102
{ACAD_REACTORS
330
47
102
}
330
47
100
AcDbScale
 70
     0
300
3/32" = 1'-0"
140
0.09375
141
12.0
290
     0
  0
SCALE
  5
5E
102
{ACAD_REACTORS
330
47
102
}
330
47
100
AcDbScale
 70
     0
300
1/8" = 1'-0"
140
0.125
141
12.0
290
     0
  0
SCALE
  5
5F
102
{ACAD_REACTORS
330
47
102
}
330
47
100
AcDbScale
 70
     0
300
3/16" = 1'-0"
140
0.1875
141
12.0
290
     0
  0
SCALE
  5
60
102
{ACAD_REACTORS
330
47
102
}
330
47
100
AcDbScale
 70
     0
300
1/4" = 1'-0"
140
0.25
141
12.0
290
     0
  0
SCALE
  5
61
102
{ACAD_REACTORS
330
47
102
}
330
47
100
AcDbScale
 70
     0
300
3/8" = 1'-0"
140
0.375
141
12.0
290
     0
  0
SCALE
  5
62
102
{ACAD_REACTORS
330
47
102
}
330
47
100
AcDbScale
 70
     0
300
1/2" = 1'-0"
140
0.5
141
12.0
290
     0
  0
SCALE
  5
63
102
{ACAD_REACTORS
330
47
102
}
330
47
100
AcDbScale
 70
     0
300
3/4" = 1'-0"
140
0.75
141
12.0
290
     0
  0
SCALE
  5
64
102
{ACAD_REACTORS
330
47
102
}
330
47
100
AcDbScale
 70
     0
300
1" = 1'-0"
140
1.0
141
12.0
290
     0
  0
SCALE
  5
65
102
{ACAD_REACTORS
330
47
102
}
330
47
100
AcDbScale
 70
     0
300
1-1/2" = 1'-0"
140
1.5
141
12.0
290
     0
  0
SCALE
  5
66
102
{ACAD_REACTORS
330
47
102
}
330
47
100
AcDbScale
 70
     0
300
3" = 1'-0"
140
3.0
141
12.0
290
     0
  0
SCALE
  5
67
102
{ACAD_REACTORS
330
47
102
}
330
47
100
AcDbScale
 70
     0
300
6" = 1'-0"
140
6.0
141
12.0
290
     0
  0
SCALE
  5
68
102
{ACAD_REACTORS
330
47
102
}
330
47
100
AcDbScale
 70
     0
300
1'-0" = 1'-0"
140
12.0
141
12.0
290
     0
  0
TABLESTYLE
  5
6A
102
{ACAD_REACTORS
330
69
102
}
102
{ACAD_XDICTIONARY
360
212
102
}
330
69
100
AcDbTableStyle
  3
Standard
 70
     0
 71
     0
 40
0.06
 41
0.06
280
     0
281
     0
  7
Standard
140
0.18
170
     2
 62
     0
 63
   257
283
     0
 90
        4
 91
        0
  1

274
    -2
284
     1
 64
     0
275
    -2
285
     1
 65
     0
276
    -2
286
     1
 66
     0
277
    -2
287
     1
 67
     0
278
    -2
288
     1
 68
     0
279
    -2
289
     1
 69
     0
  7
Standard
140
0.25
170
     5
 62
     0
 63
   257
283
     0
 90
        4
 91
        0
  1

274
    -2
284
     1
 64
     0
275
    -2
285
     1
 65
     0
276
    -2
286
     1
 66
     0
277
    -2
287
     1
 67
     0
278
    -2
288
     1
 68
     0
279
    -2
289
     1
 69
     0
  7
Standard
140
0.18
170
     5
 62
     0
 63
   257
283
     0
 90
        4
 91
        0
  1

274
    -2
284
     1
 64
     0
275
    -2
285
     1
 65
     0
276
    -2
286
     1
 66
     0
277
    -2
287
     1
 67
     0
278
    -2
288
     1
 68
     0
279
    -2
289
     1
 69
     0
  0
VISUALSTYLE
  5
2F
102
{ACAD_REACTORS
330
2A
102
}
330
2A
100
AcDbVisualStyle
  2
2dWireframe
 70
     4
177
     3
291
     0
 70
    58
 90
        0
176
     1
 90
        2
176
     1
 90
        0
176
     1
 90
        0
176
     1
 40
0.6
176
     1
 40
30.0
176
     1
 62
     7
420
 16777215
176
     1
 90
        1
176
     1
 90
        4
176
     1
 62
     7
176
     1
 62
   257
176
     1
 90
        1
176
     1
 90
        1
176
     1
 40
1.0
176
     1
 90
        0
176
     1
 62
   257
176
     1
 40
1.0
176
     1
 90
        1
176
     1
 90
        6
176
     1
 90
        2
176
     1
 62
     7
176
     1
 90
        5
176
     1
 90
        0
176
     1
 90
        0
176
     1
290
     0
176
     1
 90
        1
176
     1
 40
0.0
176
     1
 90
        0
176
     1
290
     1
176
     1
290
     1
176
     1
290
     0
176
     1
290
     0
176
     1
290
     0
176
     1
290
     0
176
     1
290
     0
176
     1
290
     0
176
     1
290
     0
176
     1
 90
       50
176
     1
 40
0.0
176
     1
 40
1.0
176
     1
 90
        0
176
     1
 62
    18
420
        0
176
     1
 90
       50
176
     1
 90
        3
176
     1
 62
     5
420
      255
176
     1
290
     0
176
     1
 90
       50
176
     1
 90
       50
176
     1
 90
       50
176
     1
290
     0
176
     1
 90
       50
176
     1
 62
   256
176
     0
 40
1.0
176
     0
 90
        2
176
     1
  1
strokes_ogs.tif
176
     1
290
     0
176
     1
 40
1.0
176
     1
 40
1.0
176
     1
  0
VISUALSTYLE
  5
32
102
{ACAD_REACTORS
330
2A
102
}
330
2A
100
AcDbVisualStyle
  2
Basic
 70
     7
177
     3
291
     1
 70
    58
 90
        1
176
     1
 90
        0
176
     1
 90
        1
176
     1
 90
        0
176
     1
 40
0.6
176
     1
 40
30.0
176
     1
 62
     7
420
 16777215
176
     1
 90
        0
176
     1
 90
        4
176
     1
 62
     7
176
     1
 62
   257
176
     1
 90
        1
176
     1
 90
        1
176
     1
 40
1.0
176
     1
 90
        8
176
     1
 62
     7
176
     1
 40
1.0
176
     1
 90
        1
176
     1
 90
        6
176
     1
 90
        2
176
     1
 62
     7
176
     1
 90
        5
176
     1
 90
        0
176
     1
 90
        0
176
     1
290
     0
176
     1
 90
        1
176
     1
 40
0.0
176
     1
 90
        0
176
     1
290
     0
176
     1
290
     1
176
     1
290
     1
176
     1
290
     0
176
     1
290
     0
176
     1
290
     0
176
     1
290
     0
176
     1
290
     0
176
     1
290
     0
176
     1
 90
       50
176
     1
 40
0.0
176
     1
 40
1.0
176
     1
 90
        0
176
     1
 62
    18
420
        0
176
     1
 90
       50
176
     1
 90
        3
176
     1
 62
     5
420
      255
176
     1
290
     0
176
     1
 90
       50
176
     1
 90
       50
176
     1
 90
       50
176
     1
290
     0
176
     1
 90
       50
176
     1
 62
   256
176
     0
 40
1.0
176
     0
 90
        2
176
     1
  1
strokes_ogs.tif
176
     1
290
     0
176
     1
 40
1.0
176
     1
 40
1.0
176
     1
  0
VISUALSTYLE
  5
36
102
{ACAD_REACTORS
330
2A
102
}
330
2A
100
AcDbVisualStyle
  2
Brighten
 70
    12
177
     3
291
     1
 70
    58
 90
        2
176
     1
 90
        2
176
     1
 90
        0
176
     1
 90
        0
176
     1
 40
0.6
176
     1
 40
30.0
176
     1
 62
     7
420
 16777215
176
     1
 90
        1
176
     1
 90
        4
176
     1
 62
     7
176
     1
 62
   257
176
     1
 90
        1
176
     1
 90
        1
176
     1
 40
1.0
176
     1
 90
        8
176
     1
 62
     7
176
     1
 40
1.0
176
     1
 90
        1
176
     1
 90
        6
176
     1
 90
        2
176
     1
 62
     7
176
     1
 90
        5
176
     1
 90
        0
176
     1
 90
        0
176
     1
290
     0
176
     1
 90
        1
176
     1
 40
50.0
176
     1
 90
        0
176
     1
290
     0
176
     1
290
     1
176
     1
290
     1
176
     1
290
     0
176
     1
290
     0
176
     1
290
     0
176
     1
290
     0
176
     1
290
     0
176
     1
290
     0
176
     1
 90
       50
176
     1
 40
0.0
176
     1
 40
1.0
176
     1
 90
        0
176
     1
 62
    18
420
        0
176
     1
 90
       50
176
     1
 90
        3
176
     1
 62
     5
420
      255
176
     1
290
     0
176
     1
 90
       50
176
     1
 90
       50
176
     1
 90
       50
176
     1
290
     0
176
     1
 90
       50
176
     1
 62
   256
176
     0
 40
1.0
176
     0
 90
        2
176
     1
  1
strokes_ogs.tif
176
     1
290
     0
176
     1
 40
1.0
176
     1
 40
1.0
176
     1
  0
VISUALSTYLE
  5
3A
102
{ACAD_REACTORS
330
2A
102
}
330
2A
100
AcDbVisualStyle
  2
ColorChange
 70
    16
177
     3
291
     1
 70
    58
 90
        2
176
     1
 90
        2
176
     1
 90
        3
176
     1
 90
        0
176
     1
 40
0.6
176
     1
 40
30.0
176
     1
 62
     8
420
  8421504
176
     1
 90
        1
176
     1
 90
        4
176
     1
 62
     7
176
     1
 62
   257
176
     1
 90
        1
176
     1
 90
        1
176
     1
 40
1.0
176
     1
 90
        8
176
     1
 62
     8
420
  8421504
176
     1
 40
1.0
176
     1
 90
        1
176
     1
 90
        6
176
     1
 90
        2
176
     1
 62
     7
176
     1
 90
        5
176
     1
 90
        0
176
     1
 90
        0
176
     1
290
     0
176
     1
 90
        1
176
     1
 40
0.0
176
     1
 90
        0
176
     1
290
     0
176
     1
290
     1
176
     1
290
     1
176
     1
290
     0
176
     1
290
     0
176
     1
290
     0
176
     1
290
     0
176
     1
290
     0
176
     1
290
     0
176
     1
 90
       50
176
     1
 40
0.0
176
     1
 40
1.0
176
     1
 90
        0
176
     1
 62
    18
420
        0
176
     1
 90
       50
176
     1
 90
        3
176
     1
 62
     5
420
      255
176
     1
290
     0
176
     1
 90
       50
176
     1
 90
       50
176
     1
 90
       50
176
     1
290
     0
176
     1
 90
       50
176
     1
 62
   256
176
     0
 40
1.0
176
     0
 90
        2
176
     1
  1
strokes_ogs.tif
176
     1
290
     0
176
     1
 40
1.0
176
     1
 40
1.0
176
     1
  0
VISUALSTYLE
  5
34
102
{ACAD_REACTORS
330
2A
102
}
330
2A
100
AcDbVisualStyle
  2
Conceptual
 70
     9
177
     3
291
     0
 70
    58
 90
        3
176
     1
 90
        2
176
     1
 90
        0
176
     1
 90
        0
176
     1
 40
0.6
176
     1
 40
30.0
176
     1
 62
     7
420
 16777215
176
     1
 90
        2
176
     1
 90
        2
176
     1
 62
     7
176
     1
 62
   257
176
     1
 90
        1
176
     1
 90
        1
176
     1
 40
179.0
176
     1
 90
        8
176
     1
 62
     7
176
     1
 40
1.0
176
     1
 90
        1
176
     1
 90
        6
176
     1
 90
        2
176
     1
 62
     7
176
     1
 90
        3
176
     1
 90
        0
176
     1
 90
        0
176
     1
290
     0
176
     1
 90
        1
176
     1
 40
0.0
176
     1
 90
        0
176
     1
290
     0
176
     1
290
     1
176
     1
290
     1
176
     1
290
     0
176
     1
290
     0
176
     1
290
     0
176
     1
290
     0
176
     1
290
     0
176
     1
290
     0
176
     1
 90
       50
176
     1
 40
0.0
176
     1
 40
1.0
176
     1
 90
        0
176
     1
 62
    18
420
        0
176
     1
 90
       50
176
     1
 90
        3
176
     1
 62
     5
420
      255
176
     1
290
     0
176
     1
 90
       50
176
     1
 90
       50
176
     1
 90
       50
176
     1
290
     0
176
     1
 90
       50
176
     1
 62
   256
176
     0
 40
1.0
176
     0
 90
        2
176
     1
  1
strokes_ogs.tif
176
     1
290
     0
176
     1
 40
1.0
176
     1
 40
1.0
176
     1
  0
VISUALSTYLE
  5
35
102
{ACAD_REACTORS
330
2A
102
}
330
2A
100
AcDbVisualStyle
  2
Dim
 70
    11
177
     3
291
     1
 70
    58
 90
        2
176
     1
 90
        2
176
     1
 90
        0
176
     1
 90
        0
176
     1
 40
0.6
176
     1
 40
30.0
176
     1
 62
     7
420
 16777215
176
     1
 90
        1
176
     1
 90
        4
176
     1
 62
     7
176
     1
 62
   257
176
     1
 90
        1
176
     1
 90
        1
176
     1
 40
1.0
176
     1
 90
        8
176
     1
 62
     7
176
     1
 40
1.0
176
     1
 90
        1
176
     1
 90
        6
176
     1
 90
        2
176
     1
 62
     7
176
     1
 90
        5
176
     1
 90
        0
176
     1
 90
        0
176
     1
290
     0
176
     1
 90
        1
176
     1
 40
-50.0
176
     1
 90
        0
176
     1
290
     0
176
     1
290
     1
176
     1
290
     1
176
     1
290
     0
176
     1
290
     0
176
     1
290
     0
176
     1
290
     0
176
     1
290
     0
176
     1
290
     0
176
     1
 90
       50
176
     1
 40
0.0
176
     1
 40
1.0
176
     1
 90
        0
176
     1
 62
    18
420
        0
176
     1
 90
       50
176
     1
 90
        3
176
     1
 62
     5
420
      255
176
     1
290
     0
176
     1
 90
       50
176
     1
 90
       50
176
     1
 90
       50
176
     1
290
     0
176
     1
 90
       50
176
     1
 62
   256
176
     0
 40
1.0
176
     0
 90
        2
176
     1
  1
strokes_ogs.tif
176
     1
290
     0
176
     1
 40
1.0
176
     1
 40
1.0
176
     1
  0
VISUALSTYLE
  5
3D
102
{ACAD_REACTORS
330
2A
102
}
330
2A
100
AcDbVisualStyle
  2
EdgeColorOff
 70
    22
177
     3
291
     1
 70
    58
 90
        2
176
     0
 90
        2
176
     0
 90
        0
176
     0
 90
        0
176
     0
 40
0.6
176
     0
 40
30.0
176
     0
 62
     7
420
 16777215
176
     0
 90
        1
176
     0
 90
        4
176
     0
 62
     7
176
     0
 62
   257
176
     0
 90
        1
176
     0
 90
        1
176
     0
 40
1.0
176
     0
 90
        8
176
     2
 62
     7
176
     0
 40
1.0
176
     0
 90
        1
176
     0
 90
        6
176
     0
 90
        2
176
     0
 62
     7
176
     0
 90
        5
176
     0
 90
        0
176
     0
 90
        0
176
     0
290
     0
176
     0
 90
        1
176
     0
 40
0.0
176
     0
 90
        0
176
     0
290
     0
176
     0
290
     1
176
     0
290
     1
176
     0
290
     0
176
     0
290
     0
176
     0
290
     0
176
     0
290
     0
176
     0
290
     0
176
     0
290
     0
176
     0
 90
       50
176
     0
 40
0.0
176
     0
 40
1.0
176
     0
 90
        0
176
     0
 62
    18
420
        0
176
     0
 90
       50
176
     0
 90
        3
176
     0
 62
     5
420
      255
176
     0
290
     0
176
     0
 90
       50
176
     0
 90
       50
176
     0
 90
       50
176
     0
290
     0
176
     0
 90
       50
176
     0
 62
   256
176
     0
 40
1.0
176
     0
 90
        2
176
     0
  1
strokes_ogs.tif
176
     0
290
     0
176
     0
 40
1.0
176
     0
 40
1.0
176
     0
  0
VISUALSTYLE
  5
39
102
{ACAD_REACTORS
330
2A
102
}
330
2A
100
AcDbVisualStyle
  2
Facepattern
 70
    15
177
     3
291
     1
 70
    58
 90
        2
176
     1
 90
        2
176
     1
 90
        0
176
     1
 90
        0
176
     1
 40
0.6
176
     1
 40
30.0
176
     1
 62
     7
420
 16777215
176
     1
 90
        1
176
     1
 90
        4
176
     1
 62
     7
176
     1
 62
   257
176
     1
 90
        1
176
     1
 90
        1
176
     1
 40
1.0
176
     1
 90
        8
176
     1
 62
     7
176
     1
 40
1.0
176
     1
 90
        1
176
     1
 90
        6
176
     1
 90
        2
176
     1
 62
     7
176
     1
 90
        5
176
     1
 90
        0
176
     1
 90
        0
176
     1
290
     0
176
     1
 90
        1
176
     1
 40
0.0
176
     1
 90
        0
176
     1
290
     0
176
     1
290
     1
176
     1
290
     1
176
     1
290
     0
176
     1
290
     0
176
     1
290
     0
176
     1
290
     0
176
     1
290
     0
176
     1
290
     0
176
     1
 90
       50
176
     1
 40
0.0
176
     1
 40
1.0
176
     1
 90
        0
176
     1
 62
    18
420
        0
176
     1
 90
       50
176
     1
 90
        3
176
     1
 62
     5
420
      255
176
     1
290
     0
176
     1
 90
       50
176
     1
 90
       50
176
     1
 90
       50
176
     1
290
     0
176
     1
 90
       50
176
     1
 62
   256
176
     0
 40
1.0
176
     0
 90
        2
176
     1
  1
strokes_ogs.tif
176
     1
290
     0
176
     1
 40
1.0
176
     1
 40
1.0
176
     1
  0
VISUALSTYLE
  5
2B
102
{ACAD_REACTORS
330
2A
102
}
330
2A
100
AcDbVisualStyle
  2
Flat
 70
     0
177
     3
291
     1
 70
    58
 90
        2
176
     1
 90
        1
176
     1
 90
        1
176
     1
 90
        2
176
     1
 40
0.6
176
     1
 40
30.0
176
     1
 62
     7
420
 16777215
176
     1
 90
        0
176
     1
 90
        0
176
     1
 62
     7
176
     1
 62
   257
176
     1
 90
        1
176
     1
 90
        1
176
     1
 40
1.0
176
     1
 90
        8
176
     1
 62
     7
176
     1
 40
1.0
176
     1
 90
        1
176
     1
 90
        6
176
     1
 90
        2
176
     1
 62
     7
176
     1
 90
        5
176
     1
 90
        0
176
     1
 90
        0
176
     1
290
     0
176
     1
 90
       13
176
     1
 40
0.0
176
     1
 90
        0
176
     1
290
     0
176
     1
290
     1
176
     1
290
     1
176
     1
290
     0
176
     1
290
     0
176
     1
290
     0
176
     1
290
     0
176
     1
290
     0
176
     1
290
     0
176
     1
 90
       50
176
     1
 40
0.0
176
     1
 40
1.0
176
     1
 90
        0
176
     1
 62
    18
420
        0
176
     1
 90
       50
176
     1
 90
        3
176
     1
 62
     5
420
      255
176
     1
290
     0
176
     1
 90
       50
176
     1
 90
       50
176
     1
 90
       50
176
     1
290
     0
176
     1
 90
       50
176
     1
 62
   256
176
     0
 40
1.0
176
     0
 90
        2
176
     1
  1
strokes_ogs.tif
176
     1
290
     0
176
     1
 40
1.0
176
     1
 40
1.0
176
     1
  0
VISUALSTYLE
  5
2C
102
{ACAD_REACTORS
330
2A
102
}
330
2A
100
AcDbVisualStyle
  2
FlatWithEdges
 70
     1
177
     3
291
     1
 70
    58
 90
        2
176
     1
 90
        1
176
     1
 90
        1
176
     1
 90
        2
176
     1
 40
0.6
176
     1
 40
30.0
176
     1
 62
     7
420
 16777215
176
     1
 90
        1
176
     1
 90
        0
176
     1
 62
     7
176
     1
 62
   257
176
     1
 90
        1
176
     1
 90
        1
176
     1
 40
1.0
176
     1
 90
        0
176
     1
 62
   257
176
     1
 40
1.0
176
     1
 90
        1
176
     1
 90
        6
176
     1
 90
        2
176
     1
 62
     7
176
     1
 90
        5
176
     1
 90
        0
176
     1
 90
        0
176
     1
290
     0
176
     1
 90
       13
176
     1
 40
0.0
176
     1
 90
        0
176
     1
290
     0
176
     1
290
     1
176
     1
290
     1
176
     1
290
     0
176
     1
290
     0
176
     1
290
     0
176
     1
290
     0
176
     1
290
     0
176
     1
290
     0
176
     1
 90
       50
176
     1
 40
0.0
176
     1
 40
1.0
176
     1
 90
        0
176
     1
 62
    18
420
        0
176
     1
 90
       50
176
     1
 90
        3
176
     1
 62
     5
420
      255
176
     1
290
     0
176
     1
 90
       50
176
     1
 90
       50
176
     1
 90
       50
176
     1
290
     0
176
     1
 90
       50
176
     1
 62
   256
176
     0
 40
1.0
176
     0
 90
        2
176
     1
  1
strokes_ogs.tif
176
     1
290
     0
176
     1
 40
1.0
176
     1
 40
1.0
176
     1
  0
VISUALSTYLE
  5
2D
102
{ACAD_REACTORS
330
2A
102
}
330
2A
100
AcDbVisualStyle
  2
Gouraud
 70
     2
177
     3
291
     1
 70
    58
 90
        2
176
     1
 90
        2
176
     1
 90
        1
176
     1
 90
        2
176
     1
 40
0.6
176
     1
 40
30.0
176
     1
 62
     7
420
 16777215
176
     1
 90
        0
176
     1
 90
        0
176
     1
 62
     7
176
     1
 62
   257
176
     1
 90
        1
176
     1
 90
        1
176
     1
 40
1.0
176
     1
 90
        0
176
     1
 62
     7
176
     1
 40
1.0
176
     1
 90
        1
176
     1
 90
        6
176
     1
 90
        2
176
     1
 62
     7
176
     1
 90
        5
176
     1
 90
        0
176
     1
 90
        0
176
     1
290
     0
176
     1
 90
       13
176
     1
 40
0.0
176
     1
 90
        0
176
     1
290
     0
176
     1
290
     1
176
     1
290
     1
176
     1
290
     0
176
     1
290
     0
176
     1
290
     0
176
     1
290
     0
176
     1
290
     0
176
     1
290
     0
176
     1
 90
       50
176
     1
 40
0.0
176
     1
 40
1.0
176
     1
 90
        0
176
     1
 62
    18
420
        0
176
     1
 90
       50
176
     1
 90
        3
176
     1
 62
     5
420
      255
176
     1
290
     0
176
     1
 90
       50
176
     1
 90
       50
176
     1
 90
       50
176
     1
290
     0
176
     1
 90
       50
176
     1
 62
   256
176
     0
 40
1.0
176
     0
 90
        2
176
     1
  1
strokes_ogs.tif
176
     1
290
     0
176
     1
 40
1.0
176
     1
 40
1.0
176
     1
  0
VISUALSTYLE
  5
2E
102
{ACAD_REACTORS
330
2A
102
}
330
2A
100
AcDbVisualStyle
  2
GouraudWithEdges
 70
     3
177
     3
291
     1
 70
    58
 90
        2
176
     1
 90
        2
176
     1
 90
        1
176
     1
 90
        2
176
     1
 40
0.6
176
     1
 40
30.0
176
     1
 62
     7
420
 16777215
176
     1
 90
        1
176
     1
 90
        0
176
     1
 62
     7
176
     1
 62
   257
176
     1
 90
        1
176
     1
 90
        1
176
     1
 40
1.0
176
     1
 90
        0
176
     1
 62
   257
176
     1
 40
1.0
176
     1
 90
        1
176
     1
 90
        6
176
     1
 90
        2
176
     1
 62
     7
176
     1
 90
        5
176
     1
 90
        0
176
     1
 90
        0
176
     1
290
     0
176
     1
 90
       13
176
     1
 40
0.0
176
     1
 90
        0
176
     1
290
     0
176
     1
290
     1
176
     1
290
     1
176
     1
290
     0
176
     1
290
     0
176
     1
290
     0
176
     1
290
     0
176
     1
290
     0
176
     1
290
     0
176
     1
 90
       50
176
     1
 40
0.0
176
     1
 40
1.0
176
     1
 90
        0
176
     1
 62
    18
420
        0
176
     1
 90
       50
176
     1
 90
        3
176
     1
 62
     5
420
      255
176
     1
290
     0
176
     1
 90
       50
176
     1
 90
       50
176
     1
 90
       50
176
     1
290
     0
176
     1
 90
       50
176
     1
 62
   256
176
     0
 40
1.0
176
     0
 90
        2
176
     1
  1
strokes_ogs.tif
176
     1
290
     0
176
     1
 40
1.0
176
     1
 40
1.0
176
     1
  0
VISUALSTYLE
  5
31
102
{ACAD_REACTORS
330
2A
102
}
330
2A
100
AcDbVisualStyle
  2
Hidden
 70
     6
177
     3
291
     0
 70
    58
 90
        1
176
     1
 90
        2
176
     1
 90
        2
176
     1
 90
        0
176
     1
 40
0.6
176
     1
 40
30.0
176
     1
 62
     7
420
 16777215
176
     1
 90
        2
176
     1
 90
        2
176
     1
 62
     7
176
     1
 62
   257
176
     1
 90
        2
176
     1
 90
        1
176
     1
 40
40.0
176
     1
 90
        0
176
     1
 62
   257
176
     1
 40
1.0
176
     1
 90
        1
176
     1
 90
        6
176
     1
 90
        2
176
     1
 62
     7
176
     1
 90
        3
176
     1
 90
        0
176
     1
 90
        0
176
     1
290
     0
176
     1
 90
        1
176
     1
 40
0.0
176
     1
 90
        0
176
     1
290
     0
176
     1
290
     1
176
     1
290
     1
176
     1
290
     0
176
     1
290
     0
176
     1
290
     0
176
     1
290
     0
176
     1
290
     0
176
     1
290
     0
176
     1
 90
       50
176
     1
 40
0.0
176
     1
 40
1.0
176
     1
 90
        0
176
     1
 62
    18
420
        0
176
     1
 90
       50
176
     1
 90
        3
176
     1
 62
     5
420
      255
176
     1
290
     0
176
     1
 90
       50
176
     1
 90
       50
176
     1
 90
       50
176
     1
290
     0
176
     1
 90
       50
176
     1
 62
   256
176
     0
 40
1.0
176
     0
 90
        2
176
     1
  1
strokes_ogs.tif
176
     1
290
     0
176
     1
 40
1.0
176
     1
 40
1.0
176
     1
  0
VISUALSTYLE
  5
3B
102
{ACAD_REACTORS
330
2A
102
}
330
2A
100
AcDbVisualStyle
  2
JitterOff
 70
    20
177
     3
291
     1
 70
    58
 90
        2
176
     0
 90
        2
176
     0
 90
        0
176
     0
 90
        0
176
     0
 40
0.6
176
     0
 40
30.0
176
     0
 62
     7
420
 16777215
176
     0
 90
        1
176
     0
 90
        4
176
     0
 62
     7
176
     0
 62
   257
176
     0
 90
        1
176
     0
 90
        1
176
     0
 40
1.0
176
     0
 90
       10
176
     2
 62
     7
176
     0
 40
1.0
176
     0
 90
        1
176
     0
 90
        6
176
     0
 90
        2
176
     0
 62
     7
176
     0
 90
        5
176
     0
 90
        0
176
     0
 90
        0
176
     0
290
     0
176
     0
 90
        1
176
     0
 40
0.0
176
     0
 90
        0
176
     0
290
     0
176
     0
290
     1
176
     0
290
     1
176
     0
290
     0
176
     0
290
     0
176
     0
290
     0
176
     0
290
     0
176
     0
290
     0
176
     0
290
     0
176
     0
 90
       50
176
     0
 40
0.0
176
     0
 40
1.0
176
     0
 90
        0
176
     0
 62
    18
420
        0
176
     0
 90
       50
176
     0
 90
        3
176
     0
 62
     5
420
      255
176
     0
290
     0
176
     0
 90
       50
176
     0
 90
       50
176
     0
 90
       50
176
     0
290
     0
176
     0
 90
       50
176
     0
 62
   256
176
     0
 40
1.0
176
     0
 90
        2
176
     0
  1
strokes_ogs.tif
176
     0
290
     0
176
     0
 40
1.0
176
     0
 40
1.0
176
     0
  0
VISUALSTYLE
  5
38
102
{ACAD_REACTORS
330
2A
102
}
330
2A
100
AcDbVisualStyle
  2
Linepattern
 70
    14
177
     3
291
     1
 70
    58
 90
        2
176
     1
 90
        2
176
     1
 90
        0
176
     1
 90
        0
176
     1
 40
0.6
176
     1
 40
30.0
176
     1
 62
     7
420
 16777215
176
     1
 90
        1
176
     1
 90
        4
176
     1
 62
     7
176
     1
 62
   257
176
     1
 90
        7
176
     1
 90
        7
176
     1
 40
1.0
176
     1
 90
        8
176
     1
 62
     7
176
     1
 40
1.0
176
     1
 90
        1
176
     1
 90
        6
176
     1
 90
        2
176
     1
 62
     7
176
     1
 90
        5
176
     1
 90
        0
176
     1
 90
        0
176
     1
290
     0
176
     1
 90
        1
176
     1
 40
0.0
176
     1
 90
        0
176
     1
290
     0
176
     1
290
     1
176
     1
290
     1
176
     1
290
     0
176
     1
290
     0
176
     1
290
     0
176
     1
290
     0
176
     1
290
     0
176
     1
290
     0
176
     1
 90
       50
176
     1
 40
0.0
176
     1
 40
1.0
176
     1
 90
        0
176
     1
 62
    18
420
        0
176
     1
 90
       50
176
     1
 90
        3
176
     1
 62
     5
420
      255
176
     1
290
     0
176
     1
 90
       50
176
     1
 90
       50
176
     1
 90
       50
176
     1
290
     0
176
     1
 90
       50
176
     1
 62
   256
176
     0
 40
1.0
176
     0
 90
        2
176
     1
  1
strokes_ogs.tif
176
     1
290
     0
176
     1
 40
1.0
176
     1
 40
1.0
176
     1
  0
VISUALSTYLE
  5
3C
102
{ACAD_REACTORS
330
2A
102
}
330
2A
100
AcDbVisualStyle
  2
OverhangOff
 70
    21
177
     3
291
     1
 70
    58
 90
        2
176
     0
 90
        2
176
     0
 90
        0
176
     0
 90
        0
176
     0
 40
0.6
176
     0
 40
30.0
176
     0
 62
     7
420
 16777215
176
     0
 90
        1
176
     0
 90
        4
176
     0
 62
     7
176
     0
 62
   257
176
     0
 90
        1
176
     0
 90
        1
176
     0
 40
1.0
176
     0
 90
        9
176
     2
 62
     7
176
     0
 40
1.0
176
     0
 90
        1
176
     0
 90
        6
176
     0
 90
        2
176
     0
 62
     7
176
     0
 90
        5
176
     0
 90
        0
176
     0
 90
        0
176
     0
290
     0
176
     0
 90
        1
176
     0
 40
0.0
176
     0
 90
        0
176
     0
290
     0
176
     0
290
     1
176
     0
290
     1
176
     0
290
     0
176
     0
290
     0
176
     0
290
     0
176
     0
290
     0
176
     0
290
     0
176
     0
290
     0
176
     0
 90
       50
176
     0
 40
0.0
176
     0
 40
1.0
176
     0
 90
        0
176
     0
 62
    18
420
        0
176
     0
 90
       50
176
     0
 90
        3
176
     0
 62
     5
420
      255
176
     0
290
     0
176
     0
 90
       50
176
     0
 90
       50
176
     0
 90
       50
176
     0
290
     0
176
     0
 90
       50
176
     0
 62
   256
176
     0
 40
1.0
176
     0
 90
        2
176
     0
  1
strokes_ogs.tif
176
     0
290
     0
176
     0
 40
1.0
176
     0
 40
1.0
176
     0
  0
VISUALSTYLE
  5
33
102
{ACAD_REACTORS
330
2A
102
}
330
2A
100
AcDbVisualStyle
  2
Realistic
 70
     8
177
     3
291
     0
 70
    58
 90
        2
176
     1
 90
        3
176
     1
 90
        0
176
     1
 90
        2
176
     1
 40
0.6
176
     1
 40
30.0
176
     1
 62
     7
420
 16777215
176
     1
 90
        0
176
     1
 90
        0
176
     1
 62
     7
176
     1
 62
   257
176
     1
 90
        1
176
     1
 90
        1
176
     1
 40
1.0
176
     1
 90
        8
176
     1
 62
   257
176
     1
 40
1.0
176
     1
 90
        1
176
     1
 90
        6
176
     1
 90
        2
176
     1
 62
     7
176
     1
 90
        3
176
     1
 90
        0
176
     1
 90
        0
176
     1
290
     0
176
     1
 90
       13
176
     1
 40
0.0
176
     1
 90
        0
176
     1
290
     0
176
     1
290
     1
176
     1
290
     1
176
     1
290
     0
176
     1
290
     0
176
     1
290
     0
176
     1
290
     0
176
     1
290
     0
176
     1
290
     0
176
     1
 90
       50
176
     1
 40
0.0
176
     1
 40
1.0
176
     1
 90
        0
176
     1
 62
    18
420
        0
176
     1
 90
       50
176
     1
 90
        3
176
     1
 62
     5
420
      255
176
     1
290
     0
176
     1
 90
       50
176
     1
 90
       50
176
     1
 90
       50
176
     1
290
     0
176
     1
 90
       50
176
     1
 62
   256
176
     0
 40
1.0
176
     0
 90
        2
176
     1
  1
strokes_ogs.tif
176
     1
290
     0
176
     1
 40
1.0
176
     1
 40
1.0
176
     1
  0
VISUALSTYLE
  5
42
102
{ACAD_REACTORS
330
2A
102
}
330
2A
100
AcDbVisualStyle
  2
Shaded
 70
    27
177
     3
291
     0
 70
    58
 90
        2
176
     1
 90
        2
176
     1
 90
        1
176
     1
 90
        2
176
     1
 40
0.6
176
     1
 40
30.0
176
     1
 62
     7
420
 16777215
176
     1
 90
        0
176
     1
 90
        4
176
     1
 62
     7
176
     1
 62
   257
176
     1
 90
        1
176
     1
 90
        1
176
     1
 40
1.0
176
     1
 90
        8
176
     1
 62
   257
176
     1
 40
1.0
176
     1
 90
        1
176
     1
 90
        6
176
     1
 90
        2
176
     1
 62
     8
420
  7895160
176
     1
 90
        3
176
     1
 90
        0
176
     1
 90
        0
176
     1
290
     0
176
     1
 90
        5
176
     1
 40
0.0
176
     1
 90
        0
176
     1
290
     0
176
     1
290
     1
176
     1
290
     1
176
     1
290
     0
176
     1
290
     0
176
     1
290
     0
176
     1
290
     0
176
     1
290
     0
176
     1
290
     0
176
     1
 90
       50
176
     1
 40
0.0
176
     1
 40
1.0
176
     1
 90
        0
176
     1
 62
    18
420
        0
176
     1
 90
       50
176
     1
 90
        3
176
     1
 62
     5
420
      255
176
     1
290
     0
176
     1
 90
       50
176
     1
 90
       50
176
     1
 90
       50
176
     1
290
     0
176
     1
 90
       50
176
     1
 62
   256
176
     0
 40
1.0
176
     0
 90
        2
176
     1
  1
strokes_ogs.tif
176
     1
290
     0
176
     1
 40
1.0
176
     1
 40
1.0
176
     1
  0
VISUALSTYLE
  5
41
102
{ACAD_REACTORS
330
2A
102
}
330
2A
100
AcDbVisualStyle
  2
Shaded with edges
 70
    26
177
     3
291
     0
 70
    58
 90
        2
176
     1
 90
        2
176
     1
 90
        1
176
     1
 90
        2
176
     1
 40
0.6
176
     1
 40
30.0
176
     1
 62
     7
420
 16777215
176
     1
 90
        1
176
     1
 90
       10
176
     1
 62
     7
176
     1
 62
   257
176
     1
 90
        2
176
     1
 90
        1
176
     1
 40
1.0
176
     1
 90
        8
176
     1
 62
   257
176
     1
 40
1.0
176
     1
 90
        1
176
     1
 90
        6
176
     1
 90
        2
176
     1
 62
     7
176
     1
 90
        3
176
     1
 90
        0
176
     1
 90
        0
176
     1
290
     0
176
     1
 90
        5
176
     1
 40
0.0
176
     1
 90
        0
176
     1
290
     0
176
     1
290
     1
176
     1
290
     1
176
     1
290
     0
176
     1
290
     0
176
     1
290
     0
176
     1
290
     0
176
     1
290
     0
176
     1
290
     0
176
     1
 90
       50
176
     1
 40
0.0
176
     1
 40
1.0
176
     1
 90
        0
176
     1
 62
    18
420
        0
176
     1
 90
       50
176
     1
 90
        3
176
     1
 62
     5
420
      255
176
     1
290
     0
176
     1
 90
       50
176
     1
 90
       50
176
     1
 90
       50
176
     1
290
     0
176
     1
 90
       50
176
     1
 62
   256
176
     0
 40
1.0
176
     0
 90
        2
176
     1
  1
strokes_ogs.tif
176
     1
290
     0
176
     1
 40
1.0
176
     1
 40
1.0
176
     1
  0
VISUALSTYLE
  5
3E
102
{ACAD_REACTORS
330
2A
102
}
330
2A
100
AcDbVisualStyle
  2
Shades of Gray
 70
    23
177
     3
291
     0
 70
    58
 90
        2
176
     1
 90
        2
176
     1
 90
        3
176
     1
 90
        0
176
     1
 40
0.6
176
     1
 40
30.0
176
     1
 62
     7
420
 16777215
176
     1
 90
        2
176
     1
 90
        2
176
     1
 62
     7
176
     1
 62
     7
176
     1
 90
        1
176
     1
 90
        1
176
     1
 40
40.0
176
     1
 90
        8
176
     1
 62
     7
176
     1
 40
1.0
176
     1
 90
        1
176
     1
 90
        6
176
     1
 90
        2
176
     1
 62
     7
176
     1
 90
        3
176
     1
 90
        0
176
     1
 90
        0
176
     1
290
     0
176
     1
 90
        1
176
     1
 40
0.0
176
     1
 90
        0
176
     1
290
     0
176
     1
290
     1
176
     1
290
     1
176
     1
290
     0
176
     1
290
     0
176
     1
290
     0
176
     1
290
     0
176
     1
290
     0
176
     1
290
     0
176
     1
 90
       50
176
     1
 40
0.0
176
     1
 40
1.0
176
     1
 90
        0
176
     1
 62
    18
420
        0
176
     1
 90
       50
176
     1
 90
        3
176
     1
 62
     5
420
      255
176
     1
290
     0
176
     1
 90
       50
176
     1
 90
       50
176
     1
 90
       50
176
     1
290
     0
176
     1
 90
       50
176
     1
 62
   256
176
     0
 40
1.0
176
     0
 90
        2
176
     1
  1
strokes_ogs.tif
176
     1
290
     0
176
     1
 40
1.0
176
     1
 40
1.0
176
     1
  0
VISUALSTYLE
  5
3F
102
{ACAD_REACTORS
330
2A
102
}
330
2A
100
AcDbVisualStyle
  2
Sketchy
 70
    24
177
     3
291
     0
 70
    58
 90
        1
176
     1
 90
        2
176
     1
 90
        2
176
     1
 90
        0
176
     1
 40
0.6
176
     1
 40
30.0
176
     1
 62
     7
420
 16777215
176
     1
 90
        2
176
     1
 90
        2
176
     1
 62
     7
176
     1
 62
     7
176
     1
 90
        1
176
     1
 90
        1
176
     1
 40
40.0
176
     1
 90
       11
176
     1
 62
     7
176
     1
 40
1.0
176
     1
 90
        1
176
     1
 90
        6
176
     1
 90
        2
176
     1
 62
     7
176
     1
 90
        6
176
     1
 90
        0
176
     1
 90
        0
176
     1
290
     0
176
     1
 90
        1
176
     1
 40
0.0
176
     1
 90
        0
176
     1
290
     0
176
     1
290
     1
176
     1
290
     1
176
     1
290
     0
176
     1
290
     0
176
     1
290
     0
176
     1
290
     0
176
     1
290
     0
176
     1
290
     0
176
     1
 90
       50
176
     1
 40
0.0
176
     1
 40
1.0
176
     1
 90
        0
176
     1
 62
    18
420
        0
176
     1
 90
       50
176
     1
 90
        3
176
     1
 62
     5
420
      255
176
     1
290
     0
176
     1
 90
       50
176
     1
 90
       50
176
     1
 90
       50
176
     1
290
     0
176
     1
 90
       50
176
     1
 62
   256
176
     0
 40
1.0
176
     0
 90
        2
176
     1
  1
strokes_ogs.tif
176
     1
290
     0
176
     1
 40
1.0
176
     1
 40
1.0
176
     1
  0
VISUALSTYLE
  5
37
102
{ACAD_REACTORS
330
2A
102
}
330
2A
100
AcDbVisualStyle
  2
Thicken
 70
    13
177
     3
291
     1
 70
    58
 90
        2
176
     1
 90
        2
176
     1
 90
        0
176
     1
 90
        0
176
     1
 40
0.6
176
     1
 40
30.0
176
     1
 62
     7
420
 16777215
176
     1
 90
        1
176
     1
 90
        4
176
     1
 62
     7
176
     1
 62
   257
176
     1
 90
        1
176
     1
 90
        1
176
     1
 40
1.0
176
     1
 90
       12
176
     1
 62
     7
176
     1
 40
1.0
176
     1
 90
        1
176
     1
 90
        6
176
     1
 90
        2
176
     1
 62
     7
176
     1
 90
        5
176
     1
 90
        0
176
     1
 90
        0
176
     1
290
     0
176
     1
 90
        1
176
     1
 40
0.0
176
     1
 90
        0
176
     1
290
     0
176
     1
290
     1
176
     1
290
     1
176
     1
290
     0
176
     1
290
     0
176
     1
290
     0
176
     1
290
     0
176
     1
290
     0
176
     1
290
     0
176
     1
 90
       50
176
     1
 40
0.0
176
     1
 40
1.0
176
     1
 90
        0
176
     1
 62
    18
420
        0
176
     1
 90
       50
176
     1
 90
        3
176
     1
 62
     5
420
      255
176
     1
290
     0
176
     1
 90
       50
176
     1
 90
       50
176
     1
 90
       50
176
     1
290
     0
176
     1
 90
       50
176
     1
 62
   256
176
     0
 40
1.0
176
     0
 90
        2
176
     1
  1
strokes_ogs.tif
176
     1
290
     0
176
     1
 40
1.0
176
     1
 40
1.0
176
     1
  0
VISUALSTYLE
  5
30
102
{ACAD_REACTORS
330
2A
102
}
330
2A
100
AcDbVisualStyle
  2
Wireframe
 70
     5
177
     3
291
     0
 70
    58
 90
        0
176
     1
 90
        2
176
     1
 90
        0
176
     1
 90
        0
176
     1
 40
0.6
176
     1
 40
30.0
176
     1
 62
     7
420
 16777215
176
     1
 90
        1
176
     1
 90
        4
176
     1
 62
     7
176
     1
 62
   257
176
     1
 90
        1
176
     1
 90
        1
176
     1
 40
1.0
176
     1
 90
        0
176
     1
 62
   257
176
     1
 40
1.0
176
     1
 90
        1
176
     1
 90
        6
176
     1
 90
        2
176
     1
 62
     7
176
     1
 90
        3
176
     1
 90
        0
176
     1
 90
        0
176
     1
290
     0
176
     1
 90
        1
176
     1
 40
0.0
176
     1
 90
        0
176
     1
290
     0
176
     1
290
     1
176
     1
290
     1
176
     1
290
     0
176
     1
290
     0
176
     1
290
     0
176
     1
290
     0
176
     1
290
     0
176
     1
290
     0
176
     1
 90
       50
176
     1
 40
0.0
176
     1
 40
1.0
176
     1
 90
        0
176
     1
 62
    18
420
        0
176
     1
 90
       50
176
     1
 90
        3
176
     1
 62
     5
420
      255
176
     1
290
     0
176
     1
 90
       50
176
     1
 90
       50
176
     1
 90
       50
176
     1
290
     0
176
     1
 90
       50
176
     1
 62
   256
176
     0
 40
1.0
176
     0
 90
        2
176
     1
  1
strokes_ogs.tif
176
     1
290
     0
176
     1
 40
1.0
176
     1
 40
1.0
176
     1
  0
VISUALSTYLE
  5
40
102
{ACAD_REACTORS
330
2A
102
}
330
2A
100
AcDbVisualStyle
  2
X-Ray
 70
    25
177
     3
291
     0
 70
    58
 90
        2
176
     1
 90
        2
176
     1
 90
        1
176
     1
 90
        1
176
     1
 40
0.5
176
     1
 40
30.0
176
     1
 62
     7
420
 16777215
176
     1
 90
        1
176
     1
 90
        0
176
     1
 62
     7
176
     1
 62
   257
176
     1
 90
        1
176
     1
 90
        1
176
     1
 40
1.0
176
     1
 90
        8
176
     1
 62
     7
176
     1
 40
1.0
176
     1
 90
        1
176
     1
 90
        6
176
     1
 90
        2
176
     1
 62
     7
176
     1
 90
        3
176
     1
 90
        0
176
     1
 90
        0
176
     1
290
     0
176
     1
 90
       13
176
     1
 40
0.0
176
     1
 90
        0
176
     1
290
     0
176
     1
290
     1
176
     1
290
     1
176
     1
290
     0
176
     1
290
     0
176
     1
290
     0
176
     1
290
     0
176
     1
290
     0
176
     1
290
     0
176
     1
 90
       50
176
     1
 40
0.0
176
     1
 40
1.0
176
     1
 90
        0
176
     1
 62
    18
420
        0
176
     1
 90
       50
176
     1
 90
        3
176
     1
 62
     5
420
      255
176
     1
290
     0
176
     1
 90
       50
176
     1
 90
       50
176
     1
 90
       50
176
     1
290
     0
176
     1
 90
       50
176
     1
 62
   256
176
     0
 40
1.0
176
     0
 90
        2
176
     1
  1
strokes_ogs.tif
176
     1
290
     0
176
     1
 40
1.0
176
     1
 40
1.0
176
     1
  0
DICTIONARYVAR
  5
211
102
{ACAD_REACTORS
330
210
102
}
330
210
100
DictionaryVariables
280
     0
  1
1:1
  0
DICTIONARYVAR
  5
216
102
{ACAD_REACTORS
330
210
102
}
330
210
100
DictionaryVariables
280
     0
  1
Standard
  0
DICTIONARYVAR
  5
215
102
{ACAD_REACTORS
330
210
102
}
330
210
100
DictionaryVariables
280
     0
  1
Standard
  0
DICTIONARY
  5
212
330
6A
100
AcDbDictionary
280
     1
281
     1
  3
ACAD_ROUNDTRIP_2008_TABLESTYLE_CELLSTYLEMAP
360
213
  0
CELLSTYLEMAP
  5
213
102
{ACAD_REACTORS
330
212
102
}
330
212
100
AcDbCellStyleMap
 90
        3
300
CELLSTYLE
  1
TABLEFORMAT_BEGIN
 90
        5
170
     1
 91
        0
 92
    32768
 62
   257
 93
        1
300
CONTENTFORMAT
  1
CONTENTFORMAT_BEGIN
 90
        0
 91
        0
 92
        4
 93
        0
300

 40
0.0
140
1.0
 94
        5
 62
     0
340
11
144
0.25
309
CONTENTFORMAT_END
171
     1
301
MARGIN
  1
CELLMARGIN_BEGIN
 40
0.06
 40
0.06
 40
0.06
 40
0.06
 40
0.06
 40
0.06
309
CELLMARGIN_END
 94
        6
 95
        1
302
GRIDFORMAT
  1
GRIDFORMAT_BEGIN
 90
        0
 91
        1
 62
     0
 92
       -2
340
14
 93
        0
 40
0.045
309
GRIDFORMAT_END
 95
        2
302
GRIDFORMAT
  1
GRIDFORMAT_BEGIN
 90
        0
 91
        1
 62
     0
 92
       -2
340
14
 93
        0
 40
0.045
309
GRIDFORMAT_END
 95
        4
302
GRIDFORMAT
  1
GRIDFORMAT_BEGIN
 90
        0
 91
        1
 62
     0
 92
       -2
340
14
 93
        0
 40
0.045
309
GRIDFORMAT_END
 95
        8
302
GRIDFORMAT
  1
GRIDFORMAT_BEGIN
 90
        0
 91
        1
 62
     0
 92
       -2
340
14
 93
        0
 40
0.045
309
GRIDFORMAT_END
 95
       16
302
GRIDFORMAT
  1
GRIDFORMAT_BEGIN
 90
        0
 91
        1
 62
     0
 92
       -2
340
14
 93
        0
 40
0.045
309
GRIDFORMAT_END
 95
       32
302
GRIDFORMAT
  1
GRIDFORMAT_BEGIN
 90
        0
 91
        1
 62
     0
 92
       -2
340
14
 93
        0
 40
0.045
309
GRIDFORMAT_END
309
TABLEFORMAT_END
  1
CELLSTYLE_BEGIN
 90
        1
 91
        1
300
_TITLE
309
CELLSTYLE_END
300
CELLSTYLE
  1
TABLEFORMAT_BEGIN
 90
        5
170
     1
 91
        0
 92
        0
 62
   257
 93
        1
300
CONTENTFORMAT
  1
CONTENTFORMAT_BEGIN
 90
        0
 91
        0
 92
        4
 93
        0
300

 40
0.0
140
1.0
 94
        5
 62
     0
340
11
144
0.18
309
CONTENTFORMAT_END
171
     1
301
MARGIN
  1
CELLMARGIN_BEGIN
 40
0.06
 40
0.06
 40
0.06
 40
0.06
 40
0.06
 40
0.06
309
CELLMARGIN_END
 94
        6
 95
        1
302
GRIDFORMAT
  1
GRIDFORMAT_BEGIN
 90
        0
 91
        1
 62
     0
 92
       -2
340
14
 93
        0
 40
0.045
309
GRIDFORMAT_END
 95
        2
302
GRIDFORMAT
  1
GRIDFORMAT_BEGIN
 90
        0
 91
        1
 62
     0
 92
       -2
340
14
 93
        0
 40
0.045
309
GRIDFORMAT_END
 95
        4
302
GRIDFORMAT
  1
GRIDFORMAT_BEGIN
 90
        0
 91
        1
 62
     0
 92
       -2
340
14
 93
        0
 40
0.045
309
GRIDFORMAT_END
 95
        8
302
GRIDFORMAT
  1
GRIDFORMAT_BEGIN
 90
        0
 91
        1
 62
     0
 92
       -2
340
14
 93
        0
 40
0.045
309
GRIDFORMAT_END
 95
       16
302
GRIDFORMAT
  1
GRIDFORMAT_BEGIN
 90
        0
 91
        1
 62
     0
 92
       -2
340
14
 93
        0
 40
0.045
309
GRIDFORMAT_END
 95
       32
302
GRIDFORMAT
  1
GRIDFORMAT_BEGIN
 90
        0
 91
        1
 62
     0
 92
       -2
340
14
 93
        0
 40
0.045
309
GRIDFORMAT_END
309
TABLEFORMAT_END
  1
CELLSTYLE_BEGIN
 90
        2
 91
        1
300
_HEADER
309
CELLSTYLE_END
300
CELLSTYLE
  1
TABLEFORMAT_BEGIN
 90
        5
170
     1
 91
        0
 92
        0
 62
   257
 93
        1
300
CONTENTFORMAT
  1
CONTENTFORMAT_BEGIN
 90
        0
 91
        0
 92
        4
 93
        0
300

 40
0.0
140
1.0
 94
        2
 62
     0
340
11
144
0.18
309
CONTENTFORMAT_END
171
     1
301
MARGIN
  1
CELLMARGIN_BEGIN
 40
0.06
 40
0.06
 40
0.06
 40
0.06
 40
0.06
 40
0.06
309
CELLMARGIN_END
 94
        6
 95
        1
302
GRIDFORMAT
  1
GRIDFORMAT_BEGIN
 90
        0
 91
        1
 62
     0
 92
       -2
340
14
 93
        0
 40
0.045
309
GRIDFORMAT_END
 95
        2
302
GRIDFORMAT
  1
GRIDFORMAT_BEGIN
 90
        0
 91
        1
 62
     0
 92
       -2
340
14
 93
        0
 40
0.045
309
GRIDFORMAT_END
 95
        4
302
GRIDFORMAT
  1
GRIDFORMAT_BEGIN
 90
        0
 91
        1
 62
     0
 92
       -2
340
14
 93
        0
 40
0.045
309
GRIDFORMAT_END
 95
        8
302
GRIDFORMAT
  1
GRIDFORMAT_BEGIN
 90
        0
 91
        1
 62
     0
 92
       -2
340
14
 93
        0
 40
0.045
309
GRIDFORMAT_END
 95
       16
302
GRIDFORMAT
  1
GRIDFORMAT_BEGIN
 90
        0
 91
        1
 62
     0
 92
       -2
340
14
 93
        0
 40
0.045
309
GRIDFORMAT_END
 95
       32
302
GRIDFORMAT
  1
GRIDFORMAT_BEGIN
 90
        0
 91
        1
 62
     0
 92
       -2
340
14
 93
        0
 40
0.045
309
GRIDFORMAT_END
309
TABLEFORMAT_END
  1
CELLSTYLE_BEGIN
 90
        3
 91
        2
300
_DATA
309
CELLSTYLE_END
  0
ENDSEC
  0
EOF