0
SECTION
  2
HEADER
  9
$ACADVER
  1
AC1027
  9
$ACADMAINTVER
 70
   105
  9
$DWGCODEPAGE
  3
ANSI_1252
  9
$REQUIREDVERSIONS
160
                 0
  9
$COMMENTS
  1
File was created by Cadenas
  9
$CUSTOMPROPERTYTAG
  1
NN
  9
$CUSTOMPROPERTY
  1
Eccentric Collar Intermediate Duty Narrow Slot Take Up Inch Bore
  9
$CUSTOMPROPERTYTAG
  1
NT
  9
$CUSTOMPROPERTY
  1
Eccentric Collar Take-Up Bearings -(Intermediate Duty) -Narrow Slot
  9
$CUSTOMPROPERTYTAG
  1
NB
  9
$CUSTOMPROPERTY
  1
131197
  9
$CUSTOMPROPERTYTAG
  1
NBSYN
  9
$CUSTOMPROPERTY
  1
$PN.
  9
$CUSTOMPROPERTYTAG
  1
LINA
  9
$CUSTOMPROPERTY
  1
131197
  9
$CUSTOMPROPERTYTAG
  1
SERIES
  9
$CUSTOMPROPERTY
  1
207
  9
$CUSTOMPROPERTYTAG
  1
SS
  9
$CUSTOMPROPERTY
  1
1-7/16
  9
$CUSTOMPROPERTYTAG
  1
PN
  9
$CUSTOMPROPERTY
  1
131197
  9
$CUSTOMPROPERTYTAG
  1
DESCRIPTION
  9
$CUSTOMPROPERTY
  1
NSTU-SXV-107
  9
$CUSTOMPROPERTYTAG
  1
W
  9
$CUSTOMPROPERTY
  1
2.5
  9
$CUSTOMPROPERTYTAG
  1
FS
  9
$CUSTOMPROPERTY
  1
NS308
  9
$CUSTOMPROPERTYTAG
  1
A
  9
$CUSTOMPROPERTY
  1
1.53
  9
$CUSTOMPROPERTYTAG
  1
B
  9
$CUSTOMPROPERTY
  1
4.50
  9
$CUSTOMPROPERTYTAG
  1
C
  9
$CUSTOMPROPERTY
  1
0.250
  9
$CUSTOMPROPERTYTAG
  1
D
  9
$CUSTOMPROPERTY
  1
2.50
  9
$CUSTOMPROPERTYTAG
  1
E
  9
$CUSTOMPROPERTY
  1
2.69
  9
$CUSTOMPROPERTYTAG
  1
F
  9
$CUSTOMPROPERTY
  1
3/4
  9
$CUSTOMPROPERTYTAG
  1
G
  9
$CUSTOMPROPERTY
  1
0.50
  9
$CUSTOMPROPERTYTAG
  1
H
  9
$CUSTOMPROPERTY
  1
0.94
  9
$CUSTOMPROPERTYTAG
  1
J
  9
$CUSTOMPROPERTY
  1
1.38
  9
$CUSTOMPROPERTYTAG
  1
L
  9
$CUSTOMPROPERTY
  1
2.13
  9
$CUSTOMPROPERTYTAG
  1
M
  9
$CUSTOMPROPERTY
  1
3.510 / 3.480
  9
$CUSTOMPROPERTYTAG
  1
N
  9
$CUSTOMPROPERTY
  1
4.13
  9
$CUSTOMPROPERTYTAG
  1
P
  9
$CUSTOMPROPERTY
  1
0.32
  9
$CUSTOMPROPERTYTAG
  1
R
  9
$CUSTOMPROPERTY
  1
0.37
  9
$CUSTOMPROPERTYTAG
  1
S
  9
$CUSTOMPROPERTY
  1
1.16
  9
$CUSTOMPROPERTYTAG
  1
COMPANY
  9
$CUSTOMPROPERTY
  1
baldor
  9
$INSBASE
 10
0.0
 20
0.0
 30
0.0
  9
$EXTMIN
 10
1.000000000000000E+20
 20
1.000000000000000E+20
 30
1.000000000000000E+20
  9
$EXTMAX
 10
-1.000000000000000E+20
 20
-1.000000000000000E+20
 30
-1.000000000000000E+20
  9
$LIMMIN
 10
0.0
 20
0.0
  9
$LIMMAX
 10
12.0
 20
9.0
  9
$ORTHOMODE
 70
     0
  9
$REGENMODE
 70
     1
  9
$FILLMODE
 70
     1
  9
$QTEXTMODE
 70
     0
  9
$MIRRTEXT
 70
     1
  9
$LTSCALE
 40
1.0
  9
$ATTMODE
 70
     1
  9
$TEXTSIZE
 40
0.2
  9
$TRACEWID
 40
0.05
  9
$TEXTSTYLE
  7
Standard
  9
$CLAYER
  8
0
  9
$CELTYPE
  6
ByLayer
  9
$CECOLOR
 62
   256
  9
$CELTSCALE
 40
1.0
  9
$DISPSILH
 70
     0
  9
$DIMSCALE
 40
1.0
  9
$DIMASZ
 40
0.18
  9
$DIMEXO
 40
0.0625
  9
$DIMDLI
 40
0.38
  9
$DIMRND
 40
0.0
  9
$DIMDLE
 40
0.0
  9
$DIMEXE
 40
0.18
  9
$DIMTP
 40
0.0
  9
$DIMTM
 40
0.0
  9
$DIMTXT
 40
0.18
  9
$DIMCEN
 40
0.09
  9
$DIMTSZ
 40
0.0
  9
$DIMTOL
 70
     0
  9
$DIMLIM
 70
     0
  9
$DIMTIH
 70
     1
  9
$DIMTOH
 70
     1
  9
$DIMSE1
 70
     0
  9
$DIMSE2
 70
     0
  9
$DIMTAD
 70
     0
  9
$DIMZIN
 70
     0
  9
$DIMBLK
  1

  9
$DIMASO
 70
     1
  9
$DIMSHO
 70
     1
  9
$DIMPOST
  1

  9
$DIMAPOST
  1

  9
$DIMALT
 70
     0
  9
$DIMALTD
 70
     2
  9
$DIMALTF
 40
25.4
  9
$DIMLFAC
 40
1.0
  9
$DIMTOFL
 70
     0
  9
$DIMTVP
 40
0.0
  9
$DIMTIX
 70
     0
  9
$DIMSOXD
 70
     0
  9
$DIMSAH
 70
     0
  9
$DIMBLK1
  1

  9
$DIMBLK2
  1

  9
$DIMSTYLE
  2
Standard
  9
$DIMCLRD
 70
     0
  9
$DIMCLRE
 70
     0
  9
$DIMCLRT
 70
     0
  9
$DIMTFAC
 40
1.0
  9
$DIMGAP
 40
0.09
  9
$DIMJUST
 70
     0
  9
$DIMSD1
 70
     0
  9
$DIMSD2
 70
     0
  9
$DIMTOLJ
 70
     1
  9
$DIMTZIN
 70
     0
  9
$DIMALTZ
 70
     0
  9
$DIMALTTZ
 70
     0
  9
$DIMUPT
 70
     0
  9
$DIMDEC
 70
     4
  9
$DIMTDEC
 70
     4
  9
$DIMALTU
 70
     2
  9
$DIMALTTD
 70
     2
  9
$DIMTXSTY
  7
Standard
  9
$DIMAUNIT
 70
     0
  9
$DIMADEC
 70
     0
  9
$DIMALTRND
 40
0.0
  9
$DIMAZIN
 70
     0
  9
$DIMDSEP
 70
    46
  9
$DIMATFIT
 70
     3
  9
$DIMFRAC
 70
     0
  9
$DIMLDRBLK
  1

  9
$DIMLUNIT
 70
     2
  9
$DIMLWD
 70
    -2
  9
$DIMLWE
 70
    -2
  9
$DIMTMOVE
 70
     0
  9
$DIMFXL
 40
1.0
  9
$DIMFXLON
 70
     0
  9
$DIMJOGANG
 40
0.7853981633974483
  9
$DIMTFILL
 70
     0
  9
$DIMTFILLCLR
 70
     0
  9
$DIMARCSYM
 70
     0
  9
$DIMLTYPE
  6

  9
$DIMLTEX1
  6

  9
$DIMLTEX2
  6

  9
$DIMTXTDIRECTION
 70
     0
  9
$LUNITS
 70
     2
  9
$LUPREC
 70
     4
  9
$SKETCHINC
 40
0.1
  9
$FILLETRAD
 40
0.5
  9
$AUNITS
 70
     0
  9
$AUPREC
 70
     0
  9
$MENU
  1
.
  9
$ELEVATION
 40
0.0
  9
$PELEVATION
 40
0.0
  9
$THICKNESS
 40
0.0
  9
$LIMCHECK
 70
     0
  9
$CHAMFERA
 40
0.0
  9
$CHAMFERB
 40
0.0
  9
$CHAMFERC
 40
0.0
  9
$CHAMFERD
 40
0.0
  9
$SKPOLY
 70
     0
  9
$TDCREATE
 40
2458169.003854155
  9
$TDUCREATE
 40
2458168.962187489
  9
$TDUPDATE
 40
2458169.00385434
  9
$TDUUPDATE
 40
2458168.962187673
  9
$TDINDWG
 40
0.0000000116
  9
$TDUSRTIMER
 40
0.0000000116
  9
$USRTIMER
 70
     1
  9
$ANGBASE
 50
0.0
  9
$ANGDIR
 70
     0
  9
$PDMODE
 70
     0
  9
$PDSIZE
 40
0.0
  9
$PLINEWID
 40
0.0
  9
$SPLFRAME
 70
     0
  9
$SPLINETYPE
 70
     6
  9
$SPLINESEGS
 70
     8
  9
$HANDSEED
  5
19C
  9
$SURFTAB1
 70
     6
  9
$SURFTAB2
 70
     6
  9
$SURFTYPE
 70
     6
  9
$SURFU
 70
     6
  9
$SURFV
 70
     6
  9
$UCSBASE
  2

  9
$UCSNAME
  2

  9
$UCSORG
 10
0.0
 20
0.0
 30
0.0
  9
$UCSXDIR
 10
1.0
 20
0.0
 30
0.0
  9
$UCSYDIR
 10
0.0
 20
1.0
 30
0.0
  9
$UCSORTHOREF
  2

  9
$UCSORTHOVIEW
 70
     0
  9
$UCSORGTOP
 10
0.0
 20
0.0
 30
0.0
  9
$UCSORGBOTTOM
 10
0.0
 20
0.0
 30
0.0
  9
$UCSORGLEFT
 10
0.0
 20
0.0
 30
0.0
  9
$UCSORGRIGHT
 10
0.0
 20
0.0
 30
0.0
  9
$UCSORGFRONT
 10
0.0
 20
0.0
 30
0.0
  9
$UCSORGBACK
 10
0.0
 20
0.0
 30
0.0
  9
$PUCSBASE
  2

  9
$PUCSNAME
  2

  9
$PUCSORG
 10
0.0
 20
0.0
 30
0.0
  9
$PUCSXDIR
 10
1.0
 20
0.0
 30
0.0
  9
$PUCSYDIR
 10
0.0
 20
1.0
 30
0.0
  9
$PUCSORTHOREF
  2

  9
$PUCSORTHOVIEW
 70
     0
  9
$PUCSORGTOP
 10
0.0
 20
0.0
 30
0.0
  9
$PUCSORGBOTTOM
 10
0.0
 20
0.0
 30
0.0
  9
$PUCSORGLEFT
 10
0.0
 20
0.0
 30
0.0
  9
$PUCSORGRIGHT
 10
0.0
 20
0.0
 30
0.0
  9
$PUCSORGFRONT
 10
0.0
 20
0.0
 30
0.0
  9
$PUCSORGBACK
 10
0.0
 20
0.0
 30
0.0
  9
$USERI1
 70
     0
  9
$USERI2
 70
     0
  9
$USERI3
 70
     0
  9
$USERI4
 70
     0
  9
$USERI5
 70
     0
  9
$USERR1
 40
0.0
  9
$USERR2
 40
0.0
  9
$USERR3
 40
0.0
  9
$USERR4
 40
0.0
  9
$USERR5
 40
0.0
  9
$WORLDVIEW
 70
     1
  9
$SHADEDGE
 70
     3
  9
$SHADEDIF
 70
    70
  9
$TILEMODE
 70
     1
  9
$MAXACTVP
 70
    64
  9
$PINSBASE
 10
0.0
 20
0.0
 30
0.0
  9
$PLIMCHECK
 70
     0
  9
$PEXTMIN
 10
1.000000000000000E+20
 20
1.000000000000000E+20
 30
1.000000000000000E+20
  9
$PEXTMAX
 10
-1.000000000000000E+20
 20
-1.000000000000000E+20
 30
-1.000000000000000E+20
  9
$PLIMMIN
 10
0.0
 20
0.0
  9
$PLIMMAX
 10
12.0
 20
9.0
  9
$UNITMODE
 70
     0
  9
$VISRETAIN
 70
     1
  9
$PLINEGEN
 70
     0
  9
$PSLTSCALE
 70
     1
  9
$TREEDEPTH
 70
  3020
  9
$CMLSTYLE
  2
Standard
  9
$CMLJUST
 70
     0
  9
$CMLSCALE
 40
1.0
  9
$PROXYGRAPHICS
 70
     1
  9
$MEASUREMENT
 70
     0
  9
$CELWEIGHT
370
    -1
  9
$ENDCAPS
280
     0
  9
$JOINSTYLE
280
     0
  9
$LWDISPLAY
290
     0
  9
$INSUNITS
 70
     1
  9
$HYPERLINKBASE
  1

  9
$STYLESHEET
  1

  9
$XEDIT
290
     1
  9
$CEPSNTYPE
380
     0
  9
$PSTYLEMODE
290
     1
  9
$FINGERPRINTGUID
  2
{505F2253-6AD6-4F1A-AFD2-BABAAD562968}
  9
$VERSIONGUID
  2
{FAEB1C32-E019-11D5-929B-00C0DF256EC4}
  9
$EXTNAMES
290
     1
  9
$PSVPSCALE
 40
0.0
  9
$OLESTARTUP
290
     0
  9
$SORTENTS
280
   127
  9
$INDEXCTL
280
     0
  9
$HIDETEXT
280
     1
  9
$XCLIPFRAME
280
     2
  9
$HALOGAP
280
     0
  9
$OBSCOLOR
 70
   257
  9
$OBSLTYPE
280
     0
  9
$INTERSECTIONDISPLAY
280
     0
  9
$INTERSECTIONCOLOR
 70
   257
  9
$DIMASSOC
280
     2
  9
$PROJECTNAME
  1

  9
$CAMERADISPLAY
290
     0
  9
$LENSLENGTH
 40
50.0
  9
$CAMERAHEIGHT
 40
0.0
  9
$STEPSPERSEC
 40
2.0
  9
$STEPSIZE
 40
6.0
  9
$3DDWFPREC
 40
2.0
  9
$PSOLWIDTH
 40
0.25
  9
$PSOLHEIGHT
 40
4.0
  9
$LOFTANG1
 40
1.570796326794897
  9
$LOFTANG2
 40
1.570796326794897
  9
$LOFTMAG1
 40
0.0
  9
$LOFTMAG2
 40
0.0
  9
$LOFTPARAM
 70
     7
  9
$LOFTNORMALS
280
     1
  9
$LATITUDE
 40
37.795
  9
$LONGITUDE
 40
-122.394
  9
$NORTHDIRECTION
 40
0.0
  9
$TIMEZONE
 70
 -8000
  9
$LIGHTGLYPHDISPLAY
280
     1
  9
$TILEMODELIGHTSYNCH
280
     1
  9
$CMATERIAL
347
44
  9
$SOLIDHIST
280
     0
  9
$SHOWHIST
280
     1
  9
$DWFFRAME
280
     2
  9
$DGNFRAME
280
     2
  9
$REALWORLDSCALE
290
     1
  9
$INTERFERECOLOR
 62
   256
  9
$CSHADOW
280
     0
  9
$SHADOWPLANELOCATION
 40
0.0
  0
ENDSEC
  0
SECTION
  2
CLASSES
  0
CLASS
  1
ACDBDICTIONARYWDFLT
  2
AcDbDictionaryWithDefault
  3
ObjectDBX Classes
 90
        0
 91
        4
280
     0
281
     0
  0
CLASS
  1
VISUALSTYLE
  2
AcDbVisualStyle
  3
ObjectDBX Classes
 90
     4095
 91
        4
280
     0
281
     0
  0
CLASS
  1
MATERIAL
  2
AcDbMaterial
  3
ObjectDBX Classes
 90
     1153
 91
        4
280
     0
281
     0
  0
CLASS
  1
SCALE
  2
AcDbScale
  3
ObjectDBX Classes
 90
     1153
 91
        4
280
     0
281
     0
  0
CLASS
  1
TABLESTYLE
  2
AcDbTableStyle
  3
ObjectDBX Classes
 90
     4095
 91
        4
280
     0
281
     0
  0
CLASS
  1
MLEADERSTYLE
  2
AcDbMLeaderStyle
  3
ACDB_MLEADERSTYLE_CLASS
 90
     4095
 91
        4
280
     0
281
     0
  0
CLASS
  1
SUN
  2
AcDbSun
  3
SCENEOE
 90
     1153
 91
        4
280
     0
281
     0
  0
CLASS
  1
DICTIONARYVAR
  2
AcDbDictionaryVar
  3
ObjectDBX Classes
 90
        0
 91
        4
280
     0
281
     0
  0
CLASS
  1
CELLSTYLEMAP
  2
AcDbCellStyleMap
  3
ObjectDBX Classes
 90
     1152
 91
        4
280
     0
281
     0
  0
ENDSEC
  0
SECTION
  2
TABLES
  0
TABLE
  2
VPORT
  5
8
330
0
100
AcDbSymbolTable
 70
     1
  0
VPORT
  5
29
330
8
100
AcDbSymbolTableRecord
100
AcDbViewportTableRecord
  2
*Active
 70
     0
 10
0.0
 20
0.0
 11
1.0
 21
1.0
 12
5.131221082047306
 22
-4.185
 13
0.0
 23
0.0
 14
0.5
 24
0.5
 15
0.5
 25
0.5
 16
0.0
 26
0.0
 36
1.0
 17
0.0
 27
0.0
 37
0.0
 40
13.77
 41
1.075595712712568
 42
50.0
 43
0.0
 44
0.0
 50
0.0
 51
0.0
 71
     0
 72
   100
 73
     1
 74
     3
 75
     0
 76
     0
 77
     0
 78
     0
281
     0
 65
     1
110
0.0
120
0.0
130
0.0
111
1.0
121
0.0
131
0.0
112
0.0
122
1.0
132
0.0
 79
     0
146
0.0
348
2F
 60
     3
 61
     5
292
     1
282
     1
141
0.0
142
0.0
 63
   250
361
6D
  0
ENDTAB
  0
TABLE
  2
LTYPE
  5
5
330
0
100
AcDbSymbolTable
 70
     3
  0
LTYPE
  5
14
330
5
100
AcDbSymbolTableRecord
100
AcDbLinetypeTableRecord
  2
ByBlock
 70
     0
  3

 72
    65
 73
     0
 40
0.0
  0
LTYPE
  5
15
330
5
100
AcDbSymbolTableRecord
100
AcDbLinetypeTableRecord
  2
ByLayer
 70
     0
  3

 72
    65
 73
     0
 40
0.0
  0
LTYPE
  5
16
330
5
100
AcDbSymbolTableRecord
100
AcDbLinetypeTableRecord
  2
Continuous
 70
     0
  3
Solid line
 72
    65
 73
     0
 40
0.0
  0
LTYPE
  5
9B
330
5
100
AcDbSymbolTableRecord
100
AcDbLinetypeTableRecord
  2
Dashed
 70
     0
  3

 72
    65
 73
     2
 40
2.0
 49
1.0
 74
     0
 49
-1.0
 74
     0
  0
LTYPE
  5
C3
330
5
100
AcDbSymbolTableRecord
100
AcDbLinetypeTableRecord
  2
Center
 70
     0
  3

 72
    65
 73
     4
 40
1.5
 49
0.45
 74
     0
 49
-0.5
 74
     0
 49
0.05
 74
     0
 49
-0.5
 74
     0
  0
ENDTAB
  0
TABLE
  2
LAYER
  5
2
330
0
100
AcDbSymbolTable
 70
     8
  0
LAYER
  5
10
330
2
100
AcDbSymbolTableRecord
100
AcDbLayerTableRecord
  2
0
 70
     0
 62
     7
  6
Continuous
370
    -3
390
F
347
46
348
0
  0
LAYER
  5
6E
330
2
100
AcDbSymbolTableRecord
100
AcDbLayerTableRecord
  2
AM_6
 70
     0
 62
    -2
  6
Continuous
370
    35
390
F
347
46
348
0
  0
LAYER
  5
9C
330
2
100
AcDbSymbolTableRecord
100
AcDbLayerTableRecord
  2
AM_9
 70
     0
 62
     6
  6
Dashed
370
    25
390
F
347
46
348
0
  0
LAYER
  5
BC
330
2
100
AcDbSymbolTableRecord
100
AcDbLayerTableRecord
  2
AM_5
 70
     0
 62
     3
  6
Continuous
370
    25
390
F
347
46
348
0
  0
LAYER
  5
C4
330
2
100
AcDbSymbolTableRecord
100
AcDbLayerTableRecord
  2
AM_7
 70
     0
 62
     7
  6
Center
370
    25
390
F
347
46
348
0
  0
LAYER
  5
C8
330
2
100
AcDbSymbolTableRecord
100
AcDbLayerTableRecord
  2
AM_0
 70
     0
 62
     7
  6
Continuous
370
    50
390
F
347
46
348
0
  0
LAYER
  5
D6
330
2
100
AcDbSymbolTableRecord
100
AcDbLayerTableRecord
  2
AM_4
 70
     0
 62
     3
  6
Continuous
370
    25
390
F
347
46
348
0
  0
LAYER
  5
18F
330
2
100
AcDbSymbolTableRecord
100
AcDbLayerTableRecord
  2
ConnectionPoints
 70
     0
 62
     7
  6
Continuous
370
    50
390
F
347
46
348
0
  0
ENDTAB
  0
TABLE
  2
STYLE
  5
3
330
0
100
AcDbSymbolTable
 70
     1
  0
STYLE
  5
11
330
3
100
AcDbSymbolTableRecord
100
AcDbTextStyleTableRecord
  2
Standard
 70
     0
 40
0.0
 41
1.0
 50
0.0
 71
     0
 42
0.2
  3
txt
  4

  0
ENDTAB
  0
TABLE
  2
VIEW
  5
6
330
0
100
AcDbSymbolTable
 70
     0
  0
ENDTAB
  0
TABLE
  2
UCS
  5
7
330
0
100
AcDbSymbolTable
 70
     0
  0
ENDTAB
  0
TABLE
  2
APPID
  5
9
330
0
100
AcDbSymbolTable
 70
     1
  0
APPID
  5
12
330
9
100
AcDbSymbolTableRecord
100
AcDbRegAppTableRecord
  2
ACAD
 70
     0
  0
ENDTAB
  0
TABLE
  2
DIMSTYLE
  5
A
330
0
100
AcDbSymbolTable
 70
     1
100
AcDbDimStyleTable
  0
DIMSTYLE
105
27
330
A
100
AcDbSymbolTableRecord
100
AcDbDimStyleTableRecord
  2
Standard
 70
     0
178
     0
340
11
  0
ENDTAB
  0
TABLE
  2
BLOCK_RECORD
  5
1
330
0
100
AcDbSymbolTable
 70
     4
  0
BLOCK_RECORD
  5
1F
330
1
100
AcDbSymbolTableRecord
100
AcDbBlockTableRecord
  2
*Model_Space
340
22
 70
     0
280
     1
281
     0
  0
BLOCK_RECORD
  5
1B
330
1
100
AcDbSymbolTableRecord
100
AcDbBlockTableRecord
  2
*Paper_Space
340
1E
 70
     0
280
     1
281
     0
  0
BLOCK_RECORD
  5
23
330
1
100
AcDbSymbolTableRecord
100
AcDbBlockTableRecord
  2
*Paper_Space0
340
26
 70
     0
280
     1
281
     0
  0
BLOCK_RECORD
  5
8A
330
1
100
AcDbSymbolTableRecord
100
AcDbBlockTableRecord
  2
1_405016_Inch_0_in_131197_0
340
0
102
{BLKREFS
331
8B
102
}
 70
     0
280
     1
281
     0
  0
BLOCK_RECORD
  5
10B
330
1
100
AcDbSymbolTableRecord
100
AcDbBlockTableRecord
  2
2_131446_0_in_131197_0
340
0
102
{BLKREFS
331
10C
102
}
 70
     0
280
     1
281
     0
  0
BLOCK_RECORD
  5
13F
330
1
100
AcDbSymbolTableRecord
100
AcDbBlockTableRecord
  2
3_131197H_0_in_131197_0
340
0
102
{BLKREFS
331
140
102
}
 70
     0
280
     1
281
     0
  0
ENDTAB
  0
ENDSEC
  0
SECTION
  2
BLOCKS
  0
BLOCK
  5
20
330
1F
100
AcDbEntity
  8
0
100
AcDbBlockBegin
  2
*Model_Space
 70
     0
 10
0.0
 20
0.0
 30
0.0
  3
*Model_Space
  1

  0
ENDBLK
  5
21
330
1F
100
AcDbEntity
  8
0
100
AcDbBlockEnd
  0
BLOCK
  5
1C
330
1B
100
AcDbEntity
 67
     1
  8
0
100
AcDbBlockBegin
  2
*Paper_Space
 70
     0
 10
0.0
 20
0.0
 30
0.0
  3
*Paper_Space
  1

  0
ENDBLK
  5
1D
330
1B
100
AcDbEntity
 67
     1
  8
0
100
AcDbBlockEnd
  0
BLOCK
  5
24
330
23
100
AcDbEntity
  8
0
100
AcDbBlockBegin
  2
*Paper_Space0
 70
     0
 10
0.0
 20
0.0
 30
0.0
  3
*Paper_Space0
  1

  0
ENDBLK
  5
25
330
23
100
AcDbEntity
  8
0
100
AcDbBlockEnd
  0
BLOCK
  5
8C
330
8A
100
AcDbEntity
  8
0
100
AcDbBlockBegin
  2
1_405016_Inch_0_in_131197_0
 70
     2
 10
0.0
 20
0.0
 30
0.0
  3
1_405016_Inch_0_in_131197_0
  1

  0
ATTDEF
  5
8E
330
8A
100
AcDbEntity
  8
AM_6
100
AcDbText
 10
3.702768939166623
 20
-0.6469256983551583
 30
0.0
 40
0.5
  1
405016 -Inch
100
AcDbAttributeDefinition
  3

  2
NN
 70
     8
280
     0
  0
ATTDEF
  5
8F
330
8A
100
AcDbEntity
  8
AM_6
100
AcDbText
 10
3.702768939166623
 20
-1.146925698355158
 30
0.0
 40
0.5
  1
Grease Fitting
100
AcDbAttributeDefinition
  3

  2
NT
 70
     8
280
     0
  0
ATTDEF
  5
90
330
8A
100
AcDbEntity
  8
AM_6
100
AcDbText
 10
3.702768939166623
 20
-1.646925698355158
 30
0.0
 40
0.5
  1
405016-Inch
100
AcDbAttributeDefinition
  3

  2
NB
 70
     8
280
     0
  0
ATTDEF
  5
91
330
8A
100
AcDbEntity
  8
AM_6
100
AcDbText
 10
3.702768939166623
 20
-2.146925698355158
 30
0.0
 40
0.5
  1
$MN.-Inch
100
AcDbAttributeDefinition
  3

  2
NBSYN
 70
     8
280
     0
  0
ATTDEF
  5
92
330
8A
100
AcDbEntity
  8
AM_6
100
AcDbText
 10
3.702768939166623
 20
-2.646925698355158
 30
0.0
 40
0.5
  1
405016
100
AcDbAttributeDefinition
  3

  2
LINA
 70
     8
280
     0
  0
ATTDEF
  5
93
330
8A
100
AcDbEntity
  8
AM_6
100
AcDbText
 10
3.702768939166623
 20
-3.146925698355158
 30
0.0
 40
0.5
  1
405016
100
AcDbAttributeDefinition
  3

  2
MN
 70
     8
280
     0
  0
ATTDEF
  5
94
330
8A
100
AcDbEntity
  8
AM_6
100
AcDbText
 10
3.702768939166623
 20
-3.646925698355158
 30
0.0
 40
0.5
  1
7/16 HEX
100
AcDbAttributeDefinition
  3

  2
H
 70
     8
280
     0
  0
ATTDEF
  5
95
330
8A
100
AcDbEntity
  8
AM_6
100
AcDbText
 10
3.702768939166623
 20
-4.146925698355158
 30
0.0
 40
0.5
  1
0.383
100
AcDbAttributeDefinition
  3

  2
NDR
 70
     8
280
     0
  0
ATTDEF
  5
96
330
8A
100
AcDbEntity
  8
AM_6
100
AcDbText
 10
3.702768939166623
 20
-4.646925698355158
 30
0.0
 40
0.5
  1
0.337
100
AcDbAttributeDefinition
  3

  2
KDR
 70
     8
280
     0
  0
ATTDEF
  5
97
330
8A
100
AcDbEntity
  8
AM_6
100
AcDbText
 10
3.702768939166623
 20
-5.146925698355158
 30
0.0
 40
0.5
  1
0.1575
100
AcDbAttributeDefinition
  3

  2
BZE
 70
     8
280
     0
  0
ATTDEF
  5
98
330
8A
100
AcDbEntity
  8
AM_6
100
AcDbText
 10
3.702768939166623
 20
-5.646925698355158
 30
0.0
 40
0.5
  1
0.4375
100
AcDbAttributeDefinition
  3

  2
HEX
 70
     8
280
     0
  0
ATTDEF
  5
99
330
8A
100
AcDbEntity
  8
AM_6
100
AcDbText
 10
3.702768939166623
 20
-6.146925698355158
 30
0.0
 40
0.5
  1
0.281250
100
AcDbAttributeDefinition
  3

  2
HEX2
 70
     8
280
     0
  0
ATTDEF
  5
9A
330
8A
100
AcDbEntity
  8
AM_6
100
AcDbText
 10
3.702768939166623
 20
-6.646925698355158
 30
0.0
 40
0.5
  1
baldor
100
AcDbAttributeDefinition
  3

  2
COMPANY
 70
     8
280
     0
  0
LINE
  5
9D
330
8A
100
AcDbEntity
  8
AM_9
 48
0.0021924788957244
100
AcDbLine
 10
-1.297231060833376
 20
-0.9356298934801195
 30
0.0
 11
-1.4588947867106
 21
-0.6556201065198805
 31
0.0
  0
LINE
  5
9E
330
8A
100
AcDbEntity
  8
AM_9
 48
0.0021924788957244
100
AcDbLine
 10
-1.4588947867106
 20
-0.6556201065198805
 30
0.0
 11
-1.491342759723084
 21
-0.6469256983551583
 31
0.0
  0
LINE
  5
9F
330
8A
100
AcDbEntity
  8
AM_9
 48
0.0021924788957244
100
AcDbLine
 10
-1.305925468998098
 20
-0.9680778664926034
 30
0.0
 11
-1.297231060833376
 21
-0.9356298934801195
 31
0.0
  0
ARC
  5
A0
330
8A
100
AcDbEntity
  8
AM_9
 48
0.0021924788957244
100
AcDbCircle
 10
-1.848964237080158
 20
-1.06750000000022
 30
0.0
 40
0.1999999999996825
100
AcDbArc
 50
166.0572506185092
 51
253.9214613677196
  0
LINE
  5
A1
330
8A
100
AcDbEntity
  8
AM_9
 48
0.0021924788957244
100
AcDbLine
 10
-1.305925468998098
 20
-0.9680778664926034
 30
0.0
 11
-1.491342759723084
 21
-0.6469256983551583
 31
0.0
  0
LINE
  5
A2
330
8A
100
AcDbEntity
  8
AM_9
 48
0.0021924788957244
100
AcDbLine
 10
-1.491342759723084
 20
-0.6469256983551583
 30
0.0
 11
-1.654333543839695
 21
-0.7343572194285267
 31
0.0
  0
LINE
  5
A3
330
8A
100
AcDbEntity
  8
AM_9
 48
0.0021924788957244
100
AcDbLine
 10
-1.463138779397455
 20
-1.065516265583649
 30
0.0
 11
-1.305925468998098
 21
-0.9680778664926034
 31
0.0
  0
LINE
  5
A4
330
8A
100
AcDbEntity
  8
AM_9
 48
0.0021924788957244
100
AcDbLine
 10
-1.994373878663917
 20
-1.24520229571137
 30
0.0
 11
-2.005695451887794
 21
-1.251738809059826
 31
0.0
  0
LINE
  5
A5
330
8A
100
AcDbEntity
  8
AM_9
 48
0.0021924788957244
100
AcDbLine
 10
-2.075563760268708
 20
-1.10457729571137
 30
0.0
 11
-2.086885333492585
 21
-1.111113809059826
 31
0.0
  0
LWPOLYLINE
  5
A6
330
8A
100
AcDbEntity
  8
AM_9
 48
0.0021924788957244
100
AcDbPolyline
 90
        6
 70
     0
 43
0.0
 10
-2.075563760268708
 20
-1.10457729571137
 10
-2.058947918281179
 20
-1.128510622598914
 10
-2.042893305626047
 20
-1.153367212109331
 10
-2.027409639562364
 20
-1.179566312422038
 10
-2.012920724447613
 20
-1.206595324422914
 10
-1.994373878663917
 20
-1.24520229571137
  0
LINE
  5
A7
330
8A
100
AcDbEntity
  8
AM_9
 48
0.0021924788957244
100
AcDbLine
 10
-1.793948832624001
 20
-1.162789475716355
 30
0.0
 11
-1.904108189294049
 21
-0.9719878730347309
 31
0.0
  0
ELLIPSE
  5
A8
330
8A
100
AcDbEntity
  8
AM_9
 48
0.0021924788957244
100
AcDbEllipse
 10
-1.919580372575074
 20
-1.108270244837341
 30
0.0
 11
-0.07031250000000001
 21
0.1217848224071869
 31
0.0
210
0.0
220
0.0
230
1.0
 40
0.9063077870366507
 41
5.859216366485142
 42
9.848746901463826
  0
LWPOLYLINE
  5
A9
330
8A
100
AcDbEntity
  8
AM_9
 48
0.0021924788957244
100
AcDbPolyline
 90
        6
 70
     0
 43
0.0
 10
-1.994373878663917
 20
-1.24520229571137
 10
-1.965169271164394
 20
-1.245146258798399
 10
-1.936295502450262
 20
-1.245585121917566
 10
-1.907606771862734
 20
-1.246646289109958
 10
-1.879818290289763
 20
-1.248363121169831
 10
-1.84319903262542
 20
-1.251671457656344
  0
LWPOLYLINE
  5
AA
330
8A
100
AcDbEntity
  8
AM_9
 48
0.0021924788957244
100
AcDbPolyline
 90
        6
 70
     0
 43
0.0
 10
-2.005578795835002
 20
-0.9704214576563437
 10
-2.015887932192332
 20
-0.9929928542882338
 10
-2.027231759026542
 20
-1.016456884363538
 10
-2.039945733603349
 20
-1.041210167846305
 10
-2.053841659793041
 20
-1.066768689712644
 10
-2.075563760268708
 20
-1.10457729571137
  0
LWPOLYLINE
  5
AB
330
8A
100
AcDbEntity
  8
AM_9
 48
0.0021924788957244
100
AcDbPolyline
 90
        5
 70
     0
 43
0.0
 10
-1.804395136895816
 20
-1.144695945966246
 10
-1.812362601972009
 20
-1.160209976006311
 10
-1.823118675406191
 20
-1.17435797563067
 10
-1.835761726928634
 20
-1.185955943415793
 10
-1.846171252548687
 20
-1.192904528105156
  0
LWPOLYLINE
  5
AC
330
8A
100
AcDbEntity
  8
AM_9
 48
0.0021924788957244
100
AcDbPolyline
 90
       13
 70
     0
 43
0.0
 10
-1.804395136895816
 20
-1.144695945966246
 10
-1.799440476423749
 20
-1.128701216295605
 10
-1.797332591957006
 20
-1.112644458256412
 10
-1.797812363674892
 20
-1.095877825105295
 10
-1.80102790062753
 20
-1.078429808725254
 10
-1.807046263870312
 20
-1.060957633207593
 10
-1.815397351690059
 20
-1.044747492794572
 10
-1.826270952166808
 20
-1.029477046299115
 10
-1.83866927388079
 20
-1.016547828583382
 10
-1.853092704246783
 20
-1.005495849846331
 10
-1.8686056841076
 20
-0.9972268040530577
 10
-1.885699087894571
 20
-0.9917034871441515
 10
-1.893533337263737
 20
-0.9903040540337535
  0
LINE
  5
AD
330
8A
100
AcDbEntity
  8
AM_9
 48
0.0021924788957244
100
AcDbLine
 10
-1.956161463189118
 20
-1.002373288128892
 30
0.0
 11
-1.974580372575074
 21
-1.013007450421053
 31
0.0
  0
LINE
  5
AE
330
8A
100
AcDbEntity
  8
AM_9
 48
0.0021924788957244
100
AcDbLine
 10
-1.864580372575074
 20
-1.203533039253629
 30
0.0
 11
-1.846161534547962
 21
-1.192898918160516
 31
0.0
  0
LWPOLYLINE
  5
AF
330
8A
100
AcDbEntity
  8
AM_9
 48
0.0021924788957244
100
AcDbPolyline
 90
        3
 70
     0
 43
0.0
 10
-1.969545657122466
 20
-1.01169793080763
 10
-1.96103080075596
 20
-1.005381372029879
 10
-1.956169153591707
 20
-1.002377728641494
  0
LWPOLYLINE
  5
B0
330
8A
100
AcDbEntity
  8
AM_9
 48
0.0021924788957244
100
AcDbPolyline
 90
       19
 70
     0
 43
0.0
 10
-1.860022201143547
 20
-1.199487403278714
 10
-1.866554026881356
 20
-1.201712011960484
 10
-1.883914996703075
 20
-1.205261709638181
 10
-1.90127047383332
 20
-1.205684256104104
 10
-1.919128185417608
 20
-1.202990967168627
 10
-1.935957946917682
 20
-1.197417196040507
 10
-1.952274690818387
 20
-1.188797239076489
 10
-1.966673741678221
 20
-1.177880991490922
 10
-1.979606094543968
 20
-1.164336212655024
 10
-1.989965822703669
 20
-1.149330271317741
 10
-1.998075997520366
 20
-1.132408286749774
 10
-2.003252638711207
 20
-1.115004703027539
 10
-2.005652575155356
 20
-1.096607393511457
 10
-2.005074991198229
 20
-1.078747455120003
 10
-2.001503287389105
 20
-1.060922481606625
 10
-1.995225740121442
 20
-1.0445960564441
 10
-1.986068141058721
 20
-1.029328872764631
 10
-1.97477195189671
 20
-1.016370478489193
 10
-1.969545657122466
 20
-1.01169793080763
  0
LWPOLYLINE
  5
B1
330
8A
100
AcDbEntity
  8
AM_9
 48
0.0021924788957244
100
AcDbPolyline
 90
        3
 70
     0
 43
0.0
 10
-1.846171252548687
 20
-1.192904528105156
 10
-1.850652150074475
 20
-1.195334802540261
 10
-1.860022201143547
 20
-1.199487403278714
  0
LWPOLYLINE
  5
B2
330
8A
100
AcDbEntity
  8
AM_9
 48
0.0021924788957244
100
AcDbPolyline
 90
        5
 70
     0
 43
0.0
 10
-1.956169153591707
 20
-1.002377728641494
 10
-1.945969311016478
 20
-0.9972689428626642
 10
-1.929175888196818
 20
-0.9918204774364152
 10
-1.911776552042823
 20
-0.9894809397560725
 10
-1.893533337263719
 20
-0.9903040540337612
  0
ELLIPSE
  5
B3
330
8A
100
AcDbEntity
  8
AM_9
 48
0.0021924788957244
100
AcDbEllipse
 10
-1.919580372575072
 20
-1.108270244837342
 30
0.0
 11
-0.07031249999999999
 21
0.1217848224071846
 31
0.0
210
0.0
220
0.0
230
1.0
 40
0.9063077870366505
 41
3.764821264091941
 42
4.571432719802705
  0
ELLIPSE
  5
B4
330
8A
100
AcDbEntity
  8
AM_9
 48
0.0021924788957244
100
AcDbEllipse
 10
-1.919580372575074
 20
-1.108270244837341
 30
0.0
 11
-0.07031250000001733
 21
0.1217848224071768
 31
0.0
210
0.0
220
0.0
230
1.0
 40
0.9063077870366856
 41
4.853345240966577
 42
5.659956696677309
  0
LWPOLYLINE
  5
B5
330
8A
100
AcDbEntity
  8
AM_9
 48
0.0021924788957244
100
AcDbPolyline
 90
        5
 70
     0
 43
0.0
 10
-2.005695451887794
 20
-1.251738809059826
 10
-2.02755784038642
 20
-1.218670119967152
 10
-2.048453927316413
 20
-1.184312409178914
 10
-2.068371546871322
 20
-1.148126446285356
 10
-2.086885333492585
 20
-1.111113809059826
  0
LWPOLYLINE
  5
B6
330
8A
100
AcDbEntity
  8
AM_9
 48
0.0021924788957244
100
AcDbPolyline
 90
        4
 70
     0
 43
0.0
 10
-1.902739672762346
 20
-1.257794592682831
 10
-1.931862614244312
 20
-1.256802555641742
 10
-1.969481408605496
 20
-1.254676787031713
 10
-2.005695451887794
 20
-1.251738809059826
  0
LWPOLYLINE
  5
B7
330
8A
100
AcDbEntity
  8
AM_9
 48
0.0021924788957244
100
AcDbPolyline
 90
        4
 70
     0
 43
0.0
 10
-2.086885333492585
 20
-1.111113809059826
 10
-2.072008215449509
 20
-1.079688517736611
 10
-2.055578943206835
 20
-1.046997724328328
 10
-2.040609946994374
 20
-1.018846519129476
  0
ELLIPSE
  5
B8
330
8A
100
AcDbEntity
  8
AM_9
 48
0.0021924788957244
100
AcDbEllipse
 10
-1.937880280113607
 20
-1.118835701380858
 30
0.0
 11
-0.07031249999999976
 21
0.1217848224071867
 31
0.0
210
0.0
220
0.0
230
1.0
 40
0.9063077870366497
 41
0.2424483708721237
 42
2.900254167084481
  0
LWPOLYLINE
  5
B9
330
8A
100
AcDbEntity
  8
AM_9
 48
0.0021924788957244
100
AcDbPolyline
 90
       19
 70
     0
 43
0.0
 10
-1.877338105688404
 20
-1.124959692721688
 10
-1.877170464494524
 20
-1.125698588656244
 10
-1.874753308429552
 20
-1.141743721433438
 10
-1.874666263195446
 20
-1.157448714403708
 10
-1.876829570760856
 20
-1.172404629632414
 10
-1.881112671327113
 20
-1.186267807133345
 10
-1.887372973704023
 20
-1.198773502422536
 10
-1.895506684716006
 20
-1.209727464987809
 10
-1.905492884199806
 20
-1.218958454246113
 10
-1.917368217806077
 20
-1.226221389667563
 10
-1.931024089256785
 20
-1.231114968916621
 10
-1.945757068993994
 20
-1.233209443364643
 10
-1.96087950317215
 20
-1.232450644208957
 10
-1.975932760467376
 20
-1.228972754359581
 10
-1.990569598210128
 20
-1.222936048145487
 10
-2.004449702488262
 20
-1.214514593294691
 10
-2.017220448409166
 20
-1.203925874177152
 10
-2.028535025908629
 20
-1.191450033787055
 10
-2.038403638919261
 20
-1.176872889647148
  0
LWPOLYLINE
  5
BA
330
8A
100
AcDbEntity
  8
AM_9
 48
0.0021924788957244
100
AcDbPolyline
 90
       20
 70
     0
 43
0.0
 10
-2.038403638919261
 20
-1.176872889647148
 10
-2.041863293022354
 20
-1.17044909411272
 10
-2.048347378266357
 20
-1.154930190950809
 10
-2.052558178443386
 20
-1.138927893401033
 10
-2.054427453502039
 20
-1.122923010328872
 10
-2.053979217071243
 20
-1.107358480944413
 10
-2.051307764394074
 20
-1.092629905187695
 10
-2.046550487496571
 20
-1.079063142929311
 10
-2.039845713514249
 20
-1.066904585973729
 10
-2.031280753837402
 20
-1.056337032072526
 10
-2.020856046574892
 20
-1.047538775273945
 10
-2.008542730955976
 20
-1.040788071047438
 10
-1.994552871351693
 20
-1.036519640686633
 10
-1.979676083197373
 20
-1.035098575721099
 10
-1.964535421432051
 20
-1.036507220232411
 10
-1.949549610459554
 20
-1.040597725388061
 10
-1.935058630102803
 20
-1.047208645206343
 10
-1.921406091064281
 20
-1.056158347581911
 10
-1.908945441714139
 20
-1.067215793994918
 10
-1.905677680421386
 20
-1.070694825339642
  0
ELLIPSE
  5
BB
330
8A
100
AcDbEntity
  8
AM_9
 48
0.0021924788957244
100
AcDbEllipse
 10
-1.988881183377592
 20
-1.148281086609234
 30
0.0
 11
0.06659694825923307
 21
-0.1153492980140273
 31
0.0
210
0.0
220
0.0
230
1.0
 40
0.9063077870366515
 41
0.0
 42
6.283185307179586
  0
LINE
  5
BD
330
8A
100
AcDbEntity
  8
AM_5
 48
0.0021924788957244
100
AcDbLine
 10
-1.447422272704293
 20
-1.028716103579453
 30
0.0
 11
-1.297231060833376
 21
-0.9356298934801195
 31
0.0
  0
LINE
  5
BE
330
8A
100
AcDbEntity
  8
AM_5
 48
0.0021924788957244
100
AcDbLine
 10
-1.466219224573254
 20
-1.061273379243919
 30
0.0
 11
-1.447422272704294
 21
-1.028716103579453
 31
0.0
  0
LINE
  5
BF
330
8A
100
AcDbEntity
  8
AM_5
 48
0.0021924788957244
100
AcDbLine
 10
-1.435916658279178
 20
-1.048644412336049
 30
0.0
 11
-1.626111029759212
 21
-0.7192180976190029
 31
0.0
  0
LINE
  5
C0
330
8A
100
AcDbEntity
  8
AM_5
 48
0.0021924788957244
100
AcDbLine
 10
-1.614605415334097
 20
-0.7391464063755989
 30
0.0
 11
-1.4588947867106
 21
-0.6556201065198805
 31
0.0
  0
LINE
  5
C1
330
8A
100
AcDbEntity
  8
AM_5
 48
0.0021924788957244
100
AcDbLine
 10
-1.652199319072017
 20
-0.7391464063755989
 30
0.0
 11
-1.614605415334097
 21
-0.7391464063755989
 31
0.0
  0
ELLIPSE
  5
C2
330
8A
100
AcDbEntity
  8
AM_9
 48
0.0021924788957244
100
AcDbEllipse
 10
-1.919580372575074
 20
-1.10827024483734
 30
0.0
 11
-0.05499999999999996
 21
0.09526279441628871
 31
0.0
210
0.0
220
0.0
230
1.0
 40
0.9063077870366514
 41
0.0
 42
6.283185307179586
  0
LINE
  5
C5
330
8A
100
AcDbEntity
  8
AM_7
 48
0.0021924788957244
100
AcDbLine
 10
-2.054374637539898
 20
-1.18609375
 30
0.0
 11
-1.345857604068754
 21
-0.77703125
 31
0.0
  0
LINE
  5
C6
330
8A
100
AcDbEntity
  8
AM_7
 48
0.0021924788957244
100
AcDbLine
 10
-2.058964237079779
 20
-1.067499999999997
 30
0.0
 11
-1.638964237079774
 21
-1.067499999999997
 31
0.0
  0
LINE
  5
C7
330
8A
100
AcDbEntity
  8
AM_7
 48
0.0021924788957244
100
AcDbLine
 10
-1.848964237079777
 20
-1.2775
 30
0.0
 11
-1.848964237079777
 21
-0.8574999999999946
 31
0.0
  0
LINE
  5
C9
330
8A
100
AcDbEntity
  8
AM_0
 48
0.0021924788957244
100
AcDbLine
 10
-1.612391755898937
 20
-1.183505557077846
 30
0.0
 11
-1.831141755898937
 21
-0.8046194429221539
 31
0.0
  0
LINE
  5
CA
330
8A
100
AcDbEntity
  8
AM_0
 48
0.0021924788957244
100
AcDbLine
 10
-1.840209355595552
 20
-0.7707787001516928
 30
0.0
 11
-1.831141755898937
 21
-0.8046194429221539
 31
0.0
  0
LINE
  5
CB
330
8A
100
AcDbEntity
  8
AM_0
 48
0.0021924788957244
100
AcDbLine
 10
-1.612391755898937
 20
-1.183505557077846
 30
0.0
 11
-1.587618612825091
 21
-1.208278700151693
 31
0.0
  0
LINE
  5
CC
330
8A
100
AcDbEntity
  8
AM_0
 48
0.0021924788957244
100
AcDbLine
 10
-1.525789215520493
 20
-1.133505557077846
 30
0.0
 11
-1.744539215520493
 21
-0.754619442922154
 31
0.0
  0
LINE
  5
CD
330
8A
100
AcDbEntity
  8
AM_0
 48
0.0021924788957244
100
AcDbLine
 10
-1.744539215520493
 20
-0.754619442922154
 30
0.0
 11
-1.76931235859434
 21
-0.7298462998483072
 31
0.0
  0
LINE
  5
CE
330
8A
100
AcDbEntity
  8
AM_0
 48
0.0021924788957244
100
AcDbLine
 10
-1.516721615823879
 20
-1.167346299848307
 30
0.0
 11
-1.525789215520493
 21
-1.133505557077846
 31
0.0
  0
ARC
  5
CF
330
8A
100
AcDbEntity
  8
AM_0
 48
0.0021924788957244
100
AcDbCircle
 10
-1.848964237079777
 20
-1.067499999999997
 30
0.0
 40
0.2000000000000023
100
AcDbArc
 50
253.9214613676323
 51
299.9999999999997
  0
ARC
  5
D0
330
8A
100
AcDbEntity
  8
AM_0
 48
0.0021924788957244
100
AcDbCircle
 10
-1.848964237079775
 20
-1.067500000000001
 30
0.0
 40
0.2000000000000017
100
AcDbArc
 50
120.0000000000002
 51
166.0572506185966
  0
LINE
  5
D1
330
8A
100
AcDbEntity
  8
AM_0
 48
0.0021924788957244
100
AcDbLine
 10
-1.654333543839695
 20
-0.7343572194285267
 30
0.0
 11
-1.663261597774949
 21
-0.7391464063755989
 31
0.0
  0
LINE
  5
D2
330
8A
100
AcDbEntity
  8
AM_0
 48
0.0021924788957244
100
AcDbLine
 10
-1.471750363924719
 20
-1.070853593624401
 30
0.0
 11
-1.463138779397455
 21
-1.065516265583649
 31
0.0
  0
LINE
  5
D3
330
8A
100
AcDbEntity
  8
AM_0
 48
0.0021924788957244
100
AcDbLine
 10
-1.467505980849834
 20
-1.078205080756888
 30
0.0
 11
-1.667505980849834
 21
-0.7317949192431122
 31
0.0
  0
LINE
  5
D4
330
8A
100
AcDbEntity
  8
AM_0
 48
0.0021924788957244
100
AcDbLine
 10
-1.667505980849834
 20
-0.7317949192431122
 30
0.0
 11
-1.735164215520493
 21
-0.7708574192431122
 31
0.0
  0
LINE
  5
D5
330
8A
100
AcDbEntity
  8
AM_0
 48
0.0021924788957244
100
AcDbLine
 10
-1.535164215520493
 20
-1.117267580756887
 30
0.0
 11
-1.467505980849834
 21
-1.078205080756888
 31
0.0
  0
LINE
  5
D7
330
8A
100
AcDbEntity
  8
AM_4
 48
0.0021924788957244
100
AcDbLine
 10
-1.904108189294049
 20
-0.9719878730347309
 30
0.0
 11
-1.948964237079777
 21
-0.8942949192431122
 31
0.0
  0
LINE
  5
D8
330
8A
100
AcDbEntity
  8
AM_0
 48
0.0021924788957244
100
AcDbLine
 10
-1.821766755898937
 20
-0.8208574192431122
 30
0.0
 11
-1.948964237079777
 21
-0.8942949192431122
 31
0.0
  0
LINE
  5
D9
330
8A
100
AcDbEntity
  8
AM_0
 48
0.0021924788957244
100
AcDbLine
 10
-1.748964237079777
 20
-1.240705080756888
 30
0.0
 11
-1.621766755898937
 21
-1.167267580756888
 31
0.0
  0
LINE
  5
DA
330
8A
100
AcDbEntity
  8
AM_4
 48
0.0021924788957244
100
AcDbLine
 10
-1.748964237079777
 20
-1.240705080756888
 30
0.0
 11
-1.793948832624001
 21
-1.162789475716355
 31
0.0
  0
LWPOLYLINE
  5
DB
330
8A
100
AcDbEntity
  8
AM_0
 48
0.0021924788957244
100
AcDbPolyline
 90
        3
 70
     0
 43
0.0
 10
-1.627045227360014
 20
-1.158125
 10
-1.640759420222399
 20
-1.129584559607483
 10
-1.650766298517706
 20
-1.098903700151693
  0
LWPOLYLINE
  5
DC
330
8A
100
AcDbEntity
  8
AM_0
 48
0.0021924788957244
100
AcDbPolyline
 90
        3
 70
     0
 43
0.0
 10
-1.587618612825091
 20
-1.208278700151693
 10
-1.609096283742713
 20
-1.184384432388115
 10
-1.627045227360014
 20
-1.158125
  0
LINE
  5
DD
330
8A
100
AcDbEntity
  8
AM_0
 48
0.0021924788957244
100
AcDbLine
 10
-1.587618612825091
 20
-1.208278700151693
 30
0.0
 11
-1.516721615823879
 21
-1.167346299848307
 31
0.0
  0
LWPOLYLINE
  5
DE
330
8A
100
AcDbEntity
  8
AM_0
 48
0.0021924788957244
100
AcDbPolyline
 90
        3
 70
     0
 43
0.0
 10
-1.54044268698157
 20
-1.108125
 10
-1.526728494119186
 20
-1.136665440392517
 10
-1.516721615823879
 20
-1.167346299848307
  0
LWPOLYLINE
  5
DF
330
8A
100
AcDbEntity
  8
AM_0
 48
0.0021924788957244
100
AcDbPolyline
 90
        3
 70
     0
 43
0.0
 10
-1.579869301516494
 20
-1.057971299848307
 10
-1.558391630598872
 20
-1.081865567611885
 10
-1.54044268698157
 20
-1.108125
  0
LWPOLYLINE
  5
E0
330
8A
100
AcDbEntity
  8
AM_0
 48
0.0021924788957244
100
AcDbPolyline
 90
        4
 70
     0
 43
0.0
 10
-1.721766755898937
 20
-0.9940624999999998
 10
-1.744739020334439
 20
-0.9514382493985288
 10
-1.765418663440358
 20
-0.9074903532552733
 10
-1.777061669902936
 20
-0.8801537001516926
  0
LWPOLYLINE
  5
E1
330
8A
100
AcDbEntity
  8
AM_0
 48
0.0021924788957244
100
AcDbPolyline
 90
        3
 70
     0
 43
0.0
 10
-1.650766298517706
 20
-1.098903700151693
 10
-1.687959908608776
 20
-1.04778862725104
 10
-1.721766755898937
 20
-0.9940624999999998
  0
LINE
  5
E2
330
8A
100
AcDbEntity
  8
AM_0
 48
0.0021924788957244
100
AcDbLine
 10
-1.650766298517706
 20
-1.098903700151693
 30
0.0
 11
-1.579869301516494
 21
-1.057971299848307
 31
0.0
  0
LWPOLYLINE
  5
E3
330
8A
100
AcDbEntity
  8
AM_0
 48
0.0021924788957244
100
AcDbPolyline
 90
        3
 70
     0
 43
0.0
 10
-1.635164215520493
 20
-0.9440624999999998
 10
-1.605663101234955
 20
-0.9999466903925173
 10
-1.579869301516494
 20
-1.057971299848307
  0
LWPOLYLINE
  5
E4
330
8A
100
AcDbEntity
  8
AM_0
 48
0.0021924788957244
100
AcDbPolyline
 90
        4
 70
     0
 43
0.0
 10
-1.706164672901725
 20
-0.8392212998483071
 10
-1.688311940090871
 20
-0.862972765773117
 10
-1.660670239624304
 20
-0.902736426839267
 10
-1.635164215520493
 20
-0.9440624999999998
  0
LINE
  5
E5
330
8A
100
AcDbEntity
  8
AM_0
 48
0.0021924788957244
100
AcDbLine
 10
-1.840209355595552
 20
-0.7707787001516928
 30
0.0
 11
-1.76931235859434
 21
-0.7298462998483072
 31
0.0
  0
LWPOLYLINE
  5
E6
330
8A
100
AcDbEntity
  8
AM_0
 48
0.0021924788957244
100
AcDbPolyline
 90
        3
 70
     0
 43
0.0
 10
-1.81648828443786
 20
-0.8299999999999998
 10
-1.830202477300244
 20
-0.8014595596074826
 10
-1.840209355595552
 20
-0.7707787001516928
  0
LWPOLYLINE
  5
E7
330
8A
100
AcDbEntity
  8
AM_0
 48
0.0021924788957244
100
AcDbPolyline
 90
        3
 70
     0
 43
0.0
 10
-1.777061669902936
 20
-0.8801537001516926
 10
-1.798539340820559
 20
-0.8562594323881151
 10
-1.81648828443786
 20
-0.8299999999999998
  0
LINE
  5
E8
330
8A
100
AcDbEntity
  8
AM_0
 48
0.0021924788957244
100
AcDbLine
 10
-1.777061669902936
 20
-0.8801537001516926
 30
0.0
 11
-1.706164672901725
 21
-0.8392212998483071
 31
0.0
  0
LWPOLYLINE
  5
E9
330
8A
100
AcDbEntity
  8
AM_0
 48
0.0021924788957244
100
AcDbPolyline
 90
        3
 70
     0
 43
0.0
 10
-1.729885744059416
 20
-0.7799999999999999
 10
-1.716171551197032
 20
-0.8085404403925173
 10
-1.706164672901725
 20
-0.8392212998483071
  0
LWPOLYLINE
  5
EA
330
8A
100
AcDbEntity
  8
AM_0
 48
0.0021924788957244
100
AcDbPolyline
 90
        3
 70
     0
 43
0.0
 10
-1.76931235859434
 20
-0.7298462998483072
 10
-1.747834687676718
 20
-0.7537405676118847
 10
-1.729885744059416
 20
-0.7799999999999999
  0
LINE
  5
EB
330
8A
100
AcDbEntity
  8
AM_0
 48
0.0021924788957244
100
AcDbLine
 10
-1.854886278844965
 20
-1.258419092407284
 30
0.0
 11
-1.902739672762346
 21
-1.257794592682831
 31
0.0
  0
LINE
  5
EC
330
8A
100
AcDbEntity
  8
AM_0
 48
0.0021924788957244
100
AcDbLine
 10
-2.040609946994374
 20
-1.018846519129476
 30
0.0
 11
-2.017266042054547
 21
-0.9771690924072834
 31
0.0
  0
LWPOLYLINE
  5
ED
330
8A
100
AcDbEntity
  8
AM_0
 48
0.0021924788957244
100
AcDbPolyline
 90
        3
 70
     0
 43
0.0
 10
-1.84319903262542
 20
-1.251671457656344
 10
-1.826225350291897
 20
-1.222339189975666
 10
-1.810087093107714
 20
-1.193057477599441
  0
LINE
  5
EE
330
8A
100
AcDbEntity
  8
AM_0
 48
0.0021924788957244
100
AcDbLine
 10
-1.810087093107714
 20
-1.193057477599441
 30
0.0
 11
-1.798065562925907
 21
-1.169965725501071
 31
0.0
  0
LWPOLYLINE
  5
EF
330
8A
100
AcDbEntity
  8
AM_0
 48
0.0021924788957244
100
AcDbPolyline
 90
        3
 70
     0
 43
0.0
 10
-1.798065562925907
 20
-1.169965725501071
 10
-1.788900576349349
 20
-1.151421611213501
 10
-1.773212534892352
 20
-1.117514734350518
  0
LWPOLYLINE
  5
F0
330
8A
100
AcDbEntity
  8
AM_0
 48
0.0021924788957244
100
AcDbPolyline
 90
        3
 70
     0
 43
0.0
 10
-1.828387000646247
 20
-1.203622934142958
 10
-1.84212217841082
 20
-1.231327936735335
 10
-1.854886278844965
 20
-1.258419092407284
  0
LINE
  5
F1
330
8A
100
AcDbEntity
  8
AM_0
 48
0.0021924788957244
100
AcDbLine
 10
-1.84319903262542
 20
-1.251671457656344
 30
0.0
 11
-1.854886278844965
 21
-1.258419092407284
 31
0.0
  0
LWPOLYLINE
  5
F2
330
8A
100
AcDbEntity
  8
AM_0
 48
0.0021924788957244
100
AcDbPolyline
 90
        3
 70
     0
 43
0.0
 10
-1.854402416497143
 20
-0.9768897343505177
 10
-1.882464716465987
 20
-0.9742388430145477
 10
-1.912252821303973
 20
-0.9721875924132666
  0
LINE
  5
F3
330
8A
100
AcDbEntity
  8
AM_0
 48
0.0021924788957244
100
AcDbLine
 10
-1.912252821303973
 20
-0.9721875924132666
 30
0.0
 11
-1.938261630329957
 21
-0.9710526668938884
 31
0.0
  0
LWPOLYLINE
  5
F4
330
8A
100
AcDbEntity
  8
AM_0
 48
0.0021924788957244
100
AcDbPolyline
 90
        3
 70
     0
 43
0.0
 10
-1.938261630329957
 20
-0.9710526668938884
 10
-1.961251665022197
 20
-0.9705103698475838
 10
-2.005578795835002
 20
-0.9704214576563437
  0
LINE
  5
F5
330
8A
100
AcDbEntity
  8
AM_0
 48
0.0021924788957244
100
AcDbLine
 10
-2.005578795835002
 20
-0.9704214576563437
 30
0.0
 11
-2.017266042054547
 21
-0.9771690924072834
 31
0.0
  0
LWPOLYLINE
  5
F6
330
8A
100
AcDbEntity
  8
AM_0
 48
0.0021924788957244
100
AcDbPolyline
 90
        3
 70
     0
 43
0.0
 10
-2.017266042054547
 20
-0.9771690924072834
 10
-1.987586220820745
 20
-0.9796484915217362
 10
-1.95656153786849
 20
-0.9816181234374057
  0
LWPOLYLINE
  5
F7
330
8A
100
AcDbEntity
  8
AM_0
 48
0.0021924788957244
100
AcDbPolyline
 90
        3
 70
     0
 43
0.0
 10
-1.78526818420333
 20
-1.124475066725467
 10
-1.801155468766426
 20
-1.152576183495197
 10
-1.816365470464441
 20
-1.180531182044589
  0
LWPOLYLINE
  5
F8
330
8A
100
AcDbEntity
  8
AM_0
 48
0.0021924788957244
100
AcDbPolyline
 90
        3
 70
     0
 43
0.0
 10
-1.930552728842507
 20
-0.9827530489567841
 10
-1.898902177988482
 20
-0.9835555934942602
 10
-1.866458065808121
 20
-0.9838500667254667
  0
LWPOLYLINE
  5
F9
330
8A
100
AcDbEntity
  8
AM_0
 48
0.0021924788957244
100
AcDbPolyline
 90
        3
 70
     0
 43
0.0
 10
-1.773212534892352
 20
-1.117514734350518
 10
-1.786208422741963
 20
-1.089890958955647
 10
-1.800422322856203
 20
-1.062287038418517
  0
LINE
  5
FA
330
8A
100
AcDbEntity
  8
AM_0
 48
0.0021924788957244
100
AcDbLine
 10
-1.800422322856203
 20
-1.062287038418517
 30
0.0
 11
-1.820178722809471
 21
-1.028067949924796
 31
0.0
  0
LWPOLYLINE
  5
FB
330
8A
100
AcDbEntity
  8
AM_0
 48
0.0021924788957244
100
AcDbPolyline
 90
        3
 70
     0
 43
0.0
 10
-1.820178722809471
 20
-1.028067949924796
 10
-1.829427358223365
 20
-1.0134112730526
 10
-1.854402416497143
 20
-0.9768897343505177
  0
LINE
  5
FC
330
8A
100
AcDbEntity
  8
AM_0
 48
0.0021924788957244
100
AcDbLine
 10
-1.854402416497143
 20
-0.9768897343505177
 30
0.0
 11
-1.866458065808121
 21
-0.9838500667254667
 31
0.0
  0
LWPOLYLINE
  5
FD
330
8A
100
AcDbEntity
  8
AM_0
 48
0.0021924788957244
100
AcDbPolyline
 90
        3
 70
     0
 43
0.0
 10
-1.866458065808121
 20
-0.9838500667254667
 10
-1.852924800307731
 20
-1.011294122408012
 10
-1.838478630348007
 20
-1.03863340646832
  0
LWPOLYLINE
  5
FE
330
8A
100
AcDbEntity
  8
AM_0
 48
0.0021924788957244
100
AcDbPolyline
 90
        3
 70
     0
 43
0.0
 10
-1.818722230394737
 20
-1.072852494962034
 10
-1.802340275775759
 20
-1.098922855181632
 10
-1.78526818420333
 20
-1.124475066725467
  0
LINE
  5
FF
330
8A
100
AcDbEntity
  8
AM_0
 48
0.0021924788957244
100
AcDbLine
 10
-1.773212534892352
 20
-1.117514734350518
 30
0.0
 11
-1.78526818420333
 21
-1.124475066725467
 31
0.0
  0
LINE
  5
100
330
8A
100
AcDbEntity
  8
AM_0
 48
0.0021924788957244
100
AcDbLine
 10
-1.95656153786849
 20
-0.9816181234374057
 30
0.0
 11
-1.930552728842507
 21
-0.9827530489567841
 31
0.0
  0
ELLIPSE
  5
101
330
8A
100
AcDbEntity
  8
AM_0
 48
0.0021924788957244
100
AcDbEllipse
 10
-1.937880280113608
 20
-1.118835701380856
 30
0.0
 11
-0.07031249999999556
 21
0.1217848224071918
 31
0.0
210
0.0
220
0.0
230
1.0
 40
0.9063077870366493
 41
2.900254167084528
 42
3.56556159428428
  0
ELLIPSE
  5
102
330
8A
100
AcDbEntity
  8
AM_0
 48
0.0021924788957244
100
AcDbEllipse
 10
-1.937880280113607
 20
-1.118835701380859
 30
0.0
 11
-0.07031249999999913
 21
0.121784822407188
 31
0.0
210
0.0
220
0.0
230
1.0
 40
0.9063077870366506
 41
5.859216366485147
 42
6.525633678051716
  0
LINE
  5
103
330
8A
100
AcDbEntity
  8
AM_0
 48
0.0021924788957244
100
AcDbLine
 10
-1.816365470464441
 20
-1.180531182044589
 30
0.0
 11
-1.828387000646247
 21
-1.203622934142958
 31
0.0
  0
ELLIPSE
  5
104
330
8A
100
AcDbEntity
  8
AM_0
 48
0.0021924788957244
100
AcDbEllipse
 10
-1.937880280113606
 20
-1.118835701380859
 30
0.0
 11
-0.07031250000000021
 21
0.1217848224071845
 31
0.0
210
0.0
220
0.0
230
1.0
 40
0.9063077870366523
 41
3.764821264091928
 42
4.571432719802702
  0
LINE
  5
105
330
8A
100
AcDbEntity
  8
AM_0
 48
0.0021924788957244
100
AcDbLine
 10
-1.838478630348007
 20
-1.03863340646832
 30
0.0
 11
-1.818722230394737
 21
-1.072852494962034
 31
0.0
  0
ELLIPSE
  5
106
330
8A
100
AcDbEntity
  8
AM_0
 48
0.0021924788957244
100
AcDbEllipse
 10
-1.937880280113607
 20
-1.118835701380858
 30
0.0
 11
-0.07031249999999933
 21
0.1217848224071865
 31
0.0
210
0.0
220
0.0
230
1.0
 40
0.9063077870366508
 41
4.853345240966673
 42
5.659956696677441
  0
LWPOLYLINE
  5
107
330
8A
100
AcDbEntity
  8
AM_0
 48
0.0021924788957244
100
AcDbPolyline
 90
        7
 70
     0
 43
0.0
 10
-2.127225700791475
 20
-1.119554753661751
 10
-2.128412902789669
 20
-1.128571862409579
 10
-2.128968965168479
 20
-1.148615663949117
 10
-2.126714343875311
 20
-1.168762322423541
 10
-2.121686973949068
 20
-1.18858611995423
 10
-2.113984090547885
 20
-1.207665000711484
 10
-2.108771858215108
 20
-1.2175
  0
LWPOLYLINE
  5
108
330
8A
100
AcDbEntity
  8
AM_0
 48
0.0021924788957244
100
AcDbPolyline
 90
       34
 70
     0
 43
0.0
 10
-2.009602747085721
 20
-1.288982388948949
 10
-2.002434106993586
 20
-1.290077244206657
 10
-1.982908681995262
 20
-1.291022227044444
 10
-1.963683089840222
 20
-1.288995353681025
 10
-1.945176091707733
 20
-1.28405734219616
 10
-1.927780940915433
 20
-1.276333856695507
 10
-1.911856611643804
 20
-1.26600641524532
 10
-1.897725648339529
 20
-1.253305318248879
 10
-1.885671064202672
 20
-1.238503777637312
 10
-1.875929606775147
 20
-1.221905472723573
 10
-1.8686966442553
 20
-1.203845501242407
 10
-1.864123216198377
 20
-1.184689018558463
 10
-1.862311040677802
 20
-1.164828009161258
 10
-1.863307232356378
 20
-1.144674967439717
 10
-1.867100558869114
 20
-1.124653837311664
 10
-1.873620213610582
 20
-1.105189598295994
 10
-1.882737015914001
 20
-1.086697973783375
 10
-1.894266282333539
 20
-1.069576141226425
 10
-1.907970440280436
 20
-1.054195629993608
 10
-1.923563435172306
 20
-1.040893285071118
 10
-1.9407161557315
 20
-1.029963114640904
 10
-1.959060725449374
 20
-1.02164961491681
 10
-1.978197314656242
 20
-1.016139538180957
 10
-1.997703674687641
 20
-1.013554207872081
 10
-2.017147663277223
 20
-1.013944024848711
 10
-2.036101757189191
 20
-1.017287008726459
 10
-2.054157244658782
 20
-1.02349234502927
 10
-2.070935434393283
 20
-1.032408139376845
 10
-2.086094313540613
 20
-1.043830932061394
 10
-2.099326668072417
 20
-1.057508792775887
 10
-2.110371509308319
 20
-1.073154970670353
 10
-2.119010442606779
 20
-1.090451567304566
 10
-2.125067446731372
 20
-1.109049781900508
 10
-2.127225700791475
 20
-1.119554753661751
  0
ELLIPSE
  5
109
330
8A
100
AcDbEntity
  8
AM_0
 48
0.0021924788957244
100
AcDbEllipse
 10
-2.02754982705242
 20
-1.170606438444094
 30
0.0
 11
0.05174132036229498
 21
-0.08961859571819297
 31
0.0
210
0.0
220
0.0
230
1.0
 40
0.9063077870366516
 41
0.0
 42
6.283185307179586
  0
ELLIPSE
  5
10A
330
8A
100
AcDbEntity
  8
AM_4
 48
0.0021924788957244
100
AcDbEllipse
 10
-1.999556164854938
 20
-1.154444290038774
 30
0.0
 11
-0.06957427803571935
 21
0.1205061844577906
 31
0.0
210
0.0
220
0.0
230
1.0
 40
0.9063077870366509
 41
0.0
 42
6.283185307179586
  0
ENDBLK
  5
8D
330
8A
100
AcDbEntity
  8
0
100
AcDbBlockEnd
  0
BLOCK
  5
10D
330
10B
100
AcDbEntity
  8
0
100
AcDbBlockBegin
  2
2_131446_0_in_131197_0
 70
     2
 10
0.0
 20
0.0
 30
0.0
  3
2_131446_0_in_131197_0
  1

  0
ATTDEF
  5
10F
330
10B
100
AcDbEntity
  8
AM_6
100
AcDbText
 10
6.408239784269711
 20
1.40823978426971
 30
0.0
 40
0.5
  1
Eccentric Collar Intermediate Duty Insert Inch Bore
100
AcDbAttributeDefinition
  3

  2
NN
 70
     8
280
     0
  0
ATTDEF
  5
110
330
10B
100
AcDbEntity
  8
AM_6
100
AcDbText
 10
6.408239784269711
 20
0.9082397842697101
 30
0.0
 40
0.5
  1
Eccentric Collar Bearing Inserts -(Intermediate Duty)
100
AcDbAttributeDefinition
  3

  2
NT
 70
     8
280
     0
  0
ATTDEF
  5
111
330
10B
100
AcDbEntity
  8
AM_6
100
AcDbText
 10
6.408239784269711
 20
0.4082397842697101
 30
0.0
 40
0.5
  1
131446
100
AcDbAttributeDefinition
  3

  2
NB
 70
     8
280
     0
  0
ATTDEF
  5
112
330
10B
100
AcDbEntity
  8
AM_6
100
AcDbText
 10
6.408239784269711
 20
-0.0917602157302899
 30
0.0
 40
0.5
  1
$PN.
100
AcDbAttributeDefinition
  3

  2
NBSYN
 70
     8
280
     0
  0
ATTDEF
  5
113
330
10B
100
AcDbEntity
  8
AM_6
100
AcDbText
 10
6.408239784269711
 20
-0.5917602157302899
 30
0.0
 40
0.5
  1
131446
100
AcDbAttributeDefinition
  3

  2
LINA
 70
     8
280
     0
  0
ATTDEF
  5
114
330
10B
100
AcDbEntity
  8
AM_6
100
AcDbText
 10
6.408239784269711
 20
-1.09176021573029
 30
0.0
 40
0.5
  1
207
100
AcDbAttributeDefinition
  3

  2
SERIES
 70
     8
280
     0
  0
ATTDEF
  5
115
330
10B
100
AcDbEntity
  8
AM_6
100
AcDbText
 10
6.408239784269711
 20
-1.59176021573029
 30
0.0
 40
0.5
  1
1-7/16
100
AcDbAttributeDefinition
  3

  2
SS
 70
     8
280
     0
  0
ATTDEF
  5
116
330
10B
100
AcDbEntity
  8
AM_6
100
AcDbText
 10
6.408239784269711
 20
-2.09176021573029
 30
0.0
 40
0.5
  1
131446
100
AcDbAttributeDefinition
  3

  2
PN
 70
     8
280
     0
  0
ATTDEF
  5
117
330
10B
100
AcDbEntity
  8
AM_6
100
AcDbText
 10
6.408239784269711
 20
-2.59176021573029
 30
0.0
 40
0.5
  1
INS-SXV-107
100
AcDbAttributeDefinition
  3

  2
DESCRIPTION
 70
     8
280
     0
  0
ATTDEF
  5
118
330
10B
100
AcDbEntity
  8
AM_6
100
AcDbText
 10
6.408239784269711
 20
-3.09176021573029
 30
0.0
 40
0.5
  1
1.1
100
AcDbAttributeDefinition
  3

  2
WEIGHT
 70
     8
280
     0
  0
ATTDEF
  5
119
330
10B
100
AcDbEntity
  8
AM_6
100
AcDbText
 10
6.408239784269711
 20
-3.59176021573029
 30
0.0
 40
0.5
  1
1.53
100
AcDbAttributeDefinition
  3

  2
A
 70
     8
280
     0
  0
ATTDEF
  5
11A
330
10B
100
AcDbEntity
  8
AM_6
100
AcDbText
 10
6.408239784269711
 20
-4.091760215730289
 30
0.0
 40
0.5
  1
0.75
100
AcDbAttributeDefinition
  3

  2
C
 70
     8
280
     0
  0
ATTDEF
  5
11B
330
10B
100
AcDbEntity
  8
AM_6
100
AcDbText
 10
6.408239784269711
 20
-4.591760215730289
 30
0.0
 40
0.5
  1
2.8346
100
AcDbAttributeDefinition
  3

  2
D
 70
     8
280
     0
  0
ATTDEF
  5
11C
330
10B
100
AcDbEntity
  8
AM_6
100
AcDbText
 10
6.408239784269711
 20
-5.091760215730289
 30
0.0
 40
0.5
  1
0.20
100
AcDbAttributeDefinition
  3

  2
J
 70
     8
280
     0
  0
ATTDEF
  5
11D
330
10B
100
AcDbEntity
  8
AM_6
100
AcDbText
 10
6.408239784269711
 20
-5.591760215730289
 30
0.0
 40
0.5
  1
2.13
100
AcDbAttributeDefinition
  3

  2
L
 70
     8
280
     0
  0
ATTDEF
  5
11E
330
10B
100
AcDbEntity
  8
AM_6
100
AcDbText
 10
6.408239784269711
 20
-6.091760215730289
 30
0.0
 40
0.5
  1
5/16 - 24
100
AcDbAttributeDefinition
  3

  2
N
 70
     8
280
     0
  0
ATTDEF
  5
11F
330
10B
100
AcDbEntity
  8
AM_6
100
AcDbText
 10
6.408239784269711
 20
-6.591760215730289
 30
0.0
 40
0.5
  1
0.37
100
AcDbAttributeDefinition
  3

  2
W
 70
     8
280
     0
  0
ATTDEF
  5
120
330
10B
100
AcDbEntity
  8
AM_6
100
AcDbText
 10
6.408239784269711
 20
-7.091760215730289
 30
0.0
 40
0.5
  1
1.16
100
AcDbAttributeDefinition
  3

  2
Y
 70
     8
280
     0
  0
ATTDEF
  5
121
330
10B
100
AcDbEntity
  8
AM_6
100
AcDbText
 10
6.408239784269711
 20
-7.591760215730289
 30
0.0
 40
0.5
  1
1.84
100
AcDbAttributeDefinition
  3

  2
Z
 70
     8
280
     0
  0
ATTDEF
  5
122
330
10B
100
AcDbEntity
  8
AM_6
100
AcDbText
 10
6.408239784269711
 20
-8.09176021573029
 30
0.0
 40
0.5
  1
baldor
100
AcDbAttributeDefinition
  3

  2
COMPANY
 70
     8
280
     0
  0
LINE
  5
123
330
10B
100
AcDbEntity
  8
AM_9
 48
0.0093875494706375
100
AcDbLine
 10
-0.078125
 20
-1.400949264031713
 30
0.0
 11
-0.078125
 21
-1.41105
 31
0.0
  0
LINE
  5
124
330
10B
100
AcDbEntity
  8
AM_9
 48
0.0093875494706375
100
AcDbLine
 10
0.078125
 20
-1.41105
 30
0.0
 11
0.078125
 21
-1.400945325012874
 31
0.0
  0
LWPOLYLINE
  5
125
330
10B
100
AcDbEntity
  8
AM_9
 48
0.0093875494706375
100
AcDbPolyline
 90
        4
 70
     0
 43
0.0
 10
-0.0621348757126193
 20
-1.39416376558978
 10
-0.0655148050532993
 20
-1.394851929180536
 10
-0.0758943166139572
 20
-1.398292364224849
 10
-0.0781249724660815
 20
-1.40095039553829
  0
LWPOLYLINE
  5
126
330
10B
100
AcDbEntity
  8
AM_9
 48
0.0093875494706375
100
AcDbPolyline
 90
        9
 70
     0
 43
0.0
 10
0.0781249903107922
 20
-1.400946586462398
 10
0.0764768005112453
 20
-1.398660290764162
 10
0.0667269834743802
 20
-1.395128184115893
 10
0.0492985151653226
 20
-1.39226186278457
 10
0.0263309259209946
 20
-1.390400717493954
 10
0.0005711818628158
 20
-1.389743361050104
 10
-0.0250883890014004
 20
-1.390338426935787
 10
-0.0479211910461618
 20
-1.392104584601114
 10
-0.0621348757126193
 20
-1.39416376558978
  0
LWPOLYLINE
  5
127
330
10B
100
AcDbEntity
  8
AM_9
 48
0.0093875494706375
100
AcDbPolyline
 90
        5
 70
     0
 43
0.0
 10
-0.0781249724660815
 20
-1.40095039553829
 10
-0.0777377841218578
 20
-1.402049660457152
 10
-0.070665118218303
 20
-1.405689218637862
 10
-0.0554437651023277
 20
-1.40877682704305
 10
-0.0324525008018473
 20
-1.411050000000004
  0
ARC
  5
128
330
10B
100
AcDbEntity
  8
AM_9
 48
0.0093875494706375
100
AcDbCircle
 10
0.0
 20
-1.41105
 30
0.0
 40
0.0781249999999999
100
AcDbArc
 50
179.9999999999998
 51
0.0000000000001628
  0
LINE
  5
129
330
10B
100
AcDbEntity
  8
AM_9
 48
0.0093875494706375
100
AcDbLine
 10
0.0781249999999999
 20
-1.41105
 30
0.0
 11
-0.0781249999999999
 21
-1.41105
 31
0.0
  0
ELLIPSE
  5
12A
330
10B
100
AcDbEntity
  8
AM_9
 48
0.0093875494706375
100
AcDbEllipse
 10
0.0000000000000001
 20
-1.401175616973632
 30
0.0
 11
-0.07748582684703426
 21
8.697547674597059E-16
 31
0.0
210
0.0
220
0.0
230
1.0
 40
0.1403357740062806
 41
1.138652465848624
 42
2.002940187741331
  0
LWPOLYLINE
  5
12B
330
10B
100
AcDbEntity
  8
AM_9
 48
0.0093875494706375
100
AcDbPolyline
 90
        4
 70
     0
 43
0.0
 10
0.0695274725914158
 20
-1.40601831057369
 10
0.0696080791808439
 20
-1.405995872972863
 10
0.0774248926873623
 20
-1.402430038142118
 10
0.0781249903107922
 20
-1.400946586462398
  0
LWPOLYLINE
  5
12C
330
10B
100
AcDbEntity
  8
AM_9
 48
0.0093875494706375
100
AcDbPolyline
 90
        3
 70
     0
 43
0.0
 10
0.0324525008018803
 20
-1.411050000000005
 10
0.0540307645254545
 20
-1.408973822626689
 10
0.0695274725914158
 20
-1.40601831057369
  0
CIRCLE
  5
12D
330
10B
100
AcDbEntity
  8
AM_9
 48
0.0093875494706375
100
AcDbCircle
 10
0.0
 20
0.0
 30
0.0
 40
1.349809523809524
  0
CIRCLE
  5
12E
330
10B
100
AcDbEntity
  8
AM_9
 48
0.0093875494706375
100
AcDbCircle
 10
0.0
 20
0.0
 30
0.0
 40
0.92
  0
CIRCLE
  5
12F
330
10B
100
AcDbEntity
  8
AM_9
 48
0.0093875494706375
100
AcDbCircle
 10
0.0
 20
0.0
 30
0.0
 40
0.8761904761904762
  0
CIRCLE
  5
130
330
10B
100
AcDbEntity
  8
AM_9
 48
0.0093875494706375
100
AcDbCircle
 10
0.0
 20
0.0
 30
0.0
 40
0.7331250000000007
  0
LINE
  5
131
330
10B
100
AcDbEntity
  8
AM_9
 48
0.0093875494706375
100
AcDbLine
 10
1.05932564637252
 20
0.1097915066726101
 30
0.0
 11
1.05932564637252
 21
-0.1097915066726101
 31
0.0
  0
LINE
  5
132
330
10B
100
AcDbEntity
  8
AM_9
 48
0.0093875494706375
100
AcDbLine
 10
0.7052053692537259
 20
-0.13935
 30
0.0
 11
1.055858141436688
 21
-0.13935
 31
0.0
  0
LINE
  5
133
330
10B
100
AcDbEntity
  8
AM_9
 48
0.0093875494706375
100
AcDbLine
 10
1.055858141436688
 20
0.13935
 30
0.0
 11
0.7051500938712293
 21
0.13935
 31
0.0
  0
LINE
  5
134
330
10B
100
AcDbEntity
  8
AM_5
 48
0.0093875494706375
100
AcDbLine
 10
0.701560760020114
 20
0.15625
 30
0.0
 11
1.053475646372521
 21
0.15625
 31
0.0
  0
LINE
  5
135
330
10B
100
AcDbEntity
  8
AM_5
 48
0.0093875494706375
100
AcDbLine
 10
0.701560760020114
 20
-0.15625
 30
0.0
 11
1.053475646372521
 21
-0.15625
 31
0.0
  0
LINE
  5
136
330
10B
100
AcDbEntity
  8
AM_7
 48
0.0093875494706375
100
AcDbLine
 10
-0.0820312500002731
 20
-1.411049999999994
 30
0.0
 11
0.0820312500000066
 21
-1.411049999999994
 31
0.0
  0
CIRCLE
  5
137
330
10B
100
AcDbEntity
  8
AM_0
 48
0.0093875494706375
100
AcDbCircle
 10
0.0
 20
0.0
 30
0.0
 40
1.40823978426971
  0
CIRCLE
  5
138
330
10B
100
AcDbEntity
  8
AM_0
 48
0.0093875494706375
100
AcDbCircle
 10
0.0
 20
0.0
 30
0.0
 40
1.396831876068126
  0
CIRCLE
  5
139
330
10B
100
AcDbEntity
  8
AM_4
 48
0.0093875494706375
100
AcDbCircle
 10
0.0
 20
0.0
 30
0.0
 40
1.344686595456354
  0
CIRCLE
  5
13A
330
10B
100
AcDbEntity
  8
AM_4
 48
0.0093875494706375
100
AcDbCircle
 10
0.0
 20
0.0
 30
0.0
 40
1.372528401382946
  0
CIRCLE
  5
13B
330
10B
100
AcDbEntity
  8
AM_0
 48
0.0093875494706375
100
AcDbCircle
 10
0.0
 20
0.0
 30
0.0
 40
0.71875
  0
CIRCLE
  5
13C
330
10B
100
AcDbEntity
  8
AM_0
 48
0.0093875494706375
100
AcDbCircle
 10
0.0
 20
0.0
 30
0.0
 40
0.7390793199591132
  0
CIRCLE
  5
13D
330
10B
100
AcDbEntity
  8
AM_4
 48
0.0093875494706375
100
AcDbCircle
 10
0.0
 20
0.0
 30
0.0
 40
1.0075
  0
CIRCLE
  5
13E
330
10B
100
AcDbEntity
  8
AM_0
 48
0.0093875494706375
100
AcDbCircle
 10
0.0000000000000001
 20
-0.0000000000000001
 30
0.0
 40
1.065
  0
ENDBLK
  5
10E
330
10B
100
AcDbEntity
  8
0
100
AcDbBlockEnd
  0
BLOCK
  5
141
330
13F
100
AcDbEntity
  8
0
100
AcDbBlockBegin
  2
3_131197H_0_in_131197_0
 70
     2
 10
0.0
 20
0.0
 30
0.0
  3
3_131197H_0_in_131197_0
  1

  0
ATTDEF
  5
143
330
13F
100
AcDbEntity
  8
AM_6
100
AcDbText
 10
7.748635
 20
2.065
 30
0.0
 40
0.5
  1
NSTU-SXV -I-Housing
100
AcDbAttributeDefinition
  3

  2
NN
 70
     8
280
     0
  0
ATTDEF
  5
144
330
13F
100
AcDbEntity
  8
AM_6
100
AcDbText
 10
7.748635
 20
1.565
 30
0.0
 40
0.5
  1
Eccentric Collar Take-Up Bearings -(Intermediate Duty) -Narrow Slot
100
AcDbAttributeDefinition
  3

  2
NT
 70
     8
280
     0
  0
ATTDEF
  5
145
330
13F
100
AcDbEntity
  8
AM_6
100
AcDbText
 10
7.748635
 20
1.065
 30
0.0
 40
0.5
  1
131197H
100
AcDbAttributeDefinition
  3

  2
NB
 70
     8
280
     0
  0
ATTDEF
  5
146
330
13F
100
AcDbEntity
  8
AM_6
100
AcDbText
 10
7.748635
 20
0.565
 30
0.0
 40
0.5
  1
$PN.H
100
AcDbAttributeDefinition
  3

  2
NBSYN
 70
     8
280
     0
  0
ATTDEF
  5
147
330
13F
100
AcDbEntity
  8
AM_6
100
AcDbText
 10
7.748635
 20
0.0649999999999999
 30
0.0
 40
0.5
  1
131197
100
AcDbAttributeDefinition
  3

  2
LINA
 70
     8
280
     0
  0
ATTDEF
  5
148
330
13F
100
AcDbEntity
  8
AM_6
100
AcDbText
 10
7.748635
 20
-0.4350000000000001
 30
0.0
 40
0.5
  1
207
100
AcDbAttributeDefinition
  3

  2
SERIES
 70
     8
280
     0
  0
ATTDEF
  5
149
330
13F
100
AcDbEntity
  8
AM_6
100
AcDbText
 10
7.748635
 20
-0.935
 30
0.0
 40
0.5
  1
1-7/16
100
AcDbAttributeDefinition
  3

  2
SS
 70
     8
280
     0
  0
ATTDEF
  5
14A
330
13F
100
AcDbEntity
  8
AM_6
100
AcDbText
 10
7.748635
 20
-1.435
 30
0.0
 40
0.5
  1
131197
100
AcDbAttributeDefinition
  3

  2
PN
 70
     8
280
     0
  0
ATTDEF
  5
14B
330
13F
100
AcDbEntity
  8
AM_6
100
AcDbText
 10
7.748635
 20
-1.935
 30
0.0
 40
0.5
  1
NSTU-SXV-107
100
AcDbAttributeDefinition
  3

  2
DESCRIPTION
 70
     8
280
     0
  0
ATTDEF
  5
14C
330
13F
100
AcDbEntity
  8
AM_6
100
AcDbText
 10
7.748635
 20
-2.435
 30
0.0
 40
0.5
  1
2.5
100
AcDbAttributeDefinition
  3

  2
W
 70
     8
280
     0
  0
ATTDEF
  5
14D
330
13F
100
AcDbEntity
  8
AM_6
100
AcDbText
 10
7.748635
 20
-2.935
 30
0.0
 40
0.5
  1
NS308
100
AcDbAttributeDefinition
  3

  2
FS
 70
     8
280
     0
  0
ATTDEF
  5
14E
330
13F
100
AcDbEntity
  8
AM_6
100
AcDbText
 10
7.748635
 20
-3.435
 30
0.0
 40
0.5
  1
1.53
100
AcDbAttributeDefinition
  3

  2
A
 70
     8
280
     0
  0
ATTDEF
  5
14F
330
13F
100
AcDbEntity
  8
AM_6
100
AcDbText
 10
7.748635
 20
-3.935
 30
0.0
 40
0.5
  1
4.50
100
AcDbAttributeDefinition
  3

  2
B
 70
     8
280
     0
  0
ATTDEF
  5
150
330
13F
100
AcDbEntity
  8
AM_6
100
AcDbText
 10
7.748635
 20
-4.435
 30
0.0
 40
0.5
  1
0.250
100
AcDbAttributeDefinition
  3

  2
C
 70
     8
280
     0
  0
ATTDEF
  5
151
330
13F
100
AcDbEntity
  8
AM_6
100
AcDbText
 10
7.748635
 20
-4.935
 30
0.0
 40
0.5
  1
2.50
100
AcDbAttributeDefinition
  3

  2
D
 70
     8
280
     0
  0
ATTDEF
  5
152
330
13F
100
AcDbEntity
  8
AM_6
100
AcDbText
 10
7.748635
 20
-5.435
 30
0.0
 40
0.5
  1
2.69
100
AcDbAttributeDefinition
  3

  2
E
 70
     8
280
     0
  0
ATTDEF
  5
153
330
13F
100
AcDbEntity
  8
AM_6
100
AcDbText
 10
7.748635
 20
-5.935
 30
0.0
 40
0.5
  1
3/4
100
AcDbAttributeDefinition
  3

  2
F
 70
     8
280
     0
  0
ATTDEF
  5
154
330
13F
100
AcDbEntity
  8
AM_6
100
AcDbText
 10
7.748635
 20
-6.435
 30
0.0
 40
0.5
  1
0.50
100
AcDbAttributeDefinition
  3

  2
G
 70
     8
280
     0
  0
ATTDEF
  5
155
330
13F
100
AcDbEntity
  8
AM_6
100
AcDbText
 10
7.748635
 20
-6.935
 30
0.0
 40
0.5
  1
0.94
100
AcDbAttributeDefinition
  3

  2
H
 70
     8
280
     0
  0
ATTDEF
  5
156
330
13F
100
AcDbEntity
  8
AM_6
100
AcDbText
 10
7.748635
 20
-7.435
 30
0.0
 40
0.5
  1
1.38
100
AcDbAttributeDefinition
  3

  2
J
 70
     8
280
     0
  0
ATTDEF
  5
157
330
13F
100
AcDbEntity
  8
AM_6
100
AcDbText
 10
7.748635
 20
-7.935
 30
0.0
 40
0.5
  1
2.13
100
AcDbAttributeDefinition
  3

  2
L
 70
     8
280
     0
  0
ATTDEF
  5
158
330
13F
100
AcDbEntity
  8
AM_6
100
AcDbText
 10
7.748635
 20
-8.435
 30
0.0
 40
0.5
  1
3.510 / 3.480
100
AcDbAttributeDefinition
  3

  2
M
 70
     8
280
     0
  0
ATTDEF
  5
159
330
13F
100
AcDbEntity
  8
AM_6
100
AcDbText
 10
7.748635
 20
-8.935
 30
0.0
 40
0.5
  1
4.13
100
AcDbAttributeDefinition
  3

  2
N
 70
     8
280
     0
  0
ATTDEF
  5
15A
330
13F
100
AcDbEntity
  8
AM_6
100
AcDbText
 10
7.748635
 20
-9.435
 30
0.0
 40
0.5
  1
0.32
100
AcDbAttributeDefinition
  3

  2
P
 70
     8
280
     0
  0
ATTDEF
  5
15B
330
13F
100
AcDbEntity
  8
AM_6
100
AcDbText
 10
7.748635
 20
-9.935
 30
0.0
 40
0.5
  1
0.37
100
AcDbAttributeDefinition
  3

  2
R
 70
     8
280
     0
  0
ATTDEF
  5
15C
330
13F
100
AcDbEntity
  8
AM_6
100
AcDbText
 10
7.748635
 20
-10.435
 30
0.0
 40
0.5
  1
1.16
100
AcDbAttributeDefinition
  3

  2
S
 70
     8
280
     0
  0
ATTDEF
  5
15D
330
13F
100
AcDbEntity
  8
AM_6
100
AcDbText
 10
7.748635
 20
-10.935
 30
0.0
 40
0.5
  1
3065
100
AcDbAttributeDefinition
  3

  2
CAPS
 70
     8
280
     0
  0
ATTDEF
  5
15E
330
13F
100
AcDbEntity
  8
AM_6
100
AcDbText
 10
7.748635
 20
-11.435
 30
0.0
 40
0.5
  1
5759
100
AcDbAttributeDefinition
  3

  2
CAPD
 70
     8
280
     0
  0
ATTDEF
  5
15F
330
13F
100
AcDbEntity
  8
AM_6
100
AcDbText
 10
7.748635
 20
-11.935
 30
0.0
 40
0.5
  1
baldor
100
AcDbAttributeDefinition
  3

  2
COMPANY
 70
     8
280
     0
  0
LINE
  5
160
330
13F
100
AcDbEntity
  8
AM_9
 48
0.0153259500902925
100
AcDbLine
 10
1.25
 20
-1.755
 30
0.0
 11
-1.25
 21
-1.755
 31
0.0
  0
LINE
  5
161
330
13F
100
AcDbEntity
  8
AM_9
 48
0.0153259500902925
100
AcDbLine
 10
1.25
 20
1.755
 30
0.0
 11
-1.25
 21
1.755
 31
0.0
  0
ARC
  5
162
330
13F
100
AcDbEntity
  8
AM_9
 48
0.0153259500902925
100
AcDbCircle
 10
0.0
 20
-0.0000000000000022
 30
0.0
 40
1.489175000000002
100
AcDbArc
 50
71.23020940724618
 51
108.7697905927538
  0
LINE
  5
163
330
13F
100
AcDbEntity
  8
AM_9
 48
0.0153259500902925
100
AcDbLine
 10
0.4791666666666667
 20
1.333843542382522
 30
0.0
 11
0.4791666666666667
 21
1.409979250265959
 31
0.0
  0
LINE
  5
164
330
13F
100
AcDbEntity
  8
AM_9
 48
0.0153259500902925
100
AcDbLine
 10
-0.4791666666666667
 20
1.409979250265959
 30
0.0
 11
-0.4791666666666667
 21
1.333843542382522
 31
0.0
  0
LINE
  5
165
330
13F
100
AcDbEntity
  8
AM_9
 48
0.0153259500902925
100
AcDbLine
 10
0.479166666666666
 20
-1.409979250265959
 30
0.0
 11
0.4791666666666667
 21
-1.333843542382522
 31
0.0
  0
ARC
  5
166
330
13F
100
AcDbEntity
  8
AM_9
 48
0.0153259500902925
100
AcDbCircle
 10
0.0
 20
0.0000000000000022
 30
0.0
 40
1.489175000000002
100
AcDbArc
 50
251.2302094072462
 51
288.7697905927538
  0
LINE
  5
167
330
13F
100
AcDbEntity
  8
AM_9
 48
0.0153259500902925
100
AcDbLine
 10
-0.4791666666666667
 20
-1.333843542382522
 30
0.0
 11
-0.4791666666666667
 21
-1.409979250265959
 31
0.0
  0
LINE
  5
168
330
13F
100
AcDbEntity
  8
AM_9
 48
0.0153259500902925
100
AcDbLine
 10
1.75
 20
-0.3749999999999999
 30
0.0
 11
2.69
 21
-0.3749999999999999
 31
0.0
  0
LINE
  5
169
330
13F
100
AcDbEntity
  8
AM_9
 48
0.0153259500902925
100
AcDbLine
 10
2.69
 20
0.3749999999999999
 30
0.0
 11
1.75
 21
0.3749999999999999
 31
0.0
  0
LINE
  5
16A
330
13F
100
AcDbEntity
  8
AM_9
 48
0.0153259500902925
100
AcDbLine
 10
1.75
 20
0.3749999999999999
 30
0.0
 11
1.75
 21
-0.3749999999999999
 31
0.0
  0
LINE
  5
16B
330
13F
100
AcDbEntity
  8
AM_7
 48
0.0153259500902925
100
AcDbLine
 10
-1.488165
 20
0.0
 30
0.0
 11
2.748635
 21
0.0
 31
0.0
  0
LINE
  5
16C
330
13F
100
AcDbEntity
  8
AM_7
 48
0.0153259500902925
100
AcDbLine
 10
0.0
 20
-1.51763375
 30
0.0
 11
0.0
 21
1.488165
 31
0.0
  0
LWPOLYLINE
  5
16D
330
13F
100
AcDbEntity
  8
AM_0
 48
0.0153259500902925
100
AcDbPolyline
 90
       19
 70
     0
 43
0.0
 10
1.2
 20
-2.065
 10
1.204357787137383
 20
-2.064809734904587
 10
1.208682408883347
 20
-2.064240387650611
 10
1.212940952255126
 20
-2.063296291314453
 10
1.217101007166284
 20
-2.061984631039295
 10
1.221130913087035
 20
-2.060315389351832
 10
1.225
 20
-2.058301270189222
 10
1.228678821817552
 20
-2.055957602214449
 10
1.232139380484327
 20
-2.053302222155949
 10
1.235355339059327
 20
-2.050355339059327
 10
1.238302222155949
 20
-2.047139380484327
 10
1.24095760221445
 20
-2.043678821817552
 10
1.243301270189222
 20
-2.04
 10
1.245315389351833
 20
-2.036130913087035
 10
1.246984631039295
 20
-2.032101007166283
 10
1.248296291314453
 20
-2.027940952255126
 10
1.24924038765061
 20
-2.023682408883346
 10
1.249809734904587
 20
-2.019357787137383
 10
1.25
 20
-2.015
  0
LWPOLYLINE
  5
16E
330
13F
100
AcDbEntity
  8
AM_0
 48
0.0153259500902925
100
AcDbPolyline
 90
       19
 70
     0
 43
0.0
 10
-1.250000000000001
 20
-2.015
 10
-1.249809734904588
 20
-2.019357787137383
 10
-1.249240387650611
 20
-2.023682408883347
 10
-1.248296291314454
 20
-2.027940952255126
 10
-1.246984631039296
 20
-2.032101007166284
 10
-1.245315389351833
 20
-2.036130913087035
 10
-1.243301270189222
 20
-2.04
 10
-1.24095760221445
 20
-2.043678821817552
 10
-1.238302222155949
 20
-2.047139380484327
 10
-1.235355339059328
 20
-2.050355339059327
 10
-1.232139380484327
 20
-2.053302222155949
 10
-1.228678821817553
 20
-2.05595760221445
 10
-1.225000000000001
 20
-2.058301270189222
 10
-1.221130913087036
 20
-2.060315389351832
 10
-1.217101007166284
 20
-2.061984631039295
 10
-1.212940952255127
 20
-2.063296291314453
 10
-1.208682408883347
 20
-2.06424038765061
 10
-1.204357787137384
 20
-2.064809734904587
 10
-1.200000000000001
 20
-2.065
  0
LINE
  5
16F
330
13F
100
AcDbEntity
  8
AM_0
 48
0.0153259500902925
100
AcDbLine
 10
1.2
 20
-2.065
 30
0.0
 11
-1.2
 21
-2.065
 31
0.0
  0
LINE
  5
170
330
13F
100
AcDbEntity
  8
AM_0
 48
0.0153259500902925
100
AcDbLine
 10
1.25
 20
-1.286125759479468
 30
0.0
 11
1.25
 21
-2.015
 31
0.0
  0
LINE
  5
171
330
13F
100
AcDbEntity
  8
AM_0
 48
0.0153259500902925
100
AcDbLine
 10
-1.25
 20
-1.286125759479468
 30
0.0
 11
-1.25
 21
-2.015
 31
0.0
  0
LINE
  5
172
330
13F
100
AcDbEntity
  8
AM_4
 48
0.0153259500902925
100
AcDbLine
 10
1.25
 20
-2.015
 30
0.0
 11
-1.25
 21
-2.015
 31
0.0
  0
LWPOLYLINE
  5
173
330
13F
100
AcDbEntity
  8
AM_0
 48
0.0153259500902925
100
AcDbPolyline
 90
       19
 70
     0
 43
0.0
 10
-1.2
 20
2.065
 10
-1.204357787137383
 20
2.064809734904587
 10
-1.208682408883347
 20
2.064240387650611
 10
-1.212940952255126
 20
2.063296291314453
 10
-1.217101007166284
 20
2.061984631039295
 10
-1.221130913087035
 20
2.060315389351833
 10
-1.225
 20
2.058301270189222
 10
-1.228678821817552
 20
2.05595760221445
 10
-1.232139380484327
 20
2.053302222155949
 10
-1.235355339059327
 20
2.050355339059327
 10
-1.238302222155949
 20
2.047139380484327
 10
-1.240957602214449
 20
2.043678821817552
 10
-1.243301270189222
 20
2.04
 10
-1.245315389351832
 20
2.036130913087035
 10
-1.246984631039295
 20
2.032101007166284
 10
-1.248296291314453
 20
2.027940952255126
 10
-1.24924038765061
 20
2.023682408883346
 10
-1.249809734904587
 20
2.019357787137383
 10
-1.25
 20
2.015
  0
LINE
  5
174
330
13F
100
AcDbEntity
  8
AM_0
 48
0.0153259500902925
100
AcDbLine
 10
1.2
 20
2.065
 30
0.0
 11
-1.2
 21
2.065
 31
0.0
  0
LWPOLYLINE
  5
175
330
13F
100
AcDbEntity
  8
AM_0
 48
0.0153259500902925
100
AcDbPolyline
 90
       19
 70
     0
 43
0.0
 10
1.25
 20
2.015
 10
1.249809734904587
 20
2.019357787137383
 10
1.249240387650611
 20
2.023682408883347
 10
1.248296291314454
 20
2.027940952255126
 10
1.246984631039296
 20
2.032101007166284
 10
1.245315389351833
 20
2.036130913087035
 10
1.243301270189222
 20
2.04
 10
1.24095760221445
 20
2.043678821817552
 10
1.238302222155949
 20
2.047139380484327
 10
1.235355339059327
 20
2.050355339059327
 10
1.232139380484327
 20
2.053302222155949
 10
1.228678821817552
 20
2.05595760221445
 10
1.225
 20
2.058301270189222
 10
1.221130913087035
 20
2.060315389351832
 10
1.217101007166284
 20
2.061984631039295
 10
1.212940952255126
 20
2.063296291314453
 10
1.208682408883347
 20
2.064240387650611
 10
1.204357787137383
 20
2.064809734904587
 10
1.2
 20
2.065
  0
LINE
  5
176
330
13F
100
AcDbEntity
  8
AM_0
 48
0.0153259500902925
100
AcDbLine
 10
-1.25
 20
2.015
 30
0.0
 11
-1.25
 21
1.286125759479468
 31
0.0
  0
LINE
  5
177
330
13F
100
AcDbEntity
  8
AM_0
 48
0.0153259500902925
100
AcDbLine
 10
1.25
 20
2.015
 30
0.0
 11
1.25
 21
1.286125759479468
 31
0.0
  0
LINE
  5
178
330
13F
100
AcDbEntity
  8
AM_4
 48
0.0153259500902925
100
AcDbLine
 10
1.25
 20
2.015
 30
0.0
 11
-1.25
 21
2.015
 31
0.0
  0
CIRCLE
  5
179
330
13F
100
AcDbEntity
  8
AM_0
 48
0.0153259500902925
100
AcDbCircle
 10
0.0
 20
0.0
 30
0.0
 40
1.4173
  0
ARC
  5
17A
330
13F
100
AcDbEntity
  8
AM_0
 48
0.0153259500902925
100
AcDbCircle
 10
0.0000000000000075
 20
0.0000000000000044
 30
0.0
 40
1.809999999999992
100
AcDbArc
 50
19.85402369082641
 51
46.32176438524949
  0
ARC
  5
17B
330
13F
100
AcDbEntity
  8
AM_0
 48
0.0153259500902925
100
AcDbCircle
 10
0.0000000000000001
 20
0.0000000000000027
 30
0.0
 40
1.793493649053888
100
AcDbArc
 50
45.81609264238966
 51
134.1839073576103
  0
ARC
  5
17C
330
13F
100
AcDbEntity
  8
AM_0
 48
0.0153259500902925
100
AcDbCircle
 10
0.0
 20
0.0000000000000001
 30
0.0
 40
1.81
100
AcDbArc
 50
133.6782356147506
 51
226.3217643852494
  0
ARC
  5
17D
330
13F
100
AcDbEntity
  8
AM_0
 48
0.0153259500902925
100
AcDbCircle
 10
0.0
 20
-0.0000000000000024
 30
0.0
 40
1.793493649053888
100
AcDbArc
 50
225.8160926423897
 51
314.1839073576103
  0
ARC
  5
17E
330
13F
100
AcDbEntity
  8
AM_0
 48
0.0153259500902925
100
AcDbCircle
 10
0.000000000000014
 20
-0.0000000000000093
 30
0.0
 40
1.809999999999984
100
AcDbArc
 50
313.6782356147505
 51
340.1459763091736
  0
ARC
  5
17F
330
13F
100
AcDbEntity
  8
AM_0
 48
0.0153259500902925
100
AcDbCircle
 10
0.0
 20
0.0
 30
0.0
 40
1.76
100
AcDbArc
 50
15.67440124981981
 51
344.3255987501802
  0
LWPOLYLINE
  5
180
330
13F
100
AcDbEntity
  8
AM_0
 48
0.0153259500902925
100
AcDbPolyline
 90
       10
 70
     0
 43
0.0
 10
1.600633333333333
 20
-0.4754997371187493
 10
1.598162992584371
 20
-0.4754465909487265
 10
1.578825848425756
 20
-0.4712758390938264
 10
1.574744467821482
 20
-0.4694962078634981
 10
1.552416486242318
 20
-0.4529141743783587
 10
1.541622982943586
 20
-0.4392038236442591
 10
1.532929841232217
 20
-0.4235058037721618
 10
1.524015679646035
 20
-0.3986041076466238
 10
1.518947667720797
 20
-0.3719184568060497
 10
1.5173
 20
-0.343575966046003
  0
LWPOLYLINE
  5
181
330
13F
100
AcDbEntity
  8
AM_0
 48
0.0153259500902925
100
AcDbPolyline
 90
        9
 70
     0
 43
0.0
 10
1.5173
 20
0.343575966046003
 10
1.519517792919436
 20
0.3762721898823335
 10
1.524138737853975
 20
0.3990630585336208
 10
1.531974382548589
 20
0.4213988304203511
 10
1.540043667380259
 20
0.4367336963499676
 10
1.550618665904623
 20
0.4509578255227558
 10
1.570057221211091
 20
0.4670258231891403
 10
1.589608029507084
 20
0.4744360847817196
 10
1.600633333333333
 20
0.4754997371187493
  0
LINE
  5
182
330
13F
100
AcDbEntity
  8
AM_0
 48
0.0153259500902925
100
AcDbLine
 10
1.5173
 20
0.343575966046003
 30
0.0
 11
1.5173
 21
-0.343575966046003
 31
0.0
  0
LINE
  5
183
330
13F
100
AcDbEntity
  8
AM_4
 48
0.0153259500902925
100
AcDbLine
 10
1.600633333333333
 20
0.4754997371187493
 30
0.0
 11
1.600633333333333
 21
-0.4754997371187493
 31
0.0
  0
LINE
  5
184
330
13F
100
AcDbEntity
  8
AM_0
 48
0.0153259500902925
100
AcDbLine
 10
1.600633333333333
 20
-0.4754997371187493
 30
0.0
 11
1.694550087781415
 21
-0.4754997371187493
 31
0.0
  0
LWPOLYLINE
  5
185
330
13F
100
AcDbEntity
  8
AM_0
 48
0.0153259500902925
100
AcDbPolyline
 90
        5
 70
     0
 43
0.0
 10
1.694550087781415
 20
-0.4754997371187493
 10
1.694399638556196
 20
-0.5155477250967381
 10
1.695447139457533
 20
-0.552002436124417
 10
1.698050080879365
 20
-0.5855489837191575
 10
1.702415333488642
 20
-0.614721101234336
  0
LWPOLYLINE
  5
186
330
13F
100
AcDbEntity
  8
AM_0
 48
0.0153259500902925
100
AcDbPolyline
 90
        5
 70
     0
 43
0.0
 10
1.702415333488642
 20
0.614721101234336
 10
1.69815754057932
 20
0.5865213271551795
 10
1.695561044167978
 20
0.5542064636249799
 10
1.694413475748669
 20
0.5167710886993598
 10
1.694550087781415
 20
0.4754997371187493
  0
LINE
  5
187
330
13F
100
AcDbEntity
  8
AM_0
 48
0.0153259500902925
100
AcDbLine
 10
1.694550087781415
 20
0.4754997371187493
 30
0.0
 11
1.600633333333333
 21
0.4754997371187493
 31
0.0
  0
LWPOLYLINE
  5
188
330
13F
100
AcDbEntity
  8
AM_0
 48
0.0153259500902925
100
AcDbPolyline
 90
       38
 70
     0
 43
0.0
 10
2.03
 20
0.0
 10
2.032220208948919
 20
-0.0264628835665195
 10
2.038744453112479
 20
-0.0521704852934795
 10
2.04941604765645
 20
-0.0763642667434105
 10
2.063871820805275
 20
-0.0984463428118245
 10
2.082074434841394
 20
-0.1180992252924446
 10
2.103290384396641
 20
-0.1344672546083902
 10
2.127309430435668
 20
-0.1471886613499397
 10
2.153181233050637
 20
-0.1557060641090401
 10
2.17970250420862
 20
-0.1596507922417619
 10
2.206525437208576
 20
-0.159144305349156
 10
2.232320184114906
 20
-0.1542858381102704
 10
2.256939965558993
 20
-0.145323917546152
 10
2.279897078281262
 20
-0.1323407186460983
 10
2.300400415249581
 20
-0.1158091028923028
 10
2.318277400658137
 20
-0.0956035544450274
 10
2.332545545830736
 20
-0.0726688885549889
 10
2.342760971473664
 20
-0.0475239043083287
 10
2.348620003712706
 20
-0.02096889177284
 10
2.349884401952254
 20
0.00561927208118
 10
2.346758026933689
 20
0.0320456079963635
 10
2.339399695807518
 20
0.0572277320132378
 10
2.328078204457363
 20
0.0808356941816582
 10
2.312801768500998
 20
0.1025437812918258
 10
2.294181942129107
 20
0.121433615338618
 10
2.272186814375941
 20
0.1372598136068327
 10
2.247806266272367
 20
0.1491926123494328
 10
2.22184728079015
 20
0.1567804188595677
 10
2.194943172524084
 20
0.1599236225371259
 10
2.168552994264701
 20
0.1585396590021298
 10
2.142771120070542
 20
0.1528706410682211
 10
2.118438253606226
 20
0.1430887346655056
 10
2.096057487226439
 20
0.1295175829522363
 10
2.07581219113684
 20
0.1120559666735785
 10
2.058733146158331
 20
0.0914823102162923
 10
2.04515953484903
 20
0.0679404345268648
 10
2.035719718082652
 20
0.0423980496190991
 10
2.03
 20
0.0
  0
LINE
  5
189
330
13F
100
AcDbEntity
  8
AM_0
 48
0.0153259500902925
100
AcDbLine
 10
1.673490408829185
 20
-0.6899999999999997
 30
0.0
 11
2.606666666666666
 21
-0.6899999999999997
 31
0.0
  0
LINE
  5
18A
330
13F
100
AcDbEntity
  8
AM_0
 48
0.0153259500902925
100
AcDbLine
 10
2.606666666666666
 20
0.6899999999999997
 30
0.0
 11
1.67333750943159
 21
0.6899999999999997
 31
0.0
  0
LINE
  5
18B
330
13F
100
AcDbEntity
  8
AM_0
 48
0.0153259500902925
100
AcDbLine
 10
2.69
 20
0.6066666666666691
 30
0.0
 11
2.69
 21
-0.6066666666666691
 31
0.0
  0
ARC
  5
18C
330
13F
100
AcDbEntity
  8
AM_0
 48
0.0153259500902925
100
AcDbCircle
 10
2.606666666666667
 20
-0.6066666666666669
 30
0.0
 40
0.0833333333333329
100
AcDbArc
 50
269.9999999999994
 51
359.9999999999985
  0
ARC
  5
18D
330
13F
100
AcDbEntity
  8
AM_0
 48
0.0153259500902925
100
AcDbCircle
 10
2.606666666666667
 20
0.6066666666666669
 30
0.0
 40
0.0833333333333326
100
AcDbArc
 50
0.0000000000015267
 51
90.00000000000063
  0
LINE
  5
18E
330
13F
100
AcDbEntity
  8
AM_4
 48
0.0153259500902925
100
AcDbLine
 10
2.606666666666666
 20
0.6899999999999998
 30
0.0
 11
2.606666666666666
 21
-0.6899999999999998
 31
0.0
  0
ENDBLK
  5
142
330
13F
100
AcDbEntity
  8
0
100
AcDbBlockEnd
  0
ENDSEC
  0
SECTION
  2
ENTITIES
  0
ATTDEF
  5
6F
330
1F
100
AcDbEntity
  8
AM_6
100
AcDbText
 10
7.748635
 20
2.065
 30
0.0
 40
0.5
  1
Eccentric Collar Intermediate Duty Narrow Slot Take Up Inch Bore
100
AcDbAttributeDefinition
  3

  2
NN
 70
     8
280
     0
  0
ATTDEF
  5
70
330
1F
100
AcDbEntity
  8
AM_6
100
AcDbText
 10
7.748635
 20
1.565
 30
0.0
 40
0.5
  1
Eccentric Collar Take-Up Bearings -(Intermediate Duty) -Narrow Slot
100
AcDbAttributeDefinition
  3

  2
NT
 70
     8
280
     0
  0
ATTDEF
  5
71
330
1F
100
AcDbEntity
  8
AM_6
100
AcDbText
 10
7.748635
 20
1.065
 30
0.0
 40
0.5
  1
131197
100
AcDbAttributeDefinition
  3

  2
NB
 70
     8
280
     0
  0
ATTDEF
  5
72
330
1F
100
AcDbEntity
  8
AM_6
100
AcDbText
 10
7.748635
 20
0.565
 30
0.0
 40
0.5
  1
$PN.
100
AcDbAttributeDefinition
  3

  2
NBSYN
 70
     8
280
     0
  0
ATTDEF
  5
73
330
1F
100
AcDbEntity
  8
AM_6
100
AcDbText
 10
7.748635
 20
0.0649999999999999
 30
0.0
 40
0.5
  1
131197
100
AcDbAttributeDefinition
  3

  2
LINA
 70
     8
280
     0
  0
ATTDEF
  5
74
330
1F
100
AcDbEntity
  8
AM_6
100
AcDbText
 10
7.748635
 20
-0.4350000000000001
 30
0.0
 40
0.5
  1
207
100
AcDbAttributeDefinition
  3

  2
SERIES
 70
     8
280
     0
  0
ATTDEF
  5
75
330
1F
100
AcDbEntity
  8
AM_6
100
AcDbText
 10
7.748635
 20
-0.935
 30
0.0
 40
0.5
  1
1-7/16
100
AcDbAttributeDefinition
  3

  2
SS
 70
     8
280
     0
  0
ATTDEF
  5
76
330
1F
100
AcDbEntity
  8
AM_6
100
AcDbText
 10
7.748635
 20
-1.435
 30
0.0
 40
0.5
  1
131197
100
AcDbAttributeDefinition
  3

  2
PN
 70
     8
280
     0
  0
ATTDEF
  5
77
330
1F
100
AcDbEntity
  8
AM_6
100
AcDbText
 10
7.748635
 20
-1.935
 30
0.0
 40
0.5
  1
NSTU-SXV-107
100
AcDbAttributeDefinition
  3

  2
DESCRIPTION
 70
     8
280
     0
  0
ATTDEF
  5
78
330
1F
100
AcDbEntity
  8
AM_6
100
AcDbText
 10
7.748635
 20
-2.435
 30
0.0
 40
0.5
  1
2.5
100
AcDbAttributeDefinition
  3

  2
W
 70
     8
280
     0
  0
ATTDEF
  5
79
330
1F
100
AcDbEntity
  8
AM_6
100
AcDbText
 10
7.748635
 20
-2.935
 30
0.0
 40
0.5
  1
NS308
100
AcDbAttributeDefinition
  3

  2
FS
 70
     8
280
     0
  0
ATTDEF
  5
7A
330
1F
100
AcDbEntity
  8
AM_6
100
AcDbText
 10
7.748635
 20
-3.435
 30
0.0
 40
0.5
  1
1.53
100
AcDbAttributeDefinition
  3

  2
A
 70
     8
280
     0
  0
ATTDEF
  5
7B
330
1F
100
AcDbEntity
  8
AM_6
100
AcDbText
 10
7.748635
 20
-3.935
 30
0.0
 40
0.5
  1
4.50
100
AcDbAttributeDefinition
  3

  2
B
 70
     8
280
     0
  0
ATTDEF
  5
7C
330
1F
100
AcDbEntity
  8
AM_6
100
AcDbText
 10
7.748635
 20
-4.435
 30
0.0
 40
0.5
  1
0.250
100
AcDbAttributeDefinition
  3

  2
C
 70
     8
280
     0
  0
ATTDEF
  5
7D
330
1F
100
AcDbEntity
  8
AM_6
100
AcDbText
 10
7.748635
 20
-4.935
 30
0.0
 40
0.5
  1
2.50
100
AcDbAttributeDefinition
  3

  2
D
 70
     8
280
     0
  0
ATTDEF
  5
7E
330
1F
100
AcDbEntity
  8
AM_6
100
AcDbText
 10
7.748635
 20
-5.435
 30
0.0
 40
0.5
  1
2.69
100
AcDbAttributeDefinition
  3

  2
E
 70
     8
280
     0
  0
ATTDEF
  5
7F
330
1F
100
AcDbEntity
  8
AM_6
100
AcDbText
 10
7.748635
 20
-5.935
 30
0.0
 40
0.5
  1
3/4
100
AcDbAttributeDefinition
  3

  2
F
 70
     8
280
     0
  0
ATTDEF
  5
80
330
1F
100
AcDbEntity
  8
AM_6
100
AcDbText
 10
7.748635
 20
-6.435
 30
0.0
 40
0.5
  1
0.50
100
AcDbAttributeDefinition
  3

  2
G
 70
     8
280
     0
  0
ATTDEF
  5
81
330
1F
100
AcDbEntity
  8
AM_6
100
AcDbText
 10
7.748635
 20
-6.935
 30
0.0
 40
0.5
  1
0.94
100
AcDbAttributeDefinition
  3

  2
H
 70
     8
280
     0
  0
ATTDEF
  5
82
330
1F
100
AcDbEntity
  8
AM_6
100
AcDbText
 10
7.748635
 20
-7.435
 30
0.0
 40
0.5
  1
1.38
100
AcDbAttributeDefinition
  3

  2
J
 70
     8
280
     0
  0
ATTDEF
  5
83
330
1F
100
AcDbEntity
  8
AM_6
100
AcDbText
 10
7.748635
 20
-7.935
 30
0.0
 40
0.5
  1
2.13
100
AcDbAttributeDefinition
  3

  2
L
 70
     8
280
     0
  0
ATTDEF
  5
84
330
1F
100
AcDbEntity
  8
AM_6
100
AcDbText
 10
7.748635
 20
-8.435
 30
0.0
 40
0.5
  1
3.510 / 3.480
100
AcDbAttributeDefinition
  3

  2
M
 70
     8
280
     0
  0
ATTDEF
  5
85
330
1F
100
AcDbEntity
  8
AM_6
100
AcDbText
 10
7.748635
 20
-8.935
 30
0.0
 40
0.5
  1
4.13
100
AcDbAttributeDefinition
  3

  2
N
 70
     8
280
     0
  0
ATTDEF
  5
86
330
1F
100
AcDbEntity
  8
AM_6
100
AcDbText
 10
7.748635
 20
-9.435
 30
0.0
 40
0.5
  1
0.32
100
AcDbAttributeDefinition
  3

  2
P
 70
     8
280
     0
  0
ATTDEF
  5
87
330
1F
100
AcDbEntity
  8
AM_6
100
AcDbText
 10
7.748635
 20
-9.935
 30
0.0
 40
0.5
  1
0.37
100
AcDbAttributeDefinition
  3

  2
R
 70
     8
280
     0
  0
ATTDEF
  5
88
330
1F
100
AcDbEntity
  8
AM_6
100
AcDbText
 10
7.748635
 20
-10.435
 30
0.0
 40
0.5
  1
1.16
100
AcDbAttributeDefinition
  3

  2
S
 70
     8
280
     0
  0
ATTDEF
  5
89
330
1F
100
AcDbEntity
  8
AM_6
100
AcDbText
 10
7.748635
 20
-10.935
 30
0.0
 40
0.5
  1
baldor
100
AcDbAttributeDefinition
  3

  2
COMPANY
 70
     8
280
     0
  0
INSERT
  5
8B
330
1F
100
AcDbEntity
  8
0
100
AcDbBlockReference
  2
1_405016_Inch_0_in_131197_0
 10
0.0
 20
0.0
 30
0.0
  0
INSERT
  5
10C
330
1F
100
AcDbEntity
  8
0
100
AcDbBlockReference
  2
2_131446_0_in_131197_0
 10
0.0
 20
0.0
 30
0.0
  0
INSERT
  5
140
330
1F
100
AcDbEntity
  8
0
100
AcDbBlockReference
  2
3_131197H_0_in_131197_0
 10
0.0
 20
0.0
 30
0.0
  0
POINT
  5
190
330
1F
100
AcDbEntity
  8
ConnectionPoints
100
AcDbPoint
 10
0.0
 20
0.0
 30
1.16
  0
POINT
  5
191
330
1F
100
AcDbEntity
  8
ConnectionPoints
100
AcDbPoint
 10
-1.567505980849834
 20
-0.9049999999999999
 30
0.0
  0
POINT
  5
192
330
1F
100
AcDbEntity
  8
ConnectionPoints
100
AcDbPoint
 10
0.0
 20
0.0
 30
1.16
  0
ENDSEC
  0
SECTION
  2
OBJECTS
  0
DICTIONARY
  5
C
330
0
100
AcDbDictionary
281
     1
  3
ACAD_DETAILVIEWSTYLE
350
19A
  3
ACAD_GROUP
350
D
  3
ACAD_LAYOUT
350
1A
  3
ACAD_MATERIAL
350
43
  3
ACAD_MLEADERSTYLE
350
6B
  3
ACAD_MLINESTYLE
350
17
  3
ACAD_PLOTSETTINGS
350
19
  3
ACAD_PLOTSTYLENAME
350
E
  3
ACAD_SCALELIST
350
47
  3
ACAD_SECTIONVIEWSTYLE
350
19B
  3
ACAD_TABLESTYLE
350
69
  3
ACAD_VISUALSTYLE
350
2A
  3
ACDB_RECOMPOSE_DATA
350
197
  3
AcDbVariableDictionary
350
193
  0
SUN
  5
6D
330
29
100
AcDbSun
 90
        1
290
     0
 63
     7
421
 16777215
 40
1.0
291
     1
 91
  2455826
 92
 54000000
292
     0
 70
     2
 71
   256
280
     1
  0
DICTIONARY
  5
19A
102
{ACAD_REACTORS
330
C
102
}
330
C
100
AcDbDictionary
281
     1
  0
DICTIONARY
  5
D
102
{ACAD_REACTORS
330
C
102
}
330
C
100
AcDbDictionary
281
     1
  0
DICTIONARY
  5
1A
102
{ACAD_REACTORS
330
C
102
}
330
C
100
AcDbDictionary
281
     1
  3
Layout1
350
1E
  3
Layout2
350
26
  3
Model
350
22
  0
DICTIONARY
  5
43
102
{ACAD_REACTORS
330
C
102
}
330
C
100
AcDbDictionary
281
     1
  3
ByBlock
350
45
  3
ByLayer
350
44
  3
Global
350
46
  0
DICTIONARY
  5
6B
102
{ACAD_REACTORS
330
C
102
}
330
C
100
AcDbDictionary
281
     1
  3
Standard
350
6C
  0
DICTIONARY
  5
17
102
{ACAD_REACTORS
330
C
102
}
330
C
100
AcDbDictionary
281
     1
  3
Standard
350
18
  0
DICTIONARY
  5
19
102
{ACAD_REACTORS
330
C
102
}
330
C
100
AcDbDictionary
281
     1
  0
ACDBDICTIONARYWDFLT
  5
E
102
{ACAD_REACTORS
330
C
102
}
330
C
100
AcDbDictionary
281
     1
  3
Normal
350
F
100
AcDbDictionaryWithDefault
340
F
  0
DICTIONARY
  5
47
102
{ACAD_REACTORS
330
C
102
}
330
C
100
AcDbDictionary
281
     1
  3
A0
350
48
  3
A1
350
49
  3
A2
350
4A
  3
A3
350
4B
  3
A4
350
4C
  3
A5
350
4D
  3
A6
350
4E
  3
A7
350
4F
  3
A8
350
50
  3
A9
350
51
  3
B0
350
52
  3
B1
350
53
  3
B2
350
54
  3
B3
350
55
  3
B4
350
56
  3
B5
350
57
  3
B6
350
58
  3
B7
350
59
  3
B8
350
5A
  3
B9
350
5B
  3
C0
350
5C
  3
C1
350
5D
  3
C2
350
5E
  3
C3
350
5F
  3
C4
350
60
  3
C5
350
61
  3
C6
350
62
  3
C7
350
63
  3
C8
350
64
  3
C9
350
65
  3
D0
350
66
  3
D1
350
67
  3
D2
350
68
  0
DICTIONARY
  5
19B
102
{ACAD_REACTORS
330
C
102
}
330
C
100
AcDbDictionary
281
     1
  0
DICTIONARY
  5
69
102
{ACAD_REACTORS
330
C
102
}
330
C
100
AcDbDictionary
281
     1
  3
Standard
350
6A
  0
DICTIONARY
  5
2A
102
{ACAD_REACTORS
330
C
102
}
330
C
100
AcDbDictionary
281
     1
  3
2dWireframe
350
2F
  3
Basic
350
32
  3
Brighten
350
36
  3
ColorChange
350
3A
  3
Conceptual
350
34
  3
Dim
350
35
  3
EdgeColorOff
350
3D
  3
Facepattern
350
39
  3
Flat
350
2B
  3
FlatWithEdges
350
2C
  3
Gouraud
350
2D
  3
GouraudWithEdges
350
2E
  3
Hidden
350
31
  3
JitterOff
350
3B
  3
Linepattern
350
38
  3
OverhangOff
350
3C
  3
Realistic
350
33
  3
Shaded
350
42
  3
Shaded with edges
350
41
  3
Shades of Gray
350
3E
  3
Sketchy
350
3F
  3
Thicken
350
37
  3
Wireframe
350
30
  3
X-Ray
350
40
  0
XRECORD
  5
197
102
{ACAD_REACTORS
330
C
102
}
330
C
100
AcDbXrecord
280
     1
 90
        1
330
6A
  0
DICTIONARY
  5
193
102
{ACAD_REACTORS
330
C
102
}
330
C
100
AcDbDictionary
281
     1
  3
CANNOSCALE
350
194
  3
CMLEADERSTYLE
350
199
  3
CTABLESTYLE
350
198
  0
LAYOUT
  5
1E
102
{ACAD_REACTORS
330
1A
102
}
330
1A
100
AcDbPlotSettings
  1

  2
none_device
  4

  6

 40
0.0
 41
0.0
 42
0.0
 43
0.0
 44
0.0
 45
0.0
 46
0.0
 47
0.0
 48
0.0
 49
0.0
140
0.0
141
0.0
142
1.0
143
1.0
 70
   688
 72
     0
 73
     0
 74
     5
  7

 75
    16
 76
     0
 77
     2
 78
   300
147
1.0
148
0.0
149
0.0
100
AcDbLayout
  1
Layout1
 70
     1
 71
     1
 10
0.0
 20
0.0
 11
12.0
 21
9.0
 12
0.0
 22
0.0
 32
0.0
 14
1.000000000000000E+20
 24
1.000000000000000E+20
 34
1.000000000000000E+20
 15
-1.000000000000000E+20
 25
-1.000000000000000E+20
 35
-1.000000000000000E+20
146
0.0
 13
0.0
 23
0.0
 33
0.0
 16
1.0
 26
0.0
 36
0.0
 17
0.0
 27
1.0
 37
0.0
 76
     0
330
1B
  0
LAYOUT
  5
26
102
{ACAD_REACTORS
330
1A
102
}
330
1A
100
AcDbPlotSettings
  1

  2
none_device
  4

  6

 40
0.0
 41
0.0
 42
0.0
 43
0.0
 44
0.0
 45
0.0
 46
0.0
 47
0.0
 48
0.0
 49
0.0
140
0.0
141
0.0
142
1.0
143
1.0
 70
   688
 72
     0
 73
     0
 74
     5
  7

 75
    16
 76
     0
 77
     2
 78
   300
147
1.0
148
0.0
149
0.0
100
AcDbLayout
  1
Layout2
 70
     1
 71
     2
 10
0.0
 20
0.0
 11
0.0
 21
0.0
 12
0.0
 22
0.0
 32
0.0
 14
0.0
 24
0.0
 34
0.0
 15
0.0
 25
0.0
 35
0.0
146
0.0
 13
0.0
 23
0.0
 33
0.0
 16
1.0
 26
0.0
 36
0.0
 17
0.0
 27
1.0
 37
0.0
 76
     0
330
23
  0
LAYOUT
  5
22
102
{ACAD_REACTORS
330
1A
102
}
330
1A
100
AcDbPlotSettings
  1

  2
none_device
  4
Letter_(8.50_x_11.00_Inches)
  6

 40
6.35
 41
6.35
 42
6.35000508
 43
6.35000508
 44
215.9
 45
279.4
 46
0.0
 47
0.0
 48
0.0
 49
0.0
140
0.0
141
0.0
142
1.0
143
1.0
 70
  1712
 72
     0
 73
     0
 74
     0
  7

 75
     0
 76
     0
 77
     2
 78
   300
147
1.0
148
0.0
149
0.0
100
AcDbLayout
  1
Model
 70
     1
 71
     0
 10
0.0
 20
0.0
 11
12.0
 21
9.0
 12
0.0
 22
0.0
 32
0.0
 14
1.000000000000000E+20
 24
1.000000000000000E+20
 34
1.000000000000000E+20
 15
-1.000000000000000E+20
 25
-1.000000000000000E+20
 35
-1.000000000000000E+20
146
0.0
 13
0.0
 23
0.0
 33
0.0
 16
1.0
 26
0.0
 36
0.0
 17
0.0
 27
1.0
 37
0.0
 76
     0
330
1F
331
29
  0
MATERIAL
  5
45
102
{ACAD_REACTORS
330
43
102
}
330
43
100
AcDbMaterial
  1
ByBlock
 72
     1
 94
      127
  0
MATERIAL
  5
44
102
{ACAD_REACTORS
330
43
102
}
330
43
100
AcDbMaterial
  1
ByLayer
 72
     1
 94
      127
  0
MATERIAL
  5
46
102
{ACAD_REACTORS
330
43
102
}
330
43
100
AcDbMaterial
  1
Global
 72
     1
 94
      127
  0
MLEADERSTYLE
  5
6C
102
{ACAD_REACTORS
330
6B
102
}
330
6B
100
AcDbMLeaderStyle
179
     2
170
     2
171
     1
172
     0
 90
        2
 40
0.0
 41
0.0
173
     1
 91
-1056964608
340
14
 92
       -2
290
     1
 42
0.09
291
     1
 43
0.36
  3
Standard
341
0
 44
0.18
300

342
11
174
     1
178
     6
175
     1
176
     0
 93
-1056964608
 45
0.18
292
     0
297
     0
 46
0.18
343
0
 94
-1056964608
 47
1.0
 49
1.0
140
1.0
293
     1
141
0.0
294
     1
177
     0
142
1.0
295
     0
296
     0
143
0.125
271
     0
272
     9
273
     9
298
     0
  0
MLINESTYLE
  5
18
102
{ACAD_REACTORS
330
17
102
}
330
17
100
AcDbMlineStyle
  2
Standard
 70
     0
  3

 62
   256
 51
90.0
 52
90.0
 71
     2
 49
0.5
 62
   256
  6
BYLAYER
 49
-0.5
 62
   256
  6
BYLAYER
  0
ACDBPLACEHOLDER
  5
F
102
{ACAD_REACTORS
330
E
102
}
330
E
  0
SCALE
  5
48
102
{ACAD_REACTORS
330
47
102
}
330
47
100
AcDbScale
 70
     0
300
1:1
140
1.0
141
1.0
290
     1
  0
SCALE
  5
49
102
{ACAD_REACTORS
330
47
102
}
330
47
100
AcDbScale
 70
     0
300
1:2
140
1.0
141
2.0
290
     0
  0
SCALE
  5
4A
102
{ACAD_REACTORS
330
47
102
}
330
47
100
AcDbScale
 70
     0
300
1:4
140
1.0
141
4.0
290
     0
  0
SCALE
  5
4B
102
{ACAD_REACTORS
330
47
102
}
330
47
100
AcDbScale
 70
     0
300
1:5
140
1.0
141
5.0
290
     0
  0
SCALE
  5
4C
102
{ACAD_REACTORS
330
47
102
}
330
47
100
AcDbScale
 70
     0
300
1:8
140
1.0
141
8.0
290
     0
  0
SCALE
  5
4D
102
{ACAD_REACTORS
330
47
102
}
330
47
100
AcDbScale
 70
     0
300
1:10
140
1.0
141
10.0
290
     0
  0
SCALE
  5
4E
102
{ACAD_REACTORS
330
47
102
}
330
47
100
AcDbScale
 70
     0
300
1:16
140
1.0
141
16.0
290
     0
  0
SCALE
  5
4F
102
{ACAD_REACTORS
330
47
102
}
330
47
100
AcDbScale
 70
     0
300
1:20
140
1.0
141
20.0
290
     0
  0
SCALE
  5
50
102
{ACAD_REACTORS
330
47
102
}
330
47
100
AcDbScale
 70
     0
300
1:30
140
1.0
141
30.0
290
     0
  0
SCALE
  5
51
102
{ACAD_REACTORS
330
47
102
}
330
47
100
AcDbScale
 70
     0
300
1:40
140
1.0
141
40.0
290
     0
  0
SCALE
  5
52
102
{ACAD_REACTORS
330
47
102
}
330
47
100
AcDbScale
 70
     0
300
1:50
140
1.0
141
50.0
290
     0
  0
SCALE
  5
53
102
{ACAD_REACTORS
330
47
102
}
330
47
100
AcDbScale
 70
     0
300
1:100
140
1.0
141
100.0
290
     0
  0
SCALE
  5
54
102
{ACAD_REACTORS
330
47
102
}
330
47
100
AcDbScale
 70
     0
300
2:1
140
2.0
141
1.0
290
     0
  0
SCALE
  5
55
102
{ACAD_REACTORS
330
47
102
}
330
47
100
AcDbScale
 70
     0
300
4:1
140
4.0
141
1.0
290
     0
  0
SCALE
  5
56
102
{ACAD_REACTORS
330
47
102
}
330
47
100
AcDbScale
 70
     0
300
8:1
140
8.0
141
1.0
290
     0
  0
SCALE
  5
57
102
{ACAD_REACTORS
330
47
102
}
330
47
100
AcDbScale
 70
     0
300
10:1
140
10.0
141
1.0
290
     0
  0
SCALE
  5
58
102
{ACAD_REACTORS
330
47
102
}
330
47
100
AcDbScale
 70
     0
300
100:1
140
100.0
141
1.0
290
     0
  0
SCALE
  5
59
102
{ACAD_REACTORS
330
47
102
}
330
47
100
AcDbScale
 70
     0
300
1/128" = 1'-0"
140
0.0078125
141
12.0
290
     0
  0
SCALE
  5
5A
102
{ACAD_REACTORS
330
47
102
}
330
47
100
AcDbScale
 70
     0
300
1/64" = 1'-0"
140
0.015625
141
12.0
290
     0
  0
SCALE
  5
5B
102
{ACAD_REACTORS
330
47
102
}
330
47
100
AcDbScale
 70
     0
300
1/32" = 1'-0"
140
0.03125
141
12.0
290
     0
  0
SCALE
  5
5C
102
{ACAD_REACTORS
330
47
102
}
330
47
100
AcDbScale
 70
     0
300
1/16" = 1'-0"
140
0.0625
141
12.0
290
     0
  0
SCALE
  5
5D
102
{ACAD_REACTORS
330
47
102
}
330
47
100
AcDbScale
 70
     0
300
3/32" = 1'-0"
140
0.09375
141
12.0
290
     0
  0
SCALE
  5
5E
102
{ACAD_REACTORS
330
47
102
}
330
47
100
AcDbScale
 70
     0
300
1/8" = 1'-0"
140
0.125
141
12.0
290
     0
  0
SCALE
  5
5F
102
{ACAD_REACTORS
330
47
102
}
330
47
100
AcDbScale
 70
     0
300
3/16" = 1'-0"
140
0.1875
141
12.0
290
     0
  0
SCALE
  5
60
102
{ACAD_REACTORS
330
47
102
}
330
47
100
AcDbScale
 70
     0
300
1/4" = 1'-0"
140
0.25
141
12.0
290
     0
  0
SCALE
  5
61
102
{ACAD_REACTORS
330
47
102
}
330
47
100
AcDbScale
 70
     0
300
3/8" = 1'-0"
140
0.375
141
12.0
290
     0
  0
SCALE
  5
62
102
{ACAD_REACTORS
330
47
102
}
330
47
100
AcDbScale
 70
     0
300
1/2" = 1'-0"
140
0.5
141
12.0
290
     0
  0
SCALE
  5
63
102
{ACAD_REACTORS
330
47
102
}
330
47
100
AcDbScale
 70
     0
300
3/4" = 1'-0"
140
0.75
141
12.0
290
     0
  0
SCALE
  5
64
102
{ACAD_REACTORS
330
47
102
}
330
47
100
AcDbScale
 70
     0
300
1" = 1'-0"
140
1.0
141
12.0
290
     0
  0
SCALE
  5
65
102
{ACAD_REACTORS
330
47
102
}
330
47
100
AcDbScale
 70
     0
300
1-1/2" = 1'-0"
140
1.5
141
12.0
290
     0
  0
SCALE
  5
66
102
{ACAD_REACTORS
330
47
102
}
330
47
100
AcDbScale
 70
     0
300
3" = 1'-0"
140
3.0
141
12.0
290
     0
  0
SCALE
  5
67
102
{ACAD_REACTORS
330
47
102
}
330
47
100
AcDbScale
 70
     0
300
6" = 1'-0"
140
6.0
141
12.0
290
     0
  0
SCALE
  5
68
102
{ACAD_REACTORS
330
47
102
}
330
47
100
AcDbScale
 70
     0
300
1'-0" = 1'-0"
140
12.0
141
12.0
290
     0
  0
TABLESTYLE
  5
6A
102
{ACAD_REACTORS
330
69
102
}
102
{ACAD_XDICTIONARY
360
195
102
}
330
69
100
AcDbTableStyle
  3
Standard
 70
     0
 71
     0
 40
0.06
 41
0.06
280
     0
281
     0
  7
Standard
140
0.18
170
     2
 62
     0
 63
   257
283
     0
 90
        4
 91
        0
  1

274
    -2
284
     1
 64
     0
275
    -2
285
     1
 65
     0
276
    -2
286
     1
 66
     0
277
    -2
287
     1
 67
     0
278
    -2
288
     1
 68
     0
279
    -2
289
     1
 69
     0
  7
Standard
140
0.25
170
     5
 62
     0
 63
   257
283
     0
 90
        4
 91
        0
  1

274
    -2
284
     1
 64
     0
275
    -2
285
     1
 65
     0
276
    -2
286
     1
 66
     0
277
    -2
287
     1
 67
     0
278
    -2
288
     1
 68
     0
279
    -2
289
     1
 69
     0
  7
Standard
140
0.18
170
     5
 62
     0
 63
   257
283
     0
 90
        4
 91
        0
  1

274
    -2
284
     1
 64
     0
275
    -2
285
     1
 65
     0
276
    -2
286
     1
 66
     0
277
    -2
287
     1
 67
     0
278
    -2
288
     1
 68
     0
279
    -2
289
     1
 69
     0
  0
VISUALSTYLE
  5
2F
102
{ACAD_REACTORS
330
2A
102
}
330
2A
100
AcDbVisualStyle
  2
2dWireframe
 70
     4
177
     3
291
     0
 70
    58
 90
        0
176
     1
 90
        2
176
     1
 90
        0
176
     1
 90
        0
176
     1
 40
0.6
176
     1
 40
30.0
176
     1
 62
     7
420
 16777215
176
     1
 90
        1
176
     1
 90
        4
176
     1
 62
     7
176
     1
 62
   257
176
     1
 90
        1
176
     1
 90
        1
176
     1
 40
1.0
176
     1
 90
        0
176
     1
 62
   257
176
     1
 40
1.0
176
     1
 90
        1
176
     1
 90
        6
176
     1
 90
        2
176
     1
 62
     7
176
     1
 90
        5
176
     1
 90
        0
176
     1
 90
        0
176
     1
290
     0
176
     1
 90
        1
176
     1
 40
0.0
176
     1
 90
        0
176
     1
290
     1
176
     1
290
     1
176
     1
290
     0
176
     1
290
     0
176
     1
290
     0
176
     1
290
     0
176
     1
290
     0
176
     1
290
     0
176
     1
290
     0
176
     1
 90
       50
176
     1
 40
0.0
176
     1
 40
1.0
176
     1
 90
        0
176
     1
 62
    18
420
        0
176
     1
 90
       50
176
     1
 90
        3
176
     1
 62
     5
420
      255
176
     1
290
     0
176
     1
 90
       50
176
     1
 90
       50
176
     1
 90
       50
176
     1
290
     0
176
     1
 90
       50
176
     1
 62
   256
176
     0
 40
1.0
176
     0
 90
        2
176
     1
  1
strokes_ogs.tif
176
     1
290
     0
176
     1
 40
1.0
176
     1
 40
1.0
176
     1
  0
VISUALSTYLE
  5
32
102
{ACAD_REACTORS
330
2A
102
}
330
2A
100
AcDbVisualStyle
  2
Basic
 70
     7
177
     3
291
     1
 70
    58
 90
        1
176
     1
 90
        0
176
     1
 90
        1
176
     1
 90
        0
176
     1
 40
0.6
176
     1
 40
30.0
176
     1
 62
     7
420
 16777215
176
     1
 90
        0
176
     1
 90
        4
176
     1
 62
     7
176
     1
 62
   257
176
     1
 90
        1
176
     1
 90
        1
176
     1
 40
1.0
176
     1
 90
        8
176
     1
 62
     7
176
     1
 40
1.0
176
     1
 90
        1
176
     1
 90
        6
176
     1
 90
        2
176
     1
 62
     7
176
     1
 90
        5
176
     1
 90
        0
176
     1
 90
        0
176
     1
290
     0
176
     1
 90
        1
176
     1
 40
0.0
176
     1
 90
        0
176
     1
290
     0
176
     1
290
     1
176
     1
290
     1
176
     1
290
     0
176
     1
290
     0
176
     1
290
     0
176
     1
290
     0
176
     1
290
     0
176
     1
290
     0
176
     1
 90
       50
176
     1
 40
0.0
176
     1
 40
1.0
176
     1
 90
        0
176
     1
 62
    18
420
        0
176
     1
 90
       50
176
     1
 90
        3
176
     1
 62
     5
420
      255
176
     1
290
     0
176
     1
 90
       50
176
     1
 90
       50
176
     1
 90
       50
176
     1
290
     0
176
     1
 90
       50
176
     1
 62
   256
176
     0
 40
1.0
176
     0
 90
        2
176
     1
  1
strokes_ogs.tif
176
     1
290
     0
176
     1
 40
1.0
176
     1
 40
1.0
176
     1
  0
VISUALSTYLE
  5
36
102
{ACAD_REACTORS
330
2A
102
}
330
2A
100
AcDbVisualStyle
  2
Brighten
 70
    12
177
     3
291
     1
 70
    58
 90
        2
176
     1
 90
        2
176
     1
 90
        0
176
     1
 90
        0
176
     1
 40
0.6
176
     1
 40
30.0
176
     1
 62
     7
420
 16777215
176
     1
 90
        1
176
     1
 90
        4
176
     1
 62
     7
176
     1
 62
   257
176
     1
 90
        1
176
     1
 90
        1
176
     1
 40
1.0
176
     1
 90
        8
176
     1
 62
     7
176
     1
 40
1.0
176
     1
 90
        1
176
     1
 90
        6
176
     1
 90
        2
176
     1
 62
     7
176
     1
 90
        5
176
     1
 90
        0
176
     1
 90
        0
176
     1
290
     0
176
     1
 90
        1
176
     1
 40
50.0
176
     1
 90
        0
176
     1
290
     0
176
     1
290
     1
176
     1
290
     1
176
     1
290
     0
176
     1
290
     0
176
     1
290
     0
176
     1
290
     0
176
     1
290
     0
176
     1
290
     0
176
     1
 90
       50
176
     1
 40
0.0
176
     1
 40
1.0
176
     1
 90
        0
176
     1
 62
    18
420
        0
176
     1
 90
       50
176
     1
 90
        3
176
     1
 62
     5
420
      255
176
     1
290
     0
176
     1
 90
       50
176
     1
 90
       50
176
     1
 90
       50
176
     1
290
     0
176
     1
 90
       50
176
     1
 62
   256
176
     0
 40
1.0
176
     0
 90
        2
176
     1
  1
strokes_ogs.tif
176
     1
290
     0
176
     1
 40
1.0
176
     1
 40
1.0
176
     1
  0
VISUALSTYLE
  5
3A
102
{ACAD_REACTORS
330
2A
102
}
330
2A
100
AcDbVisualStyle
  2
ColorChange
 70
    16
177
     3
291
     1
 70
    58
 90
        2
176
     1
 90
        2
176
     1
 90
        3
176
     1
 90
        0
176
     1
 40
0.6
176
     1
 40
30.0
176
     1
 62
     8
420
  8421504
176
     1
 90
        1
176
     1
 90
        4
176
     1
 62
     7
176
     1
 62
   257
176
     1
 90
        1
176
     1
 90
        1
176
     1
 40
1.0
176
     1
 90
        8
176
     1
 62
     8
420
  8421504
176
     1
 40
1.0
176
     1
 90
        1
176
     1
 90
        6
176
     1
 90
        2
176
     1
 62
     7
176
     1
 90
        5
176
     1
 90
        0
176
     1
 90
        0
176
     1
290
     0
176
     1
 90
        1
176
     1
 40
0.0
176
     1
 90
        0
176
     1
290
     0
176
     1
290
     1
176
     1
290
     1
176
     1
290
     0
176
     1
290
     0
176
     1
290
     0
176
     1
290
     0
176
     1
290
     0
176
     1
290
     0
176
     1
 90
       50
176
     1
 40
0.0
176
     1
 40
1.0
176
     1
 90
        0
176
     1
 62
    18
420
        0
176
     1
 90
       50
176
     1
 90
        3
176
     1
 62
     5
420
      255
176
     1
290
     0
176
     1
 90
       50
176
     1
 90
       50
176
     1
 90
       50
176
     1
290
     0
176
     1
 90
       50
176
     1
 62
   256
176
     0
 40
1.0
176
     0
 90
        2
176
     1
  1
strokes_ogs.tif
176
     1
290
     0
176
     1
 40
1.0
176
     1
 40
1.0
176
     1
  0
VISUALSTYLE
  5
34
102
{ACAD_REACTORS
330
2A
102
}
330
2A
100
AcDbVisualStyle
  2
Conceptual
 70
     9
177
     3
291
     0
 70
    58
 90
        3
176
     1
 90
        2
176
     1
 90
        0
176
     1
 90
        0
176
     1
 40
0.6
176
     1
 40
30.0
176
     1
 62
     7
420
 16777215
176
     1
 90
        2
176
     1
 90
        2
176
     1
 62
     7
176
     1
 62
   257
176
     1
 90
        1
176
     1
 90
        1
176
     1
 40
179.0
176
     1
 90
        8
176
     1
 62
     7
176
     1
 40
1.0
176
     1
 90
        1
176
     1
 90
        6
176
     1
 90
        2
176
     1
 62
     7
176
     1
 90
        3
176
     1
 90
        0
176
     1
 90
        0
176
     1
290
     0
176
     1
 90
        1
176
     1
 40
0.0
176
     1
 90
        0
176
     1
290
     0
176
     1
290
     1
176
     1
290
     1
176
     1
290
     0
176
     1
290
     0
176
     1
290
     0
176
     1
290
     0
176
     1
290
     0
176
     1
290
     0
176
     1
 90
       50
176
     1
 40
0.0
176
     1
 40
1.0
176
     1
 90
        0
176
     1
 62
    18
420
        0
176
     1
 90
       50
176
     1
 90
        3
176
     1
 62
     5
420
      255
176
     1
290
     0
176
     1
 90
       50
176
     1
 90
       50
176
     1
 90
       50
176
     1
290
     0
176
     1
 90
       50
176
     1
 62
   256
176
     0
 40
1.0
176
     0
 90
        2
176
     1
  1
strokes_ogs.tif
176
     1
290
     0
176
     1
 40
1.0
176
     1
 40
1.0
176
     1
  0
VISUALSTYLE
  5
35
102
{ACAD_REACTORS
330
2A
102
}
330
2A
100
AcDbVisualStyle
  2
Dim
 70
    11
177
     3
291
     1
 70
    58
 90
        2
176
     1
 90
        2
176
     1
 90
        0
176
     1
 90
        0
176
     1
 40
0.6
176
     1
 40
30.0
176
     1
 62
     7
420
 16777215
176
     1
 90
        1
176
     1
 90
        4
176
     1
 62
     7
176
     1
 62
   257
176
     1
 90
        1
176
     1
 90
        1
176
     1
 40
1.0
176
     1
 90
        8
176
     1
 62
     7
176
     1
 40
1.0
176
     1
 90
        1
176
     1
 90
        6
176
     1
 90
        2
176
     1
 62
     7
176
     1
 90
        5
176
     1
 90
        0
176
     1
 90
        0
176
     1
290
     0
176
     1
 90
        1
176
     1
 40
-50.0
176
     1
 90
        0
176
     1
290
     0
176
     1
290
     1
176
     1
290
     1
176
     1
290
     0
176
     1
290
     0
176
     1
290
     0
176
     1
290
     0
176
     1
290
     0
176
     1
290
     0
176
     1
 90
       50
176
     1
 40
0.0
176
     1
 40
1.0
176
     1
 90
        0
176
     1
 62
    18
420
        0
176
     1
 90
       50
176
     1
 90
        3
176
     1
 62
     5
420
      255
176
     1
290
     0
176
     1
 90
       50
176
     1
 90
       50
176
     1
 90
       50
176
     1
290
     0
176
     1
 90
       50
176
     1
 62
   256
176
     0
 40
1.0
176
     0
 90
        2
176
     1
  1
strokes_ogs.tif
176
     1
290
     0
176
     1
 40
1.0
176
     1
 40
1.0
176
     1
  0
VISUALSTYLE
  5
3D
102
{ACAD_REACTORS
330
2A
102
}
330
2A
100
AcDbVisualStyle
  2
EdgeColorOff
 70
    22
177
     3
291
     1
 70
    58
 90
        2
176
     0
 90
        2
176
     0
 90
        0
176
     0
 90
        0
176
     0
 40
0.6
176
     0
 40
30.0
176
     0
 62
     7
420
 16777215
176
     0
 90
        1
176
     0
 90
        4
176
     0
 62
     7
176
     0
 62
   257
176
     0
 90
        1
176
     0
 90
        1
176
     0
 40
1.0
176
     0
 90
        8
176
     2
 62
     7
176
     0
 40
1.0
176
     0
 90
        1
176
     0
 90
        6
176
     0
 90
        2
176
     0
 62
     7
176
     0
 90
        5
176
     0
 90
        0
176
     0
 90
        0
176
     0
290
     0
176
     0
 90
        1
176
     0
 40
0.0
176
     0
 90
        0
176
     0
290
     0
176
     0
290
     1
176
     0
290
     1
176
     0
290
     0
176
     0
290
     0
176
     0
290
     0
176
     0
290
     0
176
     0
290
     0
176
     0
290
     0
176
     0
 90
       50
176
     0
 40
0.0
176
     0
 40
1.0
176
     0
 90
        0
176
     0
 62
    18
420
        0
176
     0
 90
       50
176
     0
 90
        3
176
     0
 62
     5
420
      255
176
     0
290
     0
176
     0
 90
       50
176
     0
 90
       50
176
     0
 90
       50
176
     0
290
     0
176
     0
 90
       50
176
     0
 62
   256
176
     0
 40
1.0
176
     0
 90
        2
176
     0
  1
strokes_ogs.tif
176
     0
290
     0
176
     0
 40
1.0
176
     0
 40
1.0
176
     0
  0
VISUALSTYLE
  5
39
102
{ACAD_REACTORS
330
2A
102
}
330
2A
100
AcDbVisualStyle
  2
Facepattern
 70
    15
177
     3
291
     1
 70
    58
 90
        2
176
     1
 90
        2
176
     1
 90
        0
176
     1
 90
        0
176
     1
 40
0.6
176
     1
 40
30.0
176
     1
 62
     7
420
 16777215
176
     1
 90
        1
176
     1
 90
        4
176
     1
 62
     7
176
     1
 62
   257
176
     1
 90
        1
176
     1
 90
        1
176
     1
 40
1.0
176
     1
 90
        8
176
     1
 62
     7
176
     1
 40
1.0
176
     1
 90
        1
176
     1
 90
        6
176
     1
 90
        2
176
     1
 62
     7
176
     1
 90
        5
176
     1
 90
        0
176
     1
 90
        0
176
     1
290
     0
176
     1
 90
        1
176
     1
 40
0.0
176
     1
 90
        0
176
     1
290
     0
176
     1
290
     1
176
     1
290
     1
176
     1
290
     0
176
     1
290
     0
176
     1
290
     0
176
     1
290
     0
176
     1
290
     0
176
     1
290
     0
176
     1
 90
       50
176
     1
 40
0.0
176
     1
 40
1.0
176
     1
 90
        0
176
     1
 62
    18
420
        0
176
     1
 90
       50
176
     1
 90
        3
176
     1
 62
     5
420
      255
176
     1
290
     0
176
     1
 90
       50
176
     1
 90
       50
176
     1
 90
       50
176
     1
290
     0
176
     1
 90
       50
176
     1
 62
   256
176
     0
 40
1.0
176
     0
 90
        2
176
     1
  1
strokes_ogs.tif
176
     1
290
     0
176
     1
 40
1.0
176
     1
 40
1.0
176
     1
  0
VISUALSTYLE
  5
2B
102
{ACAD_REACTORS
330
2A
102
}
330
2A
100
AcDbVisualStyle
  2
Flat
 70
     0
177
     3
291
     1
 70
    58
 90
        2
176
     1
 90
        1
176
     1
 90
        1
176
     1
 90
        2
176
     1
 40
0.6
176
     1
 40
30.0
176
     1
 62
     7
420
 16777215
176
     1
 90
        0
176
     1
 90
        0
176
     1
 62
     7
176
     1
 62
   257
176
     1
 90
        1
176
     1
 90
        1
176
     1
 40
1.0
176
     1
 90
        8
176
     1
 62
     7
176
     1
 40
1.0
176
     1
 90
        1
176
     1
 90
        6
176
     1
 90
        2
176
     1
 62
     7
176
     1
 90
        5
176
     1
 90
        0
176
     1
 90
        0
176
     1
290
     0
176
     1
 90
       13
176
     1
 40
0.0
176
     1
 90
        0
176
     1
290
     0
176
     1
290
     1
176
     1
290
     1
176
     1
290
     0
176
     1
290
     0
176
     1
290
     0
176
     1
290
     0
176
     1
290
     0
176
     1
290
     0
176
     1
 90
       50
176
     1
 40
0.0
176
     1
 40
1.0
176
     1
 90
        0
176
     1
 62
    18
420
        0
176
     1
 90
       50
176
     1
 90
        3
176
     1
 62
     5
420
      255
176
     1
290
     0
176
     1
 90
       50
176
     1
 90
       50
176
     1
 90
       50
176
     1
290
     0
176
     1
 90
       50
176
     1
 62
   256
176
     0
 40
1.0
176
     0
 90
        2
176
     1
  1
strokes_ogs.tif
176
     1
290
     0
176
     1
 40
1.0
176
     1
 40
1.0
176
     1
  0
VISUALSTYLE
  5
2C
102
{ACAD_REACTORS
330
2A
102
}
330
2A
100
AcDbVisualStyle
  2
FlatWithEdges
 70
     1
177
     3
291
     1
 70
    58
 90
        2
176
     1
 90
        1
176
     1
 90
        1
176
     1
 90
        2
176
     1
 40
0.6
176
     1
 40
30.0
176
     1
 62
     7
420
 16777215
176
     1
 90
        1
176
     1
 90
        0
176
     1
 62
     7
176
     1
 62
   257
176
     1
 90
        1
176
     1
 90
        1
176
     1
 40
1.0
176
     1
 90
        0
176
     1
 62
   257
176
     1
 40
1.0
176
     1
 90
        1
176
     1
 90
        6
176
     1
 90
        2
176
     1
 62
     7
176
     1
 90
        5
176
     1
 90
        0
176
     1
 90
        0
176
     1
290
     0
176
     1
 90
       13
176
     1
 40
0.0
176
     1
 90
        0
176
     1
290
     0
176
     1
290
     1
176
     1
290
     1
176
     1
290
     0
176
     1
290
     0
176
     1
290
     0
176
     1
290
     0
176
     1
290
     0
176
     1
290
     0
176
     1
 90
       50
176
     1
 40
0.0
176
     1
 40
1.0
176
     1
 90
        0
176
     1
 62
    18
420
        0
176
     1
 90
       50
176
     1
 90
        3
176
     1
 62
     5
420
      255
176
     1
290
     0
176
     1
 90
       50
176
     1
 90
       50
176
     1
 90
       50
176
     1
290
     0
176
     1
 90
       50
176
     1
 62
   256
176
     0
 40
1.0
176
     0
 90
        2
176
     1
  1
strokes_ogs.tif
176
     1
290
     0
176
     1
 40
1.0
176
     1
 40
1.0
176
     1
  0
VISUALSTYLE
  5
2D
102
{ACAD_REACTORS
330
2A
102
}
330
2A
100
AcDbVisualStyle
  2
Gouraud
 70
     2
177
     3
291
     1
 70
    58
 90
        2
176
     1
 90
        2
176
     1
 90
        1
176
     1
 90
        2
176
     1
 40
0.6
176
     1
 40
30.0
176
     1
 62
     7
420
 16777215
176
     1
 90
        0
176
     1
 90
        0
176
     1
 62
     7
176
     1
 62
   257
176
     1
 90
        1
176
     1
 90
        1
176
     1
 40
1.0
176
     1
 90
        0
176
     1
 62
     7
176
     1
 40
1.0
176
     1
 90
        1
176
     1
 90
        6
176
     1
 90
        2
176
     1
 62
     7
176
     1
 90
        5
176
     1
 90
        0
176
     1
 90
        0
176
     1
290
     0
176
     1
 90
       13
176
     1
 40
0.0
176
     1
 90
        0
176
     1
290
     0
176
     1
290
     1
176
     1
290
     1
176
     1
290
     0
176
     1
290
     0
176
     1
290
     0
176
     1
290
     0
176
     1
290
     0
176
     1
290
     0
176
     1
 90
       50
176
     1
 40
0.0
176
     1
 40
1.0
176
     1
 90
        0
176
     1
 62
    18
420
        0
176
     1
 90
       50
176
     1
 90
        3
176
     1
 62
     5
420
      255
176
     1
290
     0
176
     1
 90
       50
176
     1
 90
       50
176
     1
 90
       50
176
     1
290
     0
176
     1
 90
       50
176
     1
 62
   256
176
     0
 40
1.0
176
     0
 90
        2
176
     1
  1
strokes_ogs.tif
176
     1
290
     0
176
     1
 40
1.0
176
     1
 40
1.0
176
     1
  0
VISUALSTYLE
  5
2E
102
{ACAD_REACTORS
330
2A
102
}
330
2A
100
AcDbVisualStyle
  2
GouraudWithEdges
 70
     3
177
     3
291
     1
 70
    58
 90
        2
176
     1
 90
        2
176
     1
 90
        1
176
     1
 90
        2
176
     1
 40
0.6
176
     1
 40
30.0
176
     1
 62
     7
420
 16777215
176
     1
 90
        1
176
     1
 90
        0
176
     1
 62
     7
176
     1
 62
   257
176
     1
 90
        1
176
     1
 90
        1
176
     1
 40
1.0
176
     1
 90
        0
176
     1
 62
   257
176
     1
 40
1.0
176
     1
 90
        1
176
     1
 90
        6
176
     1
 90
        2
176
     1
 62
     7
176
     1
 90
        5
176
     1
 90
        0
176
     1
 90
        0
176
     1
290
     0
176
     1
 90
       13
176
     1
 40
0.0
176
     1
 90
        0
176
     1
290
     0
176
     1
290
     1
176
     1
290
     1
176
     1
290
     0
176
     1
290
     0
176
     1
290
     0
176
     1
290
     0
176
     1
290
     0
176
     1
290
     0
176
     1
 90
       50
176
     1
 40
0.0
176
     1
 40
1.0
176
     1
 90
        0
176
     1
 62
    18
420
        0
176
     1
 90
       50
176
     1
 90
        3
176
     1
 62
     5
420
      255
176
     1
290
     0
176
     1
 90
       50
176
     1
 90
       50
176
     1
 90
       50
176
     1
290
     0
176
     1
 90
       50
176
     1
 62
   256
176
     0
 40
1.0
176
     0
 90
        2
176
     1
  1
strokes_ogs.tif
176
     1
290
     0
176
     1
 40
1.0
176
     1
 40
1.0
176
     1
  0
VISUALSTYLE
  5
31
102
{ACAD_REACTORS
330
2A
102
}
330
2A
100
AcDbVisualStyle
  2
Hidden
 70
     6
177
     3
291
     0
 70
    58
 90
        1
176
     1
 90
        2
176
     1
 90
        2
176
     1
 90
        0
176
     1
 40
0.6
176
     1
 40
30.0
176
     1
 62
     7
420
 16777215
176
     1
 90
        2
176
     1
 90
        2
176
     1
 62
     7
176
     1
 62
   257
176
     1
 90
        2
176
     1
 90
        1
176
     1
 40
40.0
176
     1
 90
        0
176
     1
 62
   257
176
     1
 40
1.0
176
     1
 90
        1
176
     1
 90
        6
176
     1
 90
        2
176
     1
 62
     7
176
     1
 90
        3
176
     1
 90
        0
176
     1
 90
        0
176
     1
290
     0
176
     1
 90
        1
176
     1
 40
0.0
176
     1
 90
        0
176
     1
290
     0
176
     1
290
     1
176
     1
290
     1
176
     1
290
     0
176
     1
290
     0
176
     1
290
     0
176
     1
290
     0
176
     1
290
     0
176
     1
290
     0
176
     1
 90
       50
176
     1
 40
0.0
176
     1
 40
1.0
176
     1
 90
        0
176
     1
 62
    18
420
        0
176
     1
 90
       50
176
     1
 90
        3
176
     1
 62
     5
420
      255
176
     1
290
     0
176
     1
 90
       50
176
     1
 90
       50
176
     1
 90
       50
176
     1
290
     0
176
     1
 90
       50
176
     1
 62
   256
176
     0
 40
1.0
176
     0
 90
        2
176
     1
  1
strokes_ogs.tif
176
     1
290
     0
176
     1
 40
1.0
176
     1
 40
1.0
176
     1
  0
VISUALSTYLE
  5
3B
102
{ACAD_REACTORS
330
2A
102
}
330
2A
100
AcDbVisualStyle
  2
JitterOff
 70
    20
177
     3
291
     1
 70
    58
 90
        2
176
     0
 90
        2
176
     0
 90
        0
176
     0
 90
        0
176
     0
 40
0.6
176
     0
 40
30.0
176
     0
 62
     7
420
 16777215
176
     0
 90
        1
176
     0
 90
        4
176
     0
 62
     7
176
     0
 62
   257
176
     0
 90
        1
176
     0
 90
        1
176
     0
 40
1.0
176
     0
 90
       10
176
     2
 62
     7
176
     0
 40
1.0
176
     0
 90
        1
176
     0
 90
        6
176
     0
 90
        2
176
     0
 62
     7
176
     0
 90
        5
176
     0
 90
        0
176
     0
 90
        0
176
     0
290
     0
176
     0
 90
        1
176
     0
 40
0.0
176
     0
 90
        0
176
     0
290
     0
176
     0
290
     1
176
     0
290
     1
176
     0
290
     0
176
     0
290
     0
176
     0
290
     0
176
     0
290
     0
176
     0
290
     0
176
     0
290
     0
176
     0
 90
       50
176
     0
 40
0.0
176
     0
 40
1.0
176
     0
 90
        0
176
     0
 62
    18
420
        0
176
     0
 90
       50
176
     0
 90
        3
176
     0
 62
     5
420
      255
176
     0
290
     0
176
     0
 90
       50
176
     0
 90
       50
176
     0
 90
       50
176
     0
290
     0
176
     0
 90
       50
176
     0
 62
   256
176
     0
 40
1.0
176
     0
 90
        2
176
     0
  1
strokes_ogs.tif
176
     0
290
     0
176
     0
 40
1.0
176
     0
 40
1.0
176
     0
  0
VISUALSTYLE
  5
38
102
{ACAD_REACTORS
330
2A
102
}
330
2A
100
AcDbVisualStyle
  2
Linepattern
 70
    14
177
     3
291
     1
 70
    58
 90
        2
176
     1
 90
        2
176
     1
 90
        0
176
     1
 90
        0
176
     1
 40
0.6
176
     1
 40
30.0
176
     1
 62
     7
420
 16777215
176
     1
 90
        1
176
     1
 90
        4
176
     1
 62
     7
176
     1
 62
   257
176
     1
 90
        7
176
     1
 90
        7
176
     1
 40
1.0
176
     1
 90
        8
176
     1
 62
     7
176
     1
 40
1.0
176
     1
 90
        1
176
     1
 90
        6
176
     1
 90
        2
176
     1
 62
     7
176
     1
 90
        5
176
     1
 90
        0
176
     1
 90
        0
176
     1
290
     0
176
     1
 90
        1
176
     1
 40
0.0
176
     1
 90
        0
176
     1
290
     0
176
     1
290
     1
176
     1
290
     1
176
     1
290
     0
176
     1
290
     0
176
     1
290
     0
176
     1
290
     0
176
     1
290
     0
176
     1
290
     0
176
     1
 90
       50
176
     1
 40
0.0
176
     1
 40
1.0
176
     1
 90
        0
176
     1
 62
    18
420
        0
176
     1
 90
       50
176
     1
 90
        3
176
     1
 62
     5
420
      255
176
     1
290
     0
176
     1
 90
       50
176
     1
 90
       50
176
     1
 90
       50
176
     1
290
     0
176
     1
 90
       50
176
     1
 62
   256
176
     0
 40
1.0
176
     0
 90
        2
176
     1
  1
strokes_ogs.tif
176
     1
290
     0
176
     1
 40
1.0
176
     1
 40
1.0
176
     1
  0
VISUALSTYLE
  5
3C
102
{ACAD_REACTORS
330
2A
102
}
330
2A
100
AcDbVisualStyle
  2
OverhangOff
 70
    21
177
     3
291
     1
 70
    58
 90
        2
176
     0
 90
        2
176
     0
 90
        0
176
     0
 90
        0
176
     0
 40
0.6
176
     0
 40
30.0
176
     0
 62
     7
420
 16777215
176
     0
 90
        1
176
     0
 90
        4
176
     0
 62
     7
176
     0
 62
   257
176
     0
 90
        1
176
     0
 90
        1
176
     0
 40
1.0
176
     0
 90
        9
176
     2
 62
     7
176
     0
 40
1.0
176
     0
 90
        1
176
     0
 90
        6
176
     0
 90
        2
176
     0
 62
     7
176
     0
 90
        5
176
     0
 90
        0
176
     0
 90
        0
176
     0
290
     0
176
     0
 90
        1
176
     0
 40
0.0
176
     0
 90
        0
176
     0
290
     0
176
     0
290
     1
176
     0
290
     1
176
     0
290
     0
176
     0
290
     0
176
     0
290
     0
176
     0
290
     0
176
     0
290
     0
176
     0
290
     0
176
     0
 90
       50
176
     0
 40
0.0
176
     0
 40
1.0
176
     0
 90
        0
176
     0
 62
    18
420
        0
176
     0
 90
       50
176
     0
 90
        3
176
     0
 62
     5
420
      255
176
     0
290
     0
176
     0
 90
       50
176
     0
 90
       50
176
     0
 90
       50
176
     0
290
     0
176
     0
 90
       50
176
     0
 62
   256
176
     0
 40
1.0
176
     0
 90
        2
176
     0
  1
strokes_ogs.tif
176
     0
290
     0
176
     0
 40
1.0
176
     0
 40
1.0
176
     0
  0
VISUALSTYLE
  5
33
102
{ACAD_REACTORS
330
2A
102
}
330
2A
100
AcDbVisualStyle
  2
Realistic
 70
     8
177
     3
291
     0
 70
    58
 90
        2
176
     1
 90
        3
176
     1
 90
        0
176
     1
 90
        2
176
     1
 40
0.6
176
     1
 40
30.0
176
     1
 62
     7
420
 16777215
176
     1
 90
        0
176
     1
 90
        0
176
     1
 62
     7
176
     1
 62
   257
176
     1
 90
        1
176
     1
 90
        1
176
     1
 40
1.0
176
     1
 90
        8
176
     1
 62
   257
176
     1
 40
1.0
176
     1
 90
        1
176
     1
 90
        6
176
     1
 90
        2
176
     1
 62
     7
176
     1
 90
        3
176
     1
 90
        0
176
     1
 90
        0
176
     1
290
     0
176
     1
 90
       13
176
     1
 40
0.0
176
     1
 90
        0
176
     1
290
     0
176
     1
290
     1
176
     1
290
     1
176
     1
290
     0
176
     1
290
     0
176
     1
290
     0
176
     1
290
     0
176
     1
290
     0
176
     1
290
     0
176
     1
 90
       50
176
     1
 40
0.0
176
     1
 40
1.0
176
     1
 90
        0
176
     1
 62
    18
420
        0
176
     1
 90
       50
176
     1
 90
        3
176
     1
 62
     5
420
      255
176
     1
290
     0
176
     1
 90
       50
176
     1
 90
       50
176
     1
 90
       50
176
     1
290
     0
176
     1
 90
       50
176
     1
 62
   256
176
     0
 40
1.0
176
     0
 90
        2
176
     1
  1
strokes_ogs.tif
176
     1
290
     0
176
     1
 40
1.0
176
     1
 40
1.0
176
     1
  0
VISUALSTYLE
  5
42
102
{ACAD_REACTORS
330
2A
102
}
330
2A
100
AcDbVisualStyle
  2
Shaded
 70
    27
177
     3
291
     0
 70
    58
 90
        2
176
     1
 90
        2
176
     1
 90
        1
176
     1
 90
        2
176
     1
 40
0.6
176
     1
 40
30.0
176
     1
 62
     7
420
 16777215
176
     1
 90
        0
176
     1
 90
        4
176
     1
 62
     7
176
     1
 62
   257
176
     1
 90
        1
176
     1
 90
        1
176
     1
 40
1.0
176
     1
 90
        8
176
     1
 62
   257
176
     1
 40
1.0
176
     1
 90
        1
176
     1
 90
        6
176
     1
 90
        2
176
     1
 62
     8
420
  7895160
176
     1
 90
        3
176
     1
 90
        0
176
     1
 90
        0
176
     1
290
     0
176
     1
 90
        5
176
     1
 40
0.0
176
     1
 90
        0
176
     1
290
     0
176
     1
290
     1
176
     1
290
     1
176
     1
290
     0
176
     1
290
     0
176
     1
290
     0
176
     1
290
     0
176
     1
290
     0
176
     1
290
     0
176
     1
 90
       50
176
     1
 40
0.0
176
     1
 40
1.0
176
     1
 90
        0
176
     1
 62
    18
420
        0
176
     1
 90
       50
176
     1
 90
        3
176
     1
 62
     5
420
      255
176
     1
290
     0
176
     1
 90
       50
176
     1
 90
       50
176
     1
 90
       50
176
     1
290
     0
176
     1
 90
       50
176
     1
 62
   256
176
     0
 40
1.0
176
     0
 90
        2
176
     1
  1
strokes_ogs.tif
176
     1
290
     0
176
     1
 40
1.0
176
     1
 40
1.0
176
     1
  0
VISUALSTYLE
  5
41
102
{ACAD_REACTORS
330
2A
102
}
330
2A
100
AcDbVisualStyle
  2
Shaded with edges
 70
    26
177
     3
291
     0
 70
    58
 90
        2
176
     1
 90
        2
176
     1
 90
        1
176
     1
 90
        2
176
     1
 40
0.6
176
     1
 40
30.0
176
     1
 62
     7
420
 16777215
176
     1
 90
        1
176
     1
 90
       10
176
     1
 62
     7
176
     1
 62
   257
176
     1
 90
        2
176
     1
 90
        1
176
     1
 40
1.0
176
     1
 90
        8
176
     1
 62
   257
176
     1
 40
1.0
176
     1
 90
        1
176
     1
 90
        6
176
     1
 90
        2
176
     1
 62
     7
176
     1
 90
        3
176
     1
 90
        0
176
     1
 90
        0
176
     1
290
     0
176
     1
 90
        5
176
     1
 40
0.0
176
     1
 90
        0
176
     1
290
     0
176
     1
290
     1
176
     1
290
     1
176
     1
290
     0
176
     1
290
     0
176
     1
290
     0
176
     1
290
     0
176
     1
290
     0
176
     1
290
     0
176
     1
 90
       50
176
     1
 40
0.0
176
     1
 40
1.0
176
     1
 90
        0
176
     1
 62
    18
420
        0
176
     1
 90
       50
176
     1
 90
        3
176
     1
 62
     5
420
      255
176
     1
290
     0
176
     1
 90
       50
176
     1
 90
       50
176
     1
 90
       50
176
     1
290
     0
176
     1
 90
       50
176
     1
 62
   256
176
     0
 40
1.0
176
     0
 90
        2
176
     1
  1
strokes_ogs.tif
176
     1
290
     0
176
     1
 40
1.0
176
     1
 40
1.0
176
     1
  0
VISUALSTYLE
  5
3E
102
{ACAD_REACTORS
330
2A
102
}
330
2A
100
AcDbVisualStyle
  2
Shades of Gray
 70
    23
177
     3
291
     0
 70
    58
 90
        2
176
     1
 90
        2
176
     1
 90
        3
176
     1
 90
        0
176
     1
 40
0.6
176
     1
 40
30.0
176
     1
 62
     7
420
 16777215
176
     1
 90
        2
176
     1
 90
        2
176
     1
 62
     7
176
     1
 62
     7
176
     1
 90
        1
176
     1
 90
        1
176
     1
 40
40.0
176
     1
 90
        8
176
     1
 62
     7
176
     1
 40
1.0
176
     1
 90
        1
176
     1
 90
        6
176
     1
 90
        2
176
     1
 62
     7
176
     1
 90
        3
176
     1
 90
        0
176
     1
 90
        0
176
     1
290
     0
176
     1
 90
        1
176
     1
 40
0.0
176
     1
 90
        0
176
     1
290
     0
176
     1
290
     1
176
     1
290
     1
176
     1
290
     0
176
     1
290
     0
176
     1
290
     0
176
     1
290
     0
176
     1
290
     0
176
     1
290
     0
176
     1
 90
       50
176
     1
 40
0.0
176
     1
 40
1.0
176
     1
 90
        0
176
     1
 62
    18
420
        0
176
     1
 90
       50
176
     1
 90
        3
176
     1
 62
     5
420
      255
176
     1
290
     0
176
     1
 90
       50
176
     1
 90
       50
176
     1
 90
       50
176
     1
290
     0
176
     1
 90
       50
176
     1
 62
   256
176
     0
 40
1.0
176
     0
 90
        2
176
     1
  1
strokes_ogs.tif
176
     1
290
     0
176
     1
 40
1.0
176
     1
 40
1.0
176
     1
  0
VISUALSTYLE
  5
3F
102
{ACAD_REACTORS
330
2A
102
}
330
2A
100
AcDbVisualStyle
  2
Sketchy
 70
    24
177
     3
291
     0
 70
    58
 90
        1
176
     1
 90
        2
176
     1
 90
        2
176
     1
 90
        0
176
     1
 40
0.6
176
     1
 40
30.0
176
     1
 62
     7
420
 16777215
176
     1
 90
        2
176
     1
 90
        2
176
     1
 62
     7
176
     1
 62
     7
176
     1
 90
        1
176
     1
 90
        1
176
     1
 40
40.0
176
     1
 90
       11
176
     1
 62
     7
176
     1
 40
1.0
176
     1
 90
        1
176
     1
 90
        6
176
     1
 90
        2
176
     1
 62
     7
176
     1
 90
        6
176
     1
 90
        0
176
     1
 90
        0
176
     1
290
     0
176
     1
 90
        1
176
     1
 40
0.0
176
     1
 90
        0
176
     1
290
     0
176
     1
290
     1
176
     1
290
     1
176
     1
290
     0
176
     1
290
     0
176
     1
290
     0
176
     1
290
     0
176
     1
290
     0
176
     1
290
     0
176
     1
 90
       50
176
     1
 40
0.0
176
     1
 40
1.0
176
     1
 90
        0
176
     1
 62
    18
420
        0
176
     1
 90
       50
176
     1
 90
        3
176
     1
 62
     5
420
      255
176
     1
290
     0
176
     1
 90
       50
176
     1
 90
       50
176
     1
 90
       50
176
     1
290
     0
176
     1
 90
       50
176
     1
 62
   256
176
     0
 40
1.0
176
     0
 90
        2
176
     1
  1
strokes_ogs.tif
176
     1
290
     0
176
     1
 40
1.0
176
     1
 40
1.0
176
     1
  0
VISUALSTYLE
  5
37
102
{ACAD_REACTORS
330
2A
102
}
330
2A
100
AcDbVisualStyle
  2
Thicken
 70
    13
177
     3
291
     1
 70
    58
 90
        2
176
     1
 90
        2
176
     1
 90
        0
176
     1
 90
        0
176
     1
 40
0.6
176
     1
 40
30.0
176
     1
 62
     7
420
 16777215
176
     1
 90
        1
176
     1
 90
        4
176
     1
 62
     7
176
     1
 62
   257
176
     1
 90
        1
176
     1
 90
        1
176
     1
 40
1.0
176
     1
 90
       12
176
     1
 62
     7
176
     1
 40
1.0
176
     1
 90
        1
176
     1
 90
        6
176
     1
 90
        2
176
     1
 62
     7
176
     1
 90
        5
176
     1
 90
        0
176
     1
 90
        0
176
     1
290
     0
176
     1
 90
        1
176
     1
 40
0.0
176
     1
 90
        0
176
     1
290
     0
176
     1
290
     1
176
     1
290
     1
176
     1
290
     0
176
     1
290
     0
176
     1
290
     0
176
     1
290
     0
176
     1
290
     0
176
     1
290
     0
176
     1
 90
       50
176
     1
 40
0.0
176
     1
 40
1.0
176
     1
 90
        0
176
     1
 62
    18
420
        0
176
     1
 90
       50
176
     1
 90
        3
176
     1
 62
     5
420
      255
176
     1
290
     0
176
     1
 90
       50
176
     1
 90
       50
176
     1
 90
       50
176
     1
290
     0
176
     1
 90
       50
176
     1
 62
   256
176
     0
 40
1.0
176
     0
 90
        2
176
     1
  1
strokes_ogs.tif
176
     1
290
     0
176
     1
 40
1.0
176
     1
 40
1.0
176
     1
  0
VISUALSTYLE
  5
30
102
{ACAD_REACTORS
330
2A
102
}
330
2A
100
AcDbVisualStyle
  2
Wireframe
 70
     5
177
     3
291
     0
 70
    58
 90
        0
176
     1
 90
        2
176
     1
 90
        0
176
     1
 90
        0
176
     1
 40
0.6
176
     1
 40
30.0
176
     1
 62
     7
420
 16777215
176
     1
 90
        1
176
     1
 90
        4
176
     1
 62
     7
176
     1
 62
   257
176
     1
 90
        1
176
     1
 90
        1
176
     1
 40
1.0
176
     1
 90
        0
176
     1
 62
   257
176
     1
 40
1.0
176
     1
 90
        1
176
     1
 90
        6
176
     1
 90
        2
176
     1
 62
     7
176
     1
 90
        3
176
     1
 90
        0
176
     1
 90
        0
176
     1
290
     0
176
     1
 90
        1
176
     1
 40
0.0
176
     1
 90
        0
176
     1
290
     0
176
     1
290
     1
176
     1
290
     1
176
     1
290
     0
176
     1
290
     0
176
     1
290
     0
176
     1
290
     0
176
     1
290
     0
176
     1
290
     0
176
     1
 90
       50
176
     1
 40
0.0
176
     1
 40
1.0
176
     1
 90
        0
176
     1
 62
    18
420
        0
176
     1
 90
       50
176
     1
 90
        3
176
     1
 62
     5
420
      255
176
     1
290
     0
176
     1
 90
       50
176
     1
 90
       50
176
     1
 90
       50
176
     1
290
     0
176
     1
 90
       50
176
     1
 62
   256
176
     0
 40
1.0
176
     0
 90
        2
176
     1
  1
strokes_ogs.tif
176
     1
290
     0
176
     1
 40
1.0
176
     1
 40
1.0
176
     1
  0
VISUALSTYLE
  5
40
102
{ACAD_REACTORS
330
2A
102
}
330
2A
100
AcDbVisualStyle
  2
X-Ray
 70
    25
177
     3
291
     0
 70
    58
 90
        2
176
     1
 90
        2
176
     1
 90
        1
176
     1
 90
        1
176
     1
 40
0.5
176
     1
 40
30.0
176
     1
 62
     7
420
 16777215
176
     1
 90
        1
176
     1
 90
        0
176
     1
 62
     7
176
     1
 62
   257
176
     1
 90
        1
176
     1
 90
        1
176
     1
 40
1.0
176
     1
 90
        8
176
     1
 62
     7
176
     1
 40
1.0
176
     1
 90
        1
176
     1
 90
        6
176
     1
 90
        2
176
     1
 62
     7
176
     1
 90
        3
176
     1
 90
        0
176
     1
 90
        0
176
     1
290
     0
176
     1
 90
       13
176
     1
 40
0.0
176
     1
 90
        0
176
     1
290
     0
176
     1
290
     1
176
     1
290
     1
176
     1
290
     0
176
     1
290
     0
176
     1
290
     0
176
     1
290
     0
176
     1
290
     0
176
     1
290
     0
176
     1
 90
       50
176
     1
 40
0.0
176
     1
 40
1.0
176
     1
 90
        0
176
     1
 62
    18
420
        0
176
     1
 90
       50
176
     1
 90
        3
176
     1
 62
     5
420
      255
176
     1
290
     0
176
     1
 90
       50
176
     1
 90
       50
176
     1
 90
       50
176
     1
290
     0
176
     1
 90
       50
176
     1
 62
   256
176
     0
 40
1.0
176
     0
 90
        2
176
     1
  1
strokes_ogs.tif
176
     1
290
     0
176
     1
 40
1.0
176
     1
 40
1.0
176
     1
  0
DICTIONARYVAR
  5
194
102
{ACAD_REACTORS
330
193
102
}
330
193
100
DictionaryVariables
280
     0
  1
1:1
  0
DICTIONARYVAR
  5
199
102
{ACAD_REACTORS
330
193
102
}
330
193
100
DictionaryVariables
280
     0
  1
Standard
  0
DICTIONARYVAR
  5
198
102
{ACAD_REACTORS
330
193
102
}
330
193
100
DictionaryVariables
280
     0
  1
Standard
  0
DICTIONARY
  5
195
330
6A
100
AcDbDictionary
280
     1
281
     1
  3
ACAD_ROUNDTRIP_2008_TABLESTYLE_CELLSTYLEMAP
360
196
  0
CELLSTYLEMAP
  5
196
102
{ACAD_REACTORS
330
195
102
}
330
195
100
AcDbCellStyleMap
 90
        3
300
CELLSTYLE
  1
TABLEFORMAT_BEGIN
 90
        5
170
     1
 91
        0
 92
    32768
 62
   257
 93
        1
300
CONTENTFORMAT
  1
CONTENTFORMAT_BEGIN
 90
        0
 91
        0
 92
        4
 93
        0
300

 40
0.0
140
1.0
 94
        5
 62
     0
340
11
144
0.25
309
CONTENTFORMAT_END
171
     1
301
MARGIN
  1
CELLMARGIN_BEGIN
 40
0.06
 40
0.06
 40
0.06
 40
0.06
 40
0.06
 40
0.06
309
CELLMARGIN_END
 94
        6
 95
        1
302
GRIDFORMAT
  1
GRIDFORMAT_BEGIN
 90
        0
 91
        1
 62
     0
 92
       -2
340
14
 93
        0
 40
0.045
309
GRIDFORMAT_END
 95
        2
302
GRIDFORMAT
  1
GRIDFORMAT_BEGIN
 90
        0
 91
        1
 62
     0
 92
       -2
340
14
 93
        0
 40
0.045
309
GRIDFORMAT_END
 95
        4
302
GRIDFORMAT
  1
GRIDFORMAT_BEGIN
 90
        0
 91
        1
 62
     0
 92
       -2
340
14
 93
        0
 40
0.045
309
GRIDFORMAT_END
 95
        8
302
GRIDFORMAT
  1
GRIDFORMAT_BEGIN
 90
        0
 91
        1
 62
     0
 92
       -2
340
14
 93
        0
 40
0.045
309
GRIDFORMAT_END
 95
       16
302
GRIDFORMAT
  1
GRIDFORMAT_BEGIN
 90
        0
 91
        1
 62
     0
 92
       -2
340
14
 93
        0
 40
0.045
309
GRIDFORMAT_END
 95
       32
302
GRIDFORMAT
  1
GRIDFORMAT_BEGIN
 90
        0
 91
        1
 62
     0
 92
       -2
340
14
 93
        0
 40
0.045
309
GRIDFORMAT_END
309
TABLEFORMAT_END
  1
CELLSTYLE_BEGIN
 90
        1
 91
        1
300
_TITLE
309
CELLSTYLE_END
300
CELLSTYLE
  1
TABLEFORMAT_BEGIN
 90
        5
170
     1
 91
        0
 92
        0
 62
   257
 93
        1
300
CONTENTFORMAT
  1
CONTENTFORMAT_BEGIN
 90
        0
 91
        0
 92
        4
 93
        0
300

 40
0.0
140
1.0
 94
        5
 62
     0
340
11
144
0.18
309
CONTENTFORMAT_END
171
     1
301
MARGIN
  1
CELLMARGIN_BEGIN
 40
0.06
 40
0.06
 40
0.06
 40
0.06
 40
0.06
 40
0.06
309
CELLMARGIN_END
 94
        6
 95
        1
302
GRIDFORMAT
  1
GRIDFORMAT_BEGIN
 90
        0
 91
        1
 62
     0
 92
       -2
340
14
 93
        0
 40
0.045
309
GRIDFORMAT_END
 95
        2
302
GRIDFORMAT
  1
GRIDFORMAT_BEGIN
 90
        0
 91
        1
 62
     0
 92
       -2
340
14
 93
        0
 40
0.045
309
GRIDFORMAT_END
 95
        4
302
GRIDFORMAT
  1
GRIDFORMAT_BEGIN
 90
        0
 91
        1
 62
     0
 92
       -2
340
14
 93
        0
 40
0.045
309
GRIDFORMAT_END
 95
        8
302
GRIDFORMAT
  1
GRIDFORMAT_BEGIN
 90
        0
 91
        1
 62
     0
 92
       -2
340
14
 93
        0
 40
0.045
309
GRIDFORMAT_END
 95
       16
302
GRIDFORMAT
  1
GRIDFORMAT_BEGIN
 90
        0
 91
        1
 62
     0
 92
       -2
340
14
 93
        0
 40
0.045
309
GRIDFORMAT_END
 95
       32
302
GRIDFORMAT
  1
GRIDFORMAT_BEGIN
 90
        0
 91
        1
 62
     0
 92
       -2
340
14
 93
        0
 40
0.045
309
GRIDFORMAT_END
309
TABLEFORMAT_END
  1
CELLSTYLE_BEGIN
 90
        2
 91
        1
300
_HEADER
309
CELLSTYLE_END
300
CELLSTYLE
  1
TABLEFORMAT_BEGIN
 90
        5
170
     1
 91
        0
 92
        0
 62
   257
 93
        1
300
CONTENTFORMAT
  1
CONTENTFORMAT_BEGIN
 90
        0
 91
        0
 92
        4
 93
        0
300

 40
0.0
140
1.0
 94
        2
 62
     0
340
11
144
0.18
309
CONTENTFORMAT_END
171
     1
301
MARGIN
  1
CELLMARGIN_BEGIN
 40
0.06
 40
0.06
 40
0.06
 40
0.06
 40
0.06
 40
0.06
309
CELLMARGIN_END
 94
        6
 95
        1
302
GRIDFORMAT
  1
GRIDFORMAT_BEGIN
 90
        0
 91
        1
 62
     0
 92
       -2
340
14
 93
        0
 40
0.045
309
GRIDFORMAT_END
 95
        2
302
GRIDFORMAT
  1
GRIDFORMAT_BEGIN
 90
        0
 91
        1
 62
     0
 92
       -2
340
14
 93
        0
 40
0.045
309
GRIDFORMAT_END
 95
        4
302
GRIDFORMAT
  1
GRIDFORMAT_BEGIN
 90
        0
 91
        1
 62
     0
 92
       -2
340
14
 93
        0
 40
0.045
309
GRIDFORMAT_END
 95
        8
302
GRIDFORMAT
  1
GRIDFORMAT_BEGIN
 90
        0
 91
        1
 62
     0
 92
       -2
340
14
 93
        0
 40
0.045
309
GRIDFORMAT_END
 95
       16
302
GRIDFORMAT
  1
GRIDFORMAT_BEGIN
 90
        0
 91
        1
 62
     0
 92
       -2
340
14
 93
        0
 40
0.045
309
GRIDFORMAT_END
 95
       32
302
GRIDFORMAT
  1
GRIDFORMAT_BEGIN
 90
        0
 91
        1
 62
     0
 92
       -2
340
14
 93
        0
 40
0.045
309
GRIDFORMAT_END
309
TABLEFORMAT_END
  1
CELLSTYLE_BEGIN
 90
        3
 91
        2
300
_DATA
309
CELLSTYLE_END
  0
ENDSEC
  0
EOF