0
SECTION
  2
HEADER
  9
$ACADVER
  1
AC1027
  9
$ACADMAINTVER
 70
     8
  9
$DWGCODEPAGE
  3
ANSI_1252
  9
$REQUIREDVERSIONS
160
                 0
  9
$COMMENTS
  1
File was created by Cadenas
  9
$CUSTOMPROPERTYTAG
  1
NN
  9
$CUSTOMPROPERTY
  1
Eccentric Collar Intermediate Duty Narrow Slot Take Up Inch Bore
  9
$CUSTOMPROPERTYTAG
  1
NT
  9
$CUSTOMPROPERTY
  1
Eccentric Collar Take-Up Bearings -(Intermediate Duty) -Narrow Slot
  9
$CUSTOMPROPERTYTAG
  1
NB
  9
$CUSTOMPROPERTY
  1
131196
  9
$CUSTOMPROPERTYTAG
  1
NBSYN
  9
$CUSTOMPROPERTY
  1
$PN.
  9
$CUSTOMPROPERTYTAG
  1
LINA
  9
$CUSTOMPROPERTY
  1
131196
  9
$CUSTOMPROPERTYTAG
  1
SERIES
  9
$CUSTOMPROPERTY
  1
207
  9
$CUSTOMPROPERTYTAG
  1
SS
  9
$CUSTOMPROPERTY
  1
1-3/8
  9
$CUSTOMPROPERTYTAG
  1
PN
  9
$CUSTOMPROPERTY
  1
131196
  9
$CUSTOMPROPERTYTAG
  1
DESCRIPTION
  9
$CUSTOMPROPERTY
  1
NSTU-SXV-106
  9
$CUSTOMPROPERTYTAG
  1
W
  9
$CUSTOMPROPERTY
  1
2.6
  9
$CUSTOMPROPERTYTAG
  1
FS
  9
$CUSTOMPROPERTY
  1
NS308
  9
$CUSTOMPROPERTYTAG
  1
A
  9
$CUSTOMPROPERTY
  1
1.53
  9
$CUSTOMPROPERTYTAG
  1
B
  9
$CUSTOMPROPERTY
  1
4.50
  9
$CUSTOMPROPERTYTAG
  1
C
  9
$CUSTOMPROPERTY
  1
0.250
  9
$CUSTOMPROPERTYTAG
  1
D
  9
$CUSTOMPROPERTY
  1
2.50
  9
$CUSTOMPROPERTYTAG
  1
E
  9
$CUSTOMPROPERTY
  1
2.69
  9
$CUSTOMPROPERTYTAG
  1
F
  9
$CUSTOMPROPERTY
  1
3/4
  9
$CUSTOMPROPERTYTAG
  1
G
  9
$CUSTOMPROPERTY
  1
0.50
  9
$CUSTOMPROPERTYTAG
  1
H
  9
$CUSTOMPROPERTY
  1
0.94
  9
$CUSTOMPROPERTYTAG
  1
J
  9
$CUSTOMPROPERTY
  1
1.38
  9
$CUSTOMPROPERTYTAG
  1
L
  9
$CUSTOMPROPERTY
  1
2.13
  9
$CUSTOMPROPERTYTAG
  1
M
  9
$CUSTOMPROPERTY
  1
3.510 / 3.480
  9
$CUSTOMPROPERTYTAG
  1
N
  9
$CUSTOMPROPERTY
  1
4.13
  9
$CUSTOMPROPERTYTAG
  1
P
  9
$CUSTOMPROPERTY
  1
0.32
  9
$CUSTOMPROPERTYTAG
  1
R
  9
$CUSTOMPROPERTY
  1
0.37
  9
$CUSTOMPROPERTYTAG
  1
S
  9
$CUSTOMPROPERTY
  1
1.16
  9
$CUSTOMPROPERTYTAG
  1
COMPANY
  9
$CUSTOMPROPERTY
  1
baldor
  9
$INSBASE
 10
0.0
 20
0.0
 30
0.0
  9
$EXTMIN
 10
1.000000000000000E+20
 20
1.000000000000000E+20
 30
1.000000000000000E+20
  9
$EXTMAX
 10
-1.000000000000000E+20
 20
-1.000000000000000E+20
 30
-1.000000000000000E+20
  9
$LIMMIN
 10
0.0
 20
0.0
  9
$LIMMAX
 10
12.0
 20
9.0
  9
$ORTHOMODE
 70
     0
  9
$REGENMODE
 70
     1
  9
$FILLMODE
 70
     1
  9
$QTEXTMODE
 70
     0
  9
$MIRRTEXT
 70
     1
  9
$LTSCALE
 40
1.0
  9
$ATTMODE
 70
     1
  9
$TEXTSIZE
 40
0.2
  9
$TRACEWID
 40
0.05
  9
$TEXTSTYLE
  7
Standard
  9
$CLAYER
  8
0
  9
$CELTYPE
  6
ByLayer
  9
$CECOLOR
 62
   256
  9
$CELTSCALE
 40
1.0
  9
$DISPSILH
 70
     0
  9
$DIMSCALE
 40
1.0
  9
$DIMASZ
 40
0.18
  9
$DIMEXO
 40
0.0625
  9
$DIMDLI
 40
0.38
  9
$DIMRND
 40
0.0
  9
$DIMDLE
 40
0.0
  9
$DIMEXE
 40
0.18
  9
$DIMTP
 40
0.0
  9
$DIMTM
 40
0.0
  9
$DIMTXT
 40
0.18
  9
$DIMCEN
 40
0.09
  9
$DIMTSZ
 40
0.0
  9
$DIMTOL
 70
     0
  9
$DIMLIM
 70
     0
  9
$DIMTIH
 70
     1
  9
$DIMTOH
 70
     1
  9
$DIMSE1
 70
     0
  9
$DIMSE2
 70
     0
  9
$DIMTAD
 70
     0
  9
$DIMZIN
 70
     0
  9
$DIMBLK
  1

  9
$DIMASO
 70
     1
  9
$DIMSHO
 70
     1
  9
$DIMPOST
  1

  9
$DIMAPOST
  1

  9
$DIMALT
 70
     0
  9
$DIMALTD
 70
     2
  9
$DIMALTF
 40
25.4
  9
$DIMLFAC
 40
1.0
  9
$DIMTOFL
 70
     0
  9
$DIMTVP
 40
0.0
  9
$DIMTIX
 70
     0
  9
$DIMSOXD
 70
     0
  9
$DIMSAH
 70
     0
  9
$DIMBLK1
  1

  9
$DIMBLK2
  1

  9
$DIMSTYLE
  2
Standard
  9
$DIMCLRD
 70
     0
  9
$DIMCLRE
 70
     0
  9
$DIMCLRT
 70
     0
  9
$DIMTFAC
 40
1.0
  9
$DIMGAP
 40
0.09
  9
$DIMJUST
 70
     0
  9
$DIMSD1
 70
     0
  9
$DIMSD2
 70
     0
  9
$DIMTOLJ
 70
     1
  9
$DIMTZIN
 70
     0
  9
$DIMALTZ
 70
     0
  9
$DIMALTTZ
 70
     0
  9
$DIMUPT
 70
     0
  9
$DIMDEC
 70
     4
  9
$DIMTDEC
 70
     4
  9
$DIMALTU
 70
     2
  9
$DIMALTTD
 70
     2
  9
$DIMTXSTY
  7
Standard
  9
$DIMAUNIT
 70
     0
  9
$DIMADEC
 70
     0
  9
$DIMALTRND
 40
0.0
  9
$DIMAZIN
 70
     0
  9
$DIMDSEP
 70
    46
  9
$DIMATFIT
 70
     3
  9
$DIMFRAC
 70
     0
  9
$DIMLDRBLK
  1

  9
$DIMLUNIT
 70
     2
  9
$DIMLWD
 70
    -2
  9
$DIMLWE
 70
    -2
  9
$DIMTMOVE
 70
     0
  9
$DIMFXL
 40
1.0
  9
$DIMFXLON
 70
     0
  9
$DIMJOGANG
 40
0.7853981633974483
  9
$DIMTFILL
 70
     0
  9
$DIMTFILLCLR
 70
     0
  9
$DIMARCSYM
 70
     0
  9
$DIMLTYPE
  6

  9
$DIMLTEX1
  6

  9
$DIMLTEX2
  6

  9
$DIMTXTDIRECTION
 70
     0
  9
$LUNITS
 70
     2
  9
$LUPREC
 70
     4
  9
$SKETCHINC
 40
0.1
  9
$FILLETRAD
 40
0.5
  9
$AUNITS
 70
     0
  9
$AUPREC
 70
     0
  9
$MENU
  1
.
  9
$ELEVATION
 40
0.0
  9
$PELEVATION
 40
0.0
  9
$THICKNESS
 40
0.0
  9
$LIMCHECK
 70
     0
  9
$CHAMFERA
 40
0.0
  9
$CHAMFERB
 40
0.0
  9
$CHAMFERC
 40
0.0
  9
$CHAMFERD
 40
0.0
  9
$SKPOLY
 70
     0
  9
$TDCREATE
 40
2458169.003869722
  9
$TDUCREATE
 40
2458168.962203056
  9
$TDUPDATE
 40
2458169.003869896
  9
$TDUUPDATE
 40
2458168.962203229
  9
$TDINDWG
 40
0.0000000116
  9
$TDUSRTIMER
 40
0.0000000116
  9
$USRTIMER
 70
     1
  9
$ANGBASE
 50
0.0
  9
$ANGDIR
 70
     0
  9
$PDMODE
 70
     0
  9
$PDSIZE
 40
0.0
  9
$PLINEWID
 40
0.0
  9
$SPLFRAME
 70
     0
  9
$SPLINETYPE
 70
     6
  9
$SPLINESEGS
 70
     8
  9
$HANDSEED
  5
1E5
  9
$SURFTAB1
 70
     6
  9
$SURFTAB2
 70
     6
  9
$SURFTYPE
 70
     6
  9
$SURFU
 70
     6
  9
$SURFV
 70
     6
  9
$UCSBASE
  2

  9
$UCSNAME
  2

  9
$UCSORG
 10
0.0
 20
0.0
 30
0.0
  9
$UCSXDIR
 10
1.0
 20
0.0
 30
0.0
  9
$UCSYDIR
 10
0.0
 20
1.0
 30
0.0
  9
$UCSORTHOREF
  2

  9
$UCSORTHOVIEW
 70
     0
  9
$UCSORGTOP
 10
0.0
 20
0.0
 30
0.0
  9
$UCSORGBOTTOM
 10
0.0
 20
0.0
 30
0.0
  9
$UCSORGLEFT
 10
0.0
 20
0.0
 30
0.0
  9
$UCSORGRIGHT
 10
0.0
 20
0.0
 30
0.0
  9
$UCSORGFRONT
 10
0.0
 20
0.0
 30
0.0
  9
$UCSORGBACK
 10
0.0
 20
0.0
 30
0.0
  9
$PUCSBASE
  2

  9
$PUCSNAME
  2

  9
$PUCSORG
 10
0.0
 20
0.0
 30
0.0
  9
$PUCSXDIR
 10
1.0
 20
0.0
 30
0.0
  9
$PUCSYDIR
 10
0.0
 20
1.0
 30
0.0
  9
$PUCSORTHOREF
  2

  9
$PUCSORTHOVIEW
 70
     0
  9
$PUCSORGTOP
 10
0.0
 20
0.0
 30
0.0
  9
$PUCSORGBOTTOM
 10
0.0
 20
0.0
 30
0.0
  9
$PUCSORGLEFT
 10
0.0
 20
0.0
 30
0.0
  9
$PUCSORGRIGHT
 10
0.0
 20
0.0
 30
0.0
  9
$PUCSORGFRONT
 10
0.0
 20
0.0
 30
0.0
  9
$PUCSORGBACK
 10
0.0
 20
0.0
 30
0.0
  9
$USERI1
 70
     0
  9
$USERI2
 70
     0
  9
$USERI3
 70
     0
  9
$USERI4
 70
     0
  9
$USERI5
 70
     0
  9
$USERR1
 40
0.0
  9
$USERR2
 40
0.0
  9
$USERR3
 40
0.0
  9
$USERR4
 40
0.0
  9
$USERR5
 40
0.0
  9
$WORLDVIEW
 70
     1
  9
$SHADEDGE
 70
     3
  9
$SHADEDIF
 70
    70
  9
$TILEMODE
 70
     1
  9
$MAXACTVP
 70
    64
  9
$PINSBASE
 10
0.0
 20
0.0
 30
0.0
  9
$PLIMCHECK
 70
     0
  9
$PEXTMIN
 10
1.000000000000000E+20
 20
1.000000000000000E+20
 30
1.000000000000000E+20
  9
$PEXTMAX
 10
-1.000000000000000E+20
 20
-1.000000000000000E+20
 30
-1.000000000000000E+20
  9
$PLIMMIN
 10
0.0
 20
0.0
  9
$PLIMMAX
 10
12.0
 20
9.0
  9
$UNITMODE
 70
     0
  9
$VISRETAIN
 70
     1
  9
$PLINEGEN
 70
     0
  9
$PSLTSCALE
 70
     1
  9
$TREEDEPTH
 70
  3020
  9
$CMLSTYLE
  2
Standard
  9
$CMLJUST
 70
     0
  9
$CMLSCALE
 40
1.0
  9
$PROXYGRAPHICS
 70
     1
  9
$MEASUREMENT
 70
     0
  9
$CELWEIGHT
370
    -1
  9
$ENDCAPS
280
     0
  9
$JOINSTYLE
280
     0
  9
$LWDISPLAY
290
     0
  9
$INSUNITS
 70
     1
  9
$HYPERLINKBASE
  1

  9
$STYLESHEET
  1

  9
$XEDIT
290
     1
  9
$CEPSNTYPE
380
     0
  9
$PSTYLEMODE
290
     1
  9
$FINGERPRINTGUID
  2
{9A3ED051-B733-438A-BEE9-D6DC33E02203}
  9
$VERSIONGUID
  2
{FAEB1C32-E019-11D5-929B-00C0DF256EC4}
  9
$EXTNAMES
290
     1
  9
$PSVPSCALE
 40
0.0
  9
$OLESTARTUP
290
     0
  9
$SORTENTS
280
   127
  9
$INDEXCTL
280
     0
  9
$HIDETEXT
280
     1
  9
$XCLIPFRAME
280
     2
  9
$HALOGAP
280
     0
  9
$OBSCOLOR
 70
   257
  9
$OBSLTYPE
280
     0
  9
$INTERSECTIONDISPLAY
280
     0
  9
$INTERSECTIONCOLOR
 70
   257
  9
$DIMASSOC
280
     2
  9
$PROJECTNAME
  1

  9
$CAMERADISPLAY
290
     0
  9
$LENSLENGTH
 40
50.0
  9
$CAMERAHEIGHT
 40
0.0
  9
$STEPSPERSEC
 40
2.0
  9
$STEPSIZE
 40
6.0
  9
$3DDWFPREC
 40
2.0
  9
$PSOLWIDTH
 40
0.25
  9
$PSOLHEIGHT
 40
4.0
  9
$LOFTANG1
 40
1.570796326794897
  9
$LOFTANG2
 40
1.570796326794897
  9
$LOFTMAG1
 40
0.0
  9
$LOFTMAG2
 40
0.0
  9
$LOFTPARAM
 70
     7
  9
$LOFTNORMALS
280
     1
  9
$LATITUDE
 40
37.795
  9
$LONGITUDE
 40
-122.394
  9
$NORTHDIRECTION
 40
0.0
  9
$TIMEZONE
 70
 -8000
  9
$LIGHTGLYPHDISPLAY
280
     1
  9
$TILEMODELIGHTSYNCH
280
     1
  9
$CMATERIAL
347
44
  9
$SOLIDHIST
280
     0
  9
$SHOWHIST
280
     1
  9
$DWFFRAME
280
     2
  9
$DGNFRAME
280
     2
  9
$REALWORLDSCALE
290
     1
  9
$INTERFERECOLOR
 62
   256
  9
$CSHADOW
280
     0
  9
$SHADOWPLANELOCATION
 40
0.0
  0
ENDSEC
  0
SECTION
  2
CLASSES
  0
CLASS
  1
ACDBDICTIONARYWDFLT
  2
AcDbDictionaryWithDefault
  3
ObjectDBX Classes
 90
        0
 91
        4
280
     0
281
     0
  0
CLASS
  1
VISUALSTYLE
  2
AcDbVisualStyle
  3
ObjectDBX Classes
 90
     4095
 91
        4
280
     0
281
     0
  0
CLASS
  1
MATERIAL
  2
AcDbMaterial
  3
ObjectDBX Classes
 90
     1153
 91
        4
280
     0
281
     0
  0
CLASS
  1
SCALE
  2
AcDbScale
  3
ObjectDBX Classes
 90
     1153
 91
        4
280
     0
281
     0
  0
CLASS
  1
TABLESTYLE
  2
AcDbTableStyle
  3
ObjectDBX Classes
 90
     4095
 91
        4
280
     0
281
     0
  0
CLASS
  1
MLEADERSTYLE
  2
AcDbMLeaderStyle
  3
ACDB_MLEADERSTYLE_CLASS
 90
     4095
 91
        4
280
     0
281
     0
  0
CLASS
  1
SUN
  2
AcDbSun
  3
SCENEOE
 90
     1153
 91
        4
280
     0
281
     0
  0
CLASS
  1
DICTIONARYVAR
  2
AcDbDictionaryVar
  3
ObjectDBX Classes
 90
        0
 91
        4
280
     0
281
     0
  0
CLASS
  1
CELLSTYLEMAP
  2
AcDbCellStyleMap
  3
ObjectDBX Classes
 90
     1152
 91
        4
280
     0
281
     0
  0
ENDSEC
  0
SECTION
  2
TABLES
  0
TABLE
  2
VPORT
  5
8
330
0
100
AcDbSymbolTable
 70
     1
  0
VPORT
  5
29
330
8
100
AcDbSymbolTableRecord
100
AcDbViewportTableRecord
  2
*Active
 70
     0
 10
0.0
 20
0.0
 11
1.0
 21
1.0
 12
0.3097916648828889
 22
-0.2388750000000002
 13
0.0
 23
0.0
 14
0.5
 24
0.5
 15
0.5
 25
0.5
 16
0.0
 26
0.0
 36
1.0
 17
0.0
 27
0.0
 37
0.0
 40
2.035664999999999
 41
2.444036913558424
 42
50.0
 43
0.0
 44
0.0
 50
0.0
 51
0.0
 71
     0
 72
   100
 73
     1
 74
     3
 75
     0
 76
     0
 77
     0
 78
     0
281
     0
 65
     1
110
0.0
120
0.0
130
0.0
111
1.0
121
0.0
131
0.0
112
0.0
122
1.0
132
0.0
 79
     0
146
0.0
348
2F
 60
     3
 61
     5
292
     1
282
     1
141
0.0
142
0.0
 63
   250
361
6D
  0
ENDTAB
  0
TABLE
  2
LTYPE
  5
5
330
0
100
AcDbSymbolTable
 70
     3
  0
LTYPE
  5
14
330
5
100
AcDbSymbolTableRecord
100
AcDbLinetypeTableRecord
  2
ByBlock
 70
     0
  3

 72
    65
 73
     0
 40
0.0
  0
LTYPE
  5
15
330
5
100
AcDbSymbolTableRecord
100
AcDbLinetypeTableRecord
  2
ByLayer
 70
     0
  3

 72
    65
 73
     0
 40
0.0
  0
LTYPE
  5
16
330
5
100
AcDbSymbolTableRecord
100
AcDbLinetypeTableRecord
  2
Continuous
 70
     0
  3
Solid line
 72
    65
 73
     0
 40
0.0
  0
LTYPE
  5
9F
330
5
100
AcDbSymbolTableRecord
100
AcDbLinetypeTableRecord
  2
Dashed
 70
     0
  3

 72
    65
 73
     2
 40
2.0
 49
1.0
 74
     0
 49
-1.0
 74
     0
  0
LTYPE
  5
160
330
5
100
AcDbSymbolTableRecord
100
AcDbLinetypeTableRecord
  2
Center
 70
     0
  3

 72
    65
 73
     4
 40
1.5
 49
0.45
 74
     0
 49
-0.5
 74
     0
 49
0.05
 74
     0
 49
-0.5
 74
     0
  0
ENDTAB
  0
TABLE
  2
LAYER
  5
2
330
0
100
AcDbSymbolTable
 70
     7
  0
LAYER
  5
10
330
2
100
AcDbSymbolTableRecord
100
AcDbLayerTableRecord
  2
0
 70
     0
 62
     7
  6
Continuous
370
    -3
390
F
347
46
348
0
  0
LAYER
  5
72
330
2
100
AcDbSymbolTableRecord
100
AcDbLayerTableRecord
  2
AM_6
 70
     0
 62
    -2
  6
Continuous
370
    35
390
F
347
46
348
0
  0
LAYER
  5
A0
330
2
100
AcDbSymbolTableRecord
100
AcDbLayerTableRecord
  2
AM_9
 70
     0
 62
     6
  6
Dashed
370
    25
390
F
347
46
348
0
  0
LAYER
  5
E7
330
2
100
AcDbSymbolTableRecord
100
AcDbLayerTableRecord
  2
AM_4
 70
     0
 62
     7
  6
Continuous
370
    50
390
F
347
46
348
0
  0
LAYER
  5
15D
330
2
100
AcDbSymbolTableRecord
100
AcDbLayerTableRecord
  2
AM_5
 70
     0
 62
     3
  6
Continuous
370
    25
390
F
347
46
348
0
  0
LAYER
  5
161
330
2
100
AcDbSymbolTableRecord
100
AcDbLayerTableRecord
  2
AM_7
 70
     0
 62
     7
  6
Center
370
    25
390
F
347
46
348
0
  0
LAYER
  5
1D8
330
2
100
AcDbSymbolTableRecord
100
AcDbLayerTableRecord
  2
ConnectionPoints
 70
     0
 62
     7
  6
Continuous
370
    50
390
F
347
46
348
0
  0
ENDTAB
  0
TABLE
  2
STYLE
  5
3
330
0
100
AcDbSymbolTable
 70
     1
  0
STYLE
  5
11
330
3
100
AcDbSymbolTableRecord
100
AcDbTextStyleTableRecord
  2
Standard
 70
     0
 40
0.0
 41
1.0
 50
0.0
 71
     0
 42
0.2
  3
txt
  4

  0
ENDTAB
  0
TABLE
  2
VIEW
  5
6
330
0
100
AcDbSymbolTable
 70
     0
  0
ENDTAB
  0
TABLE
  2
UCS
  5
7
330
0
100
AcDbSymbolTable
 70
     0
  0
ENDTAB
  0
TABLE
  2
APPID
  5
9
330
0
100
AcDbSymbolTable
 70
     1
  0
APPID
  5
12
330
9
100
AcDbSymbolTableRecord
100
AcDbRegAppTableRecord
  2
ACAD
 70
     0
  0
ENDTAB
  0
TABLE
  2
DIMSTYLE
  5
A
330
0
100
AcDbSymbolTable
 70
     1
100
AcDbDimStyleTable
  0
DIMSTYLE
105
27
330
A
100
AcDbSymbolTableRecord
100
AcDbDimStyleTableRecord
  2
Standard
 70
     0
178
     0
340
11
  0
ENDTAB
  0
TABLE
  2
BLOCK_RECORD
  5
1
330
0
100
AcDbSymbolTable
 70
     5
  0
BLOCK_RECORD
  5
1F
330
1
100
AcDbSymbolTableRecord
100
AcDbBlockTableRecord
  2
*Model_Space
340
22
 70
     0
280
     1
281
     0
  0
BLOCK_RECORD
  5
1B
330
1
100
AcDbSymbolTableRecord
100
AcDbBlockTableRecord
  2
*Paper_Space
340
1E
 70
     0
280
     1
281
     0
  0
BLOCK_RECORD
  5
23
330
1
100
AcDbSymbolTableRecord
100
AcDbBlockTableRecord
  2
*Paper_Space0
340
26
 70
     0
280
     1
281
     0
  0
BLOCK_RECORD
  5
6E
330
1
100
AcDbSymbolTableRecord
100
AcDbBlockTableRecord
  2
1_131196_4
340
0
102
{BLKREFS
331
6F
102
}
 70
     0
280
     1
281
     0
  0
BLOCK_RECORD
  5
8E
330
1
100
AcDbSymbolTableRecord
100
AcDbBlockTableRecord
  2
2_405016_Inch_0_in_131196_4
340
0
102
{BLKREFS
331
8F
102
}
 70
     0
280
     1
281
     0
  0
BLOCK_RECORD
  5
116
330
1
100
AcDbSymbolTableRecord
100
AcDbBlockTableRecord
  2
3_131445_0_in_131196_4
340
0
102
{BLKREFS
331
117
102
}
 70
     0
280
     1
281
     0
  0
BLOCK_RECORD
  5
176
330
1
100
AcDbSymbolTableRecord
100
AcDbBlockTableRecord
  2
4_131196H_0_in_131196_4
340
0
102
{BLKREFS
331
177
102
}
 70
     0
280
     1
281
     0
  0
ENDTAB
  0
ENDSEC
  0
SECTION
  2
BLOCKS
  0
BLOCK
  5
20
330
1F
100
AcDbEntity
  8
0
100
AcDbBlockBegin
  2
*Model_Space
 70
     0
 10
0.0
 20
0.0
 30
0.0
  3
*Model_Space
  1

  0
ENDBLK
  5
21
330
1F
100
AcDbEntity
  8
0
100
AcDbBlockEnd
  0
BLOCK
  5
1C
330
1B
100
AcDbEntity
 67
     1
  8
0
100
AcDbBlockBegin
  2
*Paper_Space
 70
     0
 10
0.0
 20
0.0
 30
0.0
  3
*Paper_Space
  1

  0
ENDBLK
  5
1D
330
1B
100
AcDbEntity
 67
     1
  8
0
100
AcDbBlockEnd
  0
BLOCK
  5
24
330
23
100
AcDbEntity
  8
0
100
AcDbBlockBegin
  2
*Paper_Space0
 70
     0
 10
0.0
 20
0.0
 30
0.0
  3
*Paper_Space0
  1

  0
ENDBLK
  5
25
330
23
100
AcDbEntity
  8
0
100
AcDbBlockEnd
  0
BLOCK
  5
70
330
6E
100
AcDbEntity
  8
0
100
AcDbBlockBegin
  2
1_131196_4
 70
     2
 10
0.0
 20
0.0
 30
0.0
  3
1_131196_4
  1

  0
ATTDEF
  5
73
330
6E
100
AcDbEntity
  8
AM_6
100
AcDbText
 10
7.748635
 20
0.7589999999999998
 30
0.0
 40
0.5
  1
Eccentric Collar Intermediate Duty Narrow Slot Take Up Inch Bore
100
AcDbAttributeDefinition
  3

  2
NN
 70
     8
280
     0
  0
ATTDEF
  5
74
330
6E
100
AcDbEntity
  8
AM_6
100
AcDbText
 10
7.748635
 20
0.2589999999999998
 30
0.0
 40
0.5
  1
Eccentric Collar Take-Up Bearings -(Intermediate Duty) -Narrow Slot
100
AcDbAttributeDefinition
  3

  2
NT
 70
     8
280
     0
  0
ATTDEF
  5
75
330
6E
100
AcDbEntity
  8
AM_6
100
AcDbText
 10
7.748635
 20
-0.2410000000000002
 30
0.0
 40
0.5
  1
131196
100
AcDbAttributeDefinition
  3

  2
NB
 70
     8
280
     0
  0
ATTDEF
  5
76
330
6E
100
AcDbEntity
  8
AM_6
100
AcDbText
 10
7.748635
 20
-0.7410000000000002
 30
0.0
 40
0.5
  1
$PN.
100
AcDbAttributeDefinition
  3

  2
NBSYN
 70
     8
280
     0
  0
ATTDEF
  5
77
330
6E
100
AcDbEntity
  8
AM_6
100
AcDbText
 10
7.748635
 20
-1.241
 30
0.0
 40
0.5
  1
131196
100
AcDbAttributeDefinition
  3

  2
LINA
 70
     8
280
     0
  0
ATTDEF
  5
78
330
6E
100
AcDbEntity
  8
AM_6
100
AcDbText
 10
7.748635
 20
-1.741
 30
0.0
 40
0.5
  1
207
100
AcDbAttributeDefinition
  3

  2
SERIES
 70
     8
280
     0
  0
ATTDEF
  5
79
330
6E
100
AcDbEntity
  8
AM_6
100
AcDbText
 10
7.748635
 20
-2.241
 30
0.0
 40
0.5
  1
1-3/8
100
AcDbAttributeDefinition
  3

  2
SS
 70
     8
280
     0
  0
ATTDEF
  5
7A
330
6E
100
AcDbEntity
  8
AM_6
100
AcDbText
 10
7.748635
 20
-2.741
 30
0.0
 40
0.5
  1
131196
100
AcDbAttributeDefinition
  3

  2
PN
 70
     8
280
     0
  0
ATTDEF
  5
7B
330
6E
100
AcDbEntity
  8
AM_6
100
AcDbText
 10
7.748635
 20
-3.241
 30
0.0
 40
0.5
  1
NSTU-SXV-106
100
AcDbAttributeDefinition
  3

  2
DESCRIPTION
 70
     8
280
     0
  0
ATTDEF
  5
7C
330
6E
100
AcDbEntity
  8
AM_6
100
AcDbText
 10
7.748635
 20
-3.741
 30
0.0
 40
0.5
  1
2.6
100
AcDbAttributeDefinition
  3

  2
W
 70
     8
280
     0
  0
ATTDEF
  5
7D
330
6E
100
AcDbEntity
  8
AM_6
100
AcDbText
 10
7.748635
 20
-4.241
 30
0.0
 40
0.5
  1
NS308
100
AcDbAttributeDefinition
  3

  2
FS
 70
     8
280
     0
  0
ATTDEF
  5
7E
330
6E
100
AcDbEntity
  8
AM_6
100
AcDbText
 10
7.748635
 20
-4.741
 30
0.0
 40
0.5
  1
1.53
100
AcDbAttributeDefinition
  3

  2
A
 70
     8
280
     0
  0
ATTDEF
  5
7F
330
6E
100
AcDbEntity
  8
AM_6
100
AcDbText
 10
7.748635
 20
-5.241
 30
0.0
 40
0.5
  1
4.50
100
AcDbAttributeDefinition
  3

  2
B
 70
     8
280
     0
  0
ATTDEF
  5
80
330
6E
100
AcDbEntity
  8
AM_6
100
AcDbText
 10
7.748635
 20
-5.741
 30
0.0
 40
0.5
  1
0.250
100
AcDbAttributeDefinition
  3

  2
C
 70
     8
280
     0
  0
ATTDEF
  5
81
330
6E
100
AcDbEntity
  8
AM_6
100
AcDbText
 10
7.748635
 20
-6.241
 30
0.0
 40
0.5
  1
2.50
100
AcDbAttributeDefinition
  3

  2
D
 70
     8
280
     0
  0
ATTDEF
  5
82
330
6E
100
AcDbEntity
  8
AM_6
100
AcDbText
 10
7.748635
 20
-6.741
 30
0.0
 40
0.5
  1
2.69
100
AcDbAttributeDefinition
  3

  2
E
 70
     8
280
     0
  0
ATTDEF
  5
83
330
6E
100
AcDbEntity
  8
AM_6
100
AcDbText
 10
7.748635
 20
-7.241
 30
0.0
 40
0.5
  1
3/4
100
AcDbAttributeDefinition
  3

  2
F
 70
     8
280
     0
  0
ATTDEF
  5
84
330
6E
100
AcDbEntity
  8
AM_6
100
AcDbText
 10
7.748635
 20
-7.741
 30
0.0
 40
0.5
  1
0.50
100
AcDbAttributeDefinition
  3

  2
G
 70
     8
280
     0
  0
ATTDEF
  5
85
330
6E
100
AcDbEntity
  8
AM_6
100
AcDbText
 10
7.748635
 20
-8.241
 30
0.0
 40
0.5
  1
0.94
100
AcDbAttributeDefinition
  3

  2
H
 70
     8
280
     0
  0
ATTDEF
  5
86
330
6E
100
AcDbEntity
  8
AM_6
100
AcDbText
 10
7.748635
 20
-8.741
 30
0.0
 40
0.5
  1
1.38
100
AcDbAttributeDefinition
  3

  2
J
 70
     8
280
     0
  0
ATTDEF
  5
87
330
6E
100
AcDbEntity
  8
AM_6
100
AcDbText
 10
7.748635
 20
-9.241
 30
0.0
 40
0.5
  1
2.13
100
AcDbAttributeDefinition
  3

  2
L
 70
     8
280
     0
  0
ATTDEF
  5
88
330
6E
100
AcDbEntity
  8
AM_6
100
AcDbText
 10
7.748635
 20
-9.741
 30
0.0
 40
0.5
  1
3.510 / 3.480
100
AcDbAttributeDefinition
  3

  2
M
 70
     8
280
     0
  0
ATTDEF
  5
89
330
6E
100
AcDbEntity
  8
AM_6
100
AcDbText
 10
7.748635
 20
-10.241
 30
0.0
 40
0.5
  1
4.13
100
AcDbAttributeDefinition
  3

  2
N
 70
     8
280
     0
  0
ATTDEF
  5
8A
330
6E
100
AcDbEntity
  8
AM_6
100
AcDbText
 10
7.748635
 20
-10.741
 30
0.0
 40
0.5
  1
0.32
100
AcDbAttributeDefinition
  3

  2
P
 70
     8
280
     0
  0
ATTDEF
  5
8B
330
6E
100
AcDbEntity
  8
AM_6
100
AcDbText
 10
7.748635
 20
-11.241
 30
0.0
 40
0.5
  1
0.37
100
AcDbAttributeDefinition
  3

  2
R
 70
     8
280
     0
  0
ATTDEF
  5
8C
330
6E
100
AcDbEntity
  8
AM_6
100
AcDbText
 10
7.748635
 20
-11.741
 30
0.0
 40
0.5
  1
1.16
100
AcDbAttributeDefinition
  3

  2
S
 70
     8
280
     0
  0
ATTDEF
  5
8D
330
6E
100
AcDbEntity
  8
AM_6
100
AcDbText
 10
7.748635
 20
-12.241
 30
0.0
 40
0.5
  1
baldor
100
AcDbAttributeDefinition
  3

  2
COMPANY
 70
     8
280
     0
  0
INSERT
  5
8F
330
6E
100
AcDbEntity
  8
0
100
AcDbBlockReference
  2
2_405016_Inch_0_in_131196_4
 10
0.0
 20
0.0
 30
0.0
  0
INSERT
  5
117
330
6E
100
AcDbEntity
  8
0
100
AcDbBlockReference
  2
3_131445_0_in_131196_4
 10
0.0
 20
0.0
 30
0.0
  0
INSERT
  5
177
330
6E
100
AcDbEntity
  8
0
100
AcDbBlockReference
  2
4_131196H_0_in_131196_4
 10
0.0
 20
0.0
 30
0.0
  0
ENDBLK
  5
71
330
6E
100
AcDbEntity
  8
0
100
AcDbBlockEnd
  0
BLOCK
  5
90
330
8E
100
AcDbEntity
  8
0
100
AcDbBlockBegin
  2
2_405016_Inch_0_in_131196_4
 70
     2
 10
0.0
 20
0.0
 30
0.0
  3
2_405016_Inch_0_in_131196_4
  1

  0
ATTDEF
  5
92
330
8E
100
AcDbEntity
  8
AM_6
100
AcDbText
 10
3.702768939166637
 20
0.2187499999999999
 30
0.0
 40
0.5
  1
405016 -Inch
100
AcDbAttributeDefinition
  3

  2
NN
 70
     8
280
     0
  0
ATTDEF
  5
93
330
8E
100
AcDbEntity
  8
AM_6
100
AcDbText
 10
3.702768939166637
 20
-0.2812500000000001
 30
0.0
 40
0.5
  1
Grease Fitting
100
AcDbAttributeDefinition
  3

  2
NT
 70
     8
280
     0
  0
ATTDEF
  5
94
330
8E
100
AcDbEntity
  8
AM_6
100
AcDbText
 10
3.702768939166637
 20
-0.7812500000000001
 30
0.0
 40
0.5
  1
405016-Inch
100
AcDbAttributeDefinition
  3

  2
NB
 70
     8
280
     0
  0
ATTDEF
  5
95
330
8E
100
AcDbEntity
  8
AM_6
100
AcDbText
 10
3.702768939166637
 20
-1.28125
 30
0.0
 40
0.5
  1
$MN.-Inch
100
AcDbAttributeDefinition
  3

  2
NBSYN
 70
     8
280
     0
  0
ATTDEF
  5
96
330
8E
100
AcDbEntity
  8
AM_6
100
AcDbText
 10
3.702768939166637
 20
-1.78125
 30
0.0
 40
0.5
  1
405016
100
AcDbAttributeDefinition
  3

  2
LINA
 70
     8
280
     0
  0
ATTDEF
  5
97
330
8E
100
AcDbEntity
  8
AM_6
100
AcDbText
 10
3.702768939166637
 20
-2.28125
 30
0.0
 40
0.5
  1
405016
100
AcDbAttributeDefinition
  3

  2
MN
 70
     8
280
     0
  0
ATTDEF
  5
98
330
8E
100
AcDbEntity
  8
AM_6
100
AcDbText
 10
3.702768939166637
 20
-2.78125
 30
0.0
 40
0.5
  1
7/16 HEX
100
AcDbAttributeDefinition
  3

  2
H
 70
     8
280
     0
  0
ATTDEF
  5
99
330
8E
100
AcDbEntity
  8
AM_6
100
AcDbText
 10
3.702768939166637
 20
-3.28125
 30
0.0
 40
0.5
  1
0.383
100
AcDbAttributeDefinition
  3

  2
NDR
 70
     8
280
     0
  0
ATTDEF
  5
9A
330
8E
100
AcDbEntity
  8
AM_6
100
AcDbText
 10
3.702768939166637
 20
-3.78125
 30
0.0
 40
0.5
  1
0.337
100
AcDbAttributeDefinition
  3

  2
KDR
 70
     8
280
     0
  0
ATTDEF
  5
9B
330
8E
100
AcDbEntity
  8
AM_6
100
AcDbText
 10
3.702768939166637
 20
-4.28125
 30
0.0
 40
0.5
  1
0.1575
100
AcDbAttributeDefinition
  3

  2
BZE
 70
     8
280
     0
  0
ATTDEF
  5
9C
330
8E
100
AcDbEntity
  8
AM_6
100
AcDbText
 10
3.702768939166637
 20
-4.78125
 30
0.0
 40
0.5
  1
0.4375
100
AcDbAttributeDefinition
  3

  2
HEX
 70
     8
280
     0
  0
ATTDEF
  5
9D
330
8E
100
AcDbEntity
  8
AM_6
100
AcDbText
 10
3.702768939166637
 20
-5.28125
 30
0.0
 40
0.5
  1
0.281250
100
AcDbAttributeDefinition
  3

  2
HEX2
 70
     8
280
     0
  0
ATTDEF
  5
9E
330
8E
100
AcDbEntity
  8
AM_6
100
AcDbText
 10
3.702768939166637
 20
-5.78125
 30
0.0
 40
0.5
  1
baldor
100
AcDbAttributeDefinition
  3

  2
COMPANY
 70
     8
280
     0
  0
LINE
  5
A1
330
8E
100
AcDbEntity
  8
AM_9
100
AcDbLine
 10
-1.994373878663917
 20
-0.151074129835757
 30
0.0
 11
-2.005695451887794
 21
-0.1791093260592887
 31
0.0
  0
LINE
  5
A2
330
8E
100
AcDbEntity
  8
AM_9
100
AcDbLine
 10
-1.84319903262542
 20
-0.2099962668917053
 30
0.0
 11
-1.854886278844965
 21
-0.2389369657326276
 31
0.0
  0
LWPOLYLINE
  5
A3
330
8E
100
AcDbEntity
  8
AM_9
100
AcDbPolyline
 90
        4
 70
     0
 43
0.0
 10
-1.587618612825091
 20
-0.0000000000000001
 10
-1.609096283742713
 20
-0.0544416102741496
 10
-1.618572991954544
 20
-0.0818700010907651
 10
-1.627045227360014
 20
-0.109375
  0
LWPOLYLINE
  5
A4
330
8E
100
AcDbEntity
  8
AM_9
100
AcDbPolyline
 90
        4
 70
     0
 43
0.0
 10
-1.627045227360014
 20
0.1093749999999999
 10
-1.61862573069036
 20
0.0820312499999999
 10
-1.609185577376091
 20
0.0546874999999999
 10
-1.587618612825091
 20
-0.0000000000000001
  0
LWPOLYLINE
  5
A5
330
8E
100
AcDbEntity
  8
AM_9
100
AcDbPolyline
 90
        3
 70
     0
 43
0.0
 10
-1.78526818420333
 20
-0.2987675689889718
 10
-1.801155468766426
 20
-0.2912216284034024
 10
-1.816365470464441
 20
-0.2813919000363599
  0
LWPOLYLINE
  5
A6
330
8E
100
AcDbEntity
  8
AM_9
100
AcDbPolyline
 90
        4
 70
     0
 43
0.0
 10
-1.54044268698157
 20
-0.109375
 10
-1.533075262228071
 20
-0.0820312500000001
 10
-1.526728494119186
 20
-0.0546875000000001
 10
-1.516721615823879
 20
-0.0000000000000001
  0
LWPOLYLINE
  5
A7
330
8E
100
AcDbEntity
  8
AM_9
100
AcDbPolyline
 90
        4
 70
     0
 43
0.0
 10
-1.516721615823879
 20
-0.0000000000000001
 10
-1.526675823253154
 20
0.0544416102741495
 10
-1.533034903862733
 20
0.081870001090765
 10
-1.54044268698157
 20
0.1093749999999999
  0
LWPOLYLINE
  5
A8
330
8E
100
AcDbEntity
  8
AM_9
100
AcDbPolyline
 90
        4
 70
     0
 43
0.0
 10
-1.798065562925907
 20
-0.2360765106845277
 10
-1.788900576349349
 20
-0.2462091938631851
 10
-1.780809305570363
 20
-0.2570505402207574
 10
-1.773212534892352
 20
-0.2689146070947222
  0
LWPOLYLINE
  5
A9
330
8E
100
AcDbEntity
  8
AM_9
100
AcDbPolyline
 90
        4
 70
     0
 43
0.0
 10
-1.650766298517706
 20
0.2187499999999999
 10
-1.640812091088431
 20
0.1643083897258503
 10
-1.634453010478851
 20
0.1368799989092348
 10
-1.627045227360014
 20
0.1093749999999999
  0
LINE
  5
AA
330
8E
100
AcDbEntity
  8
AM_9
100
AcDbLine
 10
-1.587618612825091
 20
-0.0000000000000001
 30
0.0
 11
-1.516721615823879
 21
-0.0000000000000001
 31
0.0
  0
LWPOLYLINE
  5
AB
330
8E
100
AcDbEntity
  8
AM_9
100
AcDbPolyline
 90
        4
 70
     0
 43
0.0
 10
-1.627045227360014
 20
-0.109375
 10
-1.634412652113513
 20
-0.13671875
 10
-1.640759420222399
 20
-0.1640625
 10
-1.650766298517706
 20
-0.2187500000000001
  0
LWPOLYLINE
  5
AC
330
8E
100
AcDbEntity
  8
AM_9
100
AcDbPolyline
 90
        3
 70
     0
 43
0.0
 10
-1.773212534892352
 20
-0.2689146070947222
 10
-1.786208422741963
 20
-0.2634308483997528
 10
-1.800422322856203
 20
-0.2602304684431305
  0
LWPOLYLINE
  5
AD
330
8E
100
AcDbEntity
  8
AM_9
100
AcDbPolyline
 90
        3
 70
     0
 43
0.0
 10
-1.810088848591402
 20
-0.3044819402632179
 10
-1.802340275775759
 20
-0.3030753670497808
 10
-1.78526818420333
 20
-0.2987675689889718
  0
LINE
  5
AE
330
8E
100
AcDbEntity
  8
AM_9
100
AcDbLine
 10
-1.773212534892352
 20
-0.2689146070947222
 30
0.0
 11
-1.78526818420333
 21
-0.2987675689889718
 31
0.0
  0
ELLIPSE
  5
AF
330
8E
100
AcDbEntity
  8
AM_9
100
AcDbEllipse
 10
-2.02754982705242
 20
-0.4687500000000001
 30
0.0
 11
-0.09595382955731768
 21
0.03874944547499717
 31
0.0
210
0.0
220
0.0
230
1.0
 40
0.2113091308703486
 41
3.040609649696536
 42
6.384168311072845
  0
ELLIPSE
  5
B0
330
8E
100
AcDbEntity
  8
AM_9
100
AcDbEllipse
 10
-1.999556164854937
 20
-0.3994303217889761
 30
0.0
 11
-0.1290248947933272
 21
0.05210467522533584
 31
0.0
210
0.0
220
0.0
230
1.0
 40
0.2113091308703503
 41
3.03722219898847
 42
5.801105639492173
  0
ELLIPSE
  5
B1
330
8E
100
AcDbEntity
  8
AM_9
100
AcDbEllipse
 10
-1.988881183377549
 20
-0.3729962569747086
 30
0.0
 11
-0.1235034625626448
 21
0.04987493162727673
 31
0.0
210
0.0
220
0.0
230
1.0
 40
0.2113091308704049
 41
3.396500107602611
 42
6.028915660665585
  0
LWPOLYLINE
  5
B2
330
8E
100
AcDbEntity
  8
AM_9
100
AcDbPolyline
 90
        5
 70
     0
 43
0.0
 10
-2.005695451887794
 20
-0.1791093260592887
 10
-2.02755784038642
 20
-0.1842540823997054
 10
-2.048453927316413
 20
-0.1862220679364951
 10
-2.068371546871322
 20
-0.1844124966919381
 10
-2.086885333492585
 20
-0.1791093260592887
  0
LWPOLYLINE
  5
B3
330
8E
100
AcDbEntity
  8
AM_9
100
AcDbPolyline
 90
        5
 70
     0
 43
0.0
 10
-1.854886278844965
 20
-0.2389369657326276
 10
-1.893727567532394
 20
-0.2295338871417796
 10
-1.931862614244312
 20
-0.216687117104632
 10
-1.969481408605496
 20
-0.1996402057054678
 10
-2.005695451887794
 20
-0.1791093260592887
  0
LWPOLYLINE
  5
B4
330
8E
100
AcDbEntity
  8
AM_9
100
AcDbPolyline
 90
        3
 70
     0
 43
0.0
 10
-1.828387000646247
 20
-0.2711532636537956
 10
-1.84212217841082
 20
-0.2561815527589921
 10
-1.854886278844965
 20
-0.2389369657326276
  0
ELLIPSE
  5
B5
330
8E
100
AcDbEntity
  8
AM_9
100
AcDbEllipse
 10
-1.937880280113616
 20
-0.2467045921760222
 30
0.0
 11
-0.1303939210191656
 21
0.05265753494273404
 31
0.0
210
0.0
220
0.0
230
1.0
 40
0.21130913087034
 41
3.806340372003014
 42
6.919181903097279
  0
LINE
  5
B6
330
8E
100
AcDbEntity
  8
AM_9
100
AcDbLine
 10
-1.572129783509809
 20
0.2000413016192557
 30
0.0
 11
-1.579869301516494
 21
0.2187499999999999
 31
0.0
  0
LWPOLYLINE
  5
B7
330
8E
100
AcDbEntity
  8
AM_9
100
AcDbPolyline
 90
        4
 70
     0
 43
0.0
 10
-1.54044268698157
 20
0.1093749999999999
 10
-1.548862183651225
 20
0.1367187499999999
 10
-1.558302336965494
 20
0.1640624999999999
 10
-1.572129783509809
 20
0.2000413016192557
  0
LWPOLYLINE
  5
B8
330
8E
100
AcDbEntity
  8
AM_9
100
AcDbPolyline
 90
        4
 70
     0
 43
0.0
 10
-1.572129661427844
 20
-0.2000409996967265
 10
-1.558391630598872
 20
-0.1643083897258505
 10
-1.548914922387041
 20
-0.1368799989092349
 10
-1.54044268698157
 20
-0.109375
  0
LINE
  5
B9
330
8E
100
AcDbEntity
  8
AM_9
100
AcDbLine
 10
-1.579869301516494
 20
-0.2187500000000001
 30
0.0
 11
-1.572129661427844
 21
-0.2000409996967265
 31
0.0
  0
LINE
  5
BA
330
8E
100
AcDbEntity
  8
AM_9
100
AcDbLine
 10
-2.005508679515807
 20
-0.1204089378707286
 30
0.0
 11
-2.006594124505519
 21
-0.1230967854582223
 31
0.0
  0
LINE
  5
BB
330
8E
100
AcDbEntity
  8
AM_9
100
AcDbLine
 10
-1.81
 20
-0.2238007257805424
 30
0.0
 11
-1.797719971745229
 21
-0.193392142543456
 31
0.0
  0
ELLIPSE
  5
BC
330
8E
100
AcDbEntity
  8
AM_9
100
AcDbEllipse
 10
-1.919580372575071
 20
-0.2013892028241892
 30
0.0
 11
-0.10199702266389
 21
0.04118989399965082
 31
0.0
210
0.0
220
0.0
230
1.0
 40
0.2113091308703473
 41
3.141592653589793
 42
6.283185307179586
  0
LWPOLYLINE
  5
BD
330
8E
100
AcDbEntity
  8
AM_9
100
AcDbPolyline
 90
        4
 70
     0
 43
0.0
 10
-2.005513409170827
 20
-0.1204206514110938
 10
-2.005652575155356
 20
-0.1208367673933812
 10
-2.005074991198229
 20
-0.1245107513506023
 10
-2.003165549900619
 20
-0.1273653925967521
  0
LWPOLYLINE
  5
BE
330
8E
100
AcDbEntity
  8
AM_9
100
AcDbPolyline
 90
        5
 70
     0
 43
0.0
 10
-1.79771902754374
 20
-0.1933898041312626
 10
-1.797812363674892
 20
-0.1936098952159724
 10
-1.80102790062753
 20
-0.1971856748420371
 10
-1.807046263870312
 20
-0.1994144431868155
 10
-1.813910234450755
 20
-0.1999999999699529
  0
LWPOLYLINE
  5
BF
330
8E
100
AcDbEntity
  8
AM_9
100
AcDbPolyline
 90
        3
 70
     0
 43
0.0
 10
-1.907207365663193
 20
-0.1745741884610189
 10
-1.879818290289763
 20
-0.1876759562813858
 10
-1.84319903262542
 20
-0.2099962668917053
  0
LWPOLYLINE
  5
C0
330
8E
100
AcDbEntity
  8
AM_9
100
AcDbPolyline
 90
        3
 70
     0
 43
0.0
 10
-1.994373878663917
 20
-0.151074129835757
 10
-1.965169271164394
 20
-0.1564222384464442
 10
-1.936498772222099
 20
-0.1639312493177434
  0
LWPOLYLINE
  5
C1
330
8E
100
AcDbEntity
  8
AM_9
100
AcDbPolyline
 90
        3
 70
     0
 43
0.0
 10
-1.84319903262542
 20
-0.2099962668917053
 10
-1.826225350291897
 20
-0.2163479371246913
 10
-1.810087093107714
 20
-0.2258378743019629
  0
LWPOLYLINE
  5
C2
330
8E
100
AcDbEntity
  8
AM_9
100
AcDbPolyline
 90
        5
 70
     0
 43
0.0
 10
-2.031284759008412
 20
-0.141958509815605
 10
-2.027409639562364
 20
-0.1420496512545706
 10
-2.012920724447613
 20
-0.1441228263802214
 10
-2.00340285014902
 20
-0.1470795994472237
 10
-1.994373878663917
 20
-0.151074129835757
  0
ELLIPSE
  5
C3
330
8E
100
AcDbEntity
  8
AM_9
100
AcDbEllipse
 10
-1.919580372575073
 20
-0.2013892028241882
 30
0.0
 11
-0.130393921019174
 21
0.05265753494273373
 31
0.0
210
0.0
220
0.0
230
1.0
 40
0.2113091308703491
 41
3.814164134970076
 42
4.686670830346586
  0
ELLIPSE
  5
C4
330
8E
100
AcDbEntity
  8
AM_9
100
AcDbEllipse
 10
-1.919580372575073
 20
-0.2013892028241888
 30
0.0
 11
-0.130393921019176
 21
0.05265753494273454
 31
0.0
210
0.0
220
0.0
230
1.0
 40
0.2113091308703516
 41
-1.280812194235621
 42
-0.6725714813802819
  0
LINE
  5
C5
330
8E
100
AcDbEntity
  8
AM_9
100
AcDbLine
 10
-1.816365470464441
 20
-0.2813919000363599
 30
0.0
 11
-1.828387000646247
 21
-0.2711532636537956
 31
0.0
  0
ELLIPSE
  5
C6
330
8E
100
AcDbEntity
  8
AM_9
100
AcDbEllipse
 10
-1.93788028011361
 20
-0.2467045921760188
 30
0.0
 11
-0.1303939210191775
 21
0.0526575349427359
 31
0.0
210
0.0
220
0.0
230
1.0
 40
0.2113091308703499
 41
2.800469246484378
 42
3.607080702195122
  0
ELLIPSE
  5
C7
330
8E
100
AcDbEntity
  8
AM_9
100
AcDbEllipse
 10
-1.937880280117146
 20
-0.2467045921705545
 30
0.0
 11
-0.130393921024355
 21
0.0526575349474975
 31
0.0
210
0.0
220
0.0
230
1.0
 40
0.2113091308825716
 41
-3.777589249503418
 42
-3.764628581855737
  0
LINE
  5
C8
330
8E
100
AcDbEntity
  8
AM_9
100
AcDbLine
 10
-2.065572063521515
 20
-0.2047892473870457
 30
0.0
 11
-2.064528076717642
 21
-0.2064067757211984
 31
0.0
  0
LINE
  5
C9
330
8E
100
AcDbEntity
  8
AM_9
100
AcDbLine
 10
-1.800422322856203
 20
-0.2602304684431305
 30
0.0
 11
-1.81
 21
-0.2602304684431258
 31
0.0
  0
ELLIPSE
  5
CA
330
8E
100
AcDbEntity
  8
AM_9
100
AcDbEllipse
 10
-1.919580372575072
 20
-0.2013892028241892
 30
0.0
 11
-0.1303939210191733
 21
0.05265753494273277
 31
0.0
210
0.0
220
0.0
230
1.0
 40
0.2113091308703513
 41
2.800469246484358
 42
3.607080702195126
  0
LINE
  5
CB
330
8E
100
AcDbEntity
  8
AM_9
100
AcDbLine
 10
-1.81
 20
-0.2259120507710001
 30
0.0
 11
-1.798065562925907
 21
-0.2360765106845277
 31
0.0
  0
LWPOLYLINE
  5
CC
330
8E
100
AcDbEntity
  8
AM_9
100
AcDbPolyline
 90
       17
 70
     0
 43
0.0
 10
-1.804395136895816
 20
-0.1790373738501779
 10
-1.812362601972009
 20
-0.1733931390117467
 10
-1.823118675406191
 20
-0.1670729780242511
 10
-1.835761726928634
 20
-0.1606047421316795
 10
-1.850652150074475
 20
-0.1538031670974777
 10
-1.866554026881356
 20
-0.1472336073736393
 10
-1.883914996703075
 20
-0.1407130262602576
 10
-1.90127047383332
 20
-0.1347930597680667
 10
-1.919128185417608
 20
-0.1293028157827817
 10
-1.935957946917682
 20
-0.1247141396218192
 10
-1.952274690818387
 20
-0.1208880884981781
 10
-1.966673741678221
 20
-0.1181545989145989
 10
-1.979606094543968
 20
-0.1164278875396128
 10
-1.989965822703669
 20
-0.1158549073091554
 10
-1.998075997520366
 20
-0.1164156227038167
 10
-2.003252638711207
 20
-0.1180609686233501
 10
-2.005513409170827
 20
-0.1204206514110938
  0
LWPOLYLINE
  5
CD
330
8E
100
AcDbEntity
  8
AM_9
100
AcDbPolyline
 90
        4
 70
     0
 43
0.0
 10
-1.804395136895817
 20
-0.1790373738501784
 10
-1.799440476423749
 20
-0.1842628795203941
 10
-1.797332591957006
 20
-0.1891729979031393
 10
-1.79771902754374
 20
-0.1933898041312626
  0
LINE
  5
CE
330
8E
100
AcDbEntity
  8
AM_9
100
AcDbLine
 10
-1.721766755898937
 20
0.1999999999999999
 30
0.0
 11
-1.81
 21
0.1999999999999999
 31
0.0
  0
LINE
  5
CF
330
8E
100
AcDbEntity
  8
AM_9
100
AcDbLine
 10
-1.81
 20
-0.2
 30
0.0
 11
-1.721766755898937
 21
-0.2
 31
0.0
  0
LINE
  5
D0
330
8E
100
AcDbEntity
  8
AM_9
100
AcDbLine
 10
-1.567505980849834
 20
0.1999999999999999
 30
0.0
 11
-1.635164215520493
 21
0.1999999999999999
 31
0.0
  0
LINE
  5
D1
330
8E
100
AcDbEntity
  8
AM_9
100
AcDbLine
 10
-1.635164215520493
 20
-0.2
 30
0.0
 11
-1.567505980849834
 21
-0.2
 31
0.0
  0
LINE
  5
D2
330
8E
100
AcDbEntity
  8
AM_9
100
AcDbLine
 10
-1.777061669902936
 20
0.2187499999999999
 30
0.0
 11
-1.579869301516494
 21
0.2187499999999999
 31
0.0
  0
LWPOLYLINE
  5
D3
330
8E
100
AcDbEntity
  8
AM_9
100
AcDbPolyline
 90
        4
 70
     0
 43
0.0
 10
-1.810091459649643
 20
0.1304495421065803
 10
-1.808068787768206
 20
0.1367187499999999
 10
-1.798628634453937
 20
0.1640624999999999
 10
-1.777061669902936
 20
0.2187499999999999
  0
LWPOLYLINE
  5
D4
330
8E
100
AcDbEntity
  8
AM_9
100
AcDbPolyline
 90
        4
 70
     0
 43
0.0
 10
-1.729885744059416
 20
0.1093749999999999
 10
-1.738305240729071
 20
0.08203125
 10
-1.747745394043339
 20
0.0546875
 10
-1.76931235859434
 20
0.0
  0
LWPOLYLINE
  5
D5
330
8E
100
AcDbEntity
  8
AM_9
100
AcDbPolyline
 90
        4
 70
     0
 43
0.0
 10
-1.706164672901725
 20
0.2187499999999999
 10
-1.716118880330999
 20
0.1643083897258503
 10
-1.722477960940579
 20
0.1368799989092348
 10
-1.729885744059416
 20
0.1093749999999999
  0
LINE
  5
D6
330
8E
100
AcDbEntity
  8
AM_9
100
AcDbLine
 10
-1.81
 20
0.0
 30
0.0
 11
-1.76931235859434
 21
0.0
 31
0.0
  0
LWPOLYLINE
  5
D7
330
8E
100
AcDbEntity
  8
AM_9
100
AcDbPolyline
 90
        4
 70
     0
 43
0.0
 10
-1.777061669902936
 20
-0.2187500000000001
 10
-1.798539340820559
 20
-0.1643083897258504
 10
-1.80801604903239
 20
-0.1368799989092349
 10
-1.810093881630293
 20
-0.1304419328750593
  0
LINE
  5
D8
330
8E
100
AcDbEntity
  8
AM_9
100
AcDbLine
 10
-1.777061669902936
 20
-0.2187500000000001
 30
0.0
 11
-1.579869301516494
 21
-0.2187500000000001
 31
0.0
  0
LWPOLYLINE
  5
D9
330
8E
100
AcDbEntity
  8
AM_9
100
AcDbPolyline
 90
        4
 70
     0
 43
0.0
 10
-1.729885744059416
 20
-0.109375
 10
-1.722518319305917
 20
-0.13671875
 10
-1.716171551197032
 20
-0.1640625
 10
-1.706164672901725
 20
-0.2187500000000001
  0
LWPOLYLINE
  5
DA
330
8E
100
AcDbEntity
  8
AM_9
100
AcDbPolyline
 90
        4
 70
     0
 43
0.0
 10
-1.76931235859434
 20
0.0
 10
-1.747834687676718
 20
-0.0544416102741496
 10
-1.738357979464887
 20
-0.0818700010907651
 10
-1.729885744059416
 20
-0.109375
  0
LINE
  5
DB
330
8E
100
AcDbEntity
  8
AM_9
100
AcDbLine
 10
-1.396961363227431
 20
0.1853871066562612
 30
0.0
 11
-1.56577539735154
 21
0.1914799546858273
 31
0.0
  0
LINE
  5
DC
330
8E
100
AcDbEntity
  8
AM_9
100
AcDbLine
 10
-1.56577539735154
 20
-0.1914799546858275
 30
0.0
 11
-1.396961363227431
 21
-0.1853871066562613
 31
0.0
  0
LINE
  5
DD
330
8E
100
AcDbEntity
  8
AM_9
100
AcDbLine
 10
-1.331394625945281
 20
0.1319978794387896
 30
0.0
 11
-1.34510875300435
 21
0.1513925839218323
 31
0.0
  0
LINE
  5
DE
330
8E
100
AcDbEntity
  8
AM_9
100
AcDbLine
 10
-1.34510875300435
 20
-0.1513925839218324
 30
0.0
 11
-1.331394625945281
 21
-0.1319978794387897
 31
0.0
  0
ELLIPSE
  5
DF
330
8E
100
AcDbEntity
  8
AM_9
100
AcDbEllipse
 10
-1.721766755898937
 20
0.0
 30
0.0
 11
1.339457436567408E-17
 21
0.2187499999999984
 31
0.0
210
0.0
220
0.0
230
1.0
 40
0.5000000000000068
 41
0.0
 42
6.283185307179586
  0
ELLIPSE
  5
E0
330
8E
100
AcDbEntity
  8
AM_9
100
AcDbEllipse
 10
-1.721766755898937
 20
0.0
 30
0.0
 11
1.224646799147353E-17
 21
0.2
 31
0.0
210
0.0
220
0.0
230
1.0
 40
0.4999999999999982
 41
0.0
 42
6.283185307179586
  0
ELLIPSE
  5
E1
330
8E
100
AcDbEntity
  8
AM_9
100
AcDbEllipse
 10
-1.635164215520493
 20
-0.0000000000000002
 30
0.0
 11
1.339457436567417E-17
 21
0.2187499999999999
 31
0.0
210
0.0
220
0.0
230
1.0
 40
0.5000000000000002
 41
0.0
 42
6.283185307179586
  0
ELLIPSE
  5
E2
330
8E
100
AcDbEntity
  8
AM_9
100
AcDbEllipse
 10
-1.635164215520493
 20
-0.0000000000000004
 30
0.0
 11
1.224646799147351E-17
 21
0.1999999999999997
 31
0.0
210
0.0
220
0.0
230
1.0
 40
0.5000000000000002
 41
0.0
 42
6.283185307179586
  0
ELLIPSE
  5
E3
330
8E
100
AcDbEntity
  8
AM_9
100
AcDbEllipse
 10
-1.567505980849834
 20
-0.0000000000000004
 30
0.0
 11
1.224646799147356E-17
 21
0.2000000000000004
 31
0.0
210
0.0
220
0.0
230
1.0
 40
0.4999999999999994
 41
0.0
 42
6.283185307179586
  0
ELLIPSE
  5
E4
330
8E
100
AcDbEntity
  8
AM_9
100
AcDbEllipse
 10
-1.567505980848807
 20
-0.0000000000002652
 30
0.0
 11
1.172668097678842E-17
 21
0.1915112338504946
 31
0.0
210
0.0
220
0.0
230
1.0
 40
0.4999999999999309
 41
0.0
 42
6.283185307179586
  0
ELLIPSE
  5
E5
330
8E
100
AcDbEntity
  8
AM_9
100
AcDbEllipse
 10
-1.39863411436059
 20
-0.0000000000000006
 30
0.0
 11
1.135353457964635E-17
 21
0.1854172907249849
 31
0.0
210
0.0
220
0.0
230
1.0
 40
0.4999999999999981
 41
0.0
 42
6.283185307179586
  0
ELLIPSE
  5
E6
330
8E
100
AcDbEntity
  8
AM_9
100
AcDbEllipse
 10
-1.378062923771977
 20
-0.0000000000000019
 30
0.0
 11
9.899048221688744E-18
 21
0.1616637258772219
 31
0.0
210
0.0
220
0.0
230
1.0
 40
0.500000000000019
 41
0.0
 42
6.283185307179586
  0
LINE
  5
E8
330
8E
100
AcDbEntity
  8
AM_4
100
AcDbLine
 10
-1.818722230394737
 20
-0.3055458577949631
 30
0.0
 11
-1.810088848591402
 21
-0.3044819402632179
 31
0.0
  0
LINE
  5
E9
330
8E
100
AcDbEntity
  8
AM_4
100
AcDbLine
 10
-1.932910285181075
 20
-0.5093460834378319
 30
0.0
 11
-1.872298534913811
 21
-0.4540180898723598
 31
0.0
  0
LINE
  5
EA
330
8E
100
AcDbEntity
  8
AM_4
100
AcDbLine
 10
-2.129033702213686
 20
-0.3503396289636352
 30
0.0
 11
-2.123840279922955
 21
-0.4322420068738781
 31
0.0
  0
ELLIPSE
  5
EB
330
8E
100
AcDbEntity
  8
AM_4
100
AcDbEllipse
 10
-2.02754982705242
 20
-0.4687500000000001
 30
0.0
 11
-0.09595382955731768
 21
0.03874944547499708
 31
0.0
210
0.0
220
0.0
230
1.0
 40
0.2113091308703511
 41
0.1009830038932513
 42
3.040609649696533
  0
LINE
  5
EC
330
8E
100
AcDbEntity
  8
AM_4
100
AcDbLine
 10
-2.075563760268708
 20
-0.151074129835757
 30
0.0
 11
-2.086885333492585
 21
-0.1791093260592887
 31
0.0
  0
LWPOLYLINE
  5
ED
330
8E
100
AcDbEntity
  8
AM_4
100
AcDbPolyline
 90
       10
 70
     0
 43
0.0
 10
-2.105255676158041
 20
-0.3179980744049969
 10
-2.1059419309268
 20
-0.3182154001081756
 10
-2.111433147581025
 20
-0.3204628502193217
 10
-2.116393404268906
 20
-0.3234913417495782
 10
-2.120783352669403
 20
-0.3273681392079967
 10
-2.124425235294011
 20
-0.3320667793219214
 10
-2.127322256235119
 20
-0.3380198114860209
 10
-2.128811016036841
 20
-0.3441178227376809
 10
-2.129051670234221
 20
-0.3500329296847869
 10
-2.128997975322552
 20
-0.3508407985529787
  0
LWPOLYLINE
  5
EE
330
8E
100
AcDbEntity
  8
AM_4
100
AcDbPolyline
 90
        9
 70
     0
 43
0.0
 10
-1.872622461609276
 20
-0.4543097628654873
 10
-1.86975344167752
 20
-0.4514110069393083
 10
-1.866297756850874
 20
-0.446552838883217
 10
-1.863673435925825
 20
-0.4405471402281514
 10
-1.86243388057454
 20
-0.434462813423354
 10
-1.86240270586986
 20
-0.4286020589665937
 10
-1.863366763808165
 20
-0.4230732803426865
 10
-1.865168001778414
 20
-0.4178608438430972
 10
-1.866978870735703
 20
-0.4141816448684484
  0
ELLIPSE
  5
EF
330
8E
100
AcDbEntity
  8
AM_4
100
AcDbEllipse
 10
-1.999556164854937
 20
-0.3994303217889761
 30
0.0
 11
-0.1290248947933268
 21
0.05210467522533575
 31
0.0
210
0.0
220
0.0
230
1.0
 40
0.2113091308703444
 41
0.104953484263782
 42
3.037222198988471
  0
LWPOLYLINE
  5
F0
330
8E
100
AcDbEntity
  8
AM_4
100
AcDbPolyline
 90
        3
 70
     0
 43
0.0
 10
-1.866458065808121
 20
-0.2987675689889718
 10
-1.852924800307731
 20
-0.3030606061861223
 10
-1.839365515682746
 20
-0.305456396233367
  0
ELLIPSE
  5
F1
330
8E
100
AcDbEntity
  8
AM_4
100
AcDbEllipse
 10
-1.937880280113607
 20
-0.2467045921760216
 30
0.0
 11
-0.1303939210191742
 21
0.05265753494273315
 31
0.0
210
0.0
220
0.0
230
1.0
 40
0.2113091308703455
 41
1.711945269609629
 42
2.505596057672105
  0
LWPOLYLINE
  5
F2
330
8E
100
AcDbEntity
  8
AM_4
100
AcDbPolyline
 90
        4
 70
     0
 43
0.0
 10
-2.086885333492585
 20
-0.1791093260592887
 10
-2.072008215449509
 20
-0.1988355121406939
 10
-2.055578943206835
 20
-0.2156330920108724
 10
-2.050081924595492
 20
-0.2201680623457971
  0
LWPOLYLINE
  5
F3
330
8E
100
AcDbEntity
  8
AM_4
100
AcDbPolyline
 90
        3
 70
     0
 43
0.0
 10
-2.050081924595492
 20
-0.2201680623457971
 10
-2.037141402996864
 20
-0.2290462109660021
 10
-2.017266042054548
 20
-0.2389369657326275
  0
LWPOLYLINE
  5
F4
330
8E
100
AcDbEntity
  8
AM_4
100
AcDbPolyline
 90
        4
 70
     0
 43
0.0
 10
-1.820178722809471
 20
-0.2602304684431209
 10
-1.829427358223365
 20
-0.2616913382589203
 10
-1.841724875672999
 20
-0.2647402074337707
 10
-1.854402416497143
 20
-0.2689146070947222
  0
LINE
  5
F5
330
8E
100
AcDbEntity
  8
AM_4
100
AcDbLine
 10
-2.006594124505519
 20
-0.1230967854582223
 30
0.0
 11
-2.021577395238961
 21
-0.1601993088245384
 31
0.0
  0
LINE
  5
F6
330
8E
100
AcDbEntity
  8
AM_4
100
AcDbLine
 10
-1.817583349911186
 20
-0.2425790968238377
 30
0.0
 11
-1.81
 21
-0.2238007257805424
 31
0.0
  0
ELLIPSE
  5
F7
330
8E
100
AcDbEntity
  8
AM_4
100
AcDbEllipse
 10
-1.919580372575074
 20
-0.2013892028241881
 30
0.0
 11
-0.1019970226638878
 21
0.04118989399964965
 31
0.0
210
0.0
220
0.0
230
1.0
 40
0.2113091308703495
 41
0.0
 42
3.141592653589793
  0
LWPOLYLINE
  5
F8
330
8E
100
AcDbEntity
  8
AM_4
100
AcDbPolyline
 90
        4
 70
     0
 43
0.0
 10
-2.075563760268708
 20
-0.151074129835757
 10
-2.058947918281179
 20
-0.145877822676052
 10
-2.042893305626047
 20
-0.1427138007556462
 10
-2.031284759008412
 20
-0.141958509815605
  0
LWPOLYLINE
  5
F9
330
8E
100
AcDbEntity
  8
AM_4
100
AcDbPolyline
 90
        7
 70
     0
 43
0.0
 10
-2.005578795835002
 20
-0.2099962668917053
 10
-2.015887932192332
 20
-0.1943573015029059
 10
-2.027231759026542
 20
-0.1805491420332303
 10
-2.039945733603349
 20
-0.1688997677199809
 10
-2.053841659793041
 20
-0.1598729403210871
 10
-2.064514999433684
 20
-0.1549033058439656
 10
-2.075563760268708
 20
-0.151074129835757
  0
LINE
  5
FA
330
8E
100
AcDbEntity
  8
AM_4
100
AcDbLine
 10
-2.029954905465583
 20
-0.1419585097669023
 30
0.0
 11
-2.031393382113736
 21
-0.1419585097669023
 31
0.0
  0
ELLIPSE
  5
FB
330
8E
100
AcDbEntity
  8
AM_4
100
AcDbEllipse
 10
-1.919580372575032
 20
-0.2013892028242433
 30
0.0
 11
-0.1303939210192313
 21
0.05265753494278272
 31
0.0
210
0.0
220
0.0
230
1.0
 40
0.2113091308704549
 41
5.610613825799393
 42
7.795870906981034
  0
ELLIPSE
  5
FC
330
8E
100
AcDbEntity
  8
AM_4
100
AcDbEllipse
 10
-1.937880280113607
 20
-0.2467045921760201
 30
0.0
 11
-0.1303939210191749
 21
0.05265753494273348
 31
0.0
210
0.0
220
0.0
230
1.0
 40
0.2113091308703536
 41
0.6359965959176836
 42
1.512685599801936
  0
LWPOLYLINE
  5
FD
330
8E
100
AcDbEntity
  8
AM_4
100
AcDbPolyline
 90
        3
 70
     0
 43
0.0
 10
-1.838478630348007
 20
-0.3055458577949631
 10
-1.829028431461698
 20
-0.3064767622622302
 10
-1.818722230394737
 20
-0.3055458577949631
  0
LWPOLYLINE
  5
FE
330
8E
100
AcDbEntity
  8
AM_4
100
AcDbPolyline
 90
       19
 70
     0
 43
0.0
 10
-1.866596938208372
 20
-0.4148828270016591
 10
-1.86773504175676
 20
-0.4125640470159446
 10
-1.870027304622542
 20
-0.4069966864892321
 10
-1.872105574929401
 20
-0.4001952807453302
 10
-1.873659281375692
 20
-0.3922698224432676
 10
-1.87439258221702
 20
-0.3834771008654685
 10
-1.874089951935352
 20
-0.3741509104594523
 10
-1.87263646352022
 20
-0.3646208456239238
 10
-1.869704749393184
 20
-0.3543327134236404
 10
-1.865540021552258
 20
-0.3447121780580741
 10
-1.860361036797856
 20
-0.3359962086545055
 10
-1.854409079644302
 20
-0.3283226424936144
 10
-1.847952339702777
 20
-0.3217801533795949
 10
-1.841300894701107
 20
-0.3164221266210538
 10
-1.834803339559752
 20
-0.3122519138035318
 10
-1.828806234704185
 20
-0.3091990036630793
 10
-1.823583426228005
 20
-0.3071123657370339
 10
-1.819294521843713
 20
-0.3057919982763753
 10
-1.816909527972537
 20
-0.3052195557746009
  0
LWPOLYLINE
  5
FF
330
8E
100
AcDbEntity
  8
AM_4
100
AcDbPolyline
 90
       19
 70
     0
 43
0.0
 10
-2.064528076717642
 20
-0.2064067757211984
 10
-2.063949730306281
 20
-0.2073633968232323
 10
-2.061750810788058
 20
-0.2114509422379921
 10
-2.059449028666588
 20
-0.2167321758749075
 10
-2.057294537381015
 20
-0.2232517466236371
 10
-2.055591181730884
 20
-0.2309349393706781
 10
-2.054644987223719
 20
-0.2395551980423593
 10
-2.054693842675375
 20
-0.2487882120204281
 10
-2.055875311895047
 20
-0.2582985024031243
 10
-2.058527771433727
 20
-0.268691431212855
 10
-2.062452958193402
 20
-0.2784779281173781
 10
-2.067439773653212
 20
-0.2873967537138162
 10
-2.073251364471296
 20
-0.2952962773085379
 10
-2.079626856684995
 20
-0.3020804927925754
 10
-2.086265474106881
 20
-0.3076879834021678
 10
-2.092824804669774
 20
-0.3121030244643609
 10
-2.098952406751621
 20
-0.3153790840784886
 10
-2.104353813384719
 20
-0.3176517409961442
 10
-2.105980099330599
 20
-0.3182265757567124
  0
ELLIPSE
  5
100
330
8E
100
AcDbEntity
  8
AM_4
100
AcDbEllipse
 10
-1.988881183377592
 20
-0.3729962569746642
 30
0.0
 11
-0.1235034625625957
 21
0.04987493162723568
 31
0.0
210
0.0
220
0.0
230
1.0
 40
0.2113091308703465
 41
6.041657613499387
 42
9.666202959717577
  0
ELLIPSE
  5
101
330
8E
100
AcDbEntity
  8
AM_4
100
AcDbEllipse
 10
-1.919580372575074
 20
-0.2013892028241884
 30
0.0
 11
-0.1303939210191804
 21
0.05265753494272023
 31
0.0
210
0.0
220
0.0
230
1.0
 40
0.2113091308703625
 41
1.711945269609612
 42
2.518556725320347
  0
LINE
  5
102
330
8E
100
AcDbEntity
  8
AM_4
100
AcDbLine
 10
-1.81
 20
-0.2602304684431258
 30
0.0
 11
-1.820178722809471
 21
-0.2602304684431209
 31
0.0
  0
LWPOLYLINE
  5
103
330
8E
100
AcDbEntity
  8
AM_4
100
AcDbPolyline
 90
        3
 70
     0
 43
0.0
 10
-1.854402416497143
 20
-0.2689146070947222
 10
-1.882464716465987
 20
-0.251275593729576
 10
-1.912252821303973
 20
-0.2360765106845275
  0
LINE
  5
104
330
8E
100
AcDbEntity
  8
AM_4
100
AcDbLine
 10
-1.912252821303973
 20
-0.2360765106845275
 30
0.0
 11
-1.938261630329957
 21
-0.2258378743019627
 31
0.0
  0
LWPOLYLINE
  5
105
330
8E
100
AcDbEntity
  8
AM_4
100
AcDbPolyline
 90
        4
 70
     0
 43
0.0
 10
-1.938261630329957
 20
-0.2258378743019627
 10
-1.961251665022197
 20
-0.2189176876709014
 10
-1.983257534882882
 20
-0.2138633349839127
 10
-2.005578795835002
 20
-0.2099962668917053
  0
LINE
  5
106
330
8E
100
AcDbEntity
  8
AM_4
100
AcDbLine
 10
-2.005578795835002
 20
-0.2099962668917053
 30
0.0
 11
-2.017266042054547
 21
-0.2389369657326276
 31
0.0
  0
LWPOLYLINE
  5
107
330
8E
100
AcDbEntity
  8
AM_4
100
AcDbPolyline
 90
        3
 70
     0
 43
0.0
 10
-2.017266042054547
 20
-0.2389369657326276
 10
-1.987586220820745
 20
-0.2560939713202353
 10
-1.95656153786849
 20
-0.2711532636537956
  0
LINE
  5
108
330
8E
100
AcDbEntity
  8
AM_4
100
AcDbLine
 10
-1.95656153786849
 20
-0.2711532636537956
 30
0.0
 11
-1.930552728842507
 21
-0.2813919000363599
 31
0.0
  0
LWPOLYLINE
  5
109
330
8E
100
AcDbEntity
  8
AM_4
100
AcDbPolyline
 90
        3
 70
     0
 43
0.0
 10
-1.930552728842507
 20
-0.2813919000363599
 10
-1.898902177988482
 20
-0.2911775952746243
 10
-1.866458065808121
 20
-0.2987675689889718
  0
LINE
  5
10A
330
8E
100
AcDbEntity
  8
AM_4
100
AcDbLine
 10
-1.854402416497143
 20
-0.2689146070947222
 30
0.0
 11
-1.866458065808121
 21
-0.2987675689889718
 31
0.0
  0
ARC
  5
10B
330
8E
100
AcDbEntity
  8
AM_4
100
AcDbCircle
 10
-1.848964237079776
 20
-0.0000000000000004
 30
0.0
 40
0.2000000000000003
100
AcDbArc
 50
90.0
 51
219.644305573589
  0
LWPOLYLINE
  5
10C
330
8E
100
AcDbEntity
  8
AM_4
100
AcDbPolyline
 90
       10
 70
     0
 43
0.0
 10
-2.003165549900619
 20
-0.1273653925967521
 10
-2.001503287389105
 20
-0.1291842652280562
 10
-1.995225740121442
 20
-0.1344729790611519
 10
-1.986068141058721
 20
-0.1405186270901959
 10
-1.97477195189671
 20
-0.146827078301712
 10
-1.96103080075596
 20
-0.1535654953592165
 10
-1.945969311016478
 20
-0.1601799433259583
 10
-1.929175888196818
 20
-0.1668493358980661
 10
-1.911776552042823
 20
-0.1731116383367606
 10
-1.893533337263719
 20
-0.1790373738502114
  0
ELLIPSE
  5
10D
330
8E
100
AcDbEntity
  8
AM_4
100
AcDbEllipse
 10
-1.848964237079777
 20
-0.0000000000000001
 30
0.0
 11
1.224646799147353E-17
 21
0.2
 31
0.0
210
0.0
220
0.0
230
1.0
 40
0.4999999999999994
 41
0.0
 42
2.679646633022827
  0
LINE
  5
10E
330
8E
100
AcDbEntity
  8
AM_4
100
AcDbLine
 10
-1.81
 20
0.1999999999999999
 30
0.0
 11
-1.848964237079777
 21
0.1999999999999999
 31
0.0
  0
LINE
  5
10F
330
8E
100
AcDbEntity
  8
AM_4
100
AcDbLine
 10
-1.814058018677663
 20
-0.2
 30
0.0
 11
-1.81
 21
-0.2
 31
0.0
  0
LWPOLYLINE
  5
110
330
8E
100
AcDbEntity
  8
AM_4
100
AcDbPolyline
 90
        8
 70
     0
 43
0.0
 10
-1.813910234450755
 20
-0.1999999999699529
 10
-1.815397351690059
 20
-0.1999786710855128
 10
-1.826270952166808
 20
-0.1988321115509053
 10
-1.83866927388079
 20
-0.1961649429984259
 10
-1.853092704246783
 20
-0.1920694300574958
 10
-1.8686056841076
 20
-0.1870948030566195
 10
-1.885699087894571
 20
-0.181500594761393
 10
-1.893533337263737
 20
-0.1790373738501783
  0
LINE
  5
111
330
8E
100
AcDbEntity
  8
AM_4
100
AcDbLine
 10
-1.81648828443786
 20
0.1093749999999999
 30
0.0
 11
-1.810091459649643
 21
0.1304495421065803
 31
0.0
  0
LWPOLYLINE
  5
112
330
8E
100
AcDbEntity
  8
AM_4
100
AcDbPolyline
 90
        4
 70
     0
 43
0.0
 10
-1.840209355595552
 20
0.0
 10
-1.830255148166277
 20
0.0544416102741495
 10
-1.823896067556697
 20
0.0818700010907651
 10
-1.81648828443786
 20
0.1093749999999999
  0
LINE
  5
113
330
8E
100
AcDbEntity
  8
AM_4
100
AcDbLine
 10
-1.840209355595552
 20
0.0
 30
0.0
 11
-1.81
 21
0.0
 31
0.0
  0
LWPOLYLINE
  5
114
330
8E
100
AcDbEntity
  8
AM_4
100
AcDbPolyline
 90
        4
 70
     0
 43
0.0
 10
-1.81648828443786
 20
-0.1093749999999999
 10
-1.823855709191359
 20
-0.08203125
 10
-1.830202477300244
 20
-0.0546875
 10
-1.840209355595552
 20
0.0
  0
LINE
  5
115
330
8E
100
AcDbEntity
  8
AM_4
100
AcDbLine
 10
-1.810093881630293
 20
-0.1304419328750593
 30
0.0
 11
-1.81648828443786
 21
-0.1093749999999999
 31
0.0
  0
ENDBLK
  5
91
330
8E
100
AcDbEntity
  8
0
100
AcDbBlockEnd
  0
BLOCK
  5
118
330
116
100
AcDbEntity
  8
0
100
AcDbBlockBegin
  2
3_131445_0_in_131196_4
 70
     2
 10
0.0
 20
0.0
 30
0.0
  3
3_131445_0_in_131196_4
  1

  0
ATTDEF
  5
11A
330
116
100
AcDbEntity
  8
AM_6
100
AcDbText
 10
6.41651860061909
 20
0.3749999999999999
 30
0.0
 40
0.5
  1
Eccentric Collar Intermediate Duty Insert Inch Bore
100
AcDbAttributeDefinition
  3

  2
NN
 70
     8
280
     0
  0
ATTDEF
  5
11B
330
116
100
AcDbEntity
  8
AM_6
100
AcDbText
 10
6.41651860061909
 20
-0.1250000000000001
 30
0.0
 40
0.5
  1
Eccentric Collar Bearing Inserts -(Intermediate Duty)
100
AcDbAttributeDefinition
  3

  2
NT
 70
     8
280
     0
  0
ATTDEF
  5
11C
330
116
100
AcDbEntity
  8
AM_6
100
AcDbText
 10
6.41651860061909
 20
-0.625
 30
0.0
 40
0.5
  1
131445
100
AcDbAttributeDefinition
  3

  2
NB
 70
     8
280
     0
  0
ATTDEF
  5
11D
330
116
100
AcDbEntity
  8
AM_6
100
AcDbText
 10
6.41651860061909
 20
-1.125
 30
0.0
 40
0.5
  1
$PN.
100
AcDbAttributeDefinition
  3

  2
NBSYN
 70
     8
280
     0
  0
ATTDEF
  5
11E
330
116
100
AcDbEntity
  8
AM_6
100
AcDbText
 10
6.41651860061909
 20
-1.625
 30
0.0
 40
0.5
  1
131445
100
AcDbAttributeDefinition
  3

  2
LINA
 70
     8
280
     0
  0
ATTDEF
  5
11F
330
116
100
AcDbEntity
  8
AM_6
100
AcDbText
 10
6.41651860061909
 20
-2.125
 30
0.0
 40
0.5
  1
207
100
AcDbAttributeDefinition
  3

  2
SERIES
 70
     8
280
     0
  0
ATTDEF
  5
120
330
116
100
AcDbEntity
  8
AM_6
100
AcDbText
 10
6.41651860061909
 20
-2.625
 30
0.0
 40
0.5
  1
1-3/8
100
AcDbAttributeDefinition
  3

  2
SS
 70
     8
280
     0
  0
ATTDEF
  5
121
330
116
100
AcDbEntity
  8
AM_6
100
AcDbText
 10
6.41651860061909
 20
-3.125
 30
0.0
 40
0.5
  1
131445
100
AcDbAttributeDefinition
  3

  2
PN
 70
     8
280
     0
  0
ATTDEF
  5
122
330
116
100
AcDbEntity
  8
AM_6
100
AcDbText
 10
6.41651860061909
 20
-3.625
 30
0.0
 40
0.5
  1
INS-SXV-106
100
AcDbAttributeDefinition
  3

  2
DESCRIPTION
 70
     8
280
     0
  0
ATTDEF
  5
123
330
116
100
AcDbEntity
  8
AM_6
100
AcDbText
 10
6.41651860061909
 20
-4.125
 30
0.0
 40
0.5
  1
1.1
100
AcDbAttributeDefinition
  3

  2
WEIGHT
 70
     8
280
     0
  0
ATTDEF
  5
124
330
116
100
AcDbEntity
  8
AM_6
100
AcDbText
 10
6.41651860061909
 20
-4.625
 30
0.0
 40
0.5
  1
1.53
100
AcDbAttributeDefinition
  3

  2
A
 70
     8
280
     0
  0
ATTDEF
  5
125
330
116
100
AcDbEntity
  8
AM_6
100
AcDbText
 10
6.41651860061909
 20
-5.125
 30
0.0
 40
0.5
  1
0.75
100
AcDbAttributeDefinition
  3

  2
C
 70
     8
280
     0
  0
ATTDEF
  5
126
330
116
100
AcDbEntity
  8
AM_6
100
AcDbText
 10
6.41651860061909
 20
-5.625
 30
0.0
 40
0.5
  1
2.8346
100
AcDbAttributeDefinition
  3

  2
D
 70
     8
280
     0
  0
ATTDEF
  5
127
330
116
100
AcDbEntity
  8
AM_6
100
AcDbText
 10
6.41651860061909
 20
-6.125
 30
0.0
 40
0.5
  1
0.20
100
AcDbAttributeDefinition
  3

  2
J
 70
     8
280
     0
  0
ATTDEF
  5
128
330
116
100
AcDbEntity
  8
AM_6
100
AcDbText
 10
6.41651860061909
 20
-6.625
 30
0.0
 40
0.5
  1
2.13
100
AcDbAttributeDefinition
  3

  2
L
 70
     8
280
     0
  0
ATTDEF
  5
129
330
116
100
AcDbEntity
  8
AM_6
100
AcDbText
 10
6.41651860061909
 20
-7.125
 30
0.0
 40
0.5
  1
5/16 - 24
100
AcDbAttributeDefinition
  3

  2
N
 70
     8
280
     0
  0
ATTDEF
  5
12A
330
116
100
AcDbEntity
  8
AM_6
100
AcDbText
 10
6.41651860061909
 20
-7.625
 30
0.0
 40
0.5
  1
0.37
100
AcDbAttributeDefinition
  3

  2
W
 70
     8
280
     0
  0
ATTDEF
  5
12B
330
116
100
AcDbEntity
  8
AM_6
100
AcDbText
 10
6.41651860061909
 20
-8.125
 30
0.0
 40
0.5
  1
1.16
100
AcDbAttributeDefinition
  3

  2
Y
 70
     8
280
     0
  0
ATTDEF
  5
12C
330
116
100
AcDbEntity
  8
AM_6
100
AcDbText
 10
6.41651860061909
 20
-8.625
 30
0.0
 40
0.5
  1
1.84
100
AcDbAttributeDefinition
  3

  2
Z
 70
     8
280
     0
  0
ATTDEF
  5
12D
330
116
100
AcDbEntity
  8
AM_6
100
AcDbText
 10
6.41651860061909
 20
-9.125
 30
0.0
 40
0.5
  1
baldor
100
AcDbAttributeDefinition
  3

  2
COMPANY
 70
     8
280
     0
  0
LINE
  5
12E
330
116
100
AcDbEntity
  8
AM_9
100
AcDbLine
 10
1.065
 20
-0.7806006463725205
 30
0.0
 11
1.05932564637252
 21
-0.7862750000000002
 31
0.0
  0
LINE
  5
12F
330
116
100
AcDbEntity
  8
AM_9
100
AcDbLine
 10
1.05932564637252
 20
-1.064975
 30
0.0
 11
1.065
 21
-1.07064935362748
 31
0.0
  0
LINE
  5
130
330
116
100
AcDbEntity
  8
AM_9
100
AcDbLine
 10
1.05932564637252
 20
-1.011440194240637
 30
0.0
 11
1.05932564637252
 21
-1.064975
 31
0.0
  0
LINE
  5
131
330
116
100
AcDbEntity
  8
AM_9
100
AcDbLine
 10
0.6875000000000002
 20
-1.064975
 30
0.0
 11
1.05932564637252
 21
-1.064975
 31
0.0
  0
LINE
  5
132
330
116
100
AcDbEntity
  8
AM_9
100
AcDbLine
 10
1.05932564637252
 20
-0.7862750000000002
 30
0.0
 11
0.6875000000000001
 21
-0.7862750000000002
 31
0.0
  0
LINE
  5
133
330
116
100
AcDbEntity
  8
AM_9
100
AcDbLine
 10
1.05932564637252
 20
-0.7862750000000002
 30
0.0
 11
1.05932564637252
 21
-0.8398098057593634
 31
0.0
  0
LINE
  5
134
330
116
100
AcDbEntity
  8
AM_9
100
AcDbLine
 10
0.6875
 20
-0.6775000000000001
 30
0.0
 11
0.6875
 21
0.37
 31
0.0
  0
LINE
  5
135
330
116
100
AcDbEntity
  8
AM_9
100
AcDbLine
 10
-0.6875
 20
0.37
 30
0.0
 11
-0.6875
 21
-0.6775000000000001
 31
0.0
  0
LINE
  5
136
330
116
100
AcDbEntity
  8
AM_9
100
AcDbLine
 10
0.6875000000000001
 20
-1.14055456351737
 30
0.0
 11
0.6875000000000001
 21
-1.064975
 31
0.0
  0
LINE
  5
137
330
116
100
AcDbEntity
  8
AM_9
100
AcDbLine
 10
0.6875000000000001
 20
-0.7862750000000002
 30
0.0
 11
0.6875000000000001
 21
-0.7050000000000002
 31
0.0
  0
LINE
  5
138
330
116
100
AcDbEntity
  8
AM_9
100
AcDbLine
 10
-0.6875000000000001
 20
-0.7050000000000002
 30
0.0
 11
-0.6875000000000001
 21
-1.14055456351737
 31
0.0
  0
LWPOLYLINE
  5
139
330
116
100
AcDbEntity
  8
AM_9
100
AcDbPolyline
 90
       21
 70
     0
 43
0.0
 10
0.6874999999997352
 20
-0.7862750000013067
 10
0.6874782018862033
 20
-0.7863825834428066
 10
0.686893540420698
 20
-0.7892985228516459
 10
0.6856356096839655
 20
-0.795785245815456
 10
0.6837714332258987
 20
-0.8060192083517714
 10
0.6815675410358996
 20
-0.8193400740051885
 10
0.6791672765441366
 20
-0.836012712737708
 10
0.6769245041119859
 20
-0.8549924524935006
 10
0.6750115196729606
 20
-0.8766074093697028
 10
0.6737594349490023
 20
-0.8989051818344771
 10
0.6732358830145161
 20
-0.922670904819583
 10
0.6735201484681255
 20
-0.945412948163605
 10
0.6745768505640338
 20
-0.96824072264893
 10
0.6762244577310109
 20
-0.989199285159958
 10
0.6783670978292929
 20
-1.008956218143847
 10
0.6807014044018619
 20
-1.026206183402597
 10
0.6830580012709749
 20
-1.041082375686004
 10
0.6850729003992297
 20
-1.052459740356942
 10
0.6866039435417746
 20
-1.060484733749983
 10
0.6872684540807478
 20
-1.063828113114505
 10
0.6875000000000001
 20
-1.064975
  0
LINE
  5
13A
330
116
100
AcDbEntity
  8
AM_9
100
AcDbLine
 10
-0.6875000000000001
 20
-0.7050000000000002
 30
0.0
 11
0.6875000000000001
 21
-0.7050000000000002
 31
0.0
  0
LINE
  5
13B
330
116
100
AcDbEntity
  8
AM_9
100
AcDbLine
 10
0.6875000000000001
 20
-0.7050000000000002
 30
0.0
 11
0.7012500000000002
 21
-0.6912500000000001
 31
0.0
  0
LINE
  5
13C
330
116
100
AcDbEntity
  8
AM_9
100
AcDbLine
 10
-0.7012500000000002
 20
-0.6912500000000001
 30
0.0
 11
-0.6875000000000001
 21
-0.7050000000000002
 31
0.0
  0
LINE
  5
13D
330
116
100
AcDbEntity
  8
AM_9
100
AcDbLine
 10
-0.6875000000000001
 20
-0.6775000000000001
 30
0.0
 11
0.6875000000000001
 21
-0.6775000000000001
 31
0.0
  0
LINE
  5
13E
330
116
100
AcDbEntity
  8
AM_9
100
AcDbLine
 10
-0.7012500000000002
 20
-0.6912500000000001
 30
0.0
 11
0.7012500000000002
 21
-0.6912500000000001
 31
0.0
  0
LINE
  5
13F
330
116
100
AcDbEntity
  8
AM_9
100
AcDbLine
 10
-0.6875000000000001
 20
-0.6775000000000001
 30
0.0
 11
-0.7012500000000002
 21
-0.6912500000000001
 31
0.0
  0
LINE
  5
140
330
116
100
AcDbEntity
  8
AM_9
100
AcDbLine
 10
0.7012500000000002
 20
-0.6912500000000001
 30
0.0
 11
0.6875000000000001
 21
-0.6775000000000001
 31
0.0
  0
LINE
  5
141
330
116
100
AcDbEntity
  8
AM_9
100
AcDbLine
 10
-0.6875000000000001
 20
-1.14055456351737
 30
0.0
 11
0.6875000000000001
 21
-1.14055456351737
 31
0.0
  0
LINE
  5
142
330
116
100
AcDbEntity
  8
AM_9
100
AcDbLine
 10
-0.6875000000000001
 20
-1.14055456351737
 30
0.0
 11
-0.7069454364826302
 21
-1.16
 31
0.0
  0
LINE
  5
143
330
116
100
AcDbEntity
  8
AM_9
100
AcDbLine
 10
0.7069454364826302
 20
-1.16
 30
0.0
 11
0.6875000000000001
 21
-1.14055456351737
 31
0.0
  0
LINE
  5
144
330
116
100
AcDbEntity
  8
AM_9
100
AcDbLine
 10
0.92
 20
-0.5
 30
0.0
 11
0.92
 21
-0.3749999999999999
 31
0.0
  0
LINE
  5
145
330
116
100
AcDbEntity
  8
AM_9
100
AcDbLine
 10
-0.92
 20
-0.3749999999999999
 30
0.0
 11
-0.92
 21
-0.5
 31
0.0
  0
LINE
  5
146
330
116
100
AcDbEntity
  8
AM_9
100
AcDbLine
 10
-0.92
 20
0.37
 30
0.0
 11
0.92
 21
0.37
 31
0.0
  0
LINE
  5
147
330
116
100
AcDbEntity
  8
AM_9
100
AcDbLine
 10
0.92
 20
0.37
 30
0.0
 11
0.92
 21
0.3749999999999999
 31
0.0
  0
LINE
  5
148
330
116
100
AcDbEntity
  8
AM_9
100
AcDbLine
 10
-0.92
 20
0.3749999999999999
 30
0.0
 11
-0.92
 21
0.37
 31
0.0
  0
LINE
  5
149
330
116
100
AcDbEntity
  8
AM_9
100
AcDbLine
 10
1.349809523809525
 20
-0.24
 30
0.0
 11
1.349809523809525
 21
-0.16
 31
0.0
  0
LINE
  5
14A
330
116
100
AcDbEntity
  8
AM_9
100
AcDbLine
 10
-1.349809523809525
 20
-0.16
 30
0.0
 11
-1.349809523809525
 21
-0.24
 31
0.0
  0
LINE
  5
14B
330
116
100
AcDbEntity
  8
AM_9
100
AcDbLine
 10
1.25
 20
0.3749999999999999
 30
0.0
 11
1.345655152704436
 21
0.3749999999999999
 31
0.0
  0
LINE
  5
14C
330
116
100
AcDbEntity
  8
AM_9
100
AcDbLine
 10
-1.345655152704436
 20
0.3749999999999999
 30
0.0
 11
-1.25
 21
0.3749999999999999
 31
0.0
  0
ARC
  5
14D
330
116
100
AcDbEntity
  8
AM_9
100
AcDbCircle
 10
1.345655152704437
 20
0.3475000000000004
 30
0.0
 40
0.0274999999999994
100
AcDbArc
 50
14.47964109334417
 51
90.0
  0
ARC
  5
14E
330
116
100
AcDbEntity
  8
AM_9
100
AcDbCircle
 10
-1.345655152704437
 20
0.3475000000000005
 30
0.0
 40
0.0274999999999995
100
AcDbArc
 50
90.0
 51
165.520358906656
  0
LINE
  5
14F
330
116
100
AcDbEntity
  8
AM_9
100
AcDbLine
 10
1.25
 20
-0.3750000000000001
 30
0.0
 11
1.345655152704437
 21
-0.3750000000000001
 31
0.0
  0
LINE
  5
150
330
116
100
AcDbEntity
  8
AM_9
100
AcDbLine
 10
-1.345655152704437
 20
-0.3750000000000001
 30
0.0
 11
-1.25
 21
-0.3750000000000001
 31
0.0
  0
ARC
  5
151
330
116
100
AcDbEntity
  8
AM_9
100
AcDbCircle
 10
1.345655152704437
 20
-0.3475000000000009
 30
0.0
 40
0.0274999999999992
100
AcDbArc
 50
270.0
 51
345.5203589066554
  0
ARC
  5
152
330
116
100
AcDbEntity
  8
AM_9
100
AcDbCircle
 10
-1.345655152704437
 20
-0.3475000000000014
 30
0.0
 40
0.0274999999999989
100
AcDbArc
 50
194.4796410933437
 51
270.0
  0
ARC
  5
153
330
116
100
AcDbEntity
  8
AM_9
100
AcDbCircle
 10
-0.0000000000002895
 20
0.0000000000000595
 30
0.0
 40
1.417300000000295
100
AcDbArc
 50
345.520358906656
 51
350.2507814750855
  0
ARC
  5
154
330
116
100
AcDbEntity
  8
AM_9
100
AcDbCircle
 10
-0.0000000005122589
 20
-0.0000000001098612
 30
0.0
 40
1.417299999476985
100
AcDbArc
 50
189.7492185240404
 51
194.4796410942177
  0
LINE
  5
155
330
116
100
AcDbEntity
  8
AM_9
100
AcDbLine
 10
-1.372281657741137
 20
-0.3543759893509864
 30
0.0
 11
1.37228165774068
 21
-0.3543759893509864
 31
0.0
  0
LINE
  5
156
330
116
100
AcDbEntity
  8
AM_9
100
AcDbLine
 10
-1.396831876068582
 20
-0.24
 30
0.0
 11
1.396831876068126
 21
-0.24
 31
0.0
  0
ELLIPSE
  5
157
330
116
100
AcDbEntity
  8
AM_9
100
AcDbEllipse
 10
-0.0000000000000001
 20
0.1990299416969315
 30
0.0
 11
0.0778199297409484
 21
1.159607317163772E-9
 31
0.0
210
0.0
220
0.0
230
1.0
 40
0.9900606442862926
 41
3.815369645057848
 42
5.609408285841591
  0
LWPOLYLINE
  5
158
330
116
100
AcDbEntity
  8
AM_9
100
AcDbPolyline
 90
       28
 70
     0
 43
0.0
 10
0.060813988159534
 20
0.1509574218751476
 10
0.0681241407951776
 20
0.1617558231109778
 10
0.0736571090037152
 20
0.1739587650405204
 10
0.076962555372822
 20
0.1865731353069561
 10
0.0781249684182776
 20
0.1999297529848873
 10
0.0770399205290013
 20
0.2129756028717421
 10
0.0736635095580581
 20
0.2260231240359392
 10
0.068272673394294
 20
0.2379783845443176
 10
0.0607034843891974
 20
0.2491792904382573
 10
0.0516509551481322
 20
0.2586147972553487
 10
0.040801656829507
 20
0.266623872785715
 10
0.0291972021476109
 20
0.2724640532384957
 10
0.0163935164847286
 20
0.2763856546889855
 10
0.0036011891053292
 20
0.2780419570617476
 10
-0.0096673041099445
 20
0.2775245693715602
 10
-0.0222362283747368
 20
0.2748936964815233
 10
-0.0345274716593175
 20
0.2700811624176927
 10
-0.0455424035682705
 20
0.2634775952775842
 10
-0.055571008365746
 20
0.2549124635598712
 10
-0.0638505783579587
 20
0.2450179882752903
 10
-0.070538840216839
 20
0.233582549722486
 10
-0.0751288416894017
 20
0.2214283170456481
 10
-0.0776804155157541
 20
0.2083227802025401
 10
-0.0779805397368869
 20
0.1952512056957789
 10
-0.0760090747590301
 20
0.1819407591722083
 10
-0.0719174305315125
 20
0.1694811728478127
 10
-0.0655819195340054
 20
0.1575438172319361
 10
-0.0608139881595448
 20
0.1509574218751611
  0
ARC
  5
159
330
116
100
AcDbEntity
  8
AM_9
100
AcDbCircle
 10
-0.0000000000000124
 20
-0.0000000000000004
 30
0.0
 40
1.417300000000012
100
AcDbArc
 50
353.518020799482
 51
14.47964109334455
  0
ARC
  5
15A
330
116
100
AcDbEntity
  8
AM_9
100
AcDbCircle
 10
0.0000000000099989
 20
-0.0000000000007
 30
0.0
 40
1.417300000009878
100
AcDbArc
 50
165.5203589067293
 51
186.4819792004442
  0
LINE
  5
15B
330
116
100
AcDbEntity
  8
AM_9
100
AcDbLine
 10
-1.408239784269732
 20
-0.1599999999999999
 30
0.0
 11
1.40823978426971
 21
-0.1599999999999999
 31
0.0
  0
LINE
  5
15C
330
116
100
AcDbEntity
  8
AM_9
100
AcDbLine
 10
-1.372281657740703
 20
0.3543759893509859
 30
0.0
 11
1.37228165774068
 21
0.3543759893509859
 31
0.0
  0
LINE
  5
15E
330
116
100
AcDbEntity
  8
AM_5
100
AcDbLine
 10
0.6875000000000001
 20
-0.7693749999999999
 30
0.0
 11
1.065
 21
-0.7693749999999999
 31
0.0
  0
LINE
  5
15F
330
116
100
AcDbEntity
  8
AM_5
100
AcDbLine
 10
0.6875000000000001
 20
-1.081875
 30
0.0
 11
1.065
 21
-1.081875
 31
0.0
  0
LINE
  5
162
330
116
100
AcDbEntity
  8
AM_7
100
AcDbLine
 10
1.097698982932352
 20
-0.9256249999999999
 30
0.0
 11
0.6252855786160603
 21
-0.9256249999999999
 31
0.0
  0
LINE
  5
163
330
116
100
AcDbEntity
  8
AM_4
100
AcDbLine
 10
0.8761904761904762
 20
-0.5975000000000001
 30
0.0
 11
0.8761904761904762
 21
-0.5662500000000001
 31
0.0
  0
LINE
  5
164
330
116
100
AcDbEntity
  8
AM_4
100
AcDbLine
 10
-0.8761904761904762
 20
-0.5662500000000001
 30
0.0
 11
-0.8761904761904762
 21
-0.5975000000000001
 31
0.0
  0
LINE
  5
165
330
116
100
AcDbEntity
  8
AM_4
100
AcDbLine
 10
-0.92
 20
-0.5662500000000003
 30
0.0
 11
0.92
 21
-0.5662500000000003
 31
0.0
  0
LINE
  5
166
330
116
100
AcDbEntity
  8
AM_4
100
AcDbLine
 10
0.92
 20
-0.5662500000000003
 30
0.0
 11
0.92
 21
-0.5
 31
0.0
  0
LINE
  5
167
330
116
100
AcDbEntity
  8
AM_4
100
AcDbLine
 10
-0.92
 20
-0.5
 30
0.0
 11
-0.92
 21
-0.5662500000000003
 31
0.0
  0
LINE
  5
168
330
116
100
AcDbEntity
  8
AM_4
100
AcDbLine
 10
-1.01
 20
-0.5975000000000001
 30
0.0
 11
1.01
 21
-0.5975000000000001
 31
0.0
  0
ARC
  5
169
330
116
100
AcDbEntity
  8
AM_4
100
AcDbCircle
 10
1.01
 20
-0.6525000000000004
 30
0.0
 40
0.0550000000000002
100
AcDbArc
 50
0.0
 51
90.0
  0
ARC
  5
16A
330
116
100
AcDbEntity
  8
AM_4
100
AcDbCircle
 10
-1.01
 20
-0.6525000000000004
 30
0.0
 40
0.0550000000000003
100
AcDbArc
 50
90.0
 51
180.0
  0
LWPOLYLINE
  5
16B
330
116
100
AcDbEntity
  8
AM_4
100
AcDbPolyline
 90
        9
 70
     0
 43
0.0
 10
1.05932564637252
 20
-1.011440194240637
 10
1.057921610146198
 20
-0.9918563086205117
 10
1.056793182816664
 20
-0.9704050597115984
 10
1.056077455030058
 20
-0.9476577901896315
 10
1.055844865169729
 20
-0.9242826865925924
 10
1.056132914322295
 20
-0.9010724233045222
 10
1.056892735614237
 20
-0.8785540206799877
 10
1.057988363157618
 20
-0.8583282704334853
 10
1.05932564637252
 20
-0.8398098057593634
  0
LWPOLYLINE
  5
16C
330
116
100
AcDbEntity
  8
AM_4
100
AcDbPolyline
 90
        8
 70
     0
 43
0.0
 10
1.059325646372513
 20
-0.8398098057593689
 10
1.060262112245195
 20
-0.8275890924472653
 10
1.061232752943996
 20
-0.8163385594959905
 10
1.062651867856834
 20
-0.8016875301345096
 10
1.063878990650547
 20
-0.7902674023483498
 10
1.064647713501732
 20
-0.7835695148123246
 10
1.064991109273103
 20
-0.7806748454260088
 10
1.06499999999998
 20
-0.780600646372685
  0
LINE
  5
16D
330
116
100
AcDbEntity
  8
AM_4
100
AcDbLine
 10
-1.065
 20
-0.6525000000000002
 30
0.0
 11
1.065
 21
-0.6525000000000002
 31
0.0
  0
LINE
  5
16E
330
116
100
AcDbEntity
  8
AM_4
100
AcDbLine
 10
1.065
 20
-1.105
 30
0.0
 11
1.065
 21
-1.07064935362748
 31
0.0
  0
LINE
  5
16F
330
116
100
AcDbEntity
  8
AM_4
100
AcDbLine
 10
1.065
 20
-0.7806006463725205
 30
0.0
 11
1.065
 21
-0.6525000000000002
 31
0.0
  0
LINE
  5
170
330
116
100
AcDbEntity
  8
AM_4
100
AcDbLine
 10
-1.065
 20
-0.6525000000000002
 30
0.0
 11
-1.065
 21
-1.105
 31
0.0
  0
LWPOLYLINE
  5
171
330
116
100
AcDbEntity
  8
AM_4
100
AcDbPolyline
 90
        8
 70
     0
 43
0.0
 10
1.06499999999998
 20
-1.070649353627315
 10
1.064865264121535
 20
-1.069520907044233
 10
1.064308937036113
 20
-1.064767417144173
 10
1.063420904138356
 20
-1.056833084102866
 10
1.062246624822131
 20
-1.045557994855539
 10
1.060907654503725
 20
-1.031274809751317
 10
1.059518499038573
 20
-1.014093398511163
 10
1.05932564637252
 20
-1.011440194240637
  0
LINE
  5
172
330
116
100
AcDbEntity
  8
AM_4
100
AcDbLine
 10
-1.01
 20
-1.16
 30
0.0
 11
1.01
 21
-1.16
 31
0.0
  0
LINE
  5
173
330
116
100
AcDbEntity
  8
AM_4
100
AcDbLine
 10
-1.065
 20
-1.105
 30
0.0
 11
1.065
 21
-1.105
 31
0.0
  0
ARC
  5
174
330
116
100
AcDbEntity
  8
AM_4
100
AcDbCircle
 10
1.01
 20
-1.105
 30
0.0
 40
0.0549999999999999
100
AcDbArc
 50
270.0
 51
0.0000008537736463
  0
ARC
  5
175
330
116
100
AcDbEntity
  8
AM_4
100
AcDbCircle
 10
-1.01
 20
-1.105
 30
0.0
 40
0.0549999999999999
100
AcDbArc
 50
179.9999991462263
 51
270.0
  0
ENDBLK
  5
119
330
116
100
AcDbEntity
  8
0
100
AcDbBlockEnd
  0
BLOCK
  5
178
330
176
100
AcDbEntity
  8
0
100
AcDbBlockBegin
  2
4_131196H_0_in_131196_4
 70
     2
 10
0.0
 20
0.0
 30
0.0
  3
4_131196H_0_in_131196_4
  1

  0
ATTDEF
  5
17A
330
176
100
AcDbEntity
  8
AM_6
100
AcDbText
 10
7.748635
 20
0.7589999999999998
 30
0.0
 40
0.5
  1
NSTU-SXV -I-Housing
100
AcDbAttributeDefinition
  3

  2
NN
 70
     8
280
     0
  0
ATTDEF
  5
17B
330
176
100
AcDbEntity
  8
AM_6
100
AcDbText
 10
7.748635
 20
0.2589999999999998
 30
0.0
 40
0.5
  1
Eccentric Collar Take-Up Bearings -(Intermediate Duty) -Narrow Slot
100
AcDbAttributeDefinition
  3

  2
NT
 70
     8
280
     0
  0
ATTDEF
  5
17C
330
176
100
AcDbEntity
  8
AM_6
100
AcDbText
 10
7.748635
 20
-0.2410000000000002
 30
0.0
 40
0.5
  1
131196H
100
AcDbAttributeDefinition
  3

  2
NB
 70
     8
280
     0
  0
ATTDEF
  5
17D
330
176
100
AcDbEntity
  8
AM_6
100
AcDbText
 10
7.748635
 20
-0.7410000000000002
 30
0.0
 40
0.5
  1
$PN.H
100
AcDbAttributeDefinition
  3

  2
NBSYN
 70
     8
280
     0
  0
ATTDEF
  5
17E
330
176
100
AcDbEntity
  8
AM_6
100
AcDbText
 10
7.748635
 20
-1.241
 30
0.0
 40
0.5
  1
131196
100
AcDbAttributeDefinition
  3

  2
LINA
 70
     8
280
     0
  0
ATTDEF
  5
17F
330
176
100
AcDbEntity
  8
AM_6
100
AcDbText
 10
7.748635
 20
-1.741
 30
0.0
 40
0.5
  1
207
100
AcDbAttributeDefinition
  3

  2
SERIES
 70
     8
280
     0
  0
ATTDEF
  5
180
330
176
100
AcDbEntity
  8
AM_6
100
AcDbText
 10
7.748635
 20
-2.241
 30
0.0
 40
0.5
  1
1-3/8
100
AcDbAttributeDefinition
  3

  2
SS
 70
     8
280
     0
  0
ATTDEF
  5
181
330
176
100
AcDbEntity
  8
AM_6
100
AcDbText
 10
7.748635
 20
-2.741
 30
0.0
 40
0.5
  1
131196
100
AcDbAttributeDefinition
  3

  2
PN
 70
     8
280
     0
  0
ATTDEF
  5
182
330
176
100
AcDbEntity
  8
AM_6
100
AcDbText
 10
7.748635
 20
-3.241
 30
0.0
 40
0.5
  1
NSTU-SXV-106
100
AcDbAttributeDefinition
  3

  2
DESCRIPTION
 70
     8
280
     0
  0
ATTDEF
  5
183
330
176
100
AcDbEntity
  8
AM_6
100
AcDbText
 10
7.748635
 20
-3.741
 30
0.0
 40
0.5
  1
2.6
100
AcDbAttributeDefinition
  3

  2
W
 70
     8
280
     0
  0
ATTDEF
  5
184
330
176
100
AcDbEntity
  8
AM_6
100
AcDbText
 10
7.748635
 20
-4.241
 30
0.0
 40
0.5
  1
NS308
100
AcDbAttributeDefinition
  3

  2
FS
 70
     8
280
     0
  0
ATTDEF
  5
185
330
176
100
AcDbEntity
  8
AM_6
100
AcDbText
 10
7.748635
 20
-4.741
 30
0.0
 40
0.5
  1
1.53
100
AcDbAttributeDefinition
  3

  2
A
 70
     8
280
     0
  0
ATTDEF
  5
186
330
176
100
AcDbEntity
  8
AM_6
100
AcDbText
 10
7.748635
 20
-5.241
 30
0.0
 40
0.5
  1
4.50
100
AcDbAttributeDefinition
  3

  2
B
 70
     8
280
     0
  0
ATTDEF
  5
187
330
176
100
AcDbEntity
  8
AM_6
100
AcDbText
 10
7.748635
 20
-5.741
 30
0.0
 40
0.5
  1
0.250
100
AcDbAttributeDefinition
  3

  2
C
 70
     8
280
     0
  0
ATTDEF
  5
188
330
176
100
AcDbEntity
  8
AM_6
100
AcDbText
 10
7.748635
 20
-6.241
 30
0.0
 40
0.5
  1
2.50
100
AcDbAttributeDefinition
  3

  2
D
 70
     8
280
     0
  0
ATTDEF
  5
189
330
176
100
AcDbEntity
  8
AM_6
100
AcDbText
 10
7.748635
 20
-6.741
 30
0.0
 40
0.5
  1
2.69
100
AcDbAttributeDefinition
  3

  2
E
 70
     8
280
     0
  0
ATTDEF
  5
18A
330
176
100
AcDbEntity
  8
AM_6
100
AcDbText
 10
7.748635
 20
-7.241
 30
0.0
 40
0.5
  1
3/4
100
AcDbAttributeDefinition
  3

  2
F
 70
     8
280
     0
  0
ATTDEF
  5
18B
330
176
100
AcDbEntity
  8
AM_6
100
AcDbText
 10
7.748635
 20
-7.741
 30
0.0
 40
0.5
  1
0.50
100
AcDbAttributeDefinition
  3

  2
G
 70
     8
280
     0
  0
ATTDEF
  5
18C
330
176
100
AcDbEntity
  8
AM_6
100
AcDbText
 10
7.748635
 20
-8.241
 30
0.0
 40
0.5
  1
0.94
100
AcDbAttributeDefinition
  3

  2
H
 70
     8
280
     0
  0
ATTDEF
  5
18D
330
176
100
AcDbEntity
  8
AM_6
100
AcDbText
 10
7.748635
 20
-8.741
 30
0.0
 40
0.5
  1
1.38
100
AcDbAttributeDefinition
  3

  2
J
 70
     8
280
     0
  0
ATTDEF
  5
18E
330
176
100
AcDbEntity
  8
AM_6
100
AcDbText
 10
7.748635
 20
-9.241
 30
0.0
 40
0.5
  1
2.13
100
AcDbAttributeDefinition
  3

  2
L
 70
     8
280
     0
  0
ATTDEF
  5
18F
330
176
100
AcDbEntity
  8
AM_6
100
AcDbText
 10
7.748635
 20
-9.741
 30
0.0
 40
0.5
  1
3.510 / 3.480
100
AcDbAttributeDefinition
  3

  2
M
 70
     8
280
     0
  0
ATTDEF
  5
190
330
176
100
AcDbEntity
  8
AM_6
100
AcDbText
 10
7.748635
 20
-10.241
 30
0.0
 40
0.5
  1
4.13
100
AcDbAttributeDefinition
  3

  2
N
 70
     8
280
     0
  0
ATTDEF
  5
191
330
176
100
AcDbEntity
  8
AM_6
100
AcDbText
 10
7.748635
 20
-10.741
 30
0.0
 40
0.5
  1
0.32
100
AcDbAttributeDefinition
  3

  2
P
 70
     8
280
     0
  0
ATTDEF
  5
192
330
176
100
AcDbEntity
  8
AM_6
100
AcDbText
 10
7.748635
 20
-11.241
 30
0.0
 40
0.5
  1
0.37
100
AcDbAttributeDefinition
  3

  2
R
 70
     8
280
     0
  0
ATTDEF
  5
193
330
176
100
AcDbEntity
  8
AM_6
100
AcDbText
 10
7.748635
 20
-11.741
 30
0.0
 40
0.5
  1
1.16
100
AcDbAttributeDefinition
  3

  2
S
 70
     8
280
     0
  0
ATTDEF
  5
194
330
176
100
AcDbEntity
  8
AM_6
100
AcDbText
 10
7.748635
 20
-12.241
 30
0.0
 40
0.5
  1
3065
100
AcDbAttributeDefinition
  3

  2
CAPS
 70
     8
280
     0
  0
ATTDEF
  5
195
330
176
100
AcDbEntity
  8
AM_6
100
AcDbText
 10
7.748635
 20
-12.741
 30
0.0
 40
0.5
  1
5759
100
AcDbAttributeDefinition
  3

  2
CAPD
 70
     8
280
     0
  0
ATTDEF
  5
196
330
176
100
AcDbEntity
  8
AM_6
100
AcDbText
 10
7.748635
 20
-13.241
 30
0.0
 40
0.5
  1
baldor
100
AcDbAttributeDefinition
  3

  2
COMPANY
 70
     8
280
     0
  0
LINE
  5
197
330
176
100
AcDbEntity
  8
AM_9
100
AcDbLine
 10
2.35
 20
0.3750000000000001
 30
0.0
 11
2.35
 21
0.6899999999999996
 31
0.0
  0
LINE
  5
198
330
176
100
AcDbEntity
  8
AM_9
100
AcDbLine
 10
2.03
 20
0.6899999999999996
 30
0.0
 11
2.03
 21
0.3749999999999998
 31
0.0
  0
LINE
  5
199
330
176
100
AcDbEntity
  8
AM_9
100
AcDbLine
 10
2.35
 20
-0.6899999999999997
 30
0.0
 11
2.35
 21
-0.3749999999999999
 31
0.0
  0
LINE
  5
19A
330
176
100
AcDbEntity
  8
AM_9
100
AcDbLine
 10
2.03
 20
-0.3749999999999999
 30
0.0
 11
2.03
 21
-0.6899999999999997
 31
0.0
  0
LINE
  5
19B
330
176
100
AcDbEntity
  8
AM_9
100
AcDbLine
 10
2.348617569356534
 20
-0.3744122504787661
 30
0.0
 11
2.349999999967329
 21
-0.3749999999860606
 31
0.0
  0
LINE
  5
19C
330
176
100
AcDbEntity
  8
AM_9
100
AcDbLine
 10
1.75
 20
0.3749999999999999
 30
0.0
 11
1.75
 21
-0.3749999999999999
 31
0.0
  0
LWPOLYLINE
  5
19D
330
176
100
AcDbEntity
  8
AM_9
100
AcDbPolyline
 90
       21
 70
     0
 43
0.0
 10
2.03
 20
0.3749999999999999
 10
2.031997302716337
 20
0.3741521780625
 10
2.03814675046068
 20
0.3715971062799747
 10
2.047847339836106
 20
0.3677395529334196
 10
2.061303694897208
 20
0.3627502432075143
 10
2.078316092112752
 20
0.3570690343350532
 10
2.098801894212291
 20
0.3512009318029581
 10
2.122458004417134
 20
0.3458134195882453
 10
2.149146153092783
 20
0.341605088965487
 10
2.175026893722942
 20
0.3394837167105133
 10
2.202303401167014
 20
0.3393764483288085
 10
2.226264691059636
 20
0.3410866866613981
 10
2.249876996401682
 20
0.3443983953186876
 10
2.271806646858942
 20
0.3488801047212404
 10
2.292173194557665
 20
0.354209488419097
 10
2.311040615752141
 20
0.3601053049618367
 10
2.32702794679631
 20
0.3657890897815468
 10
2.339066055755283
 20
0.3704668527391314
 10
2.346995108612056
 20
0.3737277941605512
 10
2.349915232500954
 20
0.3749638403710875
 10
2.349999999967329
 20
0.3749999999860606
  0
LINE
  5
19E
330
176
100
AcDbEntity
  8
AM_9
100
AcDbLine
 10
1.75
 20
-0.3749999999999999
 30
0.0
 11
2.03
 21
-0.3749999999999999
 31
0.0
  0
LINE
  5
19F
330
176
100
AcDbEntity
  8
AM_9
100
AcDbLine
 10
2.35
 20
-0.3750000000000001
 30
0.0
 11
2.69
 21
-0.3749999999999999
 31
0.0
  0
LINE
  5
1A0
330
176
100
AcDbEntity
  8
AM_9
100
AcDbLine
 10
2.69
 20
0.3749999999999999
 30
0.0
 11
2.35
 21
0.3749999999999999
 31
0.0
  0
LINE
  5
1A1
330
176
100
AcDbEntity
  8
AM_9
100
AcDbLine
 10
2.03
 20
0.3749999999999999
 30
0.0
 11
1.75
 21
0.3749999999999999
 31
0.0
  0
LWPOLYLINE
  5
1A2
330
176
100
AcDbEntity
  8
AM_9
100
AcDbPolyline
 90
       21
 70
     0
 43
0.0
 10
2.349999999967329
 20
-0.3749999999860606
 10
2.34855716354838
 20
-0.3743866639084619
 10
2.343437731240092
 20
-0.3722474141859237
 10
2.334514866612369
 20
-0.3686591198817559
 10
2.322103194651517
 20
-0.363972875414002
 10
2.306150676689222
 20
-0.358491254698583
 10
2.286341326701011
 20
-0.352571483858963
 10
2.263127369711885
 20
-0.3469475640510808
 10
2.237926259976097
 20
-0.3425228844840829
 10
2.210180233674187
 20
-0.3397532072418813
 10
2.184813423645203
 20
-0.33919301374628
 10
2.158799019351194
 20
-0.3405855269876381
 10
2.135671685337975
 20
-0.3434771692180079
 10
2.113381571482429
 20
-0.3477001345822317
 10
2.092316745298556
 20
-0.3529405307542152
 10
2.07328763061672
 20
-0.3586736360078045
 10
2.056533015818854
 20
-0.364470075405938
 10
2.043192978009165
 20
-0.3695636639414343
 10
2.034606770532534
 20
-0.3730577110372181
 10
2.030341538009763
 20
-0.3748544043826721
 10
2.03
 20
-0.3749999999999999
  0
LINE
  5
1A3
330
176
100
AcDbEntity
  8
AM_9
100
AcDbLine
 10
2.349999999967329
 20
0.3749999999860606
 30
0.0
 11
2.348269435062816
 21
0.3742648982673944
 31
0.0
  0
LINE
  5
1A4
330
176
100
AcDbEntity
  8
AM_9
100
AcDbLine
 10
-0.4583333333333333
 20
-0.2499999999999998
 30
0.0
 11
-0.4583333333333333
 21
0.5000000000000001
 31
0.0
  0
LINE
  5
1A5
330
176
100
AcDbEntity
  8
AM_9
100
AcDbLine
 10
0.4583333333333333
 20
-0.2499999999999998
 30
0.0
 11
0.4583333333333333
 21
0.5000000000000001
 31
0.0
  0
LINE
  5
1A6
330
176
100
AcDbEntity
  8
AM_9
100
AcDbLine
 10
1.4173
 20
-0.5
 30
0.0
 11
1.4173
 21
0.5
 31
0.0
  0
LINE
  5
1A7
330
176
100
AcDbEntity
  8
AM_9
100
AcDbLine
 10
-1.4173
 20
0.5
 30
0.0
 11
-1.4173
 21
-0.5
 31
0.0
  0
LINE
  5
1A8
330
176
100
AcDbEntity
  8
AM_9
100
AcDbLine
 10
0.4583333333333333
 20
-0.2499999999999998
 30
0.0
 11
-0.4583333333333333
 21
-0.2499999999999998
 31
0.0
  0
LINE
  5
1A9
330
176
100
AcDbEntity
  8
AM_7
100
AcDbLine
 10
1.458665
 20
0.0
 30
0.0
 11
2.748635
 21
0.0
 31
0.0
  0
LINE
  5
1AA
330
176
100
AcDbEntity
  8
AM_7
100
AcDbLine
 10
2.19
 20
0.7589999999999998
 30
0.0
 11
2.19
 21
-0.7589999999999998
 31
0.0
  0
LINE
  5
1AB
330
176
100
AcDbEntity
  8
AM_7
100
AcDbLine
 10
0.0
 20
0.55
 30
0.0
 11
0.0
 21
-1.23675
 31
0.0
  0
LINE
  5
1AC
330
176
100
AcDbEntity
  8
AM_4
100
AcDbLine
 10
1.5173
 20
-0.5
 30
0.0
 11
1.5173
 21
-0.6066666666666665
 31
0.0
  0
ARC
  5
1AD
330
176
100
AcDbEntity
  8
AM_4
100
AcDbCircle
 10
1.600633333333334
 20
-0.606666666666666
 30
0.0
 40
0.0833333333333337
100
AcDbArc
 50
180.0
 51
270.0
  0
LINE
  5
1AE
330
176
100
AcDbEntity
  8
AM_4
100
AcDbLine
 10
1.5173
 20
0.6066666666666665
 30
0.0
 11
1.5173
 21
0.5
 31
0.0
  0
ARC
  5
1AF
330
176
100
AcDbEntity
  8
AM_4
100
AcDbCircle
 10
1.600633333333334
 20
0.606666666666666
 30
0.0
 40
0.0833333333333337
100
AcDbArc
 50
90.0
 51
180.0
  0
LINE
  5
1B0
330
176
100
AcDbEntity
  8
AM_4
100
AcDbLine
 10
1.600633333333334
 20
-0.5
 30
0.0
 11
1.600633333333334
 21
-0.6899999999999997
 31
0.0
  0
LWPOLYLINE
  5
1B1
330
176
100
AcDbEntity
  8
AM_4
100
AcDbPolyline
 90
       20
 70
     0
 43
0.0
 10
2.03
 20
0.6899999999999997
 10
2.032140695186946
 20
0.6895067513201452
 10
2.038744453112479
 20
0.6880248836083203
 10
2.049228912398575
 20
0.685796251888626
 10
2.063871820805275
 20
0.6829409327218396
 10
2.081788263482063
 20
0.6798601179067846
 10
2.103290384396641
 20
0.6767706830515652
 10
2.126929988850567
 20
0.6741497061531578
 10
2.153181233050637
 20
0.6722020690236463
 10
2.179300636844817
 20
0.6712782406513161
 10
2.206525437208576
 20
0.6713963732959348
 10
2.2319685811294
 20
0.6725038005855541
 10
2.256939965558993
 20
0.6745227638775722
 10
2.279607367282519
 20
0.6771480490050191
 10
2.300400415249581
 20
0.6802119167489494
 10
2.318058731664014
 20
0.6833001088507127
 10
2.332545545830736
 20
0.6861626867122566
 10
2.342655639677508
 20
0.688334035425642
 10
2.348620003712706
 20
0.6896813072556183
 10
2.34999999999742
 20
0.6899999999994016
  0
LINE
  5
1B2
330
176
100
AcDbEntity
  8
AM_4
100
AcDbLine
 10
1.600633333333334
 20
-0.6899999999999997
 30
0.0
 11
2.03
 21
-0.6899999999999997
 31
0.0
  0
LINE
  5
1B3
330
176
100
AcDbEntity
  8
AM_4
100
AcDbLine
 10
2.35
 20
-0.6899999999999997
 30
0.0
 11
2.606666666666666
 21
-0.6899999999999997
 31
0.0
  0
LINE
  5
1B4
330
176
100
AcDbEntity
  8
AM_4
100
AcDbLine
 10
2.606666666666666
 20
0.6899999999999997
 30
0.0
 11
2.35
 21
0.6899999999999997
 31
0.0
  0
LINE
  5
1B5
330
176
100
AcDbEntity
  8
AM_4
100
AcDbLine
 10
2.03
 20
0.6899999999999997
 30
0.0
 11
1.600633333333334
 21
0.6899999999999997
 31
0.0
  0
LINE
  5
1B6
330
176
100
AcDbEntity
  8
AM_4
100
AcDbLine
 10
1.600633333333334
 20
0.6899999999999997
 30
0.0
 11
1.600633333333334
 21
0.5
 31
0.0
  0
LWPOLYLINE
  5
1B7
330
176
100
AcDbEntity
  8
AM_4
100
AcDbPolyline
 90
       21
 70
     0
 43
0.0
 10
2.34999999999742
 20
-0.6899999999994016
 10
2.349914545399701
 20
-0.6899801894477786
 10
2.346758026933689
 20
-0.6892554526502804
 10
2.339543043560536
 20
-0.6876504358155735
 10
2.328078204457363
 20
-0.6852485611412613
 10
2.313045938683022
 20
-0.6823784162958157
 10
2.294181942129107
 20
-0.679230356407745
 10
2.272533212320225
 20
-0.6762482762535481
 10
2.247806266272367
 20
-0.6736776413243589
 10
2.222251654225126
 20
-0.6719673870064355
 10
2.194943172524084
 20
-0.6712111701652488
 10
2.168929179778923
 20
-0.6715236253958521
 10
2.142771120070542
 20
-0.6728525597033801
 10
2.118752490926386
 20
-0.6749638564761778
 10
2.096057487226439
 20
-0.6777353434093654
 10
2.076063058469616
 20
-0.6807948491618439
 10
2.058733146158331
 20
-0.6839086100624043
 10
2.045316239328239
 20
-0.6866100717307628
 10
2.035719718082652
 20
-0.6886961633322027
 10
2.031464933014099
 20
-0.6896617775868288
 10
2.03
 20
-0.6899999999999997
  0
LINE
  5
1B8
330
176
100
AcDbEntity
  8
AM_4
100
AcDbLine
 10
2.606666666666666
 20
0.6899999999999998
 30
0.0
 11
2.606666666666666
 21
-0.6899999999999998
 31
0.0
  0
LINE
  5
1B9
330
176
100
AcDbEntity
  8
AM_4
100
AcDbLine
 10
2.69
 20
0.6066666666666668
 30
0.0
 11
2.69
 21
-0.6066666666486001
 31
0.0
  0
ARC
  5
1BA
330
176
100
AcDbEntity
  8
AM_4
100
AcDbCircle
 10
2.606666666666667
 20
-0.6066666666666674
 30
0.0
 40
0.0833333333333325
100
AcDbArc
 50
270.0
 51
0.0
  0
ARC
  5
1BB
330
176
100
AcDbEntity
  8
AM_4
100
AcDbCircle
 10
2.606666666666667
 20
0.6066666666666674
 30
0.0
 40
0.0833333333333326
100
AcDbArc
 50
0.0
 51
90.0
  0
LWPOLYLINE
  5
1BC
330
176
100
AcDbEntity
  8
AM_4
100
AcDbPolyline
 90
       14
 70
     0
 43
0.0
 10
1.702415333488642
 20
0.3133974596215561
 10
1.69647692334995
 20
0.279343049306494
 10
1.691071189993458
 20
0.2443803789707558
 10
1.686215197245035
 20
0.2081337716574154
 10
1.682051651159914
 20
0.1711658761838699
 10
1.677321751739963
 20
0.1157412075081617
 10
1.67437470187632
 20
0.0594192080342464
 10
1.67332488309832
 20
0.000744040132084
 10
1.674322771006497
 20
-0.057937393027933
 10
1.676994414973508
 20
-0.1109082046365804
 10
1.681251746541048
 20
-0.1631178569235293
 10
1.68715945140799
 20
-0.2156362661399928
 10
1.694433571671283
 20
-0.2666554496099799
 10
1.702415333488642
 20
-0.313397459621556
  0
LINE
  5
1BD
330
176
100
AcDbEntity
  8
AM_4
100
AcDbLine
 10
-1.81
 20
0.313397459621556
 30
0.0
 11
-1.81
 21
-0.3133974596215561
 31
0.0
  0
LWPOLYLINE
  5
1BE
330
176
100
AcDbEntity
  8
AM_4
100
AcDbPolyline
 90
        5
 70
     0
 43
0.0
 10
1.702415333488642
 20
-0.313397459621556
 10
1.698167735453299
 20
-0.3632481720241085
 10
1.695561044167978
 20
-0.4110415984742827
 10
1.694413542058697
 20
-0.4570365404591318
 10
1.694550087781415
 20
-0.5
  0
LINE
  5
1BF
330
176
100
AcDbEntity
  8
AM_4
100
AcDbLine
 10
1.25
 20
-0.3133974596215559
 30
0.0
 11
1.702415333488642
 21
-0.313397459621556
 31
0.0
  0
LINE
  5
1C0
330
176
100
AcDbEntity
  8
AM_4
100
AcDbLine
 10
-1.81
 20
-0.3133974596215561
 30
0.0
 11
-1.76
 21
-0.5
 31
0.0
  0
LINE
  5
1C1
330
176
100
AcDbEntity
  8
AM_4
100
AcDbLine
 10
-1.81
 20
-0.3133974596215561
 30
0.0
 11
-1.25
 21
-0.3133974596215559
 31
0.0
  0
LINE
  5
1C2
330
176
100
AcDbEntity
  8
AM_4
100
AcDbLine
 10
-1.76
 20
-0.5
 30
0.0
 11
1.694550087781415
 21
-0.5
 31
0.0
  0
LWPOLYLINE
  5
1C3
330
176
100
AcDbEntity
  8
AM_4
100
AcDbPolyline
 90
        5
 70
     0
 43
0.0
 10
1.694550087781415
 20
0.5
 10
1.694396615063076
 20
0.4587519870342117
 10
1.695447139457533
 20
0.4139967518142001
 10
1.698032428364056
 20
0.3652101419200633
 10
1.702415333488642
 20
0.3133974596215561
  0
LINE
  5
1C4
330
176
100
AcDbEntity
  8
AM_4
100
AcDbLine
 10
1.25
 20
0.3133974596215561
 30
0.0
 11
1.702415333488642
 21
0.3133974596215561
 31
0.0
  0
LINE
  5
1C5
330
176
100
AcDbEntity
  8
AM_4
100
AcDbLine
 10
-1.76
 20
0.5
 30
0.0
 11
-1.81
 21
0.313397459621556
 31
0.0
  0
LINE
  5
1C6
330
176
100
AcDbEntity
  8
AM_4
100
AcDbLine
 10
-1.76
 20
0.5
 30
0.0
 11
1.694550087781415
 21
0.5
 31
0.0
  0
LINE
  5
1C7
330
176
100
AcDbEntity
  8
AM_4
100
AcDbLine
 10
-1.81
 20
0.313397459621556
 30
0.0
 11
-1.25
 21
0.3133974596215561
 31
0.0
  0
LINE
  5
1C8
330
176
100
AcDbEntity
  8
AM_4
100
AcDbLine
 10
1.25
 20
-0.3749999999999998
 30
0.0
 11
-1.25
 21
-0.3749999999999998
 31
0.0
  0
LINE
  5
1C9
330
176
100
AcDbEntity
  8
AM_4
100
AcDbLine
 10
1.25
 20
0.3750000000000001
 30
0.0
 11
-1.25
 21
0.3750000000000001
 31
0.0
  0
LINE
  5
1CA
330
176
100
AcDbEntity
  8
AM_4
100
AcDbLine
 10
1.2
 20
0.3250000000000003
 30
0.0
 11
-1.2
 21
0.3250000000000003
 31
0.0
  0
LINE
  5
1CB
330
176
100
AcDbEntity
  8
AM_4
100
AcDbLine
 10
1.25
 20
0.1250000000000001
 30
0.0
 11
-1.25
 21
0.1250000000000001
 31
0.0
  0
LINE
  5
1CC
330
176
100
AcDbEntity
  8
AM_4
100
AcDbLine
 10
-1.2
 20
0.1250000000000001
 30
0.0
 11
-1.2
 21
0.3250000000000003
 31
0.0
  0
LINE
  5
1CD
330
176
100
AcDbEntity
  8
AM_4
100
AcDbLine
 10
-1.25
 20
0.3750000000000002
 30
0.0
 11
-1.2
 21
0.3250000000000006
 31
0.0
  0
LINE
  5
1CE
330
176
100
AcDbEntity
  8
AM_4
100
AcDbLine
 10
-1.25
 20
0.3750000000000001
 30
0.0
 11
-1.25
 21
-0.3749999999999998
 31
0.0
  0
LINE
  5
1CF
330
176
100
AcDbEntity
  8
AM_4
100
AcDbLine
 10
-1.2
 20
-0.3250000000000002
 30
0.0
 11
-1.25
 21
-0.3749999999999998
 31
0.0
  0
LINE
  5
1D0
330
176
100
AcDbEntity
  8
AM_4
100
AcDbLine
 10
1.2
 20
0.3250000000000003
 30
0.0
 11
1.25
 21
0.3750000000000001
 31
0.0
  0
LINE
  5
1D1
330
176
100
AcDbEntity
  8
AM_4
100
AcDbLine
 10
1.2
 20
0.1250000000000001
 30
0.0
 11
1.2
 21
0.3250000000000003
 31
0.0
  0
LINE
  5
1D2
330
176
100
AcDbEntity
  8
AM_4
100
AcDbLine
 10
-1.25
 20
-0.1249999999999999
 30
0.0
 11
1.25
 21
-0.1249999999999999
 31
0.0
  0
LINE
  5
1D3
330
176
100
AcDbEntity
  8
AM_4
100
AcDbLine
 10
1.25
 20
-0.3749999999999996
 30
0.0
 11
1.2
 21
-0.325
 31
0.0
  0
LINE
  5
1D4
330
176
100
AcDbEntity
  8
AM_4
100
AcDbLine
 10
1.25
 20
0.3750000000000001
 30
0.0
 11
1.25
 21
-0.3749999999999998
 31
0.0
  0
LINE
  5
1D5
330
176
100
AcDbEntity
  8
AM_4
100
AcDbLine
 10
-1.2
 20
-0.325
 30
0.0
 11
-1.2
 21
-0.1249999999999998
 31
0.0
  0
LINE
  5
1D6
330
176
100
AcDbEntity
  8
AM_4
100
AcDbLine
 10
1.2
 20
-0.325
 30
0.0
 11
-1.2
 21
-0.325
 31
0.0
  0
LINE
  5
1D7
330
176
100
AcDbEntity
  8
AM_4
100
AcDbLine
 10
1.2
 20
-0.325
 30
0.0
 11
1.2
 21
-0.1249999999999999
 31
0.0
  0
ENDBLK
  5
179
330
176
100
AcDbEntity
  8
0
100
AcDbBlockEnd
  0
ENDSEC
  0
SECTION
  2
ENTITIES
  0
INSERT
  5
6F
330
1F
100
AcDbEntity
  8
0
100
AcDbBlockReference
  2
1_131196_4
 10
0.0
 20
0.0
 30
0.0
  0
POINT
  5
1D9
330
1F
100
AcDbEntity
  8
ConnectionPoints
100
AcDbPoint
 10
0.0
 20
-1.16
 30
0.0000000000000001
  0
POINT
  5
1DA
330
1F
100
AcDbEntity
  8
ConnectionPoints
100
AcDbPoint
 10
-1.567505980849834
 20
-0.0000000000000001
 30
-0.9049999999999999
  0
POINT
  5
1DB
330
1F
100
AcDbEntity
  8
ConnectionPoints
100
AcDbPoint
 10
0.0
 20
-1.16
 30
0.0000000000000001
  0
ENDSEC
  0
SECTION
  2
OBJECTS
  0
DICTIONARY
  5
C
330
0
100
AcDbDictionary
281
     1
  3
ACAD_DETAILVIEWSTYLE
350
1E3
  3
ACAD_GROUP
350
D
  3
ACAD_LAYOUT
350
1A
  3
ACAD_MATERIAL
350
43
  3
ACAD_MLEADERSTYLE
350
6B
  3
ACAD_MLINESTYLE
350
17
  3
ACAD_PLOTSETTINGS
350
19
  3
ACAD_PLOTSTYLENAME
350
E
  3
ACAD_SCALELIST
350
47
  3
ACAD_SECTIONVIEWSTYLE
350
1E4
  3
ACAD_TABLESTYLE
350
69
  3
ACAD_VISUALSTYLE
350
2A
  3
ACDB_RECOMPOSE_DATA
350
1E0
  3
AcDbVariableDictionary
350
1DC
  0
SUN
  5
6D
330
29
100
AcDbSun
 90
        1
290
     0
 63
     7
421
 16777215
 40
1.0
291
     1
 91
  2455826
 92
 54000000
292
     0
 70
     2
 71
   256
280
     1
  0
DICTIONARY
  5
1E3
102
{ACAD_REACTORS
330
C
102
}
330
C
100
AcDbDictionary
281
     1
  0
DICTIONARY
  5
D
102
{ACAD_REACTORS
330
C
102
}
330
C
100
AcDbDictionary
281
     1
  0
DICTIONARY
  5
1A
102
{ACAD_REACTORS
330
C
102
}
330
C
100
AcDbDictionary
281
     1
  3
Layout1
350
1E
  3
Layout2
350
26
  3
Model
350
22
  0
DICTIONARY
  5
43
102
{ACAD_REACTORS
330
C
102
}
330
C
100
AcDbDictionary
281
     1
  3
ByBlock
350
45
  3
ByLayer
350
44
  3
Global
350
46
  0
DICTIONARY
  5
6B
102
{ACAD_REACTORS
330
C
102
}
330
C
100
AcDbDictionary
281
     1
  3
Standard
350
6C
  0
DICTIONARY
  5
17
102
{ACAD_REACTORS
330
C
102
}
330
C
100
AcDbDictionary
281
     1
  3
Standard
350
18
  0
DICTIONARY
  5
19
102
{ACAD_REACTORS
330
C
102
}
330
C
100
AcDbDictionary
281
     1
  0
ACDBDICTIONARYWDFLT
  5
E
102
{ACAD_REACTORS
330
C
102
}
330
C
100
AcDbDictionary
281
     1
  3
Normal
350
F
100
AcDbDictionaryWithDefault
340
F
  0
DICTIONARY
  5
47
102
{ACAD_REACTORS
330
C
102
}
330
C
100
AcDbDictionary
281
     1
  3
A0
350
48
  3
A1
350
49
  3
A2
350
4A
  3
A3
350
4B
  3
A4
350
4C
  3
A5
350
4D
  3
A6
350
4E
  3
A7
350
4F
  3
A8
350
50
  3
A9
350
51
  3
B0
350
52
  3
B1
350
53
  3
B2
350
54
  3
B3
350
55
  3
B4
350
56
  3
B5
350
57
  3
B6
350
58
  3
B7
350
59
  3
B8
350
5A
  3
B9
350
5B
  3
C0
350
5C
  3
C1
350
5D
  3
C2
350
5E
  3
C3
350
5F
  3
C4
350
60
  3
C5
350
61
  3
C6
350
62
  3
C7
350
63
  3
C8
350
64
  3
C9
350
65
  3
D0
350
66
  3
D1
350
67
  3
D2
350
68
  0
DICTIONARY
  5
1E4
102
{ACAD_REACTORS
330
C
102
}
330
C
100
AcDbDictionary
281
     1
  0
DICTIONARY
  5
69
102
{ACAD_REACTORS
330
C
102
}
330
C
100
AcDbDictionary
281
     1
  3
Standard
350
6A
  0
DICTIONARY
  5
2A
102
{ACAD_REACTORS
330
C
102
}
330
C
100
AcDbDictionary
281
     1
  3
2dWireframe
350
2F
  3
Basic
350
32
  3
Brighten
350
36
  3
ColorChange
350
3A
  3
Conceptual
350
34
  3
Dim
350
35
  3
EdgeColorOff
350
3D
  3
Facepattern
350
39
  3
Flat
350
2B
  3
FlatWithEdges
350
2C
  3
Gouraud
350
2D
  3
GouraudWithEdges
350
2E
  3
Hidden
350
31
  3
JitterOff
350
3B
  3
Linepattern
350
38
  3
OverhangOff
350
3C
  3
Realistic
350
33
  3
Shaded
350
42
  3
Shaded with edges
350
41
  3
Shades of Gray
350
3E
  3
Sketchy
350
3F
  3
Thicken
350
37
  3
Wireframe
350
30
  3
X-Ray
350
40
  0
XRECORD
  5
1E0
102
{ACAD_REACTORS
330
C
102
}
330
C
100
AcDbXrecord
280
     1
 90
        1
330
6A
  0
DICTIONARY
  5
1DC
102
{ACAD_REACTORS
330
C
102
}
330
C
100
AcDbDictionary
281
     1
  3
CANNOSCALE
350
1DD
  3
CMLEADERSTYLE
350
1E2
  3
CTABLESTYLE
350
1E1
  0
LAYOUT
  5
1E
102
{ACAD_REACTORS
330
1A
102
}
330
1A
100
AcDbPlotSettings
  1

  2
none_device
  4

  6

 40
0.0
 41
0.0
 42
0.0
 43
0.0
 44
0.0
 45
0.0
 46
0.0
 47
0.0
 48
0.0
 49
0.0
140
0.0
141
0.0
142
1.0
143
1.0
 70
   688
 72
     0
 73
     0
 74
     5
  7

 75
    16
 76
     0
 77
     2
 78
   300
147
1.0
148
0.0
149
0.0
100
AcDbLayout
  1
Layout1
 70
     1
 71
     1
 10
0.0
 20
0.0
 11
12.0
 21
9.0
 12
0.0
 22
0.0
 32
0.0
 14
1.000000000000000E+20
 24
1.000000000000000E+20
 34
1.000000000000000E+20
 15
-1.000000000000000E+20
 25
-1.000000000000000E+20
 35
-1.000000000000000E+20
146
0.0
 13
0.0
 23
0.0
 33
0.0
 16
1.0
 26
0.0
 36
0.0
 17
0.0
 27
1.0
 37
0.0
 76
     0
330
1B
  0
LAYOUT
  5
26
102
{ACAD_REACTORS
330
1A
102
}
330
1A
100
AcDbPlotSettings
  1

  2
none_device
  4

  6

 40
0.0
 41
0.0
 42
0.0
 43
0.0
 44
0.0
 45
0.0
 46
0.0
 47
0.0
 48
0.0
 49
0.0
140
0.0
141
0.0
142
1.0
143
1.0
 70
   688
 72
     0
 73
     0
 74
     5
  7

 75
    16
 76
     0
 77
     2
 78
   300
147
1.0
148
0.0
149
0.0
100
AcDbLayout
  1
Layout2
 70
     1
 71
     2
 10
0.0
 20
0.0
 11
0.0
 21
0.0
 12
0.0
 22
0.0
 32
0.0
 14
0.0
 24
0.0
 34
0.0
 15
0.0
 25
0.0
 35
0.0
146
0.0
 13
0.0
 23
0.0
 33
0.0
 16
1.0
 26
0.0
 36
0.0
 17
0.0
 27
1.0
 37
0.0
 76
     0
330
23
  0
LAYOUT
  5
22
102
{ACAD_REACTORS
330
1A
102
}
330
1A
100
AcDbPlotSettings
  1

  2
none_device
  4
Letter_(8.50_x_11.00_Inches)
  6

 40
6.35
 41
6.35
 42
6.35000508
 43
6.35000508
 44
215.9
 45
279.4
 46
0.0
 47
0.0
 48
0.0
 49
0.0
140
0.0
141
0.0
142
1.0
143
1.0
 70
  1712
 72
     0
 73
     0
 74
     0
  7

 75
     0
 76
     0
 77
     2
 78
   300
147
1.0
148
0.0
149
0.0
100
AcDbLayout
  1
Model
 70
     1
 71
     0
 10
0.0
 20
0.0
 11
12.0
 21
9.0
 12
0.0
 22
0.0
 32
0.0
 14
1.000000000000000E+20
 24
1.000000000000000E+20
 34
1.000000000000000E+20
 15
-1.000000000000000E+20
 25
-1.000000000000000E+20
 35
-1.000000000000000E+20
146
0.0
 13
0.0
 23
0.0
 33
0.0
 16
1.0
 26
0.0
 36
0.0
 17
0.0
 27
1.0
 37
0.0
 76
     0
330
1F
331
29
  0
MATERIAL
  5
45
102
{ACAD_REACTORS
330
43
102
}
330
43
100
AcDbMaterial
  1
ByBlock
 72
     1
 94
      127
  0
MATERIAL
  5
44
102
{ACAD_REACTORS
330
43
102
}
330
43
100
AcDbMaterial
  1
ByLayer
 72
     1
 94
      127
  0
MATERIAL
  5
46
102
{ACAD_REACTORS
330
43
102
}
330
43
100
AcDbMaterial
  1
Global
 72
     1
 94
      127
  0
MLEADERSTYLE
  5
6C
102
{ACAD_REACTORS
330
6B
102
}
330
6B
100
AcDbMLeaderStyle
179
     2
170
     2
171
     1
172
     0
 90
        2
 40
0.0
 41
0.0
173
     1
 91
-1056964608
340
14
 92
       -2
290
     1
 42
0.09
291
     1
 43
0.36
  3
Standard
341
0
 44
0.18
300

342
11
174
     1
178
     6
175
     1
176
     0
 93
-1056964608
 45
0.18
292
     0
297
     0
 46
0.18
343
0
 94
-1056964608
 47
1.0
 49
1.0
140
1.0
293
     1
141
0.0
294
     1
177
     0
142
1.0
295
     0
296
     0
143
0.125
271
     0
272
     9
273
     9
298
     0
  0
MLINESTYLE
  5
18
102
{ACAD_REACTORS
330
17
102
}
330
17
100
AcDbMlineStyle
  2
Standard
 70
     0
  3

 62
   256
 51
90.0
 52
90.0
 71
     2
 49
0.5
 62
   256
  6
BYLAYER
 49
-0.5
 62
   256
  6
BYLAYER
  0
ACDBPLACEHOLDER
  5
F
102
{ACAD_REACTORS
330
E
102
}
330
E
  0
SCALE
  5
48
102
{ACAD_REACTORS
330
47
102
}
330
47
100
AcDbScale
 70
     0
300
1:1
140
1.0
141
1.0
290
     1
  0
SCALE
  5
49
102
{ACAD_REACTORS
330
47
102
}
330
47
100
AcDbScale
 70
     0
300
1:2
140
1.0
141
2.0
290
     0
  0
SCALE
  5
4A
102
{ACAD_REACTORS
330
47
102
}
330
47
100
AcDbScale
 70
     0
300
1:4
140
1.0
141
4.0
290
     0
  0
SCALE
  5
4B
102
{ACAD_REACTORS
330
47
102
}
330
47
100
AcDbScale
 70
     0
300
1:5
140
1.0
141
5.0
290
     0
  0
SCALE
  5
4C
102
{ACAD_REACTORS
330
47
102
}
330
47
100
AcDbScale
 70
     0
300
1:8
140
1.0
141
8.0
290
     0
  0
SCALE
  5
4D
102
{ACAD_REACTORS
330
47
102
}
330
47
100
AcDbScale
 70
     0
300
1:10
140
1.0
141
10.0
290
     0
  0
SCALE
  5
4E
102
{ACAD_REACTORS
330
47
102
}
330
47
100
AcDbScale
 70
     0
300
1:16
140
1.0
141
16.0
290
     0
  0
SCALE
  5
4F
102
{ACAD_REACTORS
330
47
102
}
330
47
100
AcDbScale
 70
     0
300
1:20
140
1.0
141
20.0
290
     0
  0
SCALE
  5
50
102
{ACAD_REACTORS
330
47
102
}
330
47
100
AcDbScale
 70
     0
300
1:30
140
1.0
141
30.0
290
     0
  0
SCALE
  5
51
102
{ACAD_REACTORS
330
47
102
}
330
47
100
AcDbScale
 70
     0
300
1:40
140
1.0
141
40.0
290
     0
  0
SCALE
  5
52
102
{ACAD_REACTORS
330
47
102
}
330
47
100
AcDbScale
 70
     0
300
1:50
140
1.0
141
50.0
290
     0
  0
SCALE
  5
53
102
{ACAD_REACTORS
330
47
102
}
330
47
100
AcDbScale
 70
     0
300
1:100
140
1.0
141
100.0
290
     0
  0
SCALE
  5
54
102
{ACAD_REACTORS
330
47
102
}
330
47
100
AcDbScale
 70
     0
300
2:1
140
2.0
141
1.0
290
     0
  0
SCALE
  5
55
102
{ACAD_REACTORS
330
47
102
}
330
47
100
AcDbScale
 70
     0
300
4:1
140
4.0
141
1.0
290
     0
  0
SCALE
  5
56
102
{ACAD_REACTORS
330
47
102
}
330
47
100
AcDbScale
 70
     0
300
8:1
140
8.0
141
1.0
290
     0
  0
SCALE
  5
57
102
{ACAD_REACTORS
330
47
102
}
330
47
100
AcDbScale
 70
     0
300
10:1
140
10.0
141
1.0
290
     0
  0
SCALE
  5
58
102
{ACAD_REACTORS
330
47
102
}
330
47
100
AcDbScale
 70
     0
300
100:1
140
100.0
141
1.0
290
     0
  0
SCALE
  5
59
102
{ACAD_REACTORS
330
47
102
}
330
47
100
AcDbScale
 70
     0
300
1/128" = 1'-0"
140
0.0078125
141
12.0
290
     0
  0
SCALE
  5
5A
102
{ACAD_REACTORS
330
47
102
}
330
47
100
AcDbScale
 70
     0
300
1/64" = 1'-0"
140
0.015625
141
12.0
290
     0
  0
SCALE
  5
5B
102
{ACAD_REACTORS
330
47
102
}
330
47
100
AcDbScale
 70
     0
300
1/32" = 1'-0"
140
0.03125
141
12.0
290
     0
  0
SCALE
  5
5C
102
{ACAD_REACTORS
330
47
102
}
330
47
100
AcDbScale
 70
     0
300
1/16" = 1'-0"
140
0.0625
141
12.0
290
     0
  0
SCALE
  5
5D
102
{ACAD_REACTORS
330
47
102
}
330
47
100
AcDbScale
 70
     0
300
3/32" = 1'-0"
140
0.09375
141
12.0
290
     0
  0
SCALE
  5
5E
102
{ACAD_REACTORS
330
47
102
}
330
47
100
AcDbScale
 70
     0
300
1/8" = 1'-0"
140
0.125
141
12.0
290
     0
  0
SCALE
  5
5F
102
{ACAD_REACTORS
330
47
102
}
330
47
100
AcDbScale
 70
     0
300
3/16" = 1'-0"
140
0.1875
141
12.0
290
     0
  0
SCALE
  5
60
102
{ACAD_REACTORS
330
47
102
}
330
47
100
AcDbScale
 70
     0
300
1/4" = 1'-0"
140
0.25
141
12.0
290
     0
  0
SCALE
  5
61
102
{ACAD_REACTORS
330
47
102
}
330
47
100
AcDbScale
 70
     0
300
3/8" = 1'-0"
140
0.375
141
12.0
290
     0
  0
SCALE
  5
62
102
{ACAD_REACTORS
330
47
102
}
330
47
100
AcDbScale
 70
     0
300
1/2" = 1'-0"
140
0.5
141
12.0
290
     0
  0
SCALE
  5
63
102
{ACAD_REACTORS
330
47
102
}
330
47
100
AcDbScale
 70
     0
300
3/4" = 1'-0"
140
0.75
141
12.0
290
     0
  0
SCALE
  5
64
102
{ACAD_REACTORS
330
47
102
}
330
47
100
AcDbScale
 70
     0
300
1" = 1'-0"
140
1.0
141
12.0
290
     0
  0
SCALE
  5
65
102
{ACAD_REACTORS
330
47
102
}
330
47
100
AcDbScale
 70
     0
300
1-1/2" = 1'-0"
140
1.5
141
12.0
290
     0
  0
SCALE
  5
66
102
{ACAD_REACTORS
330
47
102
}
330
47
100
AcDbScale
 70
     0
300
3" = 1'-0"
140
3.0
141
12.0
290
     0
  0
SCALE
  5
67
102
{ACAD_REACTORS
330
47
102
}
330
47
100
AcDbScale
 70
     0
300
6" = 1'-0"
140
6.0
141
12.0
290
     0
  0
SCALE
  5
68
102
{ACAD_REACTORS
330
47
102
}
330
47
100
AcDbScale
 70
     0
300
1'-0" = 1'-0"
140
12.0
141
12.0
290
     0
  0
TABLESTYLE
  5
6A
102
{ACAD_REACTORS
330
69
102
}
102
{ACAD_XDICTIONARY
360
1DE
102
}
330
69
100
AcDbTableStyle
  3
Standard
 70
     0
 71
     0
 40
0.06
 41
0.06
280
     0
281
     0
  7
Standard
140
0.18
170
     2
 62
     0
 63
   257
283
     0
 90
        4
 91
        0
  1

274
    -2
284
     1
 64
     0
275
    -2
285
     1
 65
     0
276
    -2
286
     1
 66
     0
277
    -2
287
     1
 67
     0
278
    -2
288
     1
 68
     0
279
    -2
289
     1
 69
     0
  7
Standard
140
0.25
170
     5
 62
     0
 63
   257
283
     0
 90
        4
 91
        0
  1

274
    -2
284
     1
 64
     0
275
    -2
285
     1
 65
     0
276
    -2
286
     1
 66
     0
277
    -2
287
     1
 67
     0
278
    -2
288
     1
 68
     0
279
    -2
289
     1
 69
     0
  7
Standard
140
0.18
170
     5
 62
     0
 63
   257
283
     0
 90
        4
 91
        0
  1

274
    -2
284
     1
 64
     0
275
    -2
285
     1
 65
     0
276
    -2
286
     1
 66
     0
277
    -2
287
     1
 67
     0
278
    -2
288
     1
 68
     0
279
    -2
289
     1
 69
     0
  0
VISUALSTYLE
  5
2F
102
{ACAD_REACTORS
330
2A
102
}
330
2A
100
AcDbVisualStyle
  2
2dWireframe
 70
     4
177
     3
291
     0
 70
    58
 90
        0
176
     1
 90
        2
176
     1
 90
        0
176
     1
 90
        0
176
     1
 40
0.6
176
     1
 40
30.0
176
     1
 62
     7
420
 16777215
176
     1
 90
        1
176
     1
 90
        4
176
     1
 62
     7
176
     1
 62
   257
176
     1
 90
        1
176
     1
 90
        1
176
     1
 40
1.0
176
     1
 90
        0
176
     1
 62
   257
176
     1
 40
1.0
176
     1
 90
        1
176
     1
 90
        6
176
     1
 90
        2
176
     1
 62
     7
176
     1
 90
        5
176
     1
 90
        0
176
     1
 90
        0
176
     1
290
     0
176
     1
 90
        1
176
     1
 40
0.0
176
     1
 90
        0
176
     1
290
     1
176
     1
290
     1
176
     1
290
     0
176
     1
290
     0
176
     1
290
     0
176
     1
290
     0
176
     1
290
     0
176
     1
290
     0
176
     1
290
     0
176
     1
 90
       50
176
     1
 40
0.0
176
     1
 40
1.0
176
     1
 90
        0
176
     1
 62
    18
420
        0
176
     1
 90
       50
176
     1
 90
        3
176
     1
 62
     5
420
      255
176
     1
290
     0
176
     1
 90
       50
176
     1
 90
       50
176
     1
 90
       50
176
     1
290
     0
176
     1
 90
       50
176
     1
 62
   256
176
     0
 40
1.0
176
     0
 90
        2
176
     1
  1
strokes_ogs.tif
176
     1
290
     0
176
     1
 40
1.0
176
     1
 40
1.0
176
     1
  0
VISUALSTYLE
  5
32
102
{ACAD_REACTORS
330
2A
102
}
330
2A
100
AcDbVisualStyle
  2
Basic
 70
     7
177
     3
291
     1
 70
    58
 90
        1
176
     1
 90
        0
176
     1
 90
        1
176
     1
 90
        0
176
     1
 40
0.6
176
     1
 40
30.0
176
     1
 62
     7
420
 16777215
176
     1
 90
        0
176
     1
 90
        4
176
     1
 62
     7
176
     1
 62
   257
176
     1
 90
        1
176
     1
 90
        1
176
     1
 40
1.0
176
     1
 90
        8
176
     1
 62
     7
176
     1
 40
1.0
176
     1
 90
        1
176
     1
 90
        6
176
     1
 90
        2
176
     1
 62
     7
176
     1
 90
        5
176
     1
 90
        0
176
     1
 90
        0
176
     1
290
     0
176
     1
 90
        1
176
     1
 40
0.0
176
     1
 90
        0
176
     1
290
     0
176
     1
290
     1
176
     1
290
     1
176
     1
290
     0
176
     1
290
     0
176
     1
290
     0
176
     1
290
     0
176
     1
290
     0
176
     1
290
     0
176
     1
 90
       50
176
     1
 40
0.0
176
     1
 40
1.0
176
     1
 90
        0
176
     1
 62
    18
420
        0
176
     1
 90
       50
176
     1
 90
        3
176
     1
 62
     5
420
      255
176
     1
290
     0
176
     1
 90
       50
176
     1
 90
       50
176
     1
 90
       50
176
     1
290
     0
176
     1
 90
       50
176
     1
 62
   256
176
     0
 40
1.0
176
     0
 90
        2
176
     1
  1
strokes_ogs.tif
176
     1
290
     0
176
     1
 40
1.0
176
     1
 40
1.0
176
     1
  0
VISUALSTYLE
  5
36
102
{ACAD_REACTORS
330
2A
102
}
330
2A
100
AcDbVisualStyle
  2
Brighten
 70
    12
177
     3
291
     1
 70
    58
 90
        2
176
     1
 90
        2
176
     1
 90
        0
176
     1
 90
        0
176
     1
 40
0.6
176
     1
 40
30.0
176
     1
 62
     7
420
 16777215
176
     1
 90
        1
176
     1
 90
        4
176
     1
 62
     7
176
     1
 62
   257
176
     1
 90
        1
176
     1
 90
        1
176
     1
 40
1.0
176
     1
 90
        8
176
     1
 62
     7
176
     1
 40
1.0
176
     1
 90
        1
176
     1
 90
        6
176
     1
 90
        2
176
     1
 62
     7
176
     1
 90
        5
176
     1
 90
        0
176
     1
 90
        0
176
     1
290
     0
176
     1
 90
        1
176
     1
 40
50.0
176
     1
 90
        0
176
     1
290
     0
176
     1
290
     1
176
     1
290
     1
176
     1
290
     0
176
     1
290
     0
176
     1
290
     0
176
     1
290
     0
176
     1
290
     0
176
     1
290
     0
176
     1
 90
       50
176
     1
 40
0.0
176
     1
 40
1.0
176
     1
 90
        0
176
     1
 62
    18
420
        0
176
     1
 90
       50
176
     1
 90
        3
176
     1
 62
     5
420
      255
176
     1
290
     0
176
     1
 90
       50
176
     1
 90
       50
176
     1
 90
       50
176
     1
290
     0
176
     1
 90
       50
176
     1
 62
   256
176
     0
 40
1.0
176
     0
 90
        2
176
     1
  1
strokes_ogs.tif
176
     1
290
     0
176
     1
 40
1.0
176
     1
 40
1.0
176
     1
  0
VISUALSTYLE
  5
3A
102
{ACAD_REACTORS
330
2A
102
}
330
2A
100
AcDbVisualStyle
  2
ColorChange
 70
    16
177
     3
291
     1
 70
    58
 90
        2
176
     1
 90
        2
176
     1
 90
        3
176
     1
 90
        0
176
     1
 40
0.6
176
     1
 40
30.0
176
     1
 62
     8
420
  8421504
176
     1
 90
        1
176
     1
 90
        4
176
     1
 62
     7
176
     1
 62
   257
176
     1
 90
        1
176
     1
 90
        1
176
     1
 40
1.0
176
     1
 90
        8
176
     1
 62
     8
420
  8421504
176
     1
 40
1.0
176
     1
 90
        1
176
     1
 90
        6
176
     1
 90
        2
176
     1
 62
     7
176
     1
 90
        5
176
     1
 90
        0
176
     1
 90
        0
176
     1
290
     0
176
     1
 90
        1
176
     1
 40
0.0
176
     1
 90
        0
176
     1
290
     0
176
     1
290
     1
176
     1
290
     1
176
     1
290
     0
176
     1
290
     0
176
     1
290
     0
176
     1
290
     0
176
     1
290
     0
176
     1
290
     0
176
     1
 90
       50
176
     1
 40
0.0
176
     1
 40
1.0
176
     1
 90
        0
176
     1
 62
    18
420
        0
176
     1
 90
       50
176
     1
 90
        3
176
     1
 62
     5
420
      255
176
     1
290
     0
176
     1
 90
       50
176
     1
 90
       50
176
     1
 90
       50
176
     1
290
     0
176
     1
 90
       50
176
     1
 62
   256
176
     0
 40
1.0
176
     0
 90
        2
176
     1
  1
strokes_ogs.tif
176
     1
290
     0
176
     1
 40
1.0
176
     1
 40
1.0
176
     1
  0
VISUALSTYLE
  5
34
102
{ACAD_REACTORS
330
2A
102
}
330
2A
100
AcDbVisualStyle
  2
Conceptual
 70
     9
177
     3
291
     0
 70
    58
 90
        3
176
     1
 90
        2
176
     1
 90
        0
176
     1
 90
        0
176
     1
 40
0.6
176
     1
 40
30.0
176
     1
 62
     7
420
 16777215
176
     1
 90
        2
176
     1
 90
        2
176
     1
 62
     7
176
     1
 62
   257
176
     1
 90
        1
176
     1
 90
        1
176
     1
 40
179.0
176
     1
 90
        8
176
     1
 62
     7
176
     1
 40
1.0
176
     1
 90
        1
176
     1
 90
        6
176
     1
 90
        2
176
     1
 62
     7
176
     1
 90
        3
176
     1
 90
        0
176
     1
 90
        0
176
     1
290
     0
176
     1
 90
        1
176
     1
 40
0.0
176
     1
 90
        0
176
     1
290
     0
176
     1
290
     1
176
     1
290
     1
176
     1
290
     0
176
     1
290
     0
176
     1
290
     0
176
     1
290
     0
176
     1
290
     0
176
     1
290
     0
176
     1
 90
       50
176
     1
 40
0.0
176
     1
 40
1.0
176
     1
 90
        0
176
     1
 62
    18
420
        0
176
     1
 90
       50
176
     1
 90
        3
176
     1
 62
     5
420
      255
176
     1
290
     0
176
     1
 90
       50
176
     1
 90
       50
176
     1
 90
       50
176
     1
290
     0
176
     1
 90
       50
176
     1
 62
   256
176
     0
 40
1.0
176
     0
 90
        2
176
     1
  1
strokes_ogs.tif
176
     1
290
     0
176
     1
 40
1.0
176
     1
 40
1.0
176
     1
  0
VISUALSTYLE
  5
35
102
{ACAD_REACTORS
330
2A
102
}
330
2A
100
AcDbVisualStyle
  2
Dim
 70
    11
177
     3
291
     1
 70
    58
 90
        2
176
     1
 90
        2
176
     1
 90
        0
176
     1
 90
        0
176
     1
 40
0.6
176
     1
 40
30.0
176
     1
 62
     7
420
 16777215
176
     1
 90
        1
176
     1
 90
        4
176
     1
 62
     7
176
     1
 62
   257
176
     1
 90
        1
176
     1
 90
        1
176
     1
 40
1.0
176
     1
 90
        8
176
     1
 62
     7
176
     1
 40
1.0
176
     1
 90
        1
176
     1
 90
        6
176
     1
 90
        2
176
     1
 62
     7
176
     1
 90
        5
176
     1
 90
        0
176
     1
 90
        0
176
     1
290
     0
176
     1
 90
        1
176
     1
 40
-50.0
176
     1
 90
        0
176
     1
290
     0
176
     1
290
     1
176
     1
290
     1
176
     1
290
     0
176
     1
290
     0
176
     1
290
     0
176
     1
290
     0
176
     1
290
     0
176
     1
290
     0
176
     1
 90
       50
176
     1
 40
0.0
176
     1
 40
1.0
176
     1
 90
        0
176
     1
 62
    18
420
        0
176
     1
 90
       50
176
     1
 90
        3
176
     1
 62
     5
420
      255
176
     1
290
     0
176
     1
 90
       50
176
     1
 90
       50
176
     1
 90
       50
176
     1
290
     0
176
     1
 90
       50
176
     1
 62
   256
176
     0
 40
1.0
176
     0
 90
        2
176
     1
  1
strokes_ogs.tif
176
     1
290
     0
176
     1
 40
1.0
176
     1
 40
1.0
176
     1
  0
VISUALSTYLE
  5
3D
102
{ACAD_REACTORS
330
2A
102
}
330
2A
100
AcDbVisualStyle
  2
EdgeColorOff
 70
    22
177
     3
291
     1
 70
    58
 90
        2
176
     0
 90
        2
176
     0
 90
        0
176
     0
 90
        0
176
     0
 40
0.6
176
     0
 40
30.0
176
     0
 62
     7
420
 16777215
176
     0
 90
        1
176
     0
 90
        4
176
     0
 62
     7
176
     0
 62
   257
176
     0
 90
        1
176
     0
 90
        1
176
     0
 40
1.0
176
     0
 90
        8
176
     2
 62
     7
176
     0
 40
1.0
176
     0
 90
        1
176
     0
 90
        6
176
     0
 90
        2
176
     0
 62
     7
176
     0
 90
        5
176
     0
 90
        0
176
     0
 90
        0
176
     0
290
     0
176
     0
 90
        1
176
     0
 40
0.0
176
     0
 90
        0
176
     0
290
     0
176
     0
290
     1
176
     0
290
     1
176
     0
290
     0
176
     0
290
     0
176
     0
290
     0
176
     0
290
     0
176
     0
290
     0
176
     0
290
     0
176
     0
 90
       50
176
     0
 40
0.0
176
     0
 40
1.0
176
     0
 90
        0
176
     0
 62
    18
420
        0
176
     0
 90
       50
176
     0
 90
        3
176
     0
 62
     5
420
      255
176
     0
290
     0
176
     0
 90
       50
176
     0
 90
       50
176
     0
 90
       50
176
     0
290
     0
176
     0
 90
       50
176
     0
 62
   256
176
     0
 40
1.0
176
     0
 90
        2
176
     0
  1
strokes_ogs.tif
176
     0
290
     0
176
     0
 40
1.0
176
     0
 40
1.0
176
     0
  0
VISUALSTYLE
  5
39
102
{ACAD_REACTORS
330
2A
102
}
330
2A
100
AcDbVisualStyle
  2
Facepattern
 70
    15
177
     3
291
     1
 70
    58
 90
        2
176
     1
 90
        2
176
     1
 90
        0
176
     1
 90
        0
176
     1
 40
0.6
176
     1
 40
30.0
176
     1
 62
     7
420
 16777215
176
     1
 90
        1
176
     1
 90
        4
176
     1
 62
     7
176
     1
 62
   257
176
     1
 90
        1
176
     1
 90
        1
176
     1
 40
1.0
176
     1
 90
        8
176
     1
 62
     7
176
     1
 40
1.0
176
     1
 90
        1
176
     1
 90
        6
176
     1
 90
        2
176
     1
 62
     7
176
     1
 90
        5
176
     1
 90
        0
176
     1
 90
        0
176
     1
290
     0
176
     1
 90
        1
176
     1
 40
0.0
176
     1
 90
        0
176
     1
290
     0
176
     1
290
     1
176
     1
290
     1
176
     1
290
     0
176
     1
290
     0
176
     1
290
     0
176
     1
290
     0
176
     1
290
     0
176
     1
290
     0
176
     1
 90
       50
176
     1
 40
0.0
176
     1
 40
1.0
176
     1
 90
        0
176
     1
 62
    18
420
        0
176
     1
 90
       50
176
     1
 90
        3
176
     1
 62
     5
420
      255
176
     1
290
     0
176
     1
 90
       50
176
     1
 90
       50
176
     1
 90
       50
176
     1
290
     0
176
     1
 90
       50
176
     1
 62
   256
176
     0
 40
1.0
176
     0
 90
        2
176
     1
  1
strokes_ogs.tif
176
     1
290
     0
176
     1
 40
1.0
176
     1
 40
1.0
176
     1
  0
VISUALSTYLE
  5
2B
102
{ACAD_REACTORS
330
2A
102
}
330
2A
100
AcDbVisualStyle
  2
Flat
 70
     0
177
     3
291
     1
 70
    58
 90
        2
176
     1
 90
        1
176
     1
 90
        1
176
     1
 90
        2
176
     1
 40
0.6
176
     1
 40
30.0
176
     1
 62
     7
420
 16777215
176
     1
 90
        0
176
     1
 90
        0
176
     1
 62
     7
176
     1
 62
   257
176
     1
 90
        1
176
     1
 90
        1
176
     1
 40
1.0
176
     1
 90
        8
176
     1
 62
     7
176
     1
 40
1.0
176
     1
 90
        1
176
     1
 90
        6
176
     1
 90
        2
176
     1
 62
     7
176
     1
 90
        5
176
     1
 90
        0
176
     1
 90
        0
176
     1
290
     0
176
     1
 90
       13
176
     1
 40
0.0
176
     1
 90
        0
176
     1
290
     0
176
     1
290
     1
176
     1
290
     1
176
     1
290
     0
176
     1
290
     0
176
     1
290
     0
176
     1
290
     0
176
     1
290
     0
176
     1
290
     0
176
     1
 90
       50
176
     1
 40
0.0
176
     1
 40
1.0
176
     1
 90
        0
176
     1
 62
    18
420
        0
176
     1
 90
       50
176
     1
 90
        3
176
     1
 62
     5
420
      255
176
     1
290
     0
176
     1
 90
       50
176
     1
 90
       50
176
     1
 90
       50
176
     1
290
     0
176
     1
 90
       50
176
     1
 62
   256
176
     0
 40
1.0
176
     0
 90
        2
176
     1
  1
strokes_ogs.tif
176
     1
290
     0
176
     1
 40
1.0
176
     1
 40
1.0
176
     1
  0
VISUALSTYLE
  5
2C
102
{ACAD_REACTORS
330
2A
102
}
330
2A
100
AcDbVisualStyle
  2
FlatWithEdges
 70
     1
177
     3
291
     1
 70
    58
 90
        2
176
     1
 90
        1
176
     1
 90
        1
176
     1
 90
        2
176
     1
 40
0.6
176
     1
 40
30.0
176
     1
 62
     7
420
 16777215
176
     1
 90
        1
176
     1
 90
        0
176
     1
 62
     7
176
     1
 62
   257
176
     1
 90
        1
176
     1
 90
        1
176
     1
 40
1.0
176
     1
 90
        0
176
     1
 62
   257
176
     1
 40
1.0
176
     1
 90
        1
176
     1
 90
        6
176
     1
 90
        2
176
     1
 62
     7
176
     1
 90
        5
176
     1
 90
        0
176
     1
 90
        0
176
     1
290
     0
176
     1
 90
       13
176
     1
 40
0.0
176
     1
 90
        0
176
     1
290
     0
176
     1
290
     1
176
     1
290
     1
176
     1
290
     0
176
     1
290
     0
176
     1
290
     0
176
     1
290
     0
176
     1
290
     0
176
     1
290
     0
176
     1
 90
       50
176
     1
 40
0.0
176
     1
 40
1.0
176
     1
 90
        0
176
     1
 62
    18
420
        0
176
     1
 90
       50
176
     1
 90
        3
176
     1
 62
     5
420
      255
176
     1
290
     0
176
     1
 90
       50
176
     1
 90
       50
176
     1
 90
       50
176
     1
290
     0
176
     1
 90
       50
176
     1
 62
   256
176
     0
 40
1.0
176
     0
 90
        2
176
     1
  1
strokes_ogs.tif
176
     1
290
     0
176
     1
 40
1.0
176
     1
 40
1.0
176
     1
  0
VISUALSTYLE
  5
2D
102
{ACAD_REACTORS
330
2A
102
}
330
2A
100
AcDbVisualStyle
  2
Gouraud
 70
     2
177
     3
291
     1
 70
    58
 90
        2
176
     1
 90
        2
176
     1
 90
        1
176
     1
 90
        2
176
     1
 40
0.6
176
     1
 40
30.0
176
     1
 62
     7
420
 16777215
176
     1
 90
        0
176
     1
 90
        0
176
     1
 62
     7
176
     1
 62
   257
176
     1
 90
        1
176
     1
 90
        1
176
     1
 40
1.0
176
     1
 90
        0
176
     1
 62
     7
176
     1
 40
1.0
176
     1
 90
        1
176
     1
 90
        6
176
     1
 90
        2
176
     1
 62
     7
176
     1
 90
        5
176
     1
 90
        0
176
     1
 90
        0
176
     1
290
     0
176
     1
 90
       13
176
     1
 40
0.0
176
     1
 90
        0
176
     1
290
     0
176
     1
290
     1
176
     1
290
     1
176
     1
290
     0
176
     1
290
     0
176
     1
290
     0
176
     1
290
     0
176
     1
290
     0
176
     1
290
     0
176
     1
 90
       50
176
     1
 40
0.0
176
     1
 40
1.0
176
     1
 90
        0
176
     1
 62
    18
420
        0
176
     1
 90
       50
176
     1
 90
        3
176
     1
 62
     5
420
      255
176
     1
290
     0
176
     1
 90
       50
176
     1
 90
       50
176
     1
 90
       50
176
     1
290
     0
176
     1
 90
       50
176
     1
 62
   256
176
     0
 40
1.0
176
     0
 90
        2
176
     1
  1
strokes_ogs.tif
176
     1
290
     0
176
     1
 40
1.0
176
     1
 40
1.0
176
     1
  0
VISUALSTYLE
  5
2E
102
{ACAD_REACTORS
330
2A
102
}
330
2A
100
AcDbVisualStyle
  2
GouraudWithEdges
 70
     3
177
     3
291
     1
 70
    58
 90
        2
176
     1
 90
        2
176
     1
 90
        1
176
     1
 90
        2
176
     1
 40
0.6
176
     1
 40
30.0
176
     1
 62
     7
420
 16777215
176
     1
 90
        1
176
     1
 90
        0
176
     1
 62
     7
176
     1
 62
   257
176
     1
 90
        1
176
     1
 90
        1
176
     1
 40
1.0
176
     1
 90
        0
176
     1
 62
   257
176
     1
 40
1.0
176
     1
 90
        1
176
     1
 90
        6
176
     1
 90
        2
176
     1
 62
     7
176
     1
 90
        5
176
     1
 90
        0
176
     1
 90
        0
176
     1
290
     0
176
     1
 90
       13
176
     1
 40
0.0
176
     1
 90
        0
176
     1
290
     0
176
     1
290
     1
176
     1
290
     1
176
     1
290
     0
176
     1
290
     0
176
     1
290
     0
176
     1
290
     0
176
     1
290
     0
176
     1
290
     0
176
     1
 90
       50
176
     1
 40
0.0
176
     1
 40
1.0
176
     1
 90
        0
176
     1
 62
    18
420
        0
176
     1
 90
       50
176
     1
 90
        3
176
     1
 62
     5
420
      255
176
     1
290
     0
176
     1
 90
       50
176
     1
 90
       50
176
     1
 90
       50
176
     1
290
     0
176
     1
 90
       50
176
     1
 62
   256
176
     0
 40
1.0
176
     0
 90
        2
176
     1
  1
strokes_ogs.tif
176
     1
290
     0
176
     1
 40
1.0
176
     1
 40
1.0
176
     1
  0
VISUALSTYLE
  5
31
102
{ACAD_REACTORS
330
2A
102
}
330
2A
100
AcDbVisualStyle
  2
Hidden
 70
     6
177
     3
291
     0
 70
    58
 90
        1
176
     1
 90
        2
176
     1
 90
        2
176
     1
 90
        0
176
     1
 40
0.6
176
     1
 40
30.0
176
     1
 62
     7
420
 16777215
176
     1
 90
        2
176
     1
 90
        2
176
     1
 62
     7
176
     1
 62
   257
176
     1
 90
        2
176
     1
 90
        1
176
     1
 40
40.0
176
     1
 90
        0
176
     1
 62
   257
176
     1
 40
1.0
176
     1
 90
        1
176
     1
 90
        6
176
     1
 90
        2
176
     1
 62
     7
176
     1
 90
        3
176
     1
 90
        0
176
     1
 90
        0
176
     1
290
     0
176
     1
 90
        1
176
     1
 40
0.0
176
     1
 90
        0
176
     1
290
     0
176
     1
290
     1
176
     1
290
     1
176
     1
290
     0
176
     1
290
     0
176
     1
290
     0
176
     1
290
     0
176
     1
290
     0
176
     1
290
     0
176
     1
 90
       50
176
     1
 40
0.0
176
     1
 40
1.0
176
     1
 90
        0
176
     1
 62
    18
420
        0
176
     1
 90
       50
176
     1
 90
        3
176
     1
 62
     5
420
      255
176
     1
290
     0
176
     1
 90
       50
176
     1
 90
       50
176
     1
 90
       50
176
     1
290
     0
176
     1
 90
       50
176
     1
 62
   256
176
     0
 40
1.0
176
     0
 90
        2
176
     1
  1
strokes_ogs.tif
176
     1
290
     0
176
     1
 40
1.0
176
     1
 40
1.0
176
     1
  0
VISUALSTYLE
  5
3B
102
{ACAD_REACTORS
330
2A
102
}
330
2A
100
AcDbVisualStyle
  2
JitterOff
 70
    20
177
     3
291
     1
 70
    58
 90
        2
176
     0
 90
        2
176
     0
 90
        0
176
     0
 90
        0
176
     0
 40
0.6
176
     0
 40
30.0
176
     0
 62
     7
420
 16777215
176
     0
 90
        1
176
     0
 90
        4
176
     0
 62
     7
176
     0
 62
   257
176
     0
 90
        1
176
     0
 90
        1
176
     0
 40
1.0
176
     0
 90
       10
176
     2
 62
     7
176
     0
 40
1.0
176
     0
 90
        1
176
     0
 90
        6
176
     0
 90
        2
176
     0
 62
     7
176
     0
 90
        5
176
     0
 90
        0
176
     0
 90
        0
176
     0
290
     0
176
     0
 90
        1
176
     0
 40
0.0
176
     0
 90
        0
176
     0
290
     0
176
     0
290
     1
176
     0
290
     1
176
     0
290
     0
176
     0
290
     0
176
     0
290
     0
176
     0
290
     0
176
     0
290
     0
176
     0
290
     0
176
     0
 90
       50
176
     0
 40
0.0
176
     0
 40
1.0
176
     0
 90
        0
176
     0
 62
    18
420
        0
176
     0
 90
       50
176
     0
 90
        3
176
     0
 62
     5
420
      255
176
     0
290
     0
176
     0
 90
       50
176
     0
 90
       50
176
     0
 90
       50
176
     0
290
     0
176
     0
 90
       50
176
     0
 62
   256
176
     0
 40
1.0
176
     0
 90
        2
176
     0
  1
strokes_ogs.tif
176
     0
290
     0
176
     0
 40
1.0
176
     0
 40
1.0
176
     0
  0
VISUALSTYLE
  5
38
102
{ACAD_REACTORS
330
2A
102
}
330
2A
100
AcDbVisualStyle
  2
Linepattern
 70
    14
177
     3
291
     1
 70
    58
 90
        2
176
     1
 90
        2
176
     1
 90
        0
176
     1
 90
        0
176
     1
 40
0.6
176
     1
 40
30.0
176
     1
 62
     7
420
 16777215
176
     1
 90
        1
176
     1
 90
        4
176
     1
 62
     7
176
     1
 62
   257
176
     1
 90
        7
176
     1
 90
        7
176
     1
 40
1.0
176
     1
 90
        8
176
     1
 62
     7
176
     1
 40
1.0
176
     1
 90
        1
176
     1
 90
        6
176
     1
 90
        2
176
     1
 62
     7
176
     1
 90
        5
176
     1
 90
        0
176
     1
 90
        0
176
     1
290
     0
176
     1
 90
        1
176
     1
 40
0.0
176
     1
 90
        0
176
     1
290
     0
176
     1
290
     1
176
     1
290
     1
176
     1
290
     0
176
     1
290
     0
176
     1
290
     0
176
     1
290
     0
176
     1
290
     0
176
     1
290
     0
176
     1
 90
       50
176
     1
 40
0.0
176
     1
 40
1.0
176
     1
 90
        0
176
     1
 62
    18
420
        0
176
     1
 90
       50
176
     1
 90
        3
176
     1
 62
     5
420
      255
176
     1
290
     0
176
     1
 90
       50
176
     1
 90
       50
176
     1
 90
       50
176
     1
290
     0
176
     1
 90
       50
176
     1
 62
   256
176
     0
 40
1.0
176
     0
 90
        2
176
     1
  1
strokes_ogs.tif
176
     1
290
     0
176
     1
 40
1.0
176
     1
 40
1.0
176
     1
  0
VISUALSTYLE
  5
3C
102
{ACAD_REACTORS
330
2A
102
}
330
2A
100
AcDbVisualStyle
  2
OverhangOff
 70
    21
177
     3
291
     1
 70
    58
 90
        2
176
     0
 90
        2
176
     0
 90
        0
176
     0
 90
        0
176
     0
 40
0.6
176
     0
 40
30.0
176
     0
 62
     7
420
 16777215
176
     0
 90
        1
176
     0
 90
        4
176
     0
 62
     7
176
     0
 62
   257
176
     0
 90
        1
176
     0
 90
        1
176
     0
 40
1.0
176
     0
 90
        9
176
     2
 62
     7
176
     0
 40
1.0
176
     0
 90
        1
176
     0
 90
        6
176
     0
 90
        2
176
     0
 62
     7
176
     0
 90
        5
176
     0
 90
        0
176
     0
 90
        0
176
     0
290
     0
176
     0
 90
        1
176
     0
 40
0.0
176
     0
 90
        0
176
     0
290
     0
176
     0
290
     1
176
     0
290
     1
176
     0
290
     0
176
     0
290
     0
176
     0
290
     0
176
     0
290
     0
176
     0
290
     0
176
     0
290
     0
176
     0
 90
       50
176
     0
 40
0.0
176
     0
 40
1.0
176
     0
 90
        0
176
     0
 62
    18
420
        0
176
     0
 90
       50
176
     0
 90
        3
176
     0
 62
     5
420
      255
176
     0
290
     0
176
     0
 90
       50
176
     0
 90
       50
176
     0
 90
       50
176
     0
290
     0
176
     0
 90
       50
176
     0
 62
   256
176
     0
 40
1.0
176
     0
 90
        2
176
     0
  1
strokes_ogs.tif
176
     0
290
     0
176
     0
 40
1.0
176
     0
 40
1.0
176
     0
  0
VISUALSTYLE
  5
33
102
{ACAD_REACTORS
330
2A
102
}
330
2A
100
AcDbVisualStyle
  2
Realistic
 70
     8
177
     3
291
     0
 70
    58
 90
        2
176
     1
 90
        3
176
     1
 90
        0
176
     1
 90
        2
176
     1
 40
0.6
176
     1
 40
30.0
176
     1
 62
     7
420
 16777215
176
     1
 90
        0
176
     1
 90
        0
176
     1
 62
     7
176
     1
 62
   257
176
     1
 90
        1
176
     1
 90
        1
176
     1
 40
1.0
176
     1
 90
        8
176
     1
 62
   257
176
     1
 40
1.0
176
     1
 90
        1
176
     1
 90
        6
176
     1
 90
        2
176
     1
 62
     7
176
     1
 90
        3
176
     1
 90
        0
176
     1
 90
        0
176
     1
290
     0
176
     1
 90
       13
176
     1
 40
0.0
176
     1
 90
        0
176
     1
290
     0
176
     1
290
     1
176
     1
290
     1
176
     1
290
     0
176
     1
290
     0
176
     1
290
     0
176
     1
290
     0
176
     1
290
     0
176
     1
290
     0
176
     1
 90
       50
176
     1
 40
0.0
176
     1
 40
1.0
176
     1
 90
        0
176
     1
 62
    18
420
        0
176
     1
 90
       50
176
     1
 90
        3
176
     1
 62
     5
420
      255
176
     1
290
     0
176
     1
 90
       50
176
     1
 90
       50
176
     1
 90
       50
176
     1
290
     0
176
     1
 90
       50
176
     1
 62
   256
176
     0
 40
1.0
176
     0
 90
        2
176
     1
  1
strokes_ogs.tif
176
     1
290
     0
176
     1
 40
1.0
176
     1
 40
1.0
176
     1
  0
VISUALSTYLE
  5
42
102
{ACAD_REACTORS
330
2A
102
}
330
2A
100
AcDbVisualStyle
  2
Shaded
 70
    27
177
     3
291
     0
 70
    58
 90
        2
176
     1
 90
        2
176
     1
 90
        1
176
     1
 90
        2
176
     1
 40
0.6
176
     1
 40
30.0
176
     1
 62
     7
420
 16777215
176
     1
 90
        0
176
     1
 90
        4
176
     1
 62
     7
176
     1
 62
   257
176
     1
 90
        1
176
     1
 90
        1
176
     1
 40
1.0
176
     1
 90
        8
176
     1
 62
   257
176
     1
 40
1.0
176
     1
 90
        1
176
     1
 90
        6
176
     1
 90
        2
176
     1
 62
     8
420
  7895160
176
     1
 90
        3
176
     1
 90
        0
176
     1
 90
        0
176
     1
290
     0
176
     1
 90
        5
176
     1
 40
0.0
176
     1
 90
        0
176
     1
290
     0
176
     1
290
     1
176
     1
290
     1
176
     1
290
     0
176
     1
290
     0
176
     1
290
     0
176
     1
290
     0
176
     1
290
     0
176
     1
290
     0
176
     1
 90
       50
176
     1
 40
0.0
176
     1
 40
1.0
176
     1
 90
        0
176
     1
 62
    18
420
        0
176
     1
 90
       50
176
     1
 90
        3
176
     1
 62
     5
420
      255
176
     1
290
     0
176
     1
 90
       50
176
     1
 90
       50
176
     1
 90
       50
176
     1
290
     0
176
     1
 90
       50
176
     1
 62
   256
176
     0
 40
1.0
176
     0
 90
        2
176
     1
  1
strokes_ogs.tif
176
     1
290
     0
176
     1
 40
1.0
176
     1
 40
1.0
176
     1
  0
VISUALSTYLE
  5
41
102
{ACAD_REACTORS
330
2A
102
}
330
2A
100
AcDbVisualStyle
  2
Shaded with edges
 70
    26
177
     3
291
     0
 70
    58
 90
        2
176
     1
 90
        2
176
     1
 90
        1
176
     1
 90
        2
176
     1
 40
0.6
176
     1
 40
30.0
176
     1
 62
     7
420
 16777215
176
     1
 90
        1
176
     1
 90
       10
176
     1
 62
     7
176
     1
 62
   257
176
     1
 90
        2
176
     1
 90
        1
176
     1
 40
1.0
176
     1
 90
        8
176
     1
 62
   257
176
     1
 40
1.0
176
     1
 90
        1
176
     1
 90
        6
176
     1
 90
        2
176
     1
 62
     7
176
     1
 90
        3
176
     1
 90
        0
176
     1
 90
        0
176
     1
290
     0
176
     1
 90
        5
176
     1
 40
0.0
176
     1
 90
        0
176
     1
290
     0
176
     1
290
     1
176
     1
290
     1
176
     1
290
     0
176
     1
290
     0
176
     1
290
     0
176
     1
290
     0
176
     1
290
     0
176
     1
290
     0
176
     1
 90
       50
176
     1
 40
0.0
176
     1
 40
1.0
176
     1
 90
        0
176
     1
 62
    18
420
        0
176
     1
 90
       50
176
     1
 90
        3
176
     1
 62
     5
420
      255
176
     1
290
     0
176
     1
 90
       50
176
     1
 90
       50
176
     1
 90
       50
176
     1
290
     0
176
     1
 90
       50
176
     1
 62
   256
176
     0
 40
1.0
176
     0
 90
        2
176
     1
  1
strokes_ogs.tif
176
     1
290
     0
176
     1
 40
1.0
176
     1
 40
1.0
176
     1
  0
VISUALSTYLE
  5
3E
102
{ACAD_REACTORS
330
2A
102
}
330
2A
100
AcDbVisualStyle
  2
Shades of Gray
 70
    23
177
     3
291
     0
 70
    58
 90
        2
176
     1
 90
        2
176
     1
 90
        3
176
     1
 90
        0
176
     1
 40
0.6
176
     1
 40
30.0
176
     1
 62
     7
420
 16777215
176
     1
 90
        2
176
     1
 90
        2
176
     1
 62
     7
176
     1
 62
     7
176
     1
 90
        1
176
     1
 90
        1
176
     1
 40
40.0
176
     1
 90
        8
176
     1
 62
     7
176
     1
 40
1.0
176
     1
 90
        1
176
     1
 90
        6
176
     1
 90
        2
176
     1
 62
     7
176
     1
 90
        3
176
     1
 90
        0
176
     1
 90
        0
176
     1
290
     0
176
     1
 90
        1
176
     1
 40
0.0
176
     1
 90
        0
176
     1
290
     0
176
     1
290
     1
176
     1
290
     1
176
     1
290
     0
176
     1
290
     0
176
     1
290
     0
176
     1
290
     0
176
     1
290
     0
176
     1
290
     0
176
     1
 90
       50
176
     1
 40
0.0
176
     1
 40
1.0
176
     1
 90
        0
176
     1
 62
    18
420
        0
176
     1
 90
       50
176
     1
 90
        3
176
     1
 62
     5
420
      255
176
     1
290
     0
176
     1
 90
       50
176
     1
 90
       50
176
     1
 90
       50
176
     1
290
     0
176
     1
 90
       50
176
     1
 62
   256
176
     0
 40
1.0
176
     0
 90
        2
176
     1
  1
strokes_ogs.tif
176
     1
290
     0
176
     1
 40
1.0
176
     1
 40
1.0
176
     1
  0
VISUALSTYLE
  5
3F
102
{ACAD_REACTORS
330
2A
102
}
330
2A
100
AcDbVisualStyle
  2
Sketchy
 70
    24
177
     3
291
     0
 70
    58
 90
        1
176
     1
 90
        2
176
     1
 90
        2
176
     1
 90
        0
176
     1
 40
0.6
176
     1
 40
30.0
176
     1
 62
     7
420
 16777215
176
     1
 90
        2
176
     1
 90
        2
176
     1
 62
     7
176
     1
 62
     7
176
     1
 90
        1
176
     1
 90
        1
176
     1
 40
40.0
176
     1
 90
       11
176
     1
 62
     7
176
     1
 40
1.0
176
     1
 90
        1
176
     1
 90
        6
176
     1
 90
        2
176
     1
 62
     7
176
     1
 90
        6
176
     1
 90
        0
176
     1
 90
        0
176
     1
290
     0
176
     1
 90
        1
176
     1
 40
0.0
176
     1
 90
        0
176
     1
290
     0
176
     1
290
     1
176
     1
290
     1
176
     1
290
     0
176
     1
290
     0
176
     1
290
     0
176
     1
290
     0
176
     1
290
     0
176
     1
290
     0
176
     1
 90
       50
176
     1
 40
0.0
176
     1
 40
1.0
176
     1
 90
        0
176
     1
 62
    18
420
        0
176
     1
 90
       50
176
     1
 90
        3
176
     1
 62
     5
420
      255
176
     1
290
     0
176
     1
 90
       50
176
     1
 90
       50
176
     1
 90
       50
176
     1
290
     0
176
     1
 90
       50
176
     1
 62
   256
176
     0
 40
1.0
176
     0
 90
        2
176
     1
  1
strokes_ogs.tif
176
     1
290
     0
176
     1
 40
1.0
176
     1
 40
1.0
176
     1
  0
VISUALSTYLE
  5
37
102
{ACAD_REACTORS
330
2A
102
}
330
2A
100
AcDbVisualStyle
  2
Thicken
 70
    13
177
     3
291
     1
 70
    58
 90
        2
176
     1
 90
        2
176
     1
 90
        0
176
     1
 90
        0
176
     1
 40
0.6
176
     1
 40
30.0
176
     1
 62
     7
420
 16777215
176
     1
 90
        1
176
     1
 90
        4
176
     1
 62
     7
176
     1
 62
   257
176
     1
 90
        1
176
     1
 90
        1
176
     1
 40
1.0
176
     1
 90
       12
176
     1
 62
     7
176
     1
 40
1.0
176
     1
 90
        1
176
     1
 90
        6
176
     1
 90
        2
176
     1
 62
     7
176
     1
 90
        5
176
     1
 90
        0
176
     1
 90
        0
176
     1
290
     0
176
     1
 90
        1
176
     1
 40
0.0
176
     1
 90
        0
176
     1
290
     0
176
     1
290
     1
176
     1
290
     1
176
     1
290
     0
176
     1
290
     0
176
     1
290
     0
176
     1
290
     0
176
     1
290
     0
176
     1
290
     0
176
     1
 90
       50
176
     1
 40
0.0
176
     1
 40
1.0
176
     1
 90
        0
176
     1
 62
    18
420
        0
176
     1
 90
       50
176
     1
 90
        3
176
     1
 62
     5
420
      255
176
     1
290
     0
176
     1
 90
       50
176
     1
 90
       50
176
     1
 90
       50
176
     1
290
     0
176
     1
 90
       50
176
     1
 62
   256
176
     0
 40
1.0
176
     0
 90
        2
176
     1
  1
strokes_ogs.tif
176
     1
290
     0
176
     1
 40
1.0
176
     1
 40
1.0
176
     1
  0
VISUALSTYLE
  5
30
102
{ACAD_REACTORS
330
2A
102
}
330
2A
100
AcDbVisualStyle
  2
Wireframe
 70
     5
177
     3
291
     0
 70
    58
 90
        0
176
     1
 90
        2
176
     1
 90
        0
176
     1
 90
        0
176
     1
 40
0.6
176
     1
 40
30.0
176
     1
 62
     7
420
 16777215
176
     1
 90
        1
176
     1
 90
        4
176
     1
 62
     7
176
     1
 62
   257
176
     1
 90
        1
176
     1
 90
        1
176
     1
 40
1.0
176
     1
 90
        0
176
     1
 62
   257
176
     1
 40
1.0
176
     1
 90
        1
176
     1
 90
        6
176
     1
 90
        2
176
     1
 62
     7
176
     1
 90
        3
176
     1
 90
        0
176
     1
 90
        0
176
     1
290
     0
176
     1
 90
        1
176
     1
 40
0.0
176
     1
 90
        0
176
     1
290
     0
176
     1
290
     1
176
     1
290
     1
176
     1
290
     0
176
     1
290
     0
176
     1
290
     0
176
     1
290
     0
176
     1
290
     0
176
     1
290
     0
176
     1
 90
       50
176
     1
 40
0.0
176
     1
 40
1.0
176
     1
 90
        0
176
     1
 62
    18
420
        0
176
     1
 90
       50
176
     1
 90
        3
176
     1
 62
     5
420
      255
176
     1
290
     0
176
     1
 90
       50
176
     1
 90
       50
176
     1
 90
       50
176
     1
290
     0
176
     1
 90
       50
176
     1
 62
   256
176
     0
 40
1.0
176
     0
 90
        2
176
     1
  1
strokes_ogs.tif
176
     1
290
     0
176
     1
 40
1.0
176
     1
 40
1.0
176
     1
  0
VISUALSTYLE
  5
40
102
{ACAD_REACTORS
330
2A
102
}
330
2A
100
AcDbVisualStyle
  2
X-Ray
 70
    25
177
     3
291
     0
 70
    58
 90
        2
176
     1
 90
        2
176
     1
 90
        1
176
     1
 90
        1
176
     1
 40
0.5
176
     1
 40
30.0
176
     1
 62
     7
420
 16777215
176
     1
 90
        1
176
     1
 90
        0
176
     1
 62
     7
176
     1
 62
   257
176
     1
 90
        1
176
     1
 90
        1
176
     1
 40
1.0
176
     1
 90
        8
176
     1
 62
     7
176
     1
 40
1.0
176
     1
 90
        1
176
     1
 90
        6
176
     1
 90
        2
176
     1
 62
     7
176
     1
 90
        3
176
     1
 90
        0
176
     1
 90
        0
176
     1
290
     0
176
     1
 90
       13
176
     1
 40
0.0
176
     1
 90
        0
176
     1
290
     0
176
     1
290
     1
176
     1
290
     1
176
     1
290
     0
176
     1
290
     0
176
     1
290
     0
176
     1
290
     0
176
     1
290
     0
176
     1
290
     0
176
     1
 90
       50
176
     1
 40
0.0
176
     1
 40
1.0
176
     1
 90
        0
176
     1
 62
    18
420
        0
176
     1
 90
       50
176
     1
 90
        3
176
     1
 62
     5
420
      255
176
     1
290
     0
176
     1
 90
       50
176
     1
 90
       50
176
     1
 90
       50
176
     1
290
     0
176
     1
 90
       50
176
     1
 62
   256
176
     0
 40
1.0
176
     0
 90
        2
176
     1
  1
strokes_ogs.tif
176
     1
290
     0
176
     1
 40
1.0
176
     1
 40
1.0
176
     1
  0
DICTIONARYVAR
  5
1DD
102
{ACAD_REACTORS
330
1DC
102
}
330
1DC
100
DictionaryVariables
280
     0
  1
1:1
  0
DICTIONARYVAR
  5
1E2
102
{ACAD_REACTORS
330
1DC
102
}
330
1DC
100
DictionaryVariables
280
     0
  1
Standard
  0
DICTIONARYVAR
  5
1E1
102
{ACAD_REACTORS
330
1DC
102
}
330
1DC
100
DictionaryVariables
280
     0
  1
Standard
  0
DICTIONARY
  5
1DE
330
6A
100
AcDbDictionary
280
     1
281
     1
  3
ACAD_ROUNDTRIP_2008_TABLESTYLE_CELLSTYLEMAP
360
1DF
  0
CELLSTYLEMAP
  5
1DF
102
{ACAD_REACTORS
330
1DE
102
}
330
1DE
100
AcDbCellStyleMap
 90
        3
300
CELLSTYLE
  1
TABLEFORMAT_BEGIN
 90
        5
170
     1
 91
        0
 92
    32768
 62
   257
 93
        1
300
CONTENTFORMAT
  1
CONTENTFORMAT_BEGIN
 90
        0
 91
        0
 92
        4
 93
        0
300

 40
0.0
140
1.0
 94
        5
 62
     0
340
11
144
0.25
309
CONTENTFORMAT_END
171
     1
301
MARGIN
  1
CELLMARGIN_BEGIN
 40
0.06
 40
0.06
 40
0.06
 40
0.06
 40
0.06
 40
0.06
309
CELLMARGIN_END
 94
        6
 95
        1
302
GRIDFORMAT
  1
GRIDFORMAT_BEGIN
 90
        0
 91
        1
 62
     0
 92
       -2
340
14
 93
        0
 40
0.045
309
GRIDFORMAT_END
 95
        2
302
GRIDFORMAT
  1
GRIDFORMAT_BEGIN
 90
        0
 91
        1
 62
     0
 92
       -2
340
14
 93
        0
 40
0.045
309
GRIDFORMAT_END
 95
        4
302
GRIDFORMAT
  1
GRIDFORMAT_BEGIN
 90
        0
 91
        1
 62
     0
 92
       -2
340
14
 93
        0
 40
0.045
309
GRIDFORMAT_END
 95
        8
302
GRIDFORMAT
  1
GRIDFORMAT_BEGIN
 90
        0
 91
        1
 62
     0
 92
       -2
340
14
 93
        0
 40
0.045
309
GRIDFORMAT_END
 95
       16
302
GRIDFORMAT
  1
GRIDFORMAT_BEGIN
 90
        0
 91
        1
 62
     0
 92
       -2
340
14
 93
        0
 40
0.045
309
GRIDFORMAT_END
 95
       32
302
GRIDFORMAT
  1
GRIDFORMAT_BEGIN
 90
        0
 91
        1
 62
     0
 92
       -2
340
14
 93
        0
 40
0.045
309
GRIDFORMAT_END
309
TABLEFORMAT_END
  1
CELLSTYLE_BEGIN
 90
        1
 91
        1
300
_TITLE
309
CELLSTYLE_END
300
CELLSTYLE
  1
TABLEFORMAT_BEGIN
 90
        5
170
     1
 91
        0
 92
        0
 62
   257
 93
        1
300
CONTENTFORMAT
  1
CONTENTFORMAT_BEGIN
 90
        0
 91
        0
 92
        4
 93
        0
300

 40
0.0
140
1.0
 94
        5
 62
     0
340
11
144
0.18
309
CONTENTFORMAT_END
171
     1
301
MARGIN
  1
CELLMARGIN_BEGIN
 40
0.06
 40
0.06
 40
0.06
 40
0.06
 40
0.06
 40
0.06
309
CELLMARGIN_END
 94
        6
 95
        1
302
GRIDFORMAT
  1
GRIDFORMAT_BEGIN
 90
        0
 91
        1
 62
     0
 92
       -2
340
14
 93
        0
 40
0.045
309
GRIDFORMAT_END
 95
        2
302
GRIDFORMAT
  1
GRIDFORMAT_BEGIN
 90
        0
 91
        1
 62
     0
 92
       -2
340
14
 93
        0
 40
0.045
309
GRIDFORMAT_END
 95
        4
302
GRIDFORMAT
  1
GRIDFORMAT_BEGIN
 90
        0
 91
        1
 62
     0
 92
       -2
340
14
 93
        0
 40
0.045
309
GRIDFORMAT_END
 95
        8
302
GRIDFORMAT
  1
GRIDFORMAT_BEGIN
 90
        0
 91
        1
 62
     0
 92
       -2
340
14
 93
        0
 40
0.045
309
GRIDFORMAT_END
 95
       16
302
GRIDFORMAT
  1
GRIDFORMAT_BEGIN
 90
        0
 91
        1
 62
     0
 92
       -2
340
14
 93
        0
 40
0.045
309
GRIDFORMAT_END
 95
       32
302
GRIDFORMAT
  1
GRIDFORMAT_BEGIN
 90
        0
 91
        1
 62
     0
 92
       -2
340
14
 93
        0
 40
0.045
309
GRIDFORMAT_END
309
TABLEFORMAT_END
  1
CELLSTYLE_BEGIN
 90
        2
 91
        1
300
_HEADER
309
CELLSTYLE_END
300
CELLSTYLE
  1
TABLEFORMAT_BEGIN
 90
        5
170
     1
 91
        0
 92
        0
 62
   257
 93
        1
300
CONTENTFORMAT
  1
CONTENTFORMAT_BEGIN
 90
        0
 91
        0
 92
        4
 93
        0
300

 40
0.0
140
1.0
 94
        2
 62
     0
340
11
144
0.18
309
CONTENTFORMAT_END
171
     1
301
MARGIN
  1
CELLMARGIN_BEGIN
 40
0.06
 40
0.06
 40
0.06
 40
0.06
 40
0.06
 40
0.06
309
CELLMARGIN_END
 94
        6
 95
        1
302
GRIDFORMAT
  1
GRIDFORMAT_BEGIN
 90
        0
 91
        1
 62
     0
 92
       -2
340
14
 93
        0
 40
0.045
309
GRIDFORMAT_END
 95
        2
302
GRIDFORMAT
  1
GRIDFORMAT_BEGIN
 90
        0
 91
        1
 62
     0
 92
       -2
340
14
 93
        0
 40
0.045
309
GRIDFORMAT_END
 95
        4
302
GRIDFORMAT
  1
GRIDFORMAT_BEGIN
 90
        0
 91
        1
 62
     0
 92
       -2
340
14
 93
        0
 40
0.045
309
GRIDFORMAT_END
 95
        8
302
GRIDFORMAT
  1
GRIDFORMAT_BEGIN
 90
        0
 91
        1
 62
     0
 92
       -2
340
14
 93
        0
 40
0.045
309
GRIDFORMAT_END
 95
       16
302
GRIDFORMAT
  1
GRIDFORMAT_BEGIN
 90
        0
 91
        1
 62
     0
 92
       -2
340
14
 93
        0
 40
0.045
309
GRIDFORMAT_END
 95
       32
302
GRIDFORMAT
  1
GRIDFORMAT_BEGIN
 90
        0
 91
        1
 62
     0
 92
       -2
340
14
 93
        0
 40
0.045
309
GRIDFORMAT_END
309
TABLEFORMAT_END
  1
CELLSTYLE_BEGIN
 90
        3
 91
        2
300
_DATA
309
CELLSTYLE_END
  0
ENDSEC
  0
EOF