0
SECTION
  2
HEADER
  9
$ACADVER
  1
AC1027
  9
$ACADMAINTVER
 70
     8
  9
$DWGCODEPAGE
  3
ANSI_1252
  9
$REQUIREDVERSIONS
160
                 0
  9
$COMMENTS
  1
File was created by Cadenas
  9
$CUSTOMPROPERTYTAG
  1
NN
  9
$CUSTOMPROPERTY
  1
Eccentric Collar Intermediate Duty Narrow Slot Take Up Inch Bore
  9
$CUSTOMPROPERTYTAG
  1
NT
  9
$CUSTOMPROPERTY
  1
Eccentric Collar Take-Up Bearings -(Intermediate Duty) -Narrow Slot
  9
$CUSTOMPROPERTYTAG
  1
NB
  9
$CUSTOMPROPERTY
  1
131192
  9
$CUSTOMPROPERTYTAG
  1
NBSYN
  9
$CUSTOMPROPERTY
  1
$PN.
  9
$CUSTOMPROPERTYTAG
  1
LINA
  9
$CUSTOMPROPERTY
  1
131192
  9
$CUSTOMPROPERTYTAG
  1
SERIES
  9
$CUSTOMPROPERTY
  1
206
  9
$CUSTOMPROPERTYTAG
  1
SS
  9
$CUSTOMPROPERTY
  1
1-3/16
  9
$CUSTOMPROPERTYTAG
  1
PN
  9
$CUSTOMPROPERTY
  1
131192
  9
$CUSTOMPROPERTYTAG
  1
DESCRIPTION
  9
$CUSTOMPROPERTY
  1
NSTU-SXV-103
  9
$CUSTOMPROPERTYTAG
  1
W
  9
$CUSTOMPROPERTY
  1
2.6
  9
$CUSTOMPROPERTYTAG
  1
FS
  9
$CUSTOMPROPERTY
  1
NS308
  9
$CUSTOMPROPERTYTAG
  1
A
  9
$CUSTOMPROPERTY
  1
1.41
  9
$CUSTOMPROPERTYTAG
  1
B
  9
$CUSTOMPROPERTY
  1
4.31
  9
$CUSTOMPROPERTYTAG
  1
C
  9
$CUSTOMPROPERTY
  1
0.250
  9
$CUSTOMPROPERTYTAG
  1
D
  9
$CUSTOMPROPERTY
  1
2.50
  9
$CUSTOMPROPERTYTAG
  1
E
  9
$CUSTOMPROPERTY
  1
2.69
  9
$CUSTOMPROPERTYTAG
  1
F
  9
$CUSTOMPROPERTY
  1
3/4
  9
$CUSTOMPROPERTYTAG
  1
G
  9
$CUSTOMPROPERTY
  1
0.50
  9
$CUSTOMPROPERTYTAG
  1
H
  9
$CUSTOMPROPERTY
  1
0.94
  9
$CUSTOMPROPERTYTAG
  1
J
  9
$CUSTOMPROPERTY
  1
1.38
  9
$CUSTOMPROPERTYTAG
  1
L
  9
$CUSTOMPROPERTY
  1
1.75
  9
$CUSTOMPROPERTYTAG
  1
M
  9
$CUSTOMPROPERTY
  1
3.510 / 3.480
  9
$CUSTOMPROPERTYTAG
  1
N
  9
$CUSTOMPROPERTY
  1
4.13
  9
$CUSTOMPROPERTYTAG
  1
P
  9
$CUSTOMPROPERTY
  1
0.32
  9
$CUSTOMPROPERTYTAG
  1
R
  9
$CUSTOMPROPERTY
  1
0.35
  9
$CUSTOMPROPERTYTAG
  1
S
  9
$CUSTOMPROPERTY
  1
1.05
  9
$CUSTOMPROPERTYTAG
  1
COMPANY
  9
$CUSTOMPROPERTY
  1
baldor
  9
$INSBASE
 10
0.0
 20
0.0
 30
0.0
  9
$EXTMIN
 10
1.000000000000000E+20
 20
1.000000000000000E+20
 30
1.000000000000000E+20
  9
$EXTMAX
 10
-1.000000000000000E+20
 20
-1.000000000000000E+20
 30
-1.000000000000000E+20
  9
$LIMMIN
 10
0.0
 20
0.0
  9
$LIMMAX
 10
12.0
 20
9.0
  9
$ORTHOMODE
 70
     0
  9
$REGENMODE
 70
     1
  9
$FILLMODE
 70
     1
  9
$QTEXTMODE
 70
     0
  9
$MIRRTEXT
 70
     1
  9
$LTSCALE
 40
1.0
  9
$ATTMODE
 70
     1
  9
$TEXTSIZE
 40
0.2
  9
$TRACEWID
 40
0.05
  9
$TEXTSTYLE
  7
Standard
  9
$CLAYER
  8
0
  9
$CELTYPE
  6
ByLayer
  9
$CECOLOR
 62
   256
  9
$CELTSCALE
 40
1.0
  9
$DISPSILH
 70
     0
  9
$DIMSCALE
 40
1.0
  9
$DIMASZ
 40
0.18
  9
$DIMEXO
 40
0.0625
  9
$DIMDLI
 40
0.38
  9
$DIMRND
 40
0.0
  9
$DIMDLE
 40
0.0
  9
$DIMEXE
 40
0.18
  9
$DIMTP
 40
0.0
  9
$DIMTM
 40
0.0
  9
$DIMTXT
 40
0.18
  9
$DIMCEN
 40
0.09
  9
$DIMTSZ
 40
0.0
  9
$DIMTOL
 70
     0
  9
$DIMLIM
 70
     0
  9
$DIMTIH
 70
     1
  9
$DIMTOH
 70
     1
  9
$DIMSE1
 70
     0
  9
$DIMSE2
 70
     0
  9
$DIMTAD
 70
     0
  9
$DIMZIN
 70
     0
  9
$DIMBLK
  1

  9
$DIMASO
 70
     1
  9
$DIMSHO
 70
     1
  9
$DIMPOST
  1

  9
$DIMAPOST
  1

  9
$DIMALT
 70
     0
  9
$DIMALTD
 70
     2
  9
$DIMALTF
 40
25.4
  9
$DIMLFAC
 40
1.0
  9
$DIMTOFL
 70
     0
  9
$DIMTVP
 40
0.0
  9
$DIMTIX
 70
     0
  9
$DIMSOXD
 70
     0
  9
$DIMSAH
 70
     0
  9
$DIMBLK1
  1

  9
$DIMBLK2
  1

  9
$DIMSTYLE
  2
Standard
  9
$DIMCLRD
 70
     0
  9
$DIMCLRE
 70
     0
  9
$DIMCLRT
 70
     0
  9
$DIMTFAC
 40
1.0
  9
$DIMGAP
 40
0.09
  9
$DIMJUST
 70
     0
  9
$DIMSD1
 70
     0
  9
$DIMSD2
 70
     0
  9
$DIMTOLJ
 70
     1
  9
$DIMTZIN
 70
     0
  9
$DIMALTZ
 70
     0
  9
$DIMALTTZ
 70
     0
  9
$DIMUPT
 70
     0
  9
$DIMDEC
 70
     4
  9
$DIMTDEC
 70
     4
  9
$DIMALTU
 70
     2
  9
$DIMALTTD
 70
     2
  9
$DIMTXSTY
  7
Standard
  9
$DIMAUNIT
 70
     0
  9
$DIMADEC
 70
     0
  9
$DIMALTRND
 40
0.0
  9
$DIMAZIN
 70
     0
  9
$DIMDSEP
 70
    46
  9
$DIMATFIT
 70
     3
  9
$DIMFRAC
 70
     0
  9
$DIMLDRBLK
  1

  9
$DIMLUNIT
 70
     2
  9
$DIMLWD
 70
    -2
  9
$DIMLWE
 70
    -2
  9
$DIMTMOVE
 70
     0
  9
$DIMFXL
 40
1.0
  9
$DIMFXLON
 70
     0
  9
$DIMJOGANG
 40
0.7853981633974483
  9
$DIMTFILL
 70
     0
  9
$DIMTFILLCLR
 70
     0
  9
$DIMARCSYM
 70
     0
  9
$DIMLTYPE
  6

  9
$DIMLTEX1
  6

  9
$DIMLTEX2
  6

  9
$DIMTXTDIRECTION
 70
     0
  9
$LUNITS
 70
     2
  9
$LUPREC
 70
     4
  9
$SKETCHINC
 40
0.1
  9
$FILLETRAD
 40
0.5
  9
$AUNITS
 70
     0
  9
$AUPREC
 70
     0
  9
$MENU
  1
.
  9
$ELEVATION
 40
0.0
  9
$PELEVATION
 40
0.0
  9
$THICKNESS
 40
0.0
  9
$LIMCHECK
 70
     0
  9
$CHAMFERA
 40
0.0
  9
$CHAMFERB
 40
0.0
  9
$CHAMFERC
 40
0.0
  9
$CHAMFERD
 40
0.0
  9
$SKPOLY
 70
     0
  9
$TDCREATE
 40
2458169.003894676
  9
$TDUCREATE
 40
2458168.962228009
  9
$TDUPDATE
 40
2458169.003894861
  9
$TDUUPDATE
 40
2458168.962228194
  9
$TDINDWG
 40
0.0000000116
  9
$TDUSRTIMER
 40
0.0000000116
  9
$USRTIMER
 70
     1
  9
$ANGBASE
 50
0.0
  9
$ANGDIR
 70
     0
  9
$PDMODE
 70
     0
  9
$PDSIZE
 40
0.0
  9
$PLINEWID
 40
0.0
  9
$SPLFRAME
 70
     0
  9
$SPLINETYPE
 70
     6
  9
$SPLINESEGS
 70
     8
  9
$HANDSEED
  5
1DF
  9
$SURFTAB1
 70
     6
  9
$SURFTAB2
 70
     6
  9
$SURFTYPE
 70
     6
  9
$SURFU
 70
     6
  9
$SURFV
 70
     6
  9
$UCSBASE
  2

  9
$UCSNAME
  2

  9
$UCSORG
 10
0.0
 20
0.0
 30
0.0
  9
$UCSXDIR
 10
1.0
 20
0.0
 30
0.0
  9
$UCSYDIR
 10
0.0
 20
1.0
 30
0.0
  9
$UCSORTHOREF
  2

  9
$UCSORTHOVIEW
 70
     0
  9
$UCSORGTOP
 10
0.0
 20
0.0
 30
0.0
  9
$UCSORGBOTTOM
 10
0.0
 20
0.0
 30
0.0
  9
$UCSORGLEFT
 10
0.0
 20
0.0
 30
0.0
  9
$UCSORGRIGHT
 10
0.0
 20
0.0
 30
0.0
  9
$UCSORGFRONT
 10
0.0
 20
0.0
 30
0.0
  9
$UCSORGBACK
 10
0.0
 20
0.0
 30
0.0
  9
$PUCSBASE
  2

  9
$PUCSNAME
  2

  9
$PUCSORG
 10
0.0
 20
0.0
 30
0.0
  9
$PUCSXDIR
 10
1.0
 20
0.0
 30
0.0
  9
$PUCSYDIR
 10
0.0
 20
1.0
 30
0.0
  9
$PUCSORTHOREF
  2

  9
$PUCSORTHOVIEW
 70
     0
  9
$PUCSORGTOP
 10
0.0
 20
0.0
 30
0.0
  9
$PUCSORGBOTTOM
 10
0.0
 20
0.0
 30
0.0
  9
$PUCSORGLEFT
 10
0.0
 20
0.0
 30
0.0
  9
$PUCSORGRIGHT
 10
0.0
 20
0.0
 30
0.0
  9
$PUCSORGFRONT
 10
0.0
 20
0.0
 30
0.0
  9
$PUCSORGBACK
 10
0.0
 20
0.0
 30
0.0
  9
$USERI1
 70
     0
  9
$USERI2
 70
     0
  9
$USERI3
 70
     0
  9
$USERI4
 70
     0
  9
$USERI5
 70
     0
  9
$USERR1
 40
0.0
  9
$USERR2
 40
0.0
  9
$USERR3
 40
0.0
  9
$USERR4
 40
0.0
  9
$USERR5
 40
0.0
  9
$WORLDVIEW
 70
     1
  9
$SHADEDGE
 70
     3
  9
$SHADEDIF
 70
    70
  9
$TILEMODE
 70
     1
  9
$MAXACTVP
 70
    64
  9
$PINSBASE
 10
0.0
 20
0.0
 30
0.0
  9
$PLIMCHECK
 70
     0
  9
$PEXTMIN
 10
1.000000000000000E+20
 20
1.000000000000000E+20
 30
1.000000000000000E+20
  9
$PEXTMAX
 10
-1.000000000000000E+20
 20
-1.000000000000000E+20
 30
-1.000000000000000E+20
  9
$PLIMMIN
 10
0.0
 20
0.0
  9
$PLIMMAX
 10
12.0
 20
9.0
  9
$UNITMODE
 70
     0
  9
$VISRETAIN
 70
     1
  9
$PLINEGEN
 70
     0
  9
$PSLTSCALE
 70
     1
  9
$TREEDEPTH
 70
  3020
  9
$CMLSTYLE
  2
Standard
  9
$CMLJUST
 70
     0
  9
$CMLSCALE
 40
1.0
  9
$PROXYGRAPHICS
 70
     1
  9
$MEASUREMENT
 70
     0
  9
$CELWEIGHT
370
    -1
  9
$ENDCAPS
280
     0
  9
$JOINSTYLE
280
     0
  9
$LWDISPLAY
290
     0
  9
$INSUNITS
 70
     1
  9
$HYPERLINKBASE
  1

  9
$STYLESHEET
  1

  9
$XEDIT
290
     1
  9
$CEPSNTYPE
380
     0
  9
$PSTYLEMODE
290
     1
  9
$FINGERPRINTGUID
  2
{7C660BB9-7C34-41CE-A950-0F45E1F329E6}
  9
$VERSIONGUID
  2
{FAEB1C32-E019-11D5-929B-00C0DF256EC4}
  9
$EXTNAMES
290
     1
  9
$PSVPSCALE
 40
0.0
  9
$OLESTARTUP
290
     0
  9
$SORTENTS
280
   127
  9
$INDEXCTL
280
     0
  9
$HIDETEXT
280
     1
  9
$XCLIPFRAME
280
     2
  9
$HALOGAP
280
     0
  9
$OBSCOLOR
 70
   257
  9
$OBSLTYPE
280
     0
  9
$INTERSECTIONDISPLAY
280
     0
  9
$INTERSECTIONCOLOR
 70
   257
  9
$DIMASSOC
280
     2
  9
$PROJECTNAME
  1

  9
$CAMERADISPLAY
290
     0
  9
$LENSLENGTH
 40
50.0
  9
$CAMERAHEIGHT
 40
0.0
  9
$STEPSPERSEC
 40
2.0
  9
$STEPSIZE
 40
6.0
  9
$3DDWFPREC
 40
2.0
  9
$PSOLWIDTH
 40
0.25
  9
$PSOLHEIGHT
 40
4.0
  9
$LOFTANG1
 40
1.570796326794897
  9
$LOFTANG2
 40
1.570796326794897
  9
$LOFTMAG1
 40
0.0
  9
$LOFTMAG2
 40
0.0
  9
$LOFTPARAM
 70
     7
  9
$LOFTNORMALS
280
     1
  9
$LATITUDE
 40
37.795
  9
$LONGITUDE
 40
-122.394
  9
$NORTHDIRECTION
 40
0.0
  9
$TIMEZONE
 70
 -8000
  9
$LIGHTGLYPHDISPLAY
280
     1
  9
$TILEMODELIGHTSYNCH
280
     1
  9
$CMATERIAL
347
44
  9
$SOLIDHIST
280
     0
  9
$SHOWHIST
280
     1
  9
$DWFFRAME
280
     2
  9
$DGNFRAME
280
     2
  9
$REALWORLDSCALE
290
     1
  9
$INTERFERECOLOR
 62
   256
  9
$CSHADOW
280
     0
  9
$SHADOWPLANELOCATION
 40
0.0
  0
ENDSEC
  0
SECTION
  2
CLASSES
  0
CLASS
  1
ACDBDICTIONARYWDFLT
  2
AcDbDictionaryWithDefault
  3
ObjectDBX Classes
 90
        0
 91
        4
280
     0
281
     0
  0
CLASS
  1
VISUALSTYLE
  2
AcDbVisualStyle
  3
ObjectDBX Classes
 90
     4095
 91
        4
280
     0
281
     0
  0
CLASS
  1
MATERIAL
  2
AcDbMaterial
  3
ObjectDBX Classes
 90
     1153
 91
        4
280
     0
281
     0
  0
CLASS
  1
SCALE
  2
AcDbScale
  3
ObjectDBX Classes
 90
     1153
 91
        4
280
     0
281
     0
  0
CLASS
  1
TABLESTYLE
  2
AcDbTableStyle
  3
ObjectDBX Classes
 90
     4095
 91
        4
280
     0
281
     0
  0
CLASS
  1
MLEADERSTYLE
  2
AcDbMLeaderStyle
  3
ACDB_MLEADERSTYLE_CLASS
 90
     4095
 91
        4
280
     0
281
     0
  0
CLASS
  1
SUN
  2
AcDbSun
  3
SCENEOE
 90
     1153
 91
        4
280
     0
281
     0
  0
CLASS
  1
DICTIONARYVAR
  2
AcDbDictionaryVar
  3
ObjectDBX Classes
 90
        0
 91
        4
280
     0
281
     0
  0
CLASS
  1
CELLSTYLEMAP
  2
AcDbCellStyleMap
  3
ObjectDBX Classes
 90
     1152
 91
        4
280
     0
281
     0
  0
ENDSEC
  0
SECTION
  2
TABLES
  0
TABLE
  2
VPORT
  5
8
330
0
100
AcDbSymbolTable
 70
     1
  0
VPORT
  5
29
330
8
100
AcDbSymbolTableRecord
100
AcDbViewportTableRecord
  2
*Active
 70
     0
 10
0.0
 20
0.0
 11
1.0
 21
1.0
 12
-0.1807499999999997
 22
0.0
 13
0.0
 23
0.0
 14
0.5
 24
0.5
 15
0.5
 25
0.5
 16
0.0
 26
0.0
 36
1.0
 17
0.0
 27
0.0
 37
0.0
 40
4.212599999999999
 41
0.455084745762712
 42
50.0
 43
0.0
 44
0.0
 50
0.0
 51
0.0
 71
     0
 72
   100
 73
     1
 74
     3
 75
     0
 76
     0
 77
     0
 78
     0
281
     0
 65
     1
110
0.0
120
0.0
130
0.0
111
1.0
121
0.0
131
0.0
112
0.0
122
1.0
132
0.0
 79
     0
146
0.0
348
2F
 60
     3
 61
     5
292
     1
282
     1
141
0.0
142
0.0
 63
   250
361
6D
  0
ENDTAB
  0
TABLE
  2
LTYPE
  5
5
330
0
100
AcDbSymbolTable
 70
     3
  0
LTYPE
  5
14
330
5
100
AcDbSymbolTableRecord
100
AcDbLinetypeTableRecord
  2
ByBlock
 70
     0
  3

 72
    65
 73
     0
 40
0.0
  0
LTYPE
  5
15
330
5
100
AcDbSymbolTableRecord
100
AcDbLinetypeTableRecord
  2
ByLayer
 70
     0
  3

 72
    65
 73
     0
 40
0.0
  0
LTYPE
  5
16
330
5
100
AcDbSymbolTableRecord
100
AcDbLinetypeTableRecord
  2
Continuous
 70
     0
  3
Solid line
 72
    65
 73
     0
 40
0.0
  0
LTYPE
  5
9F
330
5
100
AcDbSymbolTableRecord
100
AcDbLinetypeTableRecord
  2
Dashed
 70
     0
  3

 72
    65
 73
     2
 40
2.0
 49
1.0
 74
     0
 49
-1.0
 74
     0
  0
LTYPE
  5
15C
330
5
100
AcDbSymbolTableRecord
100
AcDbLinetypeTableRecord
  2
Center
 70
     0
  3

 72
    65
 73
     4
 40
1.5
 49
0.45
 74
     0
 49
-0.5
 74
     0
 49
0.05
 74
     0
 49
-0.5
 74
     0
  0
ENDTAB
  0
TABLE
  2
LAYER
  5
2
330
0
100
AcDbSymbolTable
 70
     7
  0
LAYER
  5
10
330
2
100
AcDbSymbolTableRecord
100
AcDbLayerTableRecord
  2
0
 70
     0
 62
     7
  6
Continuous
370
    -3
390
F
347
46
348
0
  0
LAYER
  5
72
330
2
100
AcDbSymbolTableRecord
100
AcDbLayerTableRecord
  2
AM_6
 70
     0
 62
    -2
  6
Continuous
370
    35
390
F
347
46
348
0
  0
LAYER
  5
A0
330
2
100
AcDbSymbolTableRecord
100
AcDbLayerTableRecord
  2
AM_9
 70
     0
 62
     6
  6
Dashed
370
    25
390
F
347
46
348
0
  0
LAYER
  5
10C
330
2
100
AcDbSymbolTableRecord
100
AcDbLayerTableRecord
  2
AM_4
 70
     0
 62
     7
  6
Continuous
370
    50
390
F
347
46
348
0
  0
LAYER
  5
15A
330
2
100
AcDbSymbolTableRecord
100
AcDbLayerTableRecord
  2
AM_5
 70
     0
 62
     3
  6
Continuous
370
    25
390
F
347
46
348
0
  0
LAYER
  5
15D
330
2
100
AcDbSymbolTableRecord
100
AcDbLayerTableRecord
  2
AM_7
 70
     0
 62
     7
  6
Center
370
    25
390
F
347
46
348
0
  0
LAYER
  5
1D2
330
2
100
AcDbSymbolTableRecord
100
AcDbLayerTableRecord
  2
ConnectionPoints
 70
     0
 62
     7
  6
Continuous
370
    50
390
F
347
46
348
0
  0
ENDTAB
  0
TABLE
  2
STYLE
  5
3
330
0
100
AcDbSymbolTable
 70
     1
  0
STYLE
  5
11
330
3
100
AcDbSymbolTableRecord
100
AcDbTextStyleTableRecord
  2
Standard
 70
     0
 40
0.0
 41
1.0
 50
0.0
 71
     0
 42
0.2
  3
txt
  4

  0
ENDTAB
  0
TABLE
  2
VIEW
  5
6
330
0
100
AcDbSymbolTable
 70
     0
  0
ENDTAB
  0
TABLE
  2
UCS
  5
7
330
0
100
AcDbSymbolTable
 70
     0
  0
ENDTAB
  0
TABLE
  2
APPID
  5
9
330
0
100
AcDbSymbolTable
 70
     1
  0
APPID
  5
12
330
9
100
AcDbSymbolTableRecord
100
AcDbRegAppTableRecord
  2
ACAD
 70
     0
  0
ENDTAB
  0
TABLE
  2
DIMSTYLE
  5
A
330
0
100
AcDbSymbolTable
 70
     1
100
AcDbDimStyleTable
  0
DIMSTYLE
105
27
330
A
100
AcDbSymbolTableRecord
100
AcDbDimStyleTableRecord
  2
Standard
 70
     0
178
     0
340
11
  0
ENDTAB
  0
TABLE
  2
BLOCK_RECORD
  5
1
330
0
100
AcDbSymbolTable
 70
     5
  0
BLOCK_RECORD
  5
1F
330
1
100
AcDbSymbolTableRecord
100
AcDbBlockTableRecord
  2
*Model_Space
340
22
 70
     0
280
     1
281
     0
  0
BLOCK_RECORD
  5
1B
330
1
100
AcDbSymbolTableRecord
100
AcDbBlockTableRecord
  2
*Paper_Space
340
1E
 70
     0
280
     1
281
     0
  0
BLOCK_RECORD
  5
23
330
1
100
AcDbSymbolTableRecord
100
AcDbBlockTableRecord
  2
*Paper_Space0
340
26
 70
     0
280
     1
281
     0
  0
BLOCK_RECORD
  5
6E
330
1
100
AcDbSymbolTableRecord
100
AcDbBlockTableRecord
  2
1_131192_2
340
0
102
{BLKREFS
331
6F
102
}
 70
     0
280
     1
281
     0
  0
BLOCK_RECORD
  5
8E
330
1
100
AcDbSymbolTableRecord
100
AcDbBlockTableRecord
  2
2_405016_Inch_0_in_131192_2
340
0
102
{BLKREFS
331
8F
102
}
 70
     0
280
     1
281
     0
  0
BLOCK_RECORD
  5
10E
330
1
100
AcDbSymbolTableRecord
100
AcDbBlockTableRecord
  2
3_131441_0_in_131192_2
340
0
102
{BLKREFS
331
10F
102
}
 70
     0
280
     1
281
     0
  0
BLOCK_RECORD
  5
172
330
1
100
AcDbSymbolTableRecord
100
AcDbBlockTableRecord
  2
4_131192H_0_in_131192_2
340
0
102
{BLKREFS
331
173
102
}
 70
     0
280
     1
281
     0
  0
ENDTAB
  0
ENDSEC
  0
SECTION
  2
BLOCKS
  0
BLOCK
  5
20
330
1F
100
AcDbEntity
  8
0
100
AcDbBlockBegin
  2
*Model_Space
 70
     0
 10
0.0
 20
0.0
 30
0.0
  3
*Model_Space
  1

  0
ENDBLK
  5
21
330
1F
100
AcDbEntity
  8
0
100
AcDbBlockEnd
  0
BLOCK
  5
1C
330
1B
100
AcDbEntity
 67
     1
  8
0
100
AcDbBlockBegin
  2
*Paper_Space
 70
     0
 10
0.0
 20
0.0
 30
0.0
  3
*Paper_Space
  1

  0
ENDBLK
  5
1D
330
1B
100
AcDbEntity
 67
     1
  8
0
100
AcDbBlockEnd
  0
BLOCK
  5
24
330
23
100
AcDbEntity
  8
0
100
AcDbBlockBegin
  2
*Paper_Space0
 70
     0
 10
0.0
 20
0.0
 30
0.0
  3
*Paper_Space0
  1

  0
ENDBLK
  5
25
330
23
100
AcDbEntity
  8
0
100
AcDbBlockEnd
  0
BLOCK
  5
70
330
6E
100
AcDbEntity
  8
0
100
AcDbBlockBegin
  2
1_131192_2
 70
     2
 10
0.0
 20
0.0
 30
0.0
  3
1_131192_2
  1

  0
ATTDEF
  5
73
330
6E
100
AcDbEntity
  8
AM_6
100
AcDbText
 10
5.759
 20
2.065
 30
0.0
 40
0.5
  1
Eccentric Collar Intermediate Duty Narrow Slot Take Up Inch Bore
100
AcDbAttributeDefinition
  3

  2
NN
 70
     8
280
     0
  0
ATTDEF
  5
74
330
6E
100
AcDbEntity
  8
AM_6
100
AcDbText
 10
5.759
 20
1.565
 30
0.0
 40
0.5
  1
Eccentric Collar Take-Up Bearings -(Intermediate Duty) -Narrow Slot
100
AcDbAttributeDefinition
  3

  2
NT
 70
     8
280
     0
  0
ATTDEF
  5
75
330
6E
100
AcDbEntity
  8
AM_6
100
AcDbText
 10
5.759
 20
1.065
 30
0.0
 40
0.5
  1
131192
100
AcDbAttributeDefinition
  3

  2
NB
 70
     8
280
     0
  0
ATTDEF
  5
76
330
6E
100
AcDbEntity
  8
AM_6
100
AcDbText
 10
5.759
 20
0.565
 30
0.0
 40
0.5
  1
$PN.
100
AcDbAttributeDefinition
  3

  2
NBSYN
 70
     8
280
     0
  0
ATTDEF
  5
77
330
6E
100
AcDbEntity
  8
AM_6
100
AcDbText
 10
5.759
 20
0.0649999999999999
 30
0.0
 40
0.5
  1
131192
100
AcDbAttributeDefinition
  3

  2
LINA
 70
     8
280
     0
  0
ATTDEF
  5
78
330
6E
100
AcDbEntity
  8
AM_6
100
AcDbText
 10
5.759
 20
-0.4350000000000001
 30
0.0
 40
0.5
  1
206
100
AcDbAttributeDefinition
  3

  2
SERIES
 70
     8
280
     0
  0
ATTDEF
  5
79
330
6E
100
AcDbEntity
  8
AM_6
100
AcDbText
 10
5.759
 20
-0.935
 30
0.0
 40
0.5
  1
1-3/16
100
AcDbAttributeDefinition
  3

  2
SS
 70
     8
280
     0
  0
ATTDEF
  5
7A
330
6E
100
AcDbEntity
  8
AM_6
100
AcDbText
 10
5.759
 20
-1.435
 30
0.0
 40
0.5
  1
131192
100
AcDbAttributeDefinition
  3

  2
PN
 70
     8
280
     0
  0
ATTDEF
  5
7B
330
6E
100
AcDbEntity
  8
AM_6
100
AcDbText
 10
5.759
 20
-1.935
 30
0.0
 40
0.5
  1
NSTU-SXV-103
100
AcDbAttributeDefinition
  3

  2
DESCRIPTION
 70
     8
280
     0
  0
ATTDEF
  5
7C
330
6E
100
AcDbEntity
  8
AM_6
100
AcDbText
 10
5.759
 20
-2.435
 30
0.0
 40
0.5
  1
2.6
100
AcDbAttributeDefinition
  3

  2
W
 70
     8
280
     0
  0
ATTDEF
  5
7D
330
6E
100
AcDbEntity
  8
AM_6
100
AcDbText
 10
5.759
 20
-2.935
 30
0.0
 40
0.5
  1
NS308
100
AcDbAttributeDefinition
  3

  2
FS
 70
     8
280
     0
  0
ATTDEF
  5
7E
330
6E
100
AcDbEntity
  8
AM_6
100
AcDbText
 10
5.759
 20
-3.435
 30
0.0
 40
0.5
  1
1.41
100
AcDbAttributeDefinition
  3

  2
A
 70
     8
280
     0
  0
ATTDEF
  5
7F
330
6E
100
AcDbEntity
  8
AM_6
100
AcDbText
 10
5.759
 20
-3.935
 30
0.0
 40
0.5
  1
4.31
100
AcDbAttributeDefinition
  3

  2
B
 70
     8
280
     0
  0
ATTDEF
  5
80
330
6E
100
AcDbEntity
  8
AM_6
100
AcDbText
 10
5.759
 20
-4.435
 30
0.0
 40
0.5
  1
0.250
100
AcDbAttributeDefinition
  3

  2
C
 70
     8
280
     0
  0
ATTDEF
  5
81
330
6E
100
AcDbEntity
  8
AM_6
100
AcDbText
 10
5.759
 20
-4.935
 30
0.0
 40
0.5
  1
2.50
100
AcDbAttributeDefinition
  3

  2
D
 70
     8
280
     0
  0
ATTDEF
  5
82
330
6E
100
AcDbEntity
  8
AM_6
100
AcDbText
 10
5.759
 20
-5.435
 30
0.0
 40
0.5
  1
2.69
100
AcDbAttributeDefinition
  3

  2
E
 70
     8
280
     0
  0
ATTDEF
  5
83
330
6E
100
AcDbEntity
  8
AM_6
100
AcDbText
 10
5.759
 20
-5.935
 30
0.0
 40
0.5
  1
3/4
100
AcDbAttributeDefinition
  3

  2
F
 70
     8
280
     0
  0
ATTDEF
  5
84
330
6E
100
AcDbEntity
  8
AM_6
100
AcDbText
 10
5.759
 20
-6.435
 30
0.0
 40
0.5
  1
0.50
100
AcDbAttributeDefinition
  3

  2
G
 70
     8
280
     0
  0
ATTDEF
  5
85
330
6E
100
AcDbEntity
  8
AM_6
100
AcDbText
 10
5.759
 20
-6.935
 30
0.0
 40
0.5
  1
0.94
100
AcDbAttributeDefinition
  3

  2
H
 70
     8
280
     0
  0
ATTDEF
  5
86
330
6E
100
AcDbEntity
  8
AM_6
100
AcDbText
 10
5.759
 20
-7.435
 30
0.0
 40
0.5
  1
1.38
100
AcDbAttributeDefinition
  3

  2
J
 70
     8
280
     0
  0
ATTDEF
  5
87
330
6E
100
AcDbEntity
  8
AM_6
100
AcDbText
 10
5.759
 20
-7.935
 30
0.0
 40
0.5
  1
1.75
100
AcDbAttributeDefinition
  3

  2
L
 70
     8
280
     0
  0
ATTDEF
  5
88
330
6E
100
AcDbEntity
  8
AM_6
100
AcDbText
 10
5.759
 20
-8.435
 30
0.0
 40
0.5
  1
3.510 / 3.480
100
AcDbAttributeDefinition
  3

  2
M
 70
     8
280
     0
  0
ATTDEF
  5
89
330
6E
100
AcDbEntity
  8
AM_6
100
AcDbText
 10
5.759
 20
-8.935
 30
0.0
 40
0.5
  1
4.13
100
AcDbAttributeDefinition
  3

  2
N
 70
     8
280
     0
  0
ATTDEF
  5
8A
330
6E
100
AcDbEntity
  8
AM_6
100
AcDbText
 10
5.759
 20
-9.435
 30
0.0
 40
0.5
  1
0.32
100
AcDbAttributeDefinition
  3

  2
P
 70
     8
280
     0
  0
ATTDEF
  5
8B
330
6E
100
AcDbEntity
  8
AM_6
100
AcDbText
 10
5.759
 20
-9.935
 30
0.0
 40
0.5
  1
0.35
100
AcDbAttributeDefinition
  3

  2
R
 70
     8
280
     0
  0
ATTDEF
  5
8C
330
6E
100
AcDbEntity
  8
AM_6
100
AcDbText
 10
5.759
 20
-10.435
 30
0.0
 40
0.5
  1
1.05
100
AcDbAttributeDefinition
  3

  2
S
 70
     8
280
     0
  0
ATTDEF
  5
8D
330
6E
100
AcDbEntity
  8
AM_6
100
AcDbText
 10
5.759
 20
-10.935
 30
0.0
 40
0.5
  1
baldor
100
AcDbAttributeDefinition
  3

  2
COMPANY
 70
     8
280
     0
  0
INSERT
  5
8F
330
6E
100
AcDbEntity
  8
0
100
AcDbBlockReference
  2
2_405016_Inch_0_in_131192_2
 10
0.0
 20
0.0
 30
0.0
  0
INSERT
  5
10F
330
6E
100
AcDbEntity
  8
0
100
AcDbBlockReference
  2
3_131441_0_in_131192_2
 10
0.0
 20
0.0
 30
0.0
  0
INSERT
  5
173
330
6E
100
AcDbEntity
  8
0
100
AcDbBlockReference
  2
4_131192H_0_in_131192_2
 10
0.0
 20
0.0
 30
0.0
  0
ENDBLK
  5
71
330
6E
100
AcDbEntity
  8
0
100
AcDbBlockEnd
  0
BLOCK
  5
90
330
8E
100
AcDbEntity
  8
0
100
AcDbBlockBegin
  2
2_405016_Inch_0_in_131192_2
 70
     2
 10
0.0
 20
0.0
 30
0.0
  3
2_405016_Inch_0_in_131192_2
  1

  0
ATTDEF
  5
92
330
8E
100
AcDbEntity
  8
AM_6
100
AcDbText
 10
5.218750000000001
 20
-0.5519256983551563
 30
0.0
 40
0.5
  1
405016 -Inch
100
AcDbAttributeDefinition
  3

  2
NN
 70
     8
280
     0
  0
ATTDEF
  5
93
330
8E
100
AcDbEntity
  8
AM_6
100
AcDbText
 10
5.218750000000001
 20
-1.051925698355156
 30
0.0
 40
0.5
  1
Grease Fitting
100
AcDbAttributeDefinition
  3

  2
NT
 70
     8
280
     0
  0
ATTDEF
  5
94
330
8E
100
AcDbEntity
  8
AM_6
100
AcDbText
 10
5.218750000000001
 20
-1.551925698355156
 30
0.0
 40
0.5
  1
405016-Inch
100
AcDbAttributeDefinition
  3

  2
NB
 70
     8
280
     0
  0
ATTDEF
  5
95
330
8E
100
AcDbEntity
  8
AM_6
100
AcDbText
 10
5.218750000000001
 20
-2.051925698355156
 30
0.0
 40
0.5
  1
$MN.-Inch
100
AcDbAttributeDefinition
  3

  2
NBSYN
 70
     8
280
     0
  0
ATTDEF
  5
96
330
8E
100
AcDbEntity
  8
AM_6
100
AcDbText
 10
5.218750000000001
 20
-2.551925698355156
 30
0.0
 40
0.5
  1
405016
100
AcDbAttributeDefinition
  3

  2
LINA
 70
     8
280
     0
  0
ATTDEF
  5
97
330
8E
100
AcDbEntity
  8
AM_6
100
AcDbText
 10
5.218750000000001
 20
-3.051925698355156
 30
0.0
 40
0.5
  1
405016
100
AcDbAttributeDefinition
  3

  2
MN
 70
     8
280
     0
  0
ATTDEF
  5
98
330
8E
100
AcDbEntity
  8
AM_6
100
AcDbText
 10
5.218750000000001
 20
-3.551925698355156
 30
0.0
 40
0.5
  1
7/16 HEX
100
AcDbAttributeDefinition
  3

  2
H
 70
     8
280
     0
  0
ATTDEF
  5
99
330
8E
100
AcDbEntity
  8
AM_6
100
AcDbText
 10
5.218750000000001
 20
-4.051925698355156
 30
0.0
 40
0.5
  1
0.383
100
AcDbAttributeDefinition
  3

  2
NDR
 70
     8
280
     0
  0
ATTDEF
  5
9A
330
8E
100
AcDbEntity
  8
AM_6
100
AcDbText
 10
5.218750000000001
 20
-4.551925698355156
 30
0.0
 40
0.5
  1
0.337
100
AcDbAttributeDefinition
  3

  2
KDR
 70
     8
280
     0
  0
ATTDEF
  5
9B
330
8E
100
AcDbEntity
  8
AM_6
100
AcDbText
 10
5.218750000000001
 20
-5.051925698355156
 30
0.0
 40
0.5
  1
0.1575
100
AcDbAttributeDefinition
  3

  2
BZE
 70
     8
280
     0
  0
ATTDEF
  5
9C
330
8E
100
AcDbEntity
  8
AM_6
100
AcDbText
 10
5.218750000000001
 20
-5.551925698355156
 30
0.0
 40
0.5
  1
0.4375
100
AcDbAttributeDefinition
  3

  2
HEX
 70
     8
280
     0
  0
ATTDEF
  5
9D
330
8E
100
AcDbEntity
  8
AM_6
100
AcDbText
 10
5.218750000000001
 20
-6.051925698355156
 30
0.0
 40
0.5
  1
0.281250
100
AcDbAttributeDefinition
  3

  2
HEX2
 70
     8
280
     0
  0
ATTDEF
  5
9E
330
8E
100
AcDbEntity
  8
AM_6
100
AcDbText
 10
5.218750000000001
 20
-6.551925698355156
 30
0.0
 40
0.5
  1
baldor
100
AcDbAttributeDefinition
  3

  2
COMPANY
 70
     8
280
     0
  0
LINE
  5
A1
330
8E
100
AcDbEntity
  8
AM_9
100
AcDbLine
 10
-0.1823766911239264
 20
-1.036326570506841
 30
0.0
 11
-0.1791093260592888
 21
-1.016113809059826
 31
0.0
  0
LWPOLYLINE
  5
A2
330
8E
100
AcDbEntity
  8
AM_9
100
AcDbPolyline
 90
        5
 70
     0
 43
0.0
 10
-0.1823413495439287
 20
-1.138283710335291
 10
-0.1842540823997055
 20
-1.123670119967152
 10
-0.1862220679364952
 20
-1.089312409178914
 10
-0.1844124966919382
 20
-1.053126446285356
 10
-0.1823766911239264
 20
-1.036326570506841
  0
LINE
  5
A3
330
8E
100
AcDbEntity
  8
AM_9
100
AcDbLine
 10
-0.1791093260592888
 20
-1.156738809059826
 30
0.0
 11
-0.1823413495439287
 21
-1.138283710335291
 31
0.0
  0
LINE
  5
A4
330
8E
100
AcDbEntity
  8
AM_9
100
AcDbLine
 10
-0.1510741298357571
 20
-1.00957729571137
 30
0.0
 11
-0.1791093260592888
 21
-1.016113809059826
 31
0.0
  0
LWPOLYLINE
  5
A5
330
8E
100
AcDbEntity
  8
AM_9
100
AcDbPolyline
 90
        5
 70
     0
 43
0.0
 10
-0.1791093260592888
 20
-1.016113809059826
 10
-0.1988355121406939
 20
-0.9846885177366108
 10
-0.2156330920108725
 20
-0.9519977243283275
 10
-0.2290462109660021
 20
-0.9175061536907936
 10
-0.2389369657326277
 20
-0.8821690924072833
  0
LINE
  5
A6
330
8E
100
AcDbEntity
  8
AM_9
100
AcDbLine
 10
-0.2099962668917054
 20
-0.8754214576563435
 30
0.0
 11
-0.2389369657326277
 21
-0.8821690924072833
 31
0.0
  0
LINE
  5
A7
330
8E
100
AcDbEntity
  8
AM_9
100
AcDbLine
 10
-0.2389369657326277
 20
-0.8821690924072833
 30
0.0
 11
-0.2711532636537957
 21
-0.8866181234374055
 31
0.0
  0
LWPOLYLINE
  5
A8
330
8E
100
AcDbEntity
  8
AM_9
100
AcDbPolyline
 90
        3
 70
     0
 43
0.0
 10
-0.28139190003636
 20
-0.8877530489567838
 10
-0.2911775952746243
 20
-0.88855559349426
 10
-0.2987675689889718
 20
-0.8888500667254665
  0
LWPOLYLINE
  5
A9
330
8E
100
AcDbEntity
  8
AM_9
100
AcDbPolyline
 90
        5
 70
     0
 43
0.0
 10
-0.2389369657326277
 20
-1.163419092407283
 10
-0.2295338871417797
 20
-1.16299806213629
 10
-0.2166871171046321
 20
-1.161802555641742
 10
-0.1996402057054679
 20
-1.159676787031713
 10
-0.1791093260592888
 20
-1.156738809059826
  0
LINE
  5
AA
330
8E
100
AcDbEntity
  8
AM_9
100
AcDbLine
 10
-0.1510741298357571
 20
-1.15020229571137
 30
0.0
 11
-0.1791093260592888
 21
-1.156738809059826
 31
0.0
  0
LINE
  5
AB
330
8E
100
AcDbEntity
  8
AM_9
100
AcDbLine
 10
-0.4524158089341449
 20
-1.176254016496842
 30
0.0
 11
-0.3774664534000949
 21
-1.194780662014441
 31
0.0
  0
LINE
  5
AC
330
8E
100
AcDbEntity
  8
AM_9
100
AcDbLine
 10
-0.4395859245204075
 20
-0.9283493905826321
 30
0.0
 11
-0.4986131040655763
 21
-0.9781131782604873
 31
0.0
  0
ELLIPSE
  5
AD
330
8E
100
AcDbEntity
  8
AM_9
100
AcDbEllipse
 10
-0.4687500000001204
 20
-1.075606438443769
 30
0.0
 11
-0.02349716402064955
 21
0.1007796617093373
 31
0.0
210
0.0
220
0.0
230
1.0
 40
0.3659981507706062
 41
1.778400841822176
 42
6.511962502476546
  0
LWPOLYLINE
  5
AE
330
8E
100
AcDbEntity
  8
AM_9
100
AcDbPolyline
 90
        3
 70
     0
 43
0.0
 10
-0.2689146070947223
 20
-0.8818897343505175
 10
-0.251275593729576
 20
-0.8792388430145474
 10
-0.2360765106845275
 20
-0.8771875924132664
  0
ELLIPSE
  5
AF
330
8E
100
AcDbEntity
  8
AM_9
100
AcDbEllipse
 10
-0.3994303217889763
 20
-1.059444290038773
 30
0.0
 11
-0.03159560311146664
 21
0.1355139790604257
 31
0.0
210
0.0
220
0.0
230
1.0
 40
0.3659981507706673
 41
0.187446876478301
 42
4.145181672147546
  0
LWPOLYLINE
  5
B0
330
8E
100
AcDbEntity
  8
AM_9
100
AcDbPolyline
 90
       10
 70
     0
 43
0.0
 10
-0.3846682395017981
 20
-0.9277924531775321
 10
-0.3887192103587869
 20
-0.9252157766166912
 10
-0.3955696014645992
 20
-0.9218274057981513
 10
-0.4024040286884907
 20
-0.9196032862101975
 10
-0.409241017815261
 20
-0.9184922350973601
 10
-0.4160418540420754
 20
-0.9184878483765794
 10
-0.4232543624489724
 20
-0.9197349560075302
 10
-0.4299408494496453
 20
-0.9221653888594409
 10
-0.4360041462428697
 20
-0.9256232471609112
 10
-0.4398336235885391
 20
-0.9285597175439243
  0
LWPOLYLINE
  5
B1
330
8E
100
AcDbEntity
  8
AM_9
100
AcDbPolyline
 90
        3
 70
     0
 43
0.0
 10
-0.3779901463877355
 20
-0.9330239010683419
 10
-0.3818177293130616
 20
-0.929872155314088
 10
-0.3846682395017981
 20
-0.9277924531775321
  0
LWPOLYLINE
  5
B2
330
8E
100
AcDbEntity
  8
AM_9
100
AcDbPolyline
 90
        3
 70
     0
 43
0.0
 10
-0.3265826634604497
 20
-1.168377572268065
 10
-0.3247485688337839
 20
-1.164434400488642
 10
-0.3244927763530501
 20
-1.163833682642778
  0
LWPOLYLINE
  5
B3
330
8E
100
AcDbEntity
  8
AM_9
100
AcDbPolyline
 90
       10
 70
     0
 43
0.0
 10
-0.3750296309231062
 20
-1.195312586274504
 10
-0.3693355653249917
 20
-1.19600866302792
 10
-0.3625483567027681
 20
-1.195828801407079
 10
-0.3554103539763777
 20
-1.194394003560104
 10
-0.3488114915075413
 20
-1.191797924473969
 10
-0.3428448957662045
 20
-1.188196406348832
 10
-0.3375016871714224
 20
-1.183687503320761
 10
-0.3327348849308651
 20
-1.178287091208855
 10
-0.3284917938431795
 20
-1.171918847181204
 10
-0.3274395267957422
 20
-1.170029799709535
  0
LWPOLYLINE
  5
B4
330
8E
100
AcDbEntity
  8
AM_9
100
AcDbPolyline
 90
        3
 70
     0
 43
0.0
 10
-0.3776513579871711
 20
-1.194734549027946
 10
-0.3761708295536557
 20
-1.195080993895145
 10
-0.3750296309231062
 20
-1.195312586274504
  0
LWPOLYLINE
  5
B5
330
8E
100
AcDbEntity
  8
AM_9
100
AcDbPolyline
 90
        4
 70
     0
 43
0.0
 10
-0.109375
 20
-0.7349999999999997
 10
-0.08203125
 20
-0.7210244179980001
 10
-0.0546875
 20
-0.7064595596074824
 10
-0.0000000000000001
 20
-0.6757787001516926
  0
LWPOLYLINE
  5
B6
330
8E
100
AcDbEntity
  8
AM_9
100
AcDbPolyline
 90
        4
 70
     0
 43
0.0
 10
-0.0000000000000001
 20
-0.6757787001516926
 10
0.0544416102741495
 20
-0.7063260426622645
 10
0.081870001090765
 20
-0.7209402196382686
 10
0.1093749999999999
 20
-0.7349999999999997
  0
LINE
  5
B7
330
8E
100
AcDbEntity
  8
AM_9
100
AcDbLine
 10
-0.1947461560527755
 20
-1.154370324878971
 30
0.0
 11
-0.2099962668917054
 21
-1.156671457656343
 31
0.0
  0
LWPOLYLINE
  5
B8
330
8E
100
AcDbEntity
  8
AM_9
100
AcDbPolyline
 90
        6
 70
     0
 43
0.0
 10
-0.1510741298357571
 20
-1.15020229571137
 10
-0.1564222384464443
 20
-1.150146258798399
 10
-0.1639940363880805
 20
-1.150585121917566
 10
-0.1744063212866123
 20
-1.151646289109957
 10
-0.1876759562813858
 20
-1.153363121169831
 10
-0.1947461560527755
 20
-1.154370324878971
  0
LINE
  5
B9
330
8E
100
AcDbEntity
  8
AM_9
100
AcDbLine
 10
-0.1423675708134558
 20
-1.063475864425679
 30
0.0
 11
-0.141958509815605
 21
-1.077769408754154
 31
0.0
  0
LWPOLYLINE
  5
BA
330
8E
100
AcDbEntity
  8
AM_9
100
AcDbPolyline
 90
        3
 70
     0
 43
0.0
 10
-0.1510741298357571
 20
-1.00957729571137
 10
-0.1458778226760521
 20
-1.033510622598913
 10
-0.1428362259466563
 20
-1.056858290373506
  0
LINE
  5
BB
330
8E
100
AcDbEntity
  8
AM_9
100
AcDbLine
 10
-0.1779904405914095
 20
-0.9263838493313155
 30
0.0
 11
-0.1765789831125444
 21
-0.9292058555423603
 31
0.0
  0
LWPOLYLINE
  5
BC
330
8E
100
AcDbEntity
  8
AM_9
100
AcDbPolyline
 90
        3
 70
     0
 43
0.0
 10
-0.2099962668917054
 20
-0.8754214576563435
 10
-0.1943573015029059
 20
-0.8979928542882336
 10
-0.185222335180083
 20
-0.912995877734756
  0
LWPOLYLINE
  5
BD
330
8E
100
AcDbEntity
  8
AM_9
100
AcDbPolyline
 90
        4
 70
     0
 43
0.0
 10
-0.2258378743019628
 20
-0.876052666893888
 10
-0.2189176876709015
 20
-0.8755103698475836
 10
-0.2138633349839128
 20
-0.8753309118621994
 10
-0.2099962668917054
 20
-0.8754214576563435
  0
LWPOLYLINE
  5
BE
330
8E
100
AcDbEntity
  8
AM_9
100
AcDbPolyline
 90
        4
 70
     0
 43
0.0
 10
-0.1429424089406951
 20
-1.100354980072618
 10
-0.1441228263802215
 20
-1.111595324422914
 10
-0.1470795994472237
 20
-1.130838298137269
 10
-0.1510741298357571
 20
-1.15020229571137
  0
LINE
  5
BF
330
8E
100
AcDbEntity
  8
AM_9
100
AcDbLine
 10
-0.141958509815605
 20
-1.077769408754154
 30
0.0
 11
-0.1419724231121118
 21
-1.08041611726825
 31
0.0
  0
LWPOLYLINE
  5
C0
330
8E
100
AcDbEntity
  8
AM_9
100
AcDbPolyline
 90
        4
 70
     0
 43
0.0
 10
-0.1686743429350669
 20
-0.9467608507083045
 10
-0.1598729403210871
 20
-0.9717686897126435
 10
-0.1549033058439656
 20
-0.9906071719614785
 10
-0.151074129835757
 20
-1.00957729571137
  0
LINE
  5
C1
330
8E
100
AcDbEntity
  8
AM_9
100
AcDbLine
 10
-0.1765789831125444
 20
-0.9292058555423603
 30
0.0
 11
-0.1689398960399683
 21
-0.9461125043682347
 31
0.0
  0
ELLIPSE
  5
C2
330
8E
100
AcDbEntity
  8
AM_9
100
AcDbEllipse
 10
-0.2013892028241875
 20
-1.013270244837341
 30
0.0
 11
-0.03193085011438246
 21
0.136951858096094
 31
0.0
210
0.0
220
0.0
230
1.0
 40
0.3659981507706636
 41
2.150416404658192
 42
6.139946939636901
  0
LWPOLYLINE
  5
C3
330
8E
100
AcDbEntity
  8
AM_9
100
AcDbPolyline
 90
        3
 70
     0
 43
0.0
 10
-0.3055458577949631
 20
-0.9778524949620336
 10
-0.3030753670497809
 20
-1.003922855181632
 10
-0.2987675689889718
 20
-1.029475066725466
  0
LWPOLYLINE
  5
C4
330
8E
100
AcDbEntity
  8
AM_9
100
AcDbPolyline
 90
        4
 70
     0
 43
0.0
 10
-0.2602304684431209
 20
-0.933067949924796
 10
-0.2616913382589204
 20
-0.9184112730526001
 10
-0.2647402074337707
 20
-0.8999547701127596
 10
-0.2689146070947223
 20
-0.8818897343505175
  0
LINE
  5
C5
330
8E
100
AcDbEntity
  8
AM_9
100
AcDbLine
 10
-0.2689146070947223
 20
-0.8818897343505175
 30
0.0
 11
-0.2987675689889718
 21
-0.8888500667254665
 31
0.0
  0
LWPOLYLINE
  5
C6
330
8E
100
AcDbEntity
  8
AM_9
100
AcDbPolyline
 90
        3
 70
     0
 43
0.0
 10
-0.2987675689889718
 20
-0.8888500667254665
 10
-0.3030606061861223
 20
-0.9162941224080116
 10
-0.3055458577949631
 20
-0.9436334064683193
  0
LINE
  5
C7
330
8E
100
AcDbEntity
  8
AM_9
100
AcDbLine
 10
-0.2711532636537957
 20
-0.8866181234374055
 30
0.0
 11
-0.28139190003636
 21
-0.8877530489567838
 31
0.0
  0
ELLIPSE
  5
C8
330
8E
100
AcDbEntity
  8
AM_9
100
AcDbEllipse
 10
-0.2467045921760209
 20
-1.023835701380858
 30
0.0
 11
-0.03193085011438247
 21
0.1369518580960945
 31
0.0
210
0.0
220
0.0
230
1.0
 40
0.3659981507706648
 41
2.168630370492704
 42
6.139946939636896
  0
ELLIPSE
  5
C9
330
8E
100
AcDbEntity
  8
AM_9
100
AcDbEllipse
 10
-0.2467045921760196
 20
-1.023835701380858
 30
0.0
 11
-0.03193085011438335
 21
0.1369518580960966
 31
0.0
210
0.0
220
0.0
230
1.0
 40
0.3659981507706689
 41
1.173103475459664
 42
1.951156734850495
  0
LWPOLYLINE
  5
CA
330
8E
100
AcDbEntity
  8
AM_9
100
AcDbPolyline
 90
        3
 70
     0
 43
0.0
 10
-0.3055458577949631
 20
-0.9436334064683193
 10
-0.3064767622622302
 20
-0.9608698068452316
 10
-0.3055458577949631
 20
-0.9778524949620336
  0
ELLIPSE
  5
CB
330
8E
100
AcDbEntity
  8
AM_9
100
AcDbEllipse
 10
-0.2467045921760147
 20
-1.023835701380861
 30
0.0
 11
-0.03193085011438699
 21
0.1369518580960991
 31
0.0
210
0.0
220
0.0
230
1.0
 40
0.3659981507706863
 41
0.0560213022650418
 42
0.8626327579757593
  0
LWPOLYLINE
  5
CC
330
8E
100
AcDbEntity
  8
AM_9
100
AcDbPolyline
 90
        3
 70
     0
 43
0.0
 10
-0.2467309133400622
 20
-1.145823973512021
 10
-0.2465990683175646
 20
-1.145915414414989
 10
-0.2457857934225071
 20
-1.146521541596599
  0
LWPOLYLINE
  5
CD
330
8E
100
AcDbEntity
  8
AM_9
100
AcDbPolyline
 90
       17
 70
     0
 43
0.0
 10
-0.3250087747067769
 20
-1.165031760967079
 10
-0.3247677973821188
 20
-1.164535857134567
 10
-0.3238092646178608
 20
-1.162864756188024
 10
-0.3219570277311473
 20
-1.160199660311214
 10
-0.3190193223200294
 20
-1.156739294149477
 10
-0.3148108712200351
 20
-1.152737565017966
 10
-0.3092033058093068
 20
-1.148536439431121
 10
-0.3022193880735004
 20
-1.144577579685692
 10
-0.294128169932071
 20
-1.141341254575577
 10
-0.2854347386979806
 20
-1.13920384461097
 10
-0.2767390171144972
 20
-1.138316242054602
 10
-0.2686442297925202
 20
-1.138587373488243
 10
-0.2615899600186097
 20
-1.13973417423934
 10
-0.2558471711517064
 20
-1.141379512121371
 10
-0.2514931023261119
 20
-1.143147975843537
 10
-0.2484555756846835
 20
-1.144734733291896
 10
-0.2467309133400622
 20
-1.145823973512021
  0
LWPOLYLINE
  5
CE
330
8E
100
AcDbEntity
  8
AM_9
100
AcDbPolyline
 90
        4
 70
     0
 43
0.0
 10
-0.245724988250897
 20
-1.146571960916105
 10
-0.2458978216544203
 20
-1.146415071979114
 10
-0.2468312556035339
 20
-1.145479991300301
 10
-0.2472616950672751
 20
-1.145017812686548
  0
LWPOLYLINE
  5
CF
330
8E
100
AcDbEntity
  8
AM_9
100
AcDbPolyline
 90
        4
 70
     0
 43
0.0
 10
-0.3007304569720973
 20
-0.9151632035592514
 10
-0.3005022727171166
 20
-0.9144279571625474
 10
-0.3001326849042299
 20
-0.9133824306677933
 10
-0.3001080482840255
 20
-0.9133222637170426
  0
LWPOLYLINE
  5
D0
330
8E
100
AcDbEntity
  8
AM_9
100
AcDbPolyline
 90
       18
 70
     0
 43
0.0
 10
-0.3002457729762594
 20
-0.9136162317612571
 10
-0.3010207823869793
 20
-0.9150280198499561
 10
-0.302645582593325
 20
-0.917475540054618
 10
-0.3053102291033167
 20
-0.9207688938316273
 10
-0.3092045152529835
 20
-0.9246701525042366
 10
-0.3144771840946882
 20
-0.9288606700591943
 10
-0.3211510778003167
 20
-0.9329202967820212
 10
-0.3290198876304847
 20
-0.9363671502681151
 10
-0.3376248121584907
 20
-0.9387863220089803
 10
-0.3463731784582211
 20
-0.9399685737578218
 10
-0.3546550671680418
 20
-0.9399507118572947
 10
-0.3619862218670323
 20
-0.9389784865106985
 10
-0.3680524942204997
 20
-0.9374153509010703
 10
-0.3727318863930091
 20
-0.9356452588174451
 10
-0.3760688648636334
 20
-0.9339927098922208
 10
-0.3781910927292515
 20
-0.9326994370689266
 10
-0.3792390523893333
 20
-0.9319444945388974
 10
-0.3793773247848909
 20
-0.931833145246979
  0
LINE
  5
D1
330
8E
100
AcDbEntity
  8
AM_9
100
AcDbLine
 10
-0.1771207715546619
 20
-0.894661692407327
 30
0.0
 11
-0.2263662233581053
 21
-0.906143458059951
 31
0.0
  0
LINE
  5
D2
330
8E
100
AcDbEntity
  8
AM_9
100
AcDbLine
 10
-0.176412182290271
 20
-1.12039703161473
 30
0.0
 11
-0.1343592486638226
 21
-1.110592229115782
 31
0.0
  0
LWPOLYLINE
  5
D3
330
8E
100
AcDbEntity
  8
AM_9
100
AcDbPolyline
 90
       13
 70
     0
 43
0.0
 10
-0.1179814311516278
 20
-1.020658350039642
 10
-0.1180609686233502
 20
-1.020004703027538
 10
-0.1208367673933812
 20
-1.001607393511457
 10
-0.1245107513506023
 20
-0.9837474551200025
 10
-0.1291842652280563
 20
-0.9659224816066244
 10
-0.134472979061152
 20
-0.9495960564441001
 10
-0.1405186270901959
 20
-0.9343288727646306
 10
-0.1468270783017121
 20
-0.9213704784891933
 10
-0.1535654953592165
 20
-0.9103813720298787
 10
-0.1601799433259584
 20
-0.902268942862664
 10
-0.1668493358980662
 20
-0.8968204774364149
 10
-0.1731116383367606
 20
-0.8944809397560723
 10
-0.1771125901748264
 20
-0.8946597853441617
  0
LWPOLYLINE
  5
D4
330
8E
100
AcDbEntity
  8
AM_9
100
AcDbPolyline
 90
        5
 70
     0
 43
0.0
 10
-0.1179548135170164
 20
-1.081762660979934
 10
-0.1164278875396128
 20
-1.069336212655024
 10
-0.1158549073091554
 20
-1.054330271317741
 10
-0.1164156227038168
 20
-1.037408286749773
 10
-0.1179814311516278
 20
-1.020658350039642
  0
LWPOLYLINE
  5
D5
330
8E
100
AcDbEntity
  8
AM_9
100
AcDbPolyline
 90
        6
 70
     0
 43
0.0
 10
-0.1343659249938088
 20
-1.11059378540361
 10
-0.1293028157827817
 20
-1.107990967168627
 10
-0.1247141396218193
 20
-1.102417196040507
 10
-0.1208880884981781
 20
-1.093797239076489
 10
-0.1181545989145989
 20
-1.082880991490922
 10
-0.1179548135170164
 20
-1.081762660979934
  0
LINE
  5
D6
330
8E
100
AcDbEntity
  8
AM_9
100
AcDbLine
 10
-0.1771125901748264
 20
-0.8946597853441617
 30
0.0
 11
-0.1790373738502115
 21
-0.895304054033761
 31
0.0
  0
LWPOLYLINE
  5
D7
330
8E
100
AcDbEntity
  8
AM_9
100
AcDbPolyline
 90
        3
 70
     0
 43
0.0
 10
-0.2689146070947223
 20
-1.022514734350517
 10
-0.2634308483997529
 20
-0.9948909589556472
 10
-0.2602304684431306
 20
-0.9672870384185165
  0
LWPOLYLINE
  5
D8
330
8E
100
AcDbEntity
  8
AM_9
100
AcDbPolyline
 90
        5
 70
     0
 43
0.0
 10
-0.179037373850178
 20
-1.049695945966246
 10
-0.1733931390117468
 20
-1.065209976006311
 10
-0.1670729780242511
 20
-1.079357975630669
 10
-0.1606047421316796
 20
-1.090955943415793
 10
-0.1545846192101025
 20
-1.099399900517757
  0
ARC
  5
D9
330
8E
100
AcDbEntity
  8
AM_9
100
AcDbCircle
 10
-0.0000000000000001
 20
-0.9724999999999996
 30
0.0
 40
0.1999999999999998
100
AcDbArc
 50
219.3508119930657
 51
0.0
  0
LWPOLYLINE
  5
DA
330
8E
100
AcDbEntity
  8
AM_9
100
AcDbPolyline
 90
        6
 70
     0
 43
0.0
 10
-0.1545846192101025
 20
-1.099399900517757
 10
-0.1538031670974777
 20
-1.100334802540261
 10
-0.1472336073736393
 20
-1.106712011960484
 10
-0.1407130262602577
 20
-1.11026170963818
 10
-0.1347930597680667
 20
-1.110684256104104
 10
-0.1343659249938088
 20
-1.11059378540361
  0
LINE
  5
DB
330
8E
100
AcDbEntity
  8
AM_9
100
AcDbLine
 10
-0.2360765106845275
 20
-0.8771875924132664
 30
0.0
 11
-0.2258378743019628
 21
-0.876052666893888
 31
0.0
  0
ELLIPSE
  5
DC
330
8E
100
AcDbEntity
  8
AM_9
100
AcDbEllipse
 10
-0.201389202824188
 20
-1.013270244837341
 30
0.0
 11
-0.03193085011438395
 21
0.1369518580960944
 31
0.0
210
0.0
220
0.0
230
1.0
 40
0.3659981507705711
 41
0.0560213022649982
 42
0.8626327579757331
  0
LINE
  5
DD
330
8E
100
AcDbEntity
  8
AM_9
100
AcDbLine
 10
-0.2602304684431306
 20
-0.9672870384185165
 30
0.0
 11
-0.2602304684431209
 21
-0.933067949924796
 31
0.0
  0
ELLIPSE
  5
DE
330
8E
100
AcDbEntity
  8
AM_9
100
AcDbEllipse
 10
-0.2013892028241892
 20
-1.013270244837341
 30
0.0
 11
-0.03193085011438255
 21
0.136951858096093
 31
0.0
210
0.0
220
0.0
230
1.0
 40
0.3659981507706623
 41
1.144545279139731
 42
1.951156734850495
  0
LWPOLYLINE
  5
DF
330
8E
100
AcDbEntity
  8
AM_9
100
AcDbPolyline
 90
        3
 70
     0
 43
0.0
 10
-0.2099962668917054
 20
-1.156671457656343
 10
-0.2163479371246913
 20
-1.127339189975666
 10
-0.2258378743019629
 20
-1.098057477599441
  0
LINE
  5
E0
330
8E
100
AcDbEntity
  8
AM_9
100
AcDbLine
 10
-0.2258378743019629
 20
-1.098057477599441
 30
0.0
 11
-0.2360765106845278
 21
-1.074965725501071
 31
0.0
  0
LWPOLYLINE
  5
E1
330
8E
100
AcDbEntity
  8
AM_9
100
AcDbPolyline
 90
        4
 70
     0
 43
0.0
 10
-0.2360765106845278
 20
-1.074965725501071
 10
-0.2462091938631852
 20
-1.056421611213501
 10
-0.2570505402207574
 20
-1.039284690571682
 10
-0.2689146070947223
 20
-1.022514734350517
  0
LINE
  5
E2
330
8E
100
AcDbEntity
  8
AM_9
100
AcDbLine
 10
-0.2689146070947223
 20
-1.022514734350517
 30
0.0
 11
-0.2987675689889718
 21
-1.029475066725466
 31
0.0
  0
LWPOLYLINE
  5
E3
330
8E
100
AcDbEntity
  8
AM_9
100
AcDbPolyline
 90
        3
 70
     0
 43
0.0
 10
-0.2987675689889718
 20
-1.029475066725466
 10
-0.2912216284034025
 20
-1.057576183495197
 10
-0.2813919000363599
 20
-1.085531182044589
  0
LINE
  5
E4
330
8E
100
AcDbEntity
  8
AM_9
100
AcDbLine
 10
-0.2813919000363599
 20
-1.085531182044589
 30
0.0
 11
-0.2711532636537957
 21
-1.108622934142958
 31
0.0
  0
LWPOLYLINE
  5
E5
330
8E
100
AcDbEntity
  8
AM_9
100
AcDbPolyline
 90
        3
 70
     0
 43
0.0
 10
-0.2711532636537957
 20
-1.108622934142958
 10
-0.2561815527589921
 20
-1.136327936735335
 10
-0.2389369657326277
 20
-1.163419092407283
  0
LINE
  5
E6
330
8E
100
AcDbEntity
  8
AM_9
100
AcDbLine
 10
-0.2099962668917054
 20
-1.156671457656343
 30
0.0
 11
-0.2389369657326277
 21
-1.163419092407283
 31
0.0
  0
LWPOLYLINE
  5
E7
330
8E
100
AcDbEntity
  8
AM_9
100
AcDbPolyline
 90
        4
 70
     0
 43
0.0
 10
-0.0000000000000001
 20
-0.6348462998483069
 10
-0.0544416102741497
 20
-0.6587405676118845
 10
-0.0818700010907651
 20
-0.6715547814524959
 10
-0.1093750000000001
 20
-0.6849999999999996
  0
LWPOLYLINE
  5
E8
330
8E
100
AcDbEntity
  8
AM_9
100
AcDbPolyline
 90
        4
 70
     0
 43
0.0
 10
0.1093749999999999
 20
-0.6849999999999996
 10
0.0820312499999999
 20
-0.6716318320019993
 10
0.0546874999999999
 20
-0.6588529403925171
 10
-0.0000000000000001
 20
-0.6348462998483069
  0
LWPOLYLINE
  5
E9
330
8E
100
AcDbEntity
  8
AM_9
100
AcDbPolyline
 90
        4
 70
     0
 43
0.0
 10
0.1093749999999999
 20
-0.7349999999999997
 10
0.1367187499999999
 20
-0.7483681679980001
 10
0.1640624999999999
 20
-0.7611470596074823
 10
0.2187499999999999
 20
-0.7851537001516924
  0
LWPOLYLINE
  5
EA
330
8E
100
AcDbEntity
  8
AM_9
100
AcDbPolyline
 90
        4
 70
     0
 43
0.0
 10
-0.2187500000000001
 20
-0.7851537001516924
 10
-0.1643083897258505
 20
-0.7612594323881149
 10
-0.1368799989092349
 20
-0.7484452185475035
 10
-0.109375
 20
-0.7349999999999997
  0
LINE
  5
EB
330
8E
100
AcDbEntity
  8
AM_9
100
AcDbLine
 10
-0.0000000000000001
 20
-0.6757787001516926
 30
0.0
 11
-0.0000000000000001
 21
-0.6348462998483069
 31
0.0
  0
LWPOLYLINE
  5
EC
330
8E
100
AcDbEntity
  8
AM_9
100
AcDbPolyline
 90
        4
 70
     0
 43
0.0
 10
0.2187499999999999
 20
-0.7442212998483069
 10
0.1643083897258503
 20
-0.7136739573377349
 10
0.1368799989092348
 20
-0.6990597803617308
 10
0.1093749999999999
 20
-0.6849999999999996
  0
LWPOLYLINE
  5
ED
330
8E
100
AcDbEntity
  8
AM_9
100
AcDbPolyline
 90
        4
 70
     0
 43
0.0
 10
-0.1093750000000001
 20
-0.6849999999999996
 10
-0.13671875
 20
-0.6989755820019993
 10
-0.1640625000000001
 20
-0.7135404403925171
 10
-0.2187500000000001
 20
-0.7442212998483069
  0
ELLIPSE
  5
EE
330
8E
100
AcDbEntity
  8
AM_9
100
AcDbEllipse
 10
-0.0000000000000002
 20
-0.9724999999999998
 30
0.0
 11
-0.2000000000000001
 21
2.449293598294707E-17
 31
0.0
210
0.0
220
0.0
230
1.0
 40
0.8660254037844386
 41
0.4619460205669661
 42
5.821239286612617
  0
LWPOLYLINE
  5
EF
330
8E
100
AcDbEntity
  8
AM_9
100
AcDbPolyline
 90
        7
 70
     0
 43
0.0
 10
-0.1790373738501785
 20
-1.049695945966246
 10
-0.1842628795203941
 20
-1.033701216295605
 10
-0.1891729979031394
 20
-1.017644458256412
 10
-0.1936098952159724
 20
-1.000877825105295
 10
-0.1971856748420371
 20
-0.9834298087252535
 10
-0.1994144431868155
 20
-0.9659576332075924
 10
-0.1999999999699529
 20
-0.9522575590009696
  0
LINE
  5
F0
330
8E
100
AcDbEntity
  8
AM_9
100
AcDbLine
 10
-0.2000000000000001
 20
-0.8990624999999997
 30
0.0
 11
-0.2000000000000001
 21
-0.9523468854091475
 31
0.0
  0
LINE
  5
F1
330
8E
100
AcDbEntity
  8
AM_9
100
AcDbLine
 10
0.1999999999999998
 20
-0.9724999999999997
 30
0.0
 11
0.1999999999999999
 21
-0.8990624999999997
 31
0.0
  0
LWPOLYLINE
  5
F2
330
8E
100
AcDbEntity
  8
AM_9
100
AcDbPolyline
 90
        8
 70
     0
 43
0.0
 10
-0.1999999999699529
 20
-0.9522575590009696
 10
-0.1999786710855128
 20
-0.9497474927945714
 10
-0.1988321115509053
 20
-0.9344770462991151
 10
-0.196164942998426
 20
-0.9215478285833819
 10
-0.1920694300574958
 20
-0.9104958498463311
 10
-0.1870948030566195
 20
-0.9022268040530576
 10
-0.181500594761393
 20
-0.8967034871441513
 10
-0.1790373738501784
 20
-0.8953040540337533
  0
LINE
  5
F3
330
8E
100
AcDbEntity
  8
AM_9
100
AcDbLine
 10
-0.2187500000000001
 20
-1.003903700151692
 30
0.0
 11
-0.2187500000000001
 21
-0.7442212998483069
 31
0.0
  0
LWPOLYLINE
  5
F4
330
8E
100
AcDbEntity
  8
AM_9
100
AcDbPolyline
 90
        4
 70
     0
 43
0.0
 10
-0.109375
 20
-1.063125
 10
-0.1367187500000001
 20
-1.049149417998
 10
-0.1640625000000001
 20
-1.034584559607483
 10
-0.2187500000000001
 20
-1.003903700151692
  0
LWPOLYLINE
  5
F5
330
8E
100
AcDbEntity
  8
AM_9
100
AcDbPolyline
 90
        4
 70
     0
 43
0.0
 10
-0.0000000000000001
 20
-1.113278700151692
 10
-0.0544416102741497
 20
-1.089384432388115
 10
-0.0818700010907652
 20
-1.076570218547503
 10
-0.109375
 20
-1.063125
  0
LWPOLYLINE
  5
F6
330
8E
100
AcDbEntity
  8
AM_9
100
AcDbPolyline
 90
        4
 70
     0
 43
0.0
 10
-0.2187500000000001
 20
-0.962971299848307
 10
-0.1643083897258505
 20
-0.9868655676118845
 10
-0.136879998909235
 20
-0.9996797814524958
 10
-0.1093750000000001
 20
-1.013125
  0
LINE
  5
F7
330
8E
100
AcDbEntity
  8
AM_9
100
AcDbLine
 10
-0.0000000000000001
 20
-1.113278700151692
 30
0.0
 11
-0.0000000000000001
 21
-1.072346299848307
 31
0.0
  0
LWPOLYLINE
  5
F8
330
8E
100
AcDbEntity
  8
AM_9
100
AcDbPolyline
 90
        4
 70
     0
 43
0.0
 10
0.1093749999999999
 20
-1.063125
 10
0.0820312499999999
 20
-1.076493167998
 10
0.0546874999999999
 20
-1.089272059607482
 10
-0.0000000000000001
 20
-1.113278700151692
  0
LWPOLYLINE
  5
F9
330
8E
100
AcDbEntity
  8
AM_9
100
AcDbPolyline
 90
        4
 70
     0
 43
0.0
 10
0.2187499999999999
 20
-1.003903700151692
 10
0.1643083897258503
 20
-1.034451042662264
 10
0.1368799989092348
 20
-1.049065219638269
 10
0.1093749999999999
 20
-1.063125
  0
LINE
  5
FA
330
8E
100
AcDbEntity
  8
AM_9
100
AcDbLine
 10
0.2187499999999999
 20
-1.003903700151692
 30
0.0
 11
0.2187499999999999
 21
-0.7442212998483069
 31
0.0
  0
LWPOLYLINE
  5
FB
330
8E
100
AcDbEntity
  8
AM_9
100
AcDbPolyline
 90
        4
 70
     0
 43
0.0
 10
0.1093749999999999
 20
-1.013125
 10
0.1367187499999999
 20
-0.9997568320019993
 10
0.1640624999999999
 20
-0.986977940392517
 10
0.2187499999999999
 20
-0.962971299848307
  0
LWPOLYLINE
  5
FC
330
8E
100
AcDbEntity
  8
AM_9
100
AcDbPolyline
 90
        4
 70
     0
 43
0.0
 10
-0.1093750000000001
 20
-1.013125
 10
-0.0820312500000001
 20
-1.027100582001999
 10
-0.0546875000000001
 20
-1.041665440392517
 10
-0.0000000000000001
 20
-1.072346299848307
  0
LWPOLYLINE
  5
FD
330
8E
100
AcDbEntity
  8
AM_9
100
AcDbPolyline
 90
        4
 70
     0
 43
0.0
 10
-0.0000000000000001
 20
-1.072346299848307
 10
0.0544416102741495
 20
-1.041798957337735
 10
0.081870001090765
 20
-1.027184780361731
 10
0.1093749999999999
 20
-1.013125
  0
LINE
  5
FE
330
8E
100
AcDbEntity
  8
AM_9
100
AcDbLine
 10
-0.2
 20
-0.8099999999999997
 30
0.0
 11
-0.2
 21
-0.8490624999999996
 31
0.0
  0
LINE
  5
FF
330
8E
100
AcDbEntity
  8
AM_9
100
AcDbLine
 10
0.1999999999999998
 20
-0.8490624999999997
 30
0.0
 11
0.1999999999999998
 21
-0.8099999999999997
 31
0.0
  0
LINE
  5
100
330
8E
100
AcDbEntity
  8
AM_9
100
AcDbLine
 10
-0.1851454569549802
 20
-0.7038099125707267
 30
0.0
 11
-0.1912304659644924
 21
-0.8010224622874458
 31
0.0
  0
LINE
  5
101
330
8E
100
AcDbEntity
  8
AM_9
100
AcDbLine
 10
0.1912304659644922
 20
-0.8010224622874458
 30
0.0
 11
0.18514545695498
 21
-0.7038099125707267
 31
0.0
  0
ELLIPSE
  5
102
330
8E
100
AcDbEntity
  8
AM_9
100
AcDbEllipse
 10
-0.3729962569746643
 20
-1.053281086609234
 30
0.0
 11
-0.03024351534849253
 21
0.1297148559307584
 31
0.0
210
0.0
220
0.0
230
1.0
 40
0.3659981507706684
 41
0.0
 42
6.283185307179586
  0
ELLIPSE
  5
103
330
8E
100
AcDbEntity
  8
AM_9
100
AcDbEllipse
 10
-0.2013892028241881
 20
-1.013270244837341
 30
0.0
 11
-0.02497702053391717
 21
0.1071267867773896
 31
0.0
210
0.0
220
0.0
230
1.0
 40
0.3659981507706671
 41
0.0
 42
6.283185307179586
  0
ELLIPSE
  5
104
330
8E
100
AcDbEntity
  8
AM_9
100
AcDbEllipse
 10
0.0
 20
-0.8990624999999993
 30
0.0
 11
-0.2000000000000001
 21
2.449293598294708E-17
 31
0.0
210
0.0
220
0.0
230
1.0
 40
0.8660254037844395
 41
0.0
 42
6.283185307179586
  0
ELLIPSE
  5
105
330
8E
100
AcDbEntity
  8
AM_9
100
AcDbEllipse
 10
-0.0000000000000001
 20
-0.8990624999999983
 30
0.0
 11
-0.2187500000000011
 21
2.678914873134849E-17
 31
0.0
210
0.0
220
0.0
230
1.0
 40
0.8660254037844395
 41
0.0
 42
6.283185307179586
  0
ELLIPSE
  5
106
330
8E
100
AcDbEntity
  8
AM_9
100
AcDbEllipse
 10
-0.0000000000000001
 20
-0.8490624999999984
 30
0.0
 11
-0.2187500000000012
 21
2.678914873134850E-17
 31
0.0
210
0.0
220
0.0
230
1.0
 40
0.8660254037844396
 41
0.0
 42
6.283185307179586
  0
ELLIPSE
  5
107
330
8E
100
AcDbEntity
  8
AM_9
100
AcDbEllipse
 10
-0.0000000000000005
 20
-0.8490624999999999
 30
0.0
 11
-0.1999999999999996
 21
2.980232263262461E-9
 31
0.0
210
0.0
220
0.0
230
1.0
 40
0.8660254037844385
 41
0.0
 42
6.283185307179586
  0
ELLIPSE
  5
108
330
8E
100
AcDbEntity
  8
AM_9
100
AcDbEllipse
 10
-0.0000000000000001
 20
-0.8099999999999995
 30
0.0
 11
-0.1999999999999999
 21
2.449293598294705E-17
 31
0.0
210
0.0
220
0.0
230
1.0
 40
0.8660254037844382
 41
0.0
 42
6.283185307179586
  0
ELLIPSE
  5
109
330
8E
100
AcDbEntity
  8
AM_9
100
AcDbEllipse
 10
-0.0000000000000003
 20
-0.8099999999999998
 30
0.0
 11
-0.1915112338502294
 21
2.345336195354436E-17
 31
0.0
210
0.0
220
0.0
230
1.0
 40
0.8660254037844392
 41
0.0
 42
6.283185307179586
  0
ELLIPSE
  5
10A
330
8E
100
AcDbEntity
  8
AM_9
100
AcDbEllipse
 10
0.0000000000000011
 20
-0.71250178242388
 30
0.0
 11
-0.1854172907249872
 21
2.270706915929298E-17
 31
0.0
210
0.0
220
0.0
230
1.0
 40
0.8660254037844387
 41
0.0
 42
6.283185307179586
  0
ELLIPSE
  5
10B
330
8E
100
AcDbEntity
  8
AM_9
100
AcDbEllipse
 10
0.0000000000000001
 20
-0.7006250000000004
 30
0.0
 11
-0.1616637258772239
 21
1.979809644337774E-17
 31
0.0
210
0.0
220
0.0
230
1.0
 40
0.8660254037844405
 41
0.0
 42
6.283185307179586
  0
ELLIPSE
  5
10D
330
8E
100
AcDbEntity
  8
AM_4
100
AcDbEllipse
 10
-0.4687500000000003
 20
-1.075606438444094
 30
0.0
 11
-0.02349716402074584
 21
0.1007796617096758
 31
0.0
210
0.0
220
0.0
230
1.0
 40
0.3659981507706656
 41
0.2287771952968569
 42
1.77840084181865
  0
ENDBLK
  5
91
330
8E
100
AcDbEntity
  8
0
100
AcDbBlockEnd
  0
BLOCK
  5
110
330
10E
100
AcDbEntity
  8
0
100
AcDbBlockBegin
  2
3_131441_0_in_131192_2
 70
     2
 10
0.0
 20
0.0
 30
0.0
  3
3_131441_0_in_131192_2
  1

  0
ATTDEF
  5
112
330
10E
100
AcDbEntity
  8
AM_6
100
AcDbText
 10
5.36
 20
1.219911691678259
 30
0.0
 40
0.5
  1
Eccentric Collar Intermediate Duty Insert Inch Bore
100
AcDbAttributeDefinition
  3

  2
NN
 70
     8
280
     0
  0
ATTDEF
  5
113
330
10E
100
AcDbEntity
  8
AM_6
100
AcDbText
 10
5.36
 20
0.7199116916782593
 30
0.0
 40
0.5
  1
Eccentric Collar Bearing Inserts -(Intermediate Duty)
100
AcDbAttributeDefinition
  3

  2
NT
 70
     8
280
     0
  0
ATTDEF
  5
114
330
10E
100
AcDbEntity
  8
AM_6
100
AcDbText
 10
5.36
 20
0.2199116916782593
 30
0.0
 40
0.5
  1
131441
100
AcDbAttributeDefinition
  3

  2
NB
 70
     8
280
     0
  0
ATTDEF
  5
115
330
10E
100
AcDbEntity
  8
AM_6
100
AcDbText
 10
5.36
 20
-0.2800883083217407
 30
0.0
 40
0.5
  1
$PN.
100
AcDbAttributeDefinition
  3

  2
NBSYN
 70
     8
280
     0
  0
ATTDEF
  5
116
330
10E
100
AcDbEntity
  8
AM_6
100
AcDbText
 10
5.36
 20
-0.7800883083217407
 30
0.0
 40
0.5
  1
131441
100
AcDbAttributeDefinition
  3

  2
LINA
 70
     8
280
     0
  0
ATTDEF
  5
117
330
10E
100
AcDbEntity
  8
AM_6
100
AcDbText
 10
5.36
 20
-1.280088308321741
 30
0.0
 40
0.5
  1
206
100
AcDbAttributeDefinition
  3

  2
SERIES
 70
     8
280
     0
  0
ATTDEF
  5
118
330
10E
100
AcDbEntity
  8
AM_6
100
AcDbText
 10
5.36
 20
-1.780088308321741
 30
0.0
 40
0.5
  1
1-3/16
100
AcDbAttributeDefinition
  3

  2
SS
 70
     8
280
     0
  0
ATTDEF
  5
119
330
10E
100
AcDbEntity
  8
AM_6
100
AcDbText
 10
5.36
 20
-2.280088308321741
 30
0.0
 40
0.5
  1
131441
100
AcDbAttributeDefinition
  3

  2
PN
 70
     8
280
     0
  0
ATTDEF
  5
11A
330
10E
100
AcDbEntity
  8
AM_6
100
AcDbText
 10
5.36
 20
-2.780088308321741
 30
0.0
 40
0.5
  1
INS-SXV-103
100
AcDbAttributeDefinition
  3

  2
DESCRIPTION
 70
     8
280
     0
  0
ATTDEF
  5
11B
330
10E
100
AcDbEntity
  8
AM_6
100
AcDbText
 10
5.36
 20
-3.280088308321741
 30
0.0
 40
0.5
  1
0.7
100
AcDbAttributeDefinition
  3

  2
WEIGHT
 70
     8
280
     0
  0
ATTDEF
  5
11C
330
10E
100
AcDbEntity
  8
AM_6
100
AcDbText
 10
5.36
 20
-3.780088308321741
 30
0.0
 40
0.5
  1
1.41
100
AcDbAttributeDefinition
  3

  2
A
 70
     8
280
     0
  0
ATTDEF
  5
11D
330
10E
100
AcDbEntity
  8
AM_6
100
AcDbText
 10
5.36
 20
-4.280088308321741
 30
0.0
 40
0.5
  1
0.69
100
AcDbAttributeDefinition
  3

  2
C
 70
     8
280
     0
  0
ATTDEF
  5
11E
330
10E
100
AcDbEntity
  8
AM_6
100
AcDbText
 10
5.36
 20
-4.780088308321741
 30
0.0
 40
0.5
  1
2.4409
100
AcDbAttributeDefinition
  3

  2
D
 70
     8
280
     0
  0
ATTDEF
  5
11F
330
10E
100
AcDbEntity
  8
AM_6
100
AcDbText
 10
5.36
 20
-5.280088308321741
 30
0.0
 40
0.5
  1
0.16
100
AcDbAttributeDefinition
  3

  2
J
 70
     8
280
     0
  0
ATTDEF
  5
120
330
10E
100
AcDbEntity
  8
AM_6
100
AcDbText
 10
5.36
 20
-5.780088308321741
 30
0.0
 40
0.5
  1
1.75
100
AcDbAttributeDefinition
  3

  2
L
 70
     8
280
     0
  0
ATTDEF
  5
121
330
10E
100
AcDbEntity
  8
AM_6
100
AcDbText
 10
5.36
 20
-6.280088308321741
 30
0.0
 40
0.5
  1
5/16 - 24
100
AcDbAttributeDefinition
  3

  2
N
 70
     8
280
     0
  0
ATTDEF
  5
122
330
10E
100
AcDbEntity
  8
AM_6
100
AcDbText
 10
5.36
 20
-6.780088308321741
 30
0.0
 40
0.5
  1
0.35
100
AcDbAttributeDefinition
  3

  2
W
 70
     8
280
     0
  0
ATTDEF
  5
123
330
10E
100
AcDbEntity
  8
AM_6
100
AcDbText
 10
5.36
 20
-7.280088308321741
 30
0.0
 40
0.5
  1
1.05
100
AcDbAttributeDefinition
  3

  2
Y
 70
     8
280
     0
  0
ATTDEF
  5
124
330
10E
100
AcDbEntity
  8
AM_6
100
AcDbText
 10
5.36
 20
-7.780088308321741
 30
0.0
 40
0.5
  1
1.57
100
AcDbAttributeDefinition
  3

  2
Z
 70
     8
280
     0
  0
ATTDEF
  5
125
330
10E
100
AcDbEntity
  8
AM_6
100
AcDbText
 10
5.36
 20
-8.28008830832174
 30
0.0
 40
0.5
  1
baldor
100
AcDbAttributeDefinition
  3

  2
COMPANY
 70
     8
280
     0
  0
LINE
  5
126
330
10E
100
AcDbEntity
  8
AM_9
100
AcDbLine
 10
0.248125
 20
-1.2017
 30
0.0
 11
0.248125
 21
-1.197009656770254
 31
0.0
  0
ARC
  5
127
330
10E
100
AcDbEntity
  8
AM_9
100
AcDbCircle
 10
0.1700000000000002
 20
-1.2017
 30
0.0
 40
0.0781249999999998
100
AcDbArc
 50
191.7351435010412
 51
0.0000008537736463
  0
LINE
  5
128
330
10E
100
AcDbEntity
  8
AM_9
100
AcDbLine
 10
0.248125
 20
-1.2017
 30
0.0
 11
0.2128493652343085
 21
-1.2017
 31
0.0
  0
LINE
  5
129
330
10E
100
AcDbEntity
  8
AM_9
100
AcDbLine
 10
-0.569375
 20
-0.59375
 30
0.0
 11
0.3432062139468195
 21
-0.59375
 31
0.0
  0
LINE
  5
12A
330
10E
100
AcDbEntity
  8
AM_9
100
AcDbLine
 10
0.3432062139468195
 20
0.59375
 30
0.0
 11
-0.569375
 21
0.59375
 31
0.0
  0
LINE
  5
12B
330
10E
100
AcDbEntity
  8
AM_9
100
AcDbLine
 10
-1.033206213946819
 20
-0.59375
 30
0.0
 11
-0.593125
 21
-0.59375
 31
0.0
  0
LINE
  5
12C
330
10E
100
AcDbEntity
  8
AM_9
100
AcDbLine
 10
-0.593125
 20
0.59375
 30
0.0
 11
-1.033206213946819
 21
0.59375
 31
0.0
  0
LINE
  5
12D
330
10E
100
AcDbEntity
  8
AM_9
100
AcDbLine
 10
-0.593125
 20
0.59375
 30
0.0
 11
-0.593125
 21
-0.59375
 31
0.0
  0
LINE
  5
12E
330
10E
100
AcDbEntity
  8
AM_9
100
AcDbLine
 10
-0.593125
 20
-0.59375
 30
0.0
 11
-0.5812499999999999
 21
-0.6056250000000002
 31
0.0
  0
LINE
  5
12F
330
10E
100
AcDbEntity
  8
AM_9
100
AcDbLine
 10
-0.5812499999999999
 20
0.6056250000000002
 30
0.0
 11
-0.593125
 21
0.59375
 31
0.0
  0
LINE
  5
130
330
10E
100
AcDbEntity
  8
AM_9
100
AcDbLine
 10
-0.569375
 20
0.59375
 30
0.0
 11
-0.569375
 21
-0.59375
 31
0.0
  0
LINE
  5
131
330
10E
100
AcDbEntity
  8
AM_9
100
AcDbLine
 10
-0.5812499999999999
 20
0.6056250000000002
 30
0.0
 11
-0.5812499999999999
 21
-0.6056250000000002
 31
0.0
  0
LINE
  5
132
330
10E
100
AcDbEntity
  8
AM_9
100
AcDbLine
 10
-0.569375
 20
0.59375
 30
0.0
 11
-0.5812499999999999
 21
0.6056250000000002
 31
0.0
  0
LINE
  5
133
330
10E
100
AcDbEntity
  8
AM_9
100
AcDbLine
 10
-0.5812499999999999
 20
-0.6056250000000002
 30
0.0
 11
-0.569375
 21
-0.59375
 31
0.0
  0
LINE
  5
134
330
10E
100
AcDbEntity
  8
AM_9
100
AcDbLine
 10
0.3432062139468195
 20
0.59375
 30
0.0
 11
0.3432062139468195
 21
-0.59375
 31
0.0
  0
LINE
  5
135
330
10E
100
AcDbEntity
  8
AM_9
100
AcDbLine
 10
0.3432062139468195
 20
-0.59375
 30
0.0
 11
0.36
 21
-0.6105437860531805
 31
0.0
  0
LINE
  5
136
330
10E
100
AcDbEntity
  8
AM_9
100
AcDbLine
 10
0.36
 20
0.6105437860531805
 30
0.0
 11
0.3432062139468195
 21
0.59375
 31
0.0
  0
LINE
  5
137
330
10E
100
AcDbEntity
  8
AM_9
100
AcDbLine
 10
-1.033206213946819
 20
0.59375
 30
0.0
 11
-1.033206213946819
 21
-0.59375
 31
0.0
  0
LINE
  5
138
330
10E
100
AcDbEntity
  8
AM_9
100
AcDbLine
 10
-1.033206213946819
 20
0.59375
 30
0.0
 11
-1.05
 21
0.6105437860531805
 31
0.0
  0
LINE
  5
139
330
10E
100
AcDbEntity
  8
AM_9
100
AcDbLine
 10
-1.05
 20
-0.6105437860531805
 30
0.0
 11
-1.033206213946819
 21
-0.59375
 31
0.0
  0
LINE
  5
13A
330
10E
100
AcDbEntity
  8
AM_9
100
AcDbLine
 10
-0.4874999999999999
 20
-0.7476190476190476
 30
0.0
 11
-0.4562500000000001
 21
-0.7476190476190476
 31
0.0
  0
LINE
  5
13B
330
10E
100
AcDbEntity
  8
AM_9
100
AcDbLine
 10
-0.4562500000000001
 20
0.7476190476190476
 30
0.0
 11
-0.4874999999999999
 21
0.7476190476190476
 31
0.0
  0
LINE
  5
13C
330
10E
100
AcDbEntity
  8
AM_9
100
AcDbLine
 10
-0.4562500000000001
 20
0.7849999999999999
 30
0.0
 11
-0.4562500000000001
 21
-0.7849999999999999
 31
0.0
  0
LINE
  5
13D
330
10E
100
AcDbEntity
  8
AM_9
100
AcDbLine
 10
-0.4562500000000001
 20
-0.7849999999999999
 30
0.0
 11
-0.3349999999999999
 21
-0.7849999999999999
 31
0.0
  0
LINE
  5
13E
330
10E
100
AcDbEntity
  8
AM_9
100
AcDbLine
 10
-0.3349999999999999
 20
0.7849999999999999
 30
0.0
 11
-0.4562500000000001
 21
0.7849999999999999
 31
0.0
  0
LINE
  5
13F
330
10E
100
AcDbEntity
  8
AM_9
100
AcDbLine
 10
0.36
 20
0.7849999999999999
 30
0.0
 11
0.36
 21
-0.7849999999999999
 31
0.0
  0
LINE
  5
140
330
10E
100
AcDbEntity
  8
AM_9
100
AcDbLine
 10
0.355
 20
-0.7849999999999999
 30
0.0
 11
0.36
 21
-0.7849999999999999
 31
0.0
  0
LINE
  5
141
330
10E
100
AcDbEntity
  8
AM_9
100
AcDbLine
 10
0.36
 20
0.7849999999999999
 30
0.0
 11
0.355
 21
0.7849999999999999
 31
0.0
  0
LINE
  5
142
330
10E
100
AcDbEntity
  8
AM_9
100
AcDbLine
 10
-0.4874999999999999
 20
0.8275
 30
0.0
 11
-0.4874999999999999
 21
-0.8274999999936686
 31
0.0
  0
ARC
  5
143
330
10E
100
AcDbEntity
  8
AM_9
100
AcDbCircle
 10
-0.5349999999999998
 20
-0.8274999999999997
 30
0.0
 40
0.0474999999999999
100
AcDbArc
 50
317.4631016370135
 51
0.0
  0
ARC
  5
144
330
10E
100
AcDbEntity
  8
AM_9
100
AcDbCircle
 10
-0.5349999999999998
 20
0.8274999999999997
 30
0.0
 40
0.0474999999999999
100
AcDbArc
 50
0.0
 51
42.53689836298645
  0
LINE
  5
145
330
10E
100
AcDbEntity
  8
AM_9
100
AcDbLine
 10
-0.5350000000000001
 20
0.4357464859296052
 30
0.0
 11
-0.5350000000000001
 21
-0.4357464859296052
 31
0.0
  0
ARC
  5
146
330
10E
100
AcDbEntity
  8
AM_9
100
AcDbCircle
 10
-0.8156249999999998
 20
0.0
 30
0.0
 40
0.1393499999999999
100
AcDbArc
 50
336.5641403228514
 51
23.43585967714869
  0
LWPOLYLINE
  5
147
330
10E
100
AcDbEntity
  8
AM_9
100
AcDbPolyline
 90
        8
 70
     0
 43
0.0
 10
-0.6862559991304297
 20
0.0656960945386106
 10
-0.6828849211810005
 20
0.0596532036351504
 10
-0.6739131223279059
 20
0.0379999685110537
 10
-0.6689638915667555
 20
0.0150767632130476
 10
-0.6682497508926639
 20
-0.006595618142292
 10
-0.6712149615443763
 20
-0.0280732809231466
 10
-0.6775666305707947
 20
-0.0481804787943249
 10
-0.6866448748034575
 20
-0.0663484720709053
  0
LINE
  5
148
330
10E
100
AcDbEntity
  8
AM_9
100
AcDbLine
 10
-0.182
 20
-1.162333333333333
 30
0.0
 11
-0.118
 21
-1.162333333333333
 31
0.0
  0
LINE
  5
149
330
10E
100
AcDbEntity
  8
AM_9
100
AcDbLine
 10
-0.118
 20
1.162333333333333
 30
0.0
 11
-0.182
 21
1.162333333333333
 31
0.0
  0
LINE
  5
14A
330
10E
100
AcDbEntity
  8
AM_9
100
AcDbLine
 10
-0.335
 20
1.152774621294205
 30
0.0
 11
-0.335
 21
-1.152774621290042
 31
0.0
  0
ARC
  5
14B
330
10E
100
AcDbEntity
  8
AM_9
100
AcDbCircle
 10
-0.3112499999999992
 20
-1.152774621294205
 30
0.0
 40
0.0237500000000007
100
AcDbArc
 50
180.0
 51
254.428150905397
  0
ARC
  5
14C
330
10E
100
AcDbEntity
  8
AM_9
100
AcDbCircle
 10
-0.3112499999999992
 20
1.152774621294205
 30
0.0
 40
0.0237500000000008
100
AcDbArc
 50
105.571849094603
 51
180.0
  0
LINE
  5
14D
330
10E
100
AcDbEntity
  8
AM_9
100
AcDbLine
 10
0.355
 20
1.152774621294206
 30
0.0
 11
0.355
 21
-1.152774621290043
 31
0.0
  0
ARC
  5
14E
330
10E
100
AcDbEntity
  8
AM_9
100
AcDbCircle
 10
0.3312499999999998
 20
-1.152774621294206
 30
0.0
 40
0.0237500000000002
100
AcDbArc
 50
285.5718441338624
 51
0.0
  0
ARC
  5
14F
330
10E
100
AcDbEntity
  8
AM_9
100
AcDbCircle
 10
0.3312499999999998
 20
1.152774621294206
 30
0.0
 40
0.0237500000000002
100
AcDbArc
 50
0.0
 51
74.42815586613762
  0
LINE
  5
150
330
10E
100
AcDbEntity
  8
AM_9
100
AcDbLine
 10
-0.182
 20
1.205252754612077
 30
0.0
 11
-0.182
 21
-1.205252754612072
 31
0.0
  0
LINE
  5
151
330
10E
100
AcDbEntity
  8
AM_9
100
AcDbLine
 10
-0.3176256058327064
 20
1.175652867517769
 30
0.0
 11
-0.3176256058327064
 21
-1.175652867517763
 31
0.0
  0
ARC
  5
152
330
10E
100
AcDbEntity
  8
AM_9
100
AcDbCircle
 10
0.0100000000006865
 20
0.0000000000031481
 30
0.0
 40
1.220450000003211
100
AcDbArc
 50
254.4281509054065
 51
260.9486832420149
  0
ARC
  5
153
330
10E
100
AcDbEntity
  8
AM_9
100
AcDbCircle
 10
0.010000000000683
 20
-0.0000000000031322
 30
0.0
 40
1.220450000003195
100
AcDbArc
 50
99.0513167579851
 51
105.5718490945936
  0
LINE
  5
154
330
10E
100
AcDbEntity
  8
AM_9
100
AcDbLine
 10
-0.1179999999999997
 20
1.213719161297209
 30
0.0
 11
-0.1179999999999997
 21
-1.213719161297204
 31
0.0
  0
LINE
  5
155
330
10E
100
AcDbEntity
  8
AM_9
100
AcDbLine
 10
0.3376256038518795
 20
1.175652868069777
 30
0.0
 11
0.3376256038518795
 21
-1.175652868069772
 31
0.0
  0
LINE
  5
156
330
10E
100
AcDbEntity
  8
AM_9
100
AcDbLine
 10
0.2481249999718729
 20
-1.196994021239863
 30
0.0
 11
0.0935079497794422
 21
-1.217589678349653
 31
0.0
  0
ARC
  5
157
330
10E
100
AcDbEntity
  8
AM_9
100
AcDbCircle
 10
0.0099999999999847
 20
0.0000000000006819
 30
0.0
 40
1.220450000000672
100
AcDbArc
 50
263.9797846834528
 51
273.9234663073687
  0
ARC
  5
158
330
10E
100
AcDbEntity
  8
AM_9
100
AcDbCircle
 10
0.0099999999993443
 20
0.00000000000302
 30
0.0
 40
1.22045000000308
100
AcDbArc
 50
281.2456070747449
 51
285.5718489980576
  0
ARC
  5
159
330
10E
100
AcDbEntity
  8
AM_9
100
AcDbCircle
 10
0.0099999999999776
 20
-0.0000000000002691
 30
0.0
 40
1.22045000000026
100
AcDbArc
 50
74.42815100193639
 51
96.02021531654886
  0
ARC
  5
15B
330
10E
100
AcDbEntity
  8
AM_5
100
AcDbCircle
 10
-0.815625
 20
0.0
 30
0.0
 40
0.15625
100
AcDbArc
 50
75.00000000000001
 51
14.99999999999997
  0
LINE
  5
15E
330
10E
100
AcDbEntity
  8
AM_7
100
AcDbLine
 10
0.17
 20
-0.7602587499999999
 30
0.0
 11
0.17
 21
-1.30456625
 31
0.0
  0
ARC
  5
15F
330
10E
100
AcDbEntity
  8
AM_4
100
AcDbCircle
 10
-0.5350000000000006
 20
-0.8274999999999992
 30
0.0
 40
0.0475000000000008
100
AcDbArc
 50
270.0
 51
317.4631016370138
  0
ARC
  5
160
330
10E
100
AcDbEntity
  8
AM_4
100
AcDbCircle
 10
-0.5350000000000006
 20
0.8274999999999992
 30
0.0
 40
0.0475000000000008
100
AcDbArc
 50
42.5368983629862
 51
90.0
  0
LWPOLYLINE
  5
161
330
10E
100
AcDbEntity
  8
AM_4
100
AcDbPolyline
 90
        8
 70
     0
 43
0.0
 10
-0.8871199974531815
 20
0.1196114034662647
 10
-0.8662056562845624
 20
0.1298314143998839
 10
-0.8438672994449485
 20
0.1364580339227481
 10
-0.8207062877266508
 20
0.1392429548040496
 10
-0.797400564873638
 20
0.1381531485863606
 10
-0.7747549347382867
 20
0.1332076147938108
 10
-0.7532512080730129
 20
0.1246111254288674
 10
-0.7441300025468185
 20
0.1196114034662648
  0
LWPOLYLINE
  5
162
330
10E
100
AcDbEntity
  8
AM_4
100
AcDbPolyline
 90
        8
 70
     0
 43
0.0
 10
-0.7441300025468185
 20
-0.1196114034662647
 10
-0.7650443437154376
 20
-0.1298314143998839
 10
-0.7873827005550514
 20
-0.1364580339227481
 10
-0.8105437122733492
 20
-0.1392429548040496
 10
-0.833849435126362
 20
-0.1381531485863606
 10
-0.8564950652617133
 20
-0.1332076147938108
 10
-0.877998791926987
 20
-0.1246111254288674
 10
-0.8871199974531815
 20
-0.1196114034662648
  0
LINE
  5
163
330
10E
100
AcDbEntity
  8
AM_4
100
AcDbLine
 10
-0.5350000000000001
 20
-0.4357464859296052
 30
0.0
 11
-0.5350000000000001
 21
-0.875
 31
0.0
  0
LINE
  5
164
330
10E
100
AcDbEntity
  8
AM_4
100
AcDbLine
 10
-0.5350000000000001
 20
0.875
 30
0.0
 11
-0.5350000000000001
 21
0.4357464859296052
 31
0.0
  0
LINE
  5
165
330
10E
100
AcDbEntity
  8
AM_4
100
AcDbLine
 10
-1.0025
 20
-0.875
 30
0.0
 11
-0.5350000000000001
 21
-0.875
 31
0.0
  0
LINE
  5
166
330
10E
100
AcDbEntity
  8
AM_4
100
AcDbLine
 10
-0.5350000000000001
 20
0.875
 30
0.0
 11
-1.0025
 21
0.875
 31
0.0
  0
ARC
  5
167
330
10E
100
AcDbEntity
  8
AM_4
100
AcDbCircle
 10
-0.815625
 20
0.0
 30
0.0
 40
0.1393499999999999
100
AcDbArc
 50
120.867912039898
 51
239.1320879601019
  0
LWPOLYLINE
  5
168
330
10E
100
AcDbEntity
  8
AM_4
100
AcDbPolyline
 90
       15
 70
     0
 43
0.0
 10
-0.8871199974531815
 20
-0.1196114034662647
 10
-0.9028281921508222
 20
-0.110269588529927
 10
-0.9172622062100632
 20
-0.0990752927004444
 10
-0.9346032093191873
 20
-0.080776856087455
 10
-0.9483650788189996
 20
-0.0596532036351503
 10
-0.9573368776720941
 20
-0.0379999685110536
 10
-0.9622861084332445
 20
-0.0150767632130475
 10
-0.9630002491073361
 20
0.0065956181422921
 10
-0.9600350384556235
 20
0.0280732809231466
 10
-0.9536833694292053
 20
0.048180478794325
 10
-0.9442088351630122
 20
0.0670047896979931
 10
-0.9313894244900928
 20
0.0847037297978665
 10
-0.9159766364433254
 20
0.1001955667032146
 10
-0.9021220390621031
 20
0.1107480292755034
 10
-0.8871199974531815
 20
0.1196114034662647
  0
LINE
  5
169
330
10E
100
AcDbEntity
  8
AM_4
100
AcDbLine
 10
-1.05
 20
0.8275
 30
0.0
 11
-1.05
 21
-0.8274999999936686
 31
0.0
  0
LINE
  5
16A
330
10E
100
AcDbEntity
  8
AM_4
100
AcDbLine
 10
-1.0025
 20
0.875
 30
0.0
 11
-1.0025
 21
-0.875
 31
0.0
  0
ARC
  5
16B
330
10E
100
AcDbEntity
  8
AM_4
100
AcDbCircle
 10
-1.0025
 20
-0.8274999999999998
 30
0.0
 40
0.0475000000000003
100
AcDbArc
 50
180.0
 51
270.0
  0
ARC
  5
16C
330
10E
100
AcDbEntity
  8
AM_4
100
AcDbCircle
 10
-1.0025
 20
0.8274999999999998
 30
0.0
 40
0.0475000000000002
100
AcDbArc
 50
90.0
 51
180.0
  0
ARC
  5
16D
330
10E
100
AcDbEntity
  8
AM_4
100
AcDbCircle
 10
-0.8156250000000006
 20
-0.0000000000000007
 30
0.0
 40
0.1393500000000008
100
AcDbArc
 50
23.43585967714882
 51
59.13208796010186
  0
ARC
  5
16E
330
10E
100
AcDbEntity
  8
AM_4
100
AcDbCircle
 10
-0.8156250000000005
 20
0.0000000000000006
 30
0.0
 40
0.1393500000000008
100
AcDbArc
 50
300.8679120398981
 51
336.5641403228512
  0
LWPOLYLINE
  5
16F
330
10E
100
AcDbEntity
  8
AM_4
100
AcDbPolyline
 90
        6
 70
     0
 43
0.0
 10
-0.6866448748034575
 20
-0.0663484720709053
 10
-0.6870411648369877
 20
-0.067004789697993
 10
-0.6998605755099072
 20
-0.0847037297978664
 10
-0.7152733635566746
 20
-0.1001955667032146
 10
-0.7291279609378967
 20
-0.1107480292755034
 10
-0.7441300025468185
 20
-0.1196114034662647
  0
LWPOLYLINE
  5
170
330
10E
100
AcDbEntity
  8
AM_4
100
AcDbPolyline
 90
        5
 70
     0
 43
0.0
 10
-0.7441300025468185
 20
0.1196114034662647
 10
-0.7284218078491778
 20
0.110269588529927
 10
-0.713987793789937
 20
0.0990752927004443
 10
-0.6966467906808128
 20
0.0807768560874549
 10
-0.6862559991304297
 20
0.0656960945386106
  0
ARC
  5
171
330
10E
100
AcDbEntity
  8
AM_5
100
AcDbCircle
 10
-0.815625
 20
0.0
 30
0.0
 40
0.15625
100
AcDbArc
 50
345.0
 51
285.0
  0
ENDBLK
  5
111
330
10E
100
AcDbEntity
  8
0
100
AcDbBlockEnd
  0
BLOCK
  5
174
330
172
100
AcDbEntity
  8
0
100
AcDbBlockBegin
  2
4_131192H_0_in_131192_2
 70
     2
 10
0.0
 20
0.0
 30
0.0
  3
4_131192H_0_in_131192_2
  1

  0
ATTDEF
  5
176
330
172
100
AcDbEntity
  8
AM_6
100
AcDbText
 10
5.759
 20
2.065
 30
0.0
 40
0.5
  1
NSTU-SXV -I-Housing
100
AcDbAttributeDefinition
  3

  2
NN
 70
     8
280
     0
  0
ATTDEF
  5
177
330
172
100
AcDbEntity
  8
AM_6
100
AcDbText
 10
5.759
 20
1.565
 30
0.0
 40
0.5
  1
Eccentric Collar Take-Up Bearings -(Intermediate Duty) -Narrow Slot
100
AcDbAttributeDefinition
  3

  2
NT
 70
     8
280
     0
  0
ATTDEF
  5
178
330
172
100
AcDbEntity
  8
AM_6
100
AcDbText
 10
5.759
 20
1.065
 30
0.0
 40
0.5
  1
131192H
100
AcDbAttributeDefinition
  3

  2
NB
 70
     8
280
     0
  0
ATTDEF
  5
179
330
172
100
AcDbEntity
  8
AM_6
100
AcDbText
 10
5.759
 20
0.565
 30
0.0
 40
0.5
  1
$PN.H
100
AcDbAttributeDefinition
  3

  2
NBSYN
 70
     8
280
     0
  0
ATTDEF
  5
17A
330
172
100
AcDbEntity
  8
AM_6
100
AcDbText
 10
5.759
 20
0.0649999999999999
 30
0.0
 40
0.5
  1
131192
100
AcDbAttributeDefinition
  3

  2
LINA
 70
     8
280
     0
  0
ATTDEF
  5
17B
330
172
100
AcDbEntity
  8
AM_6
100
AcDbText
 10
5.759
 20
-0.4350000000000001
 30
0.0
 40
0.5
  1
206
100
AcDbAttributeDefinition
  3

  2
SERIES
 70
     8
280
     0
  0
ATTDEF
  5
17C
330
172
100
AcDbEntity
  8
AM_6
100
AcDbText
 10
5.759
 20
-0.935
 30
0.0
 40
0.5
  1
1-3/16
100
AcDbAttributeDefinition
  3

  2
SS
 70
     8
280
     0
  0
ATTDEF
  5
17D
330
172
100
AcDbEntity
  8
AM_6
100
AcDbText
 10
5.759
 20
-1.435
 30
0.0
 40
0.5
  1
131192
100
AcDbAttributeDefinition
  3

  2
PN
 70
     8
280
     0
  0
ATTDEF
  5
17E
330
172
100
AcDbEntity
  8
AM_6
100
AcDbText
 10
5.759
 20
-1.935
 30
0.0
 40
0.5
  1
NSTU-SXV-103
100
AcDbAttributeDefinition
  3

  2
DESCRIPTION
 70
     8
280
     0
  0
ATTDEF
  5
17F
330
172
100
AcDbEntity
  8
AM_6
100
AcDbText
 10
5.759
 20
-2.435
 30
0.0
 40
0.5
  1
2.6
100
AcDbAttributeDefinition
  3

  2
W
 70
     8
280
     0
  0
ATTDEF
  5
180
330
172
100
AcDbEntity
  8
AM_6
100
AcDbText
 10
5.759
 20
-2.935
 30
0.0
 40
0.5
  1
NS308
100
AcDbAttributeDefinition
  3

  2
FS
 70
     8
280
     0
  0
ATTDEF
  5
181
330
172
100
AcDbEntity
  8
AM_6
100
AcDbText
 10
5.759
 20
-3.435
 30
0.0
 40
0.5
  1
1.41
100
AcDbAttributeDefinition
  3

  2
A
 70
     8
280
     0
  0
ATTDEF
  5
182
330
172
100
AcDbEntity
  8
AM_6
100
AcDbText
 10
5.759
 20
-3.935
 30
0.0
 40
0.5
  1
4.31
100
AcDbAttributeDefinition
  3

  2
B
 70
     8
280
     0
  0
ATTDEF
  5
183
330
172
100
AcDbEntity
  8
AM_6
100
AcDbText
 10
5.759
 20
-4.435
 30
0.0
 40
0.5
  1
0.250
100
AcDbAttributeDefinition
  3

  2
C
 70
     8
280
     0
  0
ATTDEF
  5
184
330
172
100
AcDbEntity
  8
AM_6
100
AcDbText
 10
5.759
 20
-4.935
 30
0.0
 40
0.5
  1
2.50
100
AcDbAttributeDefinition
  3

  2
D
 70
     8
280
     0
  0
ATTDEF
  5
185
330
172
100
AcDbEntity
  8
AM_6
100
AcDbText
 10
5.759
 20
-5.435
 30
0.0
 40
0.5
  1
2.69
100
AcDbAttributeDefinition
  3

  2
E
 70
     8
280
     0
  0
ATTDEF
  5
186
330
172
100
AcDbEntity
  8
AM_6
100
AcDbText
 10
5.759
 20
-5.935
 30
0.0
 40
0.5
  1
3/4
100
AcDbAttributeDefinition
  3

  2
F
 70
     8
280
     0
  0
ATTDEF
  5
187
330
172
100
AcDbEntity
  8
AM_6
100
AcDbText
 10
5.759
 20
-6.435
 30
0.0
 40
0.5
  1
0.50
100
AcDbAttributeDefinition
  3

  2
G
 70
     8
280
     0
  0
ATTDEF
  5
188
330
172
100
AcDbEntity
  8
AM_6
100
AcDbText
 10
5.759
 20
-6.935
 30
0.0
 40
0.5
  1
0.94
100
AcDbAttributeDefinition
  3

  2
H
 70
     8
280
     0
  0
ATTDEF
  5
189
330
172
100
AcDbEntity
  8
AM_6
100
AcDbText
 10
5.759
 20
-7.435
 30
0.0
 40
0.5
  1
1.38
100
AcDbAttributeDefinition
  3

  2
J
 70
     8
280
     0
  0
ATTDEF
  5
18A
330
172
100
AcDbEntity
  8
AM_6
100
AcDbText
 10
5.759
 20
-7.935
 30
0.0
 40
0.5
  1
1.75
100
AcDbAttributeDefinition
  3

  2
L
 70
     8
280
     0
  0
ATTDEF
  5
18B
330
172
100
AcDbEntity
  8
AM_6
100
AcDbText
 10
5.759
 20
-8.435
 30
0.0
 40
0.5
  1
3.510 / 3.480
100
AcDbAttributeDefinition
  3

  2
M
 70
     8
280
     0
  0
ATTDEF
  5
18C
330
172
100
AcDbEntity
  8
AM_6
100
AcDbText
 10
5.759
 20
-8.935
 30
0.0
 40
0.5
  1
4.13
100
AcDbAttributeDefinition
  3

  2
N
 70
     8
280
     0
  0
ATTDEF
  5
18D
330
172
100
AcDbEntity
  8
AM_6
100
AcDbText
 10
5.759
 20
-9.435
 30
0.0
 40
0.5
  1
0.32
100
AcDbAttributeDefinition
  3

  2
P
 70
     8
280
     0
  0
ATTDEF
  5
18E
330
172
100
AcDbEntity
  8
AM_6
100
AcDbText
 10
5.759
 20
-9.935
 30
0.0
 40
0.5
  1
0.35
100
AcDbAttributeDefinition
  3

  2
R
 70
     8
280
     0
  0
ATTDEF
  5
18F
330
172
100
AcDbEntity
  8
AM_6
100
AcDbText
 10
5.759
 20
-10.435
 30
0.0
 40
0.5
  1
1.05
100
AcDbAttributeDefinition
  3

  2
S
 70
     8
280
     0
  0
ATTDEF
  5
190
330
172
100
AcDbEntity
  8
AM_6
100
AcDbText
 10
5.759
 20
-10.935
 30
0.0
 40
0.5
  1
2250
100
AcDbAttributeDefinition
  3

  2
CAPS
 70
     8
280
     0
  0
ATTDEF
  5
191
330
172
100
AcDbEntity
  8
AM_6
100
AcDbText
 10
5.759
 20
-11.435
 30
0.0
 40
0.5
  1
4368
100
AcDbAttributeDefinition
  3

  2
CAPD
 70
     8
280
     0
  0
ATTDEF
  5
192
330
172
100
AcDbEntity
  8
AM_6
100
AcDbText
 10
5.759
 20
-11.935
 30
0.0
 40
0.5
  1
baldor
100
AcDbAttributeDefinition
  3

  2
COMPANY
 70
     8
280
     0
  0
LINE
  5
193
330
172
100
AcDbEntity
  8
AM_9
100
AcDbLine
 10
-0.2499999999999999
 20
-1.217073540443314
 30
0.0
 11
0.5
 21
-1.217073540443314
 31
0.0
  0
LINE
  5
194
330
172
100
AcDbEntity
  8
AM_9
100
AcDbLine
 10
-0.2499999999999999
 20
-1.279825
 30
0.0
 11
0.5
 21
-1.279825
 31
0.0
  0
LINE
  5
195
330
172
100
AcDbEntity
  8
AM_9
100
AcDbLine
 10
-0.2499999999999999
 20
-1.279825
 30
0.0
 11
-0.2499999999999999
 21
-1.154475714219326
 31
0.0
  0
LINE
  5
196
330
172
100
AcDbEntity
  8
AM_9
100
AcDbLine
 10
-0.2499999999999999
 20
1.154475714219326
 30
0.0
 11
-0.2499999999999999
 21
1.279825
 31
0.0
  0
LINE
  5
197
330
172
100
AcDbEntity
  8
AM_9
100
AcDbLine
 10
-0.2499999999999999
 20
1.217073540443314
 30
0.0
 11
0.5
 21
1.217073540443314
 31
0.0
  0
LINE
  5
198
330
172
100
AcDbEntity
  8
AM_9
100
AcDbLine
 10
0.5
 20
1.279825
 30
0.0
 11
-0.2499999999999999
 21
1.279825
 31
0.0
  0
LINE
  5
199
330
172
100
AcDbEntity
  8
AM_9
100
AcDbLine
 10
-0.2499999999999999
 20
1.154475714219326
 30
0.0
 11
0.5
 21
1.154475714219326
 31
0.0
  0
LINE
  5
19A
330
172
100
AcDbEntity
  8
AM_9
100
AcDbLine
 10
0.5
 20
-1.154475714219326
 30
0.0
 11
-0.2499999999999999
 21
-1.154475714219326
 31
0.0
  0
LINE
  5
19B
330
172
100
AcDbEntity
  8
AM_9
100
AcDbLine
 10
-0.5
 20
-1.22045
 30
0.0
 11
-0.2499999999999999
 21
-1.22045
 31
0.0
  0
LINE
  5
19C
330
172
100
AcDbEntity
  8
AM_9
100
AcDbLine
 10
-0.2499999999999999
 20
1.22045
 30
0.0
 11
-0.5
 21
1.22045
 31
0.0
  0
LINE
  5
19D
330
172
100
AcDbEntity
  8
AM_9
100
AcDbLine
 10
0.5000000000000001
 20
0.4754997371187497
 30
0.0
 11
0.5000000000000001
 21
-0.4754997371187496
 31
0.0
  0
LINE
  5
19E
330
172
100
AcDbEntity
  8
AM_9
100
AcDbLine
 10
-0.4999999999999999
 20
-0.4754997371187497
 30
0.0
 11
-0.4999999999999999
 21
0.4754997371187496
 31
0.0
  0
LINE
  5
19F
330
172
100
AcDbEntity
  8
AM_9
100
AcDbLine
 10
0.313397459621556
 20
-0.6147211012343364
 30
0.0
 11
0.313397459621556
 21
0.6147211012343364
 31
0.0
  0
LINE
  5
1A0
330
172
100
AcDbEntity
  8
AM_9
100
AcDbLine
 10
-0.3133974596215561
 20
-0.6147211012343363
 30
0.0
 11
-0.3133974596215561
 21
0.6147211012343363
 31
0.0
  0
LINE
  5
1A1
330
172
100
AcDbEntity
  8
AM_9
100
AcDbLine
 10
0.3393323807048855
 20
-0.16
 30
0.0
 11
0.671273074451256
 21
-0.16
 31
0.0
  0
LINE
  5
1A2
330
172
100
AcDbEntity
  8
AM_9
100
AcDbLine
 10
0.6713246106433581
 20
0.16
 30
0.0
 11
0.3394250865993074
 21
0.16
 31
0.0
  0
LINE
  5
1A3
330
172
100
AcDbEntity
  8
AM_9
100
AcDbLine
 10
-0.671324610643358
 20
-0.16
 30
0.0
 11
-0.3394250865993071
 21
-0.16
 31
0.0
  0
LINE
  5
1A4
330
172
100
AcDbEntity
  8
AM_9
100
AcDbLine
 10
-0.3393323807048853
 20
0.16
 30
0.0
 11
-0.6712730744512558
 21
0.16
 31
0.0
  0
LINE
  5
1A5
330
172
100
AcDbEntity
  8
AM_7
100
AcDbLine
 10
0.0000000000000002
 20
-0.7244999999999998
 30
0.0
 11
0.0000000000000002
 21
0.7244999999999998
 31
0.0
  0
LINE
  5
1A6
330
172
100
AcDbEntity
  8
AM_7
100
AcDbLine
 10
0.759
 20
0.0
 30
0.0
 11
-1.1205
 21
0.0
 31
0.0
  0
LINE
  5
1A7
330
172
100
AcDbEntity
  8
AM_4
100
AcDbLine
 10
-0.1249999999999999
 20
-1.755
 30
0.0
 11
-0.125
 21
-2.065
 31
0.0
  0
LWPOLYLINE
  5
1A8
330
172
100
AcDbEntity
  8
AM_4
100
AcDbPolyline
 90
       19
 70
     0
 43
0.0
 10
-0.325
 20
-2.065
 10
-0.329357787137383
 20
-2.064809734904587
 10
-0.3336824088833465
 20
-2.064240387650611
 10
-0.337940952255126
 20
-2.063296291314453
 10
-0.3421010071662834
 20
-2.061984631039295
 10
-0.346130913087035
 20
-2.060315389351832
 10
-0.35
 20
-2.058301270189222
 10
-0.3536788218175523
 20
-2.05595760221445
 10
-0.3571393804843269
 20
-2.053302222155949
 10
-0.3603553390593273
 20
-2.050355339059327
 10
-0.3633022221559489
 20
-2.047139380484327
 10
-0.3659576022144496
 20
-2.043678821817552
 10
-0.3683012701892219
 20
-2.04
 10
-0.3703153893518324
 20
-2.036130913087035
 10
-0.3719846310392953
 20
-2.032101007166283
 10
-0.3732962913144533
 20
-2.027940952255126
 10
-0.3742403876506103
 20
-2.023682408883346
 10
-0.3748097349045872
 20
-2.019357787137383
 10
-0.3749999999999998
 20
-2.015
  0
LINE
  5
1A9
330
172
100
AcDbEntity
  8
AM_4
100
AcDbLine
 10
-0.3249999999999998
 20
-2.065
 30
0.0
 11
-0.125
 21
-2.065
 31
0.0
  0
LINE
  5
1AA
330
172
100
AcDbEntity
  8
AM_4
100
AcDbLine
 10
0.1250000000000001
 20
-2.065
 30
0.0
 11
0.1250000000000001
 21
-1.755
 31
0.0
  0
LWPOLYLINE
  5
1AB
330
172
100
AcDbEntity
  8
AM_4
100
AcDbPolyline
 90
       19
 70
     0
 43
0.0
 10
0.3750000000000004
 20
-2.015
 10
0.3748097349045877
 20
-2.019357787137383
 10
0.3742403876506108
 20
-2.023682408883347
 10
0.3732962913144539
 20
-2.027940952255126
 10
0.3719846310392959
 20
-2.032101007166284
 10
0.3703153893518329
 20
-2.036130913087035
 10
0.3683012701892224
 20
-2.04
 10
0.3659576022144501
 20
-2.043678821817552
 10
0.3633022221559494
 20
-2.047139380484327
 10
0.3603553390593279
 20
-2.050355339059327
 10
0.3571393804843275
 20
-2.053302222155949
 10
0.3536788218175529
 20
-2.05595760221445
 10
0.3500000000000006
 20
-2.058301270189222
 10
0.3461309130870356
 20
-2.060315389351832
 10
0.3421010071662841
 20
-2.061984631039295
 10
0.3379409522551267
 20
-2.063296291314453
 10
0.3336824088833473
 20
-2.064240387650611
 10
0.3293577871373837
 20
-2.064809734904587
 10
0.3250000000000009
 20
-2.065
  0
LINE
  5
1AC
330
172
100
AcDbEntity
  8
AM_4
100
AcDbLine
 10
0.1250000000000001
 20
-2.065
 30
0.0
 11
0.3250000000000007
 21
-2.065
 31
0.0
  0
LINE
  5
1AD
330
172
100
AcDbEntity
  8
AM_4
100
AcDbLine
 10
-0.1249999999999999
 20
1.755
 30
0.0
 11
-0.125
 21
2.065
 31
0.0
  0
LINE
  5
1AE
330
172
100
AcDbEntity
  8
AM_4
100
AcDbLine
 10
0.3750000000000001
 20
1.00433653849502
 30
0.0
 11
0.3750000000000001
 21
2.015
 31
0.0
  0
LINE
  5
1AF
330
172
100
AcDbEntity
  8
AM_4
100
AcDbLine
 10
-0.3749999999999999
 20
2.015
 30
0.0
 11
-0.3749999999999999
 21
1.00433653849502
 31
0.0
  0
LINE
  5
1B0
330
172
100
AcDbEntity
  8
AM_4
100
AcDbLine
 10
0.125
 20
1.755
 30
0.0
 11
-0.1249999999999999
 21
1.755
 31
0.0
  0
LINE
  5
1B1
330
172
100
AcDbEntity
  8
AM_4
100
AcDbLine
 10
0.1250000000000001
 20
2.065
 30
0.0
 11
0.125
 21
1.755
 31
0.0
  0
LINE
  5
1B2
330
172
100
AcDbEntity
  8
AM_4
100
AcDbLine
 10
0.3750000000000001
 20
-2.015000000000001
 30
0.0
 11
0.3750000000000001
 21
-1.00433653849502
 31
0.0
  0
LINE
  5
1B3
330
172
100
AcDbEntity
  8
AM_4
100
AcDbLine
 10
-0.1249999999999999
 20
-1.755
 30
0.0
 11
0.1250000000000001
 21
-1.755
 31
0.0
  0
LINE
  5
1B4
330
172
100
AcDbEntity
  8
AM_4
100
AcDbLine
 10
-0.125
 20
-2.015
 30
0.0
 11
-0.3749999999999999
 21
-2.015
 31
0.0
  0
LINE
  5
1B5
330
172
100
AcDbEntity
  8
AM_4
100
AcDbLine
 10
0.3750000000000001
 20
-2.015000000000001
 30
0.0
 11
0.1250000000000001
 21
-2.015
 31
0.0
  0
LINE
  5
1B6
330
172
100
AcDbEntity
  8
AM_4
100
AcDbLine
 10
-0.3749999999999999
 20
-1.00433653849502
 30
0.0
 11
-0.3749999999999999
 21
-2.015
 31
0.0
  0
LINE
  5
1B7
330
172
100
AcDbEntity
  8
AM_4
100
AcDbLine
 10
0.3750000000000001
 20
2.015
 30
0.0
 11
0.125
 21
2.015000000000001
 31
0.0
  0
LWPOLYLINE
  5
1B8
330
172
100
AcDbEntity
  8
AM_4
100
AcDbPolyline
 90
       19
 70
     0
 43
0.0
 10
0.3250000000000003
 20
2.065
 10
0.3293577871373831
 20
2.064809734904587
 10
0.3336824088833468
 20
2.064240387650611
 10
0.3379409522551263
 20
2.063296291314453
 10
0.3421010071662836
 20
2.061984631039295
 10
0.3461309130870351
 20
2.060315389351833
 10
0.3500000000000001
 20
2.058301270189222
 10
0.3536788218175524
 20
2.05595760221445
 10
0.3571393804843271
 20
2.053302222155949
 10
0.3603553390593274
 20
2.050355339059327
 10
0.363302222155949
 20
2.047139380484327
 10
0.3659576022144496
 20
2.043678821817553
 10
0.3683012701892219
 20
2.04
 10
0.3703153893518326
 20
2.036130913087035
 10
0.3719846310392955
 20
2.032101007166284
 10
0.3732962913144535
 20
2.027940952255126
 10
0.3742403876506104
 20
2.023682408883347
 10
0.3748097349045873
 20
2.019357787137383
 10
0.3750000000000001
 20
2.015
  0
LINE
  5
1B9
330
172
100
AcDbEntity
  8
AM_4
100
AcDbLine
 10
0.1250000000000001
 20
2.065
 30
0.0
 11
0.3250000000000003
 21
2.065
 31
0.0
  0
LINE
  5
1BA
330
172
100
AcDbEntity
  8
AM_4
100
AcDbLine
 10
-0.3250000000000001
 20
2.065
 30
0.0
 11
-0.125
 21
2.065
 31
0.0
  0
LWPOLYLINE
  5
1BB
330
172
100
AcDbEntity
  8
AM_4
100
AcDbPolyline
 90
       19
 70
     0
 43
0.0
 10
-0.3749999999999997
 20
2.015
 10
-0.374809734904587
 20
2.019357787137383
 10
-0.3742403876506101
 20
2.023682408883347
 10
-0.3732962913144531
 20
2.027940952255126
 10
-0.3719846310392951
 20
2.032101007166284
 10
-0.3703153893518322
 20
2.036130913087035
 10
-0.3683012701892217
 20
2.04
 10
-0.3659576022144493
 20
2.043678821817552
 10
-0.3633022221559487
 20
2.047139380484327
 10
-0.3603553390593272
 20
2.050355339059327
 10
-0.3571393804843268
 20
2.053302222155949
 10
-0.3536788218175521
 20
2.05595760221445
 10
-0.3499999999999999
 20
2.058301270189222
 10
-0.3461309130870349
 20
2.060315389351832
 10
-0.3421010071662833
 20
2.061984631039295
 10
-0.337940952255126
 20
2.063296291314453
 10
-0.3336824088833465
 20
2.064240387650611
 10
-0.329357787137383
 20
2.064809734904587
 10
-0.325
 20
2.065
  0
LINE
  5
1BC
330
172
100
AcDbEntity
  8
AM_4
100
AcDbLine
 10
-0.1249999999999999
 20
2.015000000000001
 30
0.0
 11
-0.3749999999999999
 21
2.015
 31
0.0
  0
LINE
  5
1BD
330
172
100
AcDbEntity
  8
AM_4
100
AcDbLine
 10
-0.3133974596215559
 20
1.030485322554377
 30
0.0
 11
0.313397459621556
 21
1.030485322554377
 31
0.0
  0
LINE
  5
1BE
330
172
100
AcDbEntity
  8
AM_4
100
AcDbLine
 10
0.5000000000000001
 20
-0.4754997371187497
 30
0.0
 11
0.5
 21
-1.57
 31
0.0
  0
LINE
  5
1BF
330
172
100
AcDbEntity
  8
AM_4
100
AcDbLine
 10
0.3750000000000001
 20
-1.00433653849502
 30
0.0
 11
0.3133974596215561
 21
-1.030485322554377
 31
0.0
  0
LINE
  5
1C0
330
172
100
AcDbEntity
  8
AM_4
100
AcDbLine
 10
0.313397459621556
 20
1.030485322554377
 30
0.0
 11
0.3750000000000001
 21
1.00433653849502
 31
0.0
  0
LINE
  5
1C1
330
172
100
AcDbEntity
  8
AM_4
100
AcDbLine
 10
0.313397459621556
 20
1.030485322554377
 30
0.0
 11
0.3133974596215561
 21
0.6147211012343364
 31
0.0
  0
LINE
  5
1C2
330
172
100
AcDbEntity
  8
AM_4
100
AcDbLine
 10
0.5
 20
1.57
 30
0.0
 11
0.3749999999999999
 21
1.60349364905389
 31
0.0
  0
LINE
  5
1C3
330
172
100
AcDbEntity
  8
AM_4
100
AcDbLine
 10
0.3749999999999999
 20
-1.60349364905389
 30
0.0
 11
0.5
 21
-1.57
 31
0.0
  0
LINE
  5
1C4
330
172
100
AcDbEntity
  8
AM_4
100
AcDbLine
 10
0.5
 20
1.57
 30
0.0
 11
0.5000000000000001
 21
0.4754997371187497
 31
0.0
  0
LINE
  5
1C5
330
172
100
AcDbEntity
  8
AM_4
100
AcDbLine
 10
-0.3133974596215559
 20
1.030485322554377
 30
0.0
 11
-0.313397459621556
 21
0.6147211012343363
 31
0.0
  0
LINE
  5
1C6
330
172
100
AcDbEntity
  8
AM_4
100
AcDbLine
 10
-0.3749999999999999
 20
1.00433653849502
 30
0.0
 11
-0.3133974596215559
 21
1.030485322554377
 31
0.0
  0
LINE
  5
1C7
330
172
100
AcDbEntity
  8
AM_4
100
AcDbLine
 10
-0.3133974596215559
 20
-1.030485322554377
 30
0.0
 11
-0.3749999999999999
 21
-1.00433653849502
 31
0.0
  0
LINE
  5
1C8
330
172
100
AcDbEntity
  8
AM_4
100
AcDbLine
 10
-0.4999999999999999
 20
-0.4754997371187497
 30
0.0
 11
-0.5
 21
-1.57
 31
0.0
  0
LINE
  5
1C9
330
172
100
AcDbEntity
  8
AM_4
100
AcDbLine
 10
-0.5
 20
-1.57
 30
0.0
 11
-0.3749999999999999
 21
-1.60349364905389
 31
0.0
  0
LINE
  5
1CA
330
172
100
AcDbEntity
  8
AM_4
100
AcDbLine
 10
-0.3749999999999999
 20
1.60349364905389
 30
0.0
 11
-0.5
 21
1.57
 31
0.0
  0
LINE
  5
1CB
330
172
100
AcDbEntity
  8
AM_4
100
AcDbLine
 10
-0.5
 20
1.57
 30
0.0
 11
-0.4999999999999999
 21
0.4754997371187497
 31
0.0
  0
LINE
  5
1CC
330
172
100
AcDbEntity
  8
AM_4
100
AcDbLine
 10
-0.313397459621556
 20
-0.6147211012343363
 30
0.0
 11
-0.3133974596215559
 21
-1.030485322554377
 31
0.0
  0
LINE
  5
1CD
330
172
100
AcDbEntity
  8
AM_4
100
AcDbLine
 10
0.3133974596215561
 20
-1.030485322554377
 30
0.0
 11
-0.3133974596215559
 21
-1.030485322554377
 31
0.0
  0
LINE
  5
1CE
330
172
100
AcDbEntity
  8
AM_4
100
AcDbLine
 10
0.3133974596215561
 20
-0.6147211012343364
 30
0.0
 11
0.3133974596215561
 21
-1.030485322554377
 31
0.0
  0
CIRCLE
  5
1CF
330
172
100
AcDbEntity
  8
AM_4
100
AcDbCircle
 10
0.0000000000000002
 20
0.0
 30
0.0
 40
0.6899999999999998
  0
CIRCLE
  5
1D0
330
172
100
AcDbEntity
  8
AM_4
100
AcDbCircle
 10
0.0000000000000002
 20
0.0
 30
0.0
 40
0.3749999999999999
  0
CIRCLE
  5
1D1
330
172
100
AcDbEntity
  8
AM_4
100
AcDbCircle
 10
0.0000000000000002
 20
0.0
 30
0.0
 40
0.6066666666666668
  0
ENDBLK
  5
175
330
172
100
AcDbEntity
  8
0
100
AcDbBlockEnd
  0
ENDSEC
  0
SECTION
  2
ENTITIES
  0
INSERT
  5
6F
330
1F
100
AcDbEntity
  8
0
100
AcDbBlockReference
  2
1_131192_2
 10
0.0
 20
0.0
 30
0.0
  0
POINT
  5
1D3
330
1F
100
AcDbEntity
  8
ConnectionPoints
100
AcDbPoint
 10
-1.05
 20
0.0
 30
0.0000000000000001
  0
POINT
  5
1D4
330
1F
100
AcDbEntity
  8
ConnectionPoints
100
AcDbPoint
 10
-0.0000000000000001
 20
-0.8099999999999997
 30
-1.40296115413079
  0
POINT
  5
1D5
330
1F
100
AcDbEntity
  8
ConnectionPoints
100
AcDbPoint
 10
-1.05
 20
0.0
 30
0.0000000000000001
  0
ENDSEC
  0
SECTION
  2
OBJECTS
  0
DICTIONARY
  5
C
330
0
100
AcDbDictionary
281
     1
  3
ACAD_DETAILVIEWSTYLE
350
1DD
  3
ACAD_GROUP
350
D
  3
ACAD_LAYOUT
350
1A
  3
ACAD_MATERIAL
350
43
  3
ACAD_MLEADERSTYLE
350
6B
  3
ACAD_MLINESTYLE
350
17
  3
ACAD_PLOTSETTINGS
350
19
  3
ACAD_PLOTSTYLENAME
350
E
  3
ACAD_SCALELIST
350
47
  3
ACAD_SECTIONVIEWSTYLE
350
1DE
  3
ACAD_TABLESTYLE
350
69
  3
ACAD_VISUALSTYLE
350
2A
  3
ACDB_RECOMPOSE_DATA
350
1DA
  3
AcDbVariableDictionary
350
1D6
  0
SUN
  5
6D
330
29
100
AcDbSun
 90
        1
290
     0
 63
     7
421
 16777215
 40
1.0
291
     1
 91
  2455826
 92
 54000000
292
     0
 70
     2
 71
   256
280
     1
  0
DICTIONARY
  5
1DD
102
{ACAD_REACTORS
330
C
102
}
330
C
100
AcDbDictionary
281
     1
  0
DICTIONARY
  5
D
102
{ACAD_REACTORS
330
C
102
}
330
C
100
AcDbDictionary
281
     1
  0
DICTIONARY
  5
1A
102
{ACAD_REACTORS
330
C
102
}
330
C
100
AcDbDictionary
281
     1
  3
Layout1
350
1E
  3
Layout2
350
26
  3
Model
350
22
  0
DICTIONARY
  5
43
102
{ACAD_REACTORS
330
C
102
}
330
C
100
AcDbDictionary
281
     1
  3
ByBlock
350
45
  3
ByLayer
350
44
  3
Global
350
46
  0
DICTIONARY
  5
6B
102
{ACAD_REACTORS
330
C
102
}
330
C
100
AcDbDictionary
281
     1
  3
Standard
350
6C
  0
DICTIONARY
  5
17
102
{ACAD_REACTORS
330
C
102
}
330
C
100
AcDbDictionary
281
     1
  3
Standard
350
18
  0
DICTIONARY
  5
19
102
{ACAD_REACTORS
330
C
102
}
330
C
100
AcDbDictionary
281
     1
  0
ACDBDICTIONARYWDFLT
  5
E
102
{ACAD_REACTORS
330
C
102
}
330
C
100
AcDbDictionary
281
     1
  3
Normal
350
F
100
AcDbDictionaryWithDefault
340
F
  0
DICTIONARY
  5
47
102
{ACAD_REACTORS
330
C
102
}
330
C
100
AcDbDictionary
281
     1
  3
A0
350
48
  3
A1
350
49
  3
A2
350
4A
  3
A3
350
4B
  3
A4
350
4C
  3
A5
350
4D
  3
A6
350
4E
  3
A7
350
4F
  3
A8
350
50
  3
A9
350
51
  3
B0
350
52
  3
B1
350
53
  3
B2
350
54
  3
B3
350
55
  3
B4
350
56
  3
B5
350
57
  3
B6
350
58
  3
B7
350
59
  3
B8
350
5A
  3
B9
350
5B
  3
C0
350
5C
  3
C1
350
5D
  3
C2
350
5E
  3
C3
350
5F
  3
C4
350
60
  3
C5
350
61
  3
C6
350
62
  3
C7
350
63
  3
C8
350
64
  3
C9
350
65
  3
D0
350
66
  3
D1
350
67
  3
D2
350
68
  0
DICTIONARY
  5
1DE
102
{ACAD_REACTORS
330
C
102
}
330
C
100
AcDbDictionary
281
     1
  0
DICTIONARY
  5
69
102
{ACAD_REACTORS
330
C
102
}
330
C
100
AcDbDictionary
281
     1
  3
Standard
350
6A
  0
DICTIONARY
  5
2A
102
{ACAD_REACTORS
330
C
102
}
330
C
100
AcDbDictionary
281
     1
  3
2dWireframe
350
2F
  3
Basic
350
32
  3
Brighten
350
36
  3
ColorChange
350
3A
  3
Conceptual
350
34
  3
Dim
350
35
  3
EdgeColorOff
350
3D
  3
Facepattern
350
39
  3
Flat
350
2B
  3
FlatWithEdges
350
2C
  3
Gouraud
350
2D
  3
GouraudWithEdges
350
2E
  3
Hidden
350
31
  3
JitterOff
350
3B
  3
Linepattern
350
38
  3
OverhangOff
350
3C
  3
Realistic
350
33
  3
Shaded
350
42
  3
Shaded with edges
350
41
  3
Shades of Gray
350
3E
  3
Sketchy
350
3F
  3
Thicken
350
37
  3
Wireframe
350
30
  3
X-Ray
350
40
  0
XRECORD
  5
1DA
102
{ACAD_REACTORS
330
C
102
}
330
C
100
AcDbXrecord
280
     1
 90
        1
330
6A
  0
DICTIONARY
  5
1D6
102
{ACAD_REACTORS
330
C
102
}
330
C
100
AcDbDictionary
281
     1
  3
CANNOSCALE
350
1D7
  3
CMLEADERSTYLE
350
1DC
  3
CTABLESTYLE
350
1DB
  0
LAYOUT
  5
1E
102
{ACAD_REACTORS
330
1A
102
}
330
1A
100
AcDbPlotSettings
  1

  2
none_device
  4

  6

 40
0.0
 41
0.0
 42
0.0
 43
0.0
 44
0.0
 45
0.0
 46
0.0
 47
0.0
 48
0.0
 49
0.0
140
0.0
141
0.0
142
1.0
143
1.0
 70
   688
 72
     0
 73
     0
 74
     5
  7

 75
    16
 76
     0
 77
     2
 78
   300
147
1.0
148
0.0
149
0.0
100
AcDbLayout
  1
Layout1
 70
     1
 71
     1
 10
0.0
 20
0.0
 11
12.0
 21
9.0
 12
0.0
 22
0.0
 32
0.0
 14
1.000000000000000E+20
 24
1.000000000000000E+20
 34
1.000000000000000E+20
 15
-1.000000000000000E+20
 25
-1.000000000000000E+20
 35
-1.000000000000000E+20
146
0.0
 13
0.0
 23
0.0
 33
0.0
 16
1.0
 26
0.0
 36
0.0
 17
0.0
 27
1.0
 37
0.0
 76
     0
330
1B
  0
LAYOUT
  5
26
102
{ACAD_REACTORS
330
1A
102
}
330
1A
100
AcDbPlotSettings
  1

  2
none_device
  4

  6

 40
0.0
 41
0.0
 42
0.0
 43
0.0
 44
0.0
 45
0.0
 46
0.0
 47
0.0
 48
0.0
 49
0.0
140
0.0
141
0.0
142
1.0
143
1.0
 70
   688
 72
     0
 73
     0
 74
     5
  7

 75
    16
 76
     0
 77
     2
 78
   300
147
1.0
148
0.0
149
0.0
100
AcDbLayout
  1
Layout2
 70
     1
 71
     2
 10
0.0
 20
0.0
 11
0.0
 21
0.0
 12
0.0
 22
0.0
 32
0.0
 14
0.0
 24
0.0
 34
0.0
 15
0.0
 25
0.0
 35
0.0
146
0.0
 13
0.0
 23
0.0
 33
0.0
 16
1.0
 26
0.0
 36
0.0
 17
0.0
 27
1.0
 37
0.0
 76
     0
330
23
  0
LAYOUT
  5
22
102
{ACAD_REACTORS
330
1A
102
}
330
1A
100
AcDbPlotSettings
  1

  2
none_device
  4
Letter_(8.50_x_11.00_Inches)
  6

 40
6.35
 41
6.35
 42
6.35000508
 43
6.35000508
 44
215.9
 45
279.4
 46
0.0
 47
0.0
 48
0.0
 49
0.0
140
0.0
141
0.0
142
1.0
143
1.0
 70
  1712
 72
     0
 73
     0
 74
     0
  7

 75
     0
 76
     0
 77
     2
 78
   300
147
1.0
148
0.0
149
0.0
100
AcDbLayout
  1
Model
 70
     1
 71
     0
 10
0.0
 20
0.0
 11
12.0
 21
9.0
 12
0.0
 22
0.0
 32
0.0
 14
1.000000000000000E+20
 24
1.000000000000000E+20
 34
1.000000000000000E+20
 15
-1.000000000000000E+20
 25
-1.000000000000000E+20
 35
-1.000000000000000E+20
146
0.0
 13
0.0
 23
0.0
 33
0.0
 16
1.0
 26
0.0
 36
0.0
 17
0.0
 27
1.0
 37
0.0
 76
     0
330
1F
331
29
  0
MATERIAL
  5
45
102
{ACAD_REACTORS
330
43
102
}
330
43
100
AcDbMaterial
  1
ByBlock
 72
     1
 94
      127
  0
MATERIAL
  5
44
102
{ACAD_REACTORS
330
43
102
}
330
43
100
AcDbMaterial
  1
ByLayer
 72
     1
 94
      127
  0
MATERIAL
  5
46
102
{ACAD_REACTORS
330
43
102
}
330
43
100
AcDbMaterial
  1
Global
 72
     1
 94
      127
  0
MLEADERSTYLE
  5
6C
102
{ACAD_REACTORS
330
6B
102
}
330
6B
100
AcDbMLeaderStyle
179
     2
170
     2
171
     1
172
     0
 90
        2
 40
0.0
 41
0.0
173
     1
 91
-1056964608
340
14
 92
       -2
290
     1
 42
0.09
291
     1
 43
0.36
  3
Standard
341
0
 44
0.18
300

342
11
174
     1
178
     6
175
     1
176
     0
 93
-1056964608
 45
0.18
292
     0
297
     0
 46
0.18
343
0
 94
-1056964608
 47
1.0
 49
1.0
140
1.0
293
     1
141
0.0
294
     1
177
     0
142
1.0
295
     0
296
     0
143
0.125
271
     0
272
     9
273
     9
298
     0
  0
MLINESTYLE
  5
18
102
{ACAD_REACTORS
330
17
102
}
330
17
100
AcDbMlineStyle
  2
Standard
 70
     0
  3

 62
   256
 51
90.0
 52
90.0
 71
     2
 49
0.5
 62
   256
  6
BYLAYER
 49
-0.5
 62
   256
  6
BYLAYER
  0
ACDBPLACEHOLDER
  5
F
102
{ACAD_REACTORS
330
E
102
}
330
E
  0
SCALE
  5
48
102
{ACAD_REACTORS
330
47
102
}
330
47
100
AcDbScale
 70
     0
300
1:1
140
1.0
141
1.0
290
     1
  0
SCALE
  5
49
102
{ACAD_REACTORS
330
47
102
}
330
47
100
AcDbScale
 70
     0
300
1:2
140
1.0
141
2.0
290
     0
  0
SCALE
  5
4A
102
{ACAD_REACTORS
330
47
102
}
330
47
100
AcDbScale
 70
     0
300
1:4
140
1.0
141
4.0
290
     0
  0
SCALE
  5
4B
102
{ACAD_REACTORS
330
47
102
}
330
47
100
AcDbScale
 70
     0
300
1:5
140
1.0
141
5.0
290
     0
  0
SCALE
  5
4C
102
{ACAD_REACTORS
330
47
102
}
330
47
100
AcDbScale
 70
     0
300
1:8
140
1.0
141
8.0
290
     0
  0
SCALE
  5
4D
102
{ACAD_REACTORS
330
47
102
}
330
47
100
AcDbScale
 70
     0
300
1:10
140
1.0
141
10.0
290
     0
  0
SCALE
  5
4E
102
{ACAD_REACTORS
330
47
102
}
330
47
100
AcDbScale
 70
     0
300
1:16
140
1.0
141
16.0
290
     0
  0
SCALE
  5
4F
102
{ACAD_REACTORS
330
47
102
}
330
47
100
AcDbScale
 70
     0
300
1:20
140
1.0
141
20.0
290
     0
  0
SCALE
  5
50
102
{ACAD_REACTORS
330
47
102
}
330
47
100
AcDbScale
 70
     0
300
1:30
140
1.0
141
30.0
290
     0
  0
SCALE
  5
51
102
{ACAD_REACTORS
330
47
102
}
330
47
100
AcDbScale
 70
     0
300
1:40
140
1.0
141
40.0
290
     0
  0
SCALE
  5
52
102
{ACAD_REACTORS
330
47
102
}
330
47
100
AcDbScale
 70
     0
300
1:50
140
1.0
141
50.0
290
     0
  0
SCALE
  5
53
102
{ACAD_REACTORS
330
47
102
}
330
47
100
AcDbScale
 70
     0
300
1:100
140
1.0
141
100.0
290
     0
  0
SCALE
  5
54
102
{ACAD_REACTORS
330
47
102
}
330
47
100
AcDbScale
 70
     0
300
2:1
140
2.0
141
1.0
290
     0
  0
SCALE
  5
55
102
{ACAD_REACTORS
330
47
102
}
330
47
100
AcDbScale
 70
     0
300
4:1
140
4.0
141
1.0
290
     0
  0
SCALE
  5
56
102
{ACAD_REACTORS
330
47
102
}
330
47
100
AcDbScale
 70
     0
300
8:1
140
8.0
141
1.0
290
     0
  0
SCALE
  5
57
102
{ACAD_REACTORS
330
47
102
}
330
47
100
AcDbScale
 70
     0
300
10:1
140
10.0
141
1.0
290
     0
  0
SCALE
  5
58
102
{ACAD_REACTORS
330
47
102
}
330
47
100
AcDbScale
 70
     0
300
100:1
140
100.0
141
1.0
290
     0
  0
SCALE
  5
59
102
{ACAD_REACTORS
330
47
102
}
330
47
100
AcDbScale
 70
     0
300
1/128" = 1'-0"
140
0.0078125
141
12.0
290
     0
  0
SCALE
  5
5A
102
{ACAD_REACTORS
330
47
102
}
330
47
100
AcDbScale
 70
     0
300
1/64" = 1'-0"
140
0.015625
141
12.0
290
     0
  0
SCALE
  5
5B
102
{ACAD_REACTORS
330
47
102
}
330
47
100
AcDbScale
 70
     0
300
1/32" = 1'-0"
140
0.03125
141
12.0
290
     0
  0
SCALE
  5
5C
102
{ACAD_REACTORS
330
47
102
}
330
47
100
AcDbScale
 70
     0
300
1/16" = 1'-0"
140
0.0625
141
12.0
290
     0
  0
SCALE
  5
5D
102
{ACAD_REACTORS
330
47
102
}
330
47
100
AcDbScale
 70
     0
300
3/32" = 1'-0"
140
0.09375
141
12.0
290
     0
  0
SCALE
  5
5E
102
{ACAD_REACTORS
330
47
102
}
330
47
100
AcDbScale
 70
     0
300
1/8" = 1'-0"
140
0.125
141
12.0
290
     0
  0
SCALE
  5
5F
102
{ACAD_REACTORS
330
47
102
}
330
47
100
AcDbScale
 70
     0
300
3/16" = 1'-0"
140
0.1875
141
12.0
290
     0
  0
SCALE
  5
60
102
{ACAD_REACTORS
330
47
102
}
330
47
100
AcDbScale
 70
     0
300
1/4" = 1'-0"
140
0.25
141
12.0
290
     0
  0
SCALE
  5
61
102
{ACAD_REACTORS
330
47
102
}
330
47
100
AcDbScale
 70
     0
300
3/8" = 1'-0"
140
0.375
141
12.0
290
     0
  0
SCALE
  5
62
102
{ACAD_REACTORS
330
47
102
}
330
47
100
AcDbScale
 70
     0
300
1/2" = 1'-0"
140
0.5
141
12.0
290
     0
  0
SCALE
  5
63
102
{ACAD_REACTORS
330
47
102
}
330
47
100
AcDbScale
 70
     0
300
3/4" = 1'-0"
140
0.75
141
12.0
290
     0
  0
SCALE
  5
64
102
{ACAD_REACTORS
330
47
102
}
330
47
100
AcDbScale
 70
     0
300
1" = 1'-0"
140
1.0
141
12.0
290
     0
  0
SCALE
  5
65
102
{ACAD_REACTORS
330
47
102
}
330
47
100
AcDbScale
 70
     0
300
1-1/2" = 1'-0"
140
1.5
141
12.0
290
     0
  0
SCALE
  5
66
102
{ACAD_REACTORS
330
47
102
}
330
47
100
AcDbScale
 70
     0
300
3" = 1'-0"
140
3.0
141
12.0
290
     0
  0
SCALE
  5
67
102
{ACAD_REACTORS
330
47
102
}
330
47
100
AcDbScale
 70
     0
300
6" = 1'-0"
140
6.0
141
12.0
290
     0
  0
SCALE
  5
68
102
{ACAD_REACTORS
330
47
102
}
330
47
100
AcDbScale
 70
     0
300
1'-0" = 1'-0"
140
12.0
141
12.0
290
     0
  0
TABLESTYLE
  5
6A
102
{ACAD_REACTORS
330
69
102
}
102
{ACAD_XDICTIONARY
360
1D8
102
}
330
69
100
AcDbTableStyle
  3
Standard
 70
     0
 71
     0
 40
0.06
 41
0.06
280
     0
281
     0
  7
Standard
140
0.18
170
     2
 62
     0
 63
   257
283
     0
 90
        4
 91
        0
  1

274
    -2
284
     1
 64
     0
275
    -2
285
     1
 65
     0
276
    -2
286
     1
 66
     0
277
    -2
287
     1
 67
     0
278
    -2
288
     1
 68
     0
279
    -2
289
     1
 69
     0
  7
Standard
140
0.25
170
     5
 62
     0
 63
   257
283
     0
 90
        4
 91
        0
  1

274
    -2
284
     1
 64
     0
275
    -2
285
     1
 65
     0
276
    -2
286
     1
 66
     0
277
    -2
287
     1
 67
     0
278
    -2
288
     1
 68
     0
279
    -2
289
     1
 69
     0
  7
Standard
140
0.18
170
     5
 62
     0
 63
   257
283
     0
 90
        4
 91
        0
  1

274
    -2
284
     1
 64
     0
275
    -2
285
     1
 65
     0
276
    -2
286
     1
 66
     0
277
    -2
287
     1
 67
     0
278
    -2
288
     1
 68
     0
279
    -2
289
     1
 69
     0
  0
VISUALSTYLE
  5
2F
102
{ACAD_REACTORS
330
2A
102
}
330
2A
100
AcDbVisualStyle
  2
2dWireframe
 70
     4
177
     3
291
     0
 70
    58
 90
        0
176
     1
 90
        2
176
     1
 90
        0
176
     1
 90
        0
176
     1
 40
0.6
176
     1
 40
30.0
176
     1
 62
     7
420
 16777215
176
     1
 90
        1
176
     1
 90
        4
176
     1
 62
     7
176
     1
 62
   257
176
     1
 90
        1
176
     1
 90
        1
176
     1
 40
1.0
176
     1
 90
        0
176
     1
 62
   257
176
     1
 40
1.0
176
     1
 90
        1
176
     1
 90
        6
176
     1
 90
        2
176
     1
 62
     7
176
     1
 90
        5
176
     1
 90
        0
176
     1
 90
        0
176
     1
290
     0
176
     1
 90
        1
176
     1
 40
0.0
176
     1
 90
        0
176
     1
290
     1
176
     1
290
     1
176
     1
290
     0
176
     1
290
     0
176
     1
290
     0
176
     1
290
     0
176
     1
290
     0
176
     1
290
     0
176
     1
290
     0
176
     1
 90
       50
176
     1
 40
0.0
176
     1
 40
1.0
176
     1
 90
        0
176
     1
 62
    18
420
        0
176
     1
 90
       50
176
     1
 90
        3
176
     1
 62
     5
420
      255
176
     1
290
     0
176
     1
 90
       50
176
     1
 90
       50
176
     1
 90
       50
176
     1
290
     0
176
     1
 90
       50
176
     1
 62
   256
176
     0
 40
1.0
176
     0
 90
        2
176
     1
  1
strokes_ogs.tif
176
     1
290
     0
176
     1
 40
1.0
176
     1
 40
1.0
176
     1
  0
VISUALSTYLE
  5
32
102
{ACAD_REACTORS
330
2A
102
}
330
2A
100
AcDbVisualStyle
  2
Basic
 70
     7
177
     3
291
     1
 70
    58
 90
        1
176
     1
 90
        0
176
     1
 90
        1
176
     1
 90
        0
176
     1
 40
0.6
176
     1
 40
30.0
176
     1
 62
     7
420
 16777215
176
     1
 90
        0
176
     1
 90
        4
176
     1
 62
     7
176
     1
 62
   257
176
     1
 90
        1
176
     1
 90
        1
176
     1
 40
1.0
176
     1
 90
        8
176
     1
 62
     7
176
     1
 40
1.0
176
     1
 90
        1
176
     1
 90
        6
176
     1
 90
        2
176
     1
 62
     7
176
     1
 90
        5
176
     1
 90
        0
176
     1
 90
        0
176
     1
290
     0
176
     1
 90
        1
176
     1
 40
0.0
176
     1
 90
        0
176
     1
290
     0
176
     1
290
     1
176
     1
290
     1
176
     1
290
     0
176
     1
290
     0
176
     1
290
     0
176
     1
290
     0
176
     1
290
     0
176
     1
290
     0
176
     1
 90
       50
176
     1
 40
0.0
176
     1
 40
1.0
176
     1
 90
        0
176
     1
 62
    18
420
        0
176
     1
 90
       50
176
     1
 90
        3
176
     1
 62
     5
420
      255
176
     1
290
     0
176
     1
 90
       50
176
     1
 90
       50
176
     1
 90
       50
176
     1
290
     0
176
     1
 90
       50
176
     1
 62
   256
176
     0
 40
1.0
176
     0
 90
        2
176
     1
  1
strokes_ogs.tif
176
     1
290
     0
176
     1
 40
1.0
176
     1
 40
1.0
176
     1
  0
VISUALSTYLE
  5
36
102
{ACAD_REACTORS
330
2A
102
}
330
2A
100
AcDbVisualStyle
  2
Brighten
 70
    12
177
     3
291
     1
 70
    58
 90
        2
176
     1
 90
        2
176
     1
 90
        0
176
     1
 90
        0
176
     1
 40
0.6
176
     1
 40
30.0
176
     1
 62
     7
420
 16777215
176
     1
 90
        1
176
     1
 90
        4
176
     1
 62
     7
176
     1
 62
   257
176
     1
 90
        1
176
     1
 90
        1
176
     1
 40
1.0
176
     1
 90
        8
176
     1
 62
     7
176
     1
 40
1.0
176
     1
 90
        1
176
     1
 90
        6
176
     1
 90
        2
176
     1
 62
     7
176
     1
 90
        5
176
     1
 90
        0
176
     1
 90
        0
176
     1
290
     0
176
     1
 90
        1
176
     1
 40
50.0
176
     1
 90
        0
176
     1
290
     0
176
     1
290
     1
176
     1
290
     1
176
     1
290
     0
176
     1
290
     0
176
     1
290
     0
176
     1
290
     0
176
     1
290
     0
176
     1
290
     0
176
     1
 90
       50
176
     1
 40
0.0
176
     1
 40
1.0
176
     1
 90
        0
176
     1
 62
    18
420
        0
176
     1
 90
       50
176
     1
 90
        3
176
     1
 62
     5
420
      255
176
     1
290
     0
176
     1
 90
       50
176
     1
 90
       50
176
     1
 90
       50
176
     1
290
     0
176
     1
 90
       50
176
     1
 62
   256
176
     0
 40
1.0
176
     0
 90
        2
176
     1
  1
strokes_ogs.tif
176
     1
290
     0
176
     1
 40
1.0
176
     1
 40
1.0
176
     1
  0
VISUALSTYLE
  5
3A
102
{ACAD_REACTORS
330
2A
102
}
330
2A
100
AcDbVisualStyle
  2
ColorChange
 70
    16
177
     3
291
     1
 70
    58
 90
        2
176
     1
 90
        2
176
     1
 90
        3
176
     1
 90
        0
176
     1
 40
0.6
176
     1
 40
30.0
176
     1
 62
     8
420
  8421504
176
     1
 90
        1
176
     1
 90
        4
176
     1
 62
     7
176
     1
 62
   257
176
     1
 90
        1
176
     1
 90
        1
176
     1
 40
1.0
176
     1
 90
        8
176
     1
 62
     8
420
  8421504
176
     1
 40
1.0
176
     1
 90
        1
176
     1
 90
        6
176
     1
 90
        2
176
     1
 62
     7
176
     1
 90
        5
176
     1
 90
        0
176
     1
 90
        0
176
     1
290
     0
176
     1
 90
        1
176
     1
 40
0.0
176
     1
 90
        0
176
     1
290
     0
176
     1
290
     1
176
     1
290
     1
176
     1
290
     0
176
     1
290
     0
176
     1
290
     0
176
     1
290
     0
176
     1
290
     0
176
     1
290
     0
176
     1
 90
       50
176
     1
 40
0.0
176
     1
 40
1.0
176
     1
 90
        0
176
     1
 62
    18
420
        0
176
     1
 90
       50
176
     1
 90
        3
176
     1
 62
     5
420
      255
176
     1
290
     0
176
     1
 90
       50
176
     1
 90
       50
176
     1
 90
       50
176
     1
290
     0
176
     1
 90
       50
176
     1
 62
   256
176
     0
 40
1.0
176
     0
 90
        2
176
     1
  1
strokes_ogs.tif
176
     1
290
     0
176
     1
 40
1.0
176
     1
 40
1.0
176
     1
  0
VISUALSTYLE
  5
34
102
{ACAD_REACTORS
330
2A
102
}
330
2A
100
AcDbVisualStyle
  2
Conceptual
 70
     9
177
     3
291
     0
 70
    58
 90
        3
176
     1
 90
        2
176
     1
 90
        0
176
     1
 90
        0
176
     1
 40
0.6
176
     1
 40
30.0
176
     1
 62
     7
420
 16777215
176
     1
 90
        2
176
     1
 90
        2
176
     1
 62
     7
176
     1
 62
   257
176
     1
 90
        1
176
     1
 90
        1
176
     1
 40
179.0
176
     1
 90
        8
176
     1
 62
     7
176
     1
 40
1.0
176
     1
 90
        1
176
     1
 90
        6
176
     1
 90
        2
176
     1
 62
     7
176
     1
 90
        3
176
     1
 90
        0
176
     1
 90
        0
176
     1
290
     0
176
     1
 90
        1
176
     1
 40
0.0
176
     1
 90
        0
176
     1
290
     0
176
     1
290
     1
176
     1
290
     1
176
     1
290
     0
176
     1
290
     0
176
     1
290
     0
176
     1
290
     0
176
     1
290
     0
176
     1
290
     0
176
     1
 90
       50
176
     1
 40
0.0
176
     1
 40
1.0
176
     1
 90
        0
176
     1
 62
    18
420
        0
176
     1
 90
       50
176
     1
 90
        3
176
     1
 62
     5
420
      255
176
     1
290
     0
176
     1
 90
       50
176
     1
 90
       50
176
     1
 90
       50
176
     1
290
     0
176
     1
 90
       50
176
     1
 62
   256
176
     0
 40
1.0
176
     0
 90
        2
176
     1
  1
strokes_ogs.tif
176
     1
290
     0
176
     1
 40
1.0
176
     1
 40
1.0
176
     1
  0
VISUALSTYLE
  5
35
102
{ACAD_REACTORS
330
2A
102
}
330
2A
100
AcDbVisualStyle
  2
Dim
 70
    11
177
     3
291
     1
 70
    58
 90
        2
176
     1
 90
        2
176
     1
 90
        0
176
     1
 90
        0
176
     1
 40
0.6
176
     1
 40
30.0
176
     1
 62
     7
420
 16777215
176
     1
 90
        1
176
     1
 90
        4
176
     1
 62
     7
176
     1
 62
   257
176
     1
 90
        1
176
     1
 90
        1
176
     1
 40
1.0
176
     1
 90
        8
176
     1
 62
     7
176
     1
 40
1.0
176
     1
 90
        1
176
     1
 90
        6
176
     1
 90
        2
176
     1
 62
     7
176
     1
 90
        5
176
     1
 90
        0
176
     1
 90
        0
176
     1
290
     0
176
     1
 90
        1
176
     1
 40
-50.0
176
     1
 90
        0
176
     1
290
     0
176
     1
290
     1
176
     1
290
     1
176
     1
290
     0
176
     1
290
     0
176
     1
290
     0
176
     1
290
     0
176
     1
290
     0
176
     1
290
     0
176
     1
 90
       50
176
     1
 40
0.0
176
     1
 40
1.0
176
     1
 90
        0
176
     1
 62
    18
420
        0
176
     1
 90
       50
176
     1
 90
        3
176
     1
 62
     5
420
      255
176
     1
290
     0
176
     1
 90
       50
176
     1
 90
       50
176
     1
 90
       50
176
     1
290
     0
176
     1
 90
       50
176
     1
 62
   256
176
     0
 40
1.0
176
     0
 90
        2
176
     1
  1
strokes_ogs.tif
176
     1
290
     0
176
     1
 40
1.0
176
     1
 40
1.0
176
     1
  0
VISUALSTYLE
  5
3D
102
{ACAD_REACTORS
330
2A
102
}
330
2A
100
AcDbVisualStyle
  2
EdgeColorOff
 70
    22
177
     3
291
     1
 70
    58
 90
        2
176
     0
 90
        2
176
     0
 90
        0
176
     0
 90
        0
176
     0
 40
0.6
176
     0
 40
30.0
176
     0
 62
     7
420
 16777215
176
     0
 90
        1
176
     0
 90
        4
176
     0
 62
     7
176
     0
 62
   257
176
     0
 90
        1
176
     0
 90
        1
176
     0
 40
1.0
176
     0
 90
        8
176
     2
 62
     7
176
     0
 40
1.0
176
     0
 90
        1
176
     0
 90
        6
176
     0
 90
        2
176
     0
 62
     7
176
     0
 90
        5
176
     0
 90
        0
176
     0
 90
        0
176
     0
290
     0
176
     0
 90
        1
176
     0
 40
0.0
176
     0
 90
        0
176
     0
290
     0
176
     0
290
     1
176
     0
290
     1
176
     0
290
     0
176
     0
290
     0
176
     0
290
     0
176
     0
290
     0
176
     0
290
     0
176
     0
290
     0
176
     0
 90
       50
176
     0
 40
0.0
176
     0
 40
1.0
176
     0
 90
        0
176
     0
 62
    18
420
        0
176
     0
 90
       50
176
     0
 90
        3
176
     0
 62
     5
420
      255
176
     0
290
     0
176
     0
 90
       50
176
     0
 90
       50
176
     0
 90
       50
176
     0
290
     0
176
     0
 90
       50
176
     0
 62
   256
176
     0
 40
1.0
176
     0
 90
        2
176
     0
  1
strokes_ogs.tif
176
     0
290
     0
176
     0
 40
1.0
176
     0
 40
1.0
176
     0
  0
VISUALSTYLE
  5
39
102
{ACAD_REACTORS
330
2A
102
}
330
2A
100
AcDbVisualStyle
  2
Facepattern
 70
    15
177
     3
291
     1
 70
    58
 90
        2
176
     1
 90
        2
176
     1
 90
        0
176
     1
 90
        0
176
     1
 40
0.6
176
     1
 40
30.0
176
     1
 62
     7
420
 16777215
176
     1
 90
        1
176
     1
 90
        4
176
     1
 62
     7
176
     1
 62
   257
176
     1
 90
        1
176
     1
 90
        1
176
     1
 40
1.0
176
     1
 90
        8
176
     1
 62
     7
176
     1
 40
1.0
176
     1
 90
        1
176
     1
 90
        6
176
     1
 90
        2
176
     1
 62
     7
176
     1
 90
        5
176
     1
 90
        0
176
     1
 90
        0
176
     1
290
     0
176
     1
 90
        1
176
     1
 40
0.0
176
     1
 90
        0
176
     1
290
     0
176
     1
290
     1
176
     1
290
     1
176
     1
290
     0
176
     1
290
     0
176
     1
290
     0
176
     1
290
     0
176
     1
290
     0
176
     1
290
     0
176
     1
 90
       50
176
     1
 40
0.0
176
     1
 40
1.0
176
     1
 90
        0
176
     1
 62
    18
420
        0
176
     1
 90
       50
176
     1
 90
        3
176
     1
 62
     5
420
      255
176
     1
290
     0
176
     1
 90
       50
176
     1
 90
       50
176
     1
 90
       50
176
     1
290
     0
176
     1
 90
       50
176
     1
 62
   256
176
     0
 40
1.0
176
     0
 90
        2
176
     1
  1
strokes_ogs.tif
176
     1
290
     0
176
     1
 40
1.0
176
     1
 40
1.0
176
     1
  0
VISUALSTYLE
  5
2B
102
{ACAD_REACTORS
330
2A
102
}
330
2A
100
AcDbVisualStyle
  2
Flat
 70
     0
177
     3
291
     1
 70
    58
 90
        2
176
     1
 90
        1
176
     1
 90
        1
176
     1
 90
        2
176
     1
 40
0.6
176
     1
 40
30.0
176
     1
 62
     7
420
 16777215
176
     1
 90
        0
176
     1
 90
        0
176
     1
 62
     7
176
     1
 62
   257
176
     1
 90
        1
176
     1
 90
        1
176
     1
 40
1.0
176
     1
 90
        8
176
     1
 62
     7
176
     1
 40
1.0
176
     1
 90
        1
176
     1
 90
        6
176
     1
 90
        2
176
     1
 62
     7
176
     1
 90
        5
176
     1
 90
        0
176
     1
 90
        0
176
     1
290
     0
176
     1
 90
       13
176
     1
 40
0.0
176
     1
 90
        0
176
     1
290
     0
176
     1
290
     1
176
     1
290
     1
176
     1
290
     0
176
     1
290
     0
176
     1
290
     0
176
     1
290
     0
176
     1
290
     0
176
     1
290
     0
176
     1
 90
       50
176
     1
 40
0.0
176
     1
 40
1.0
176
     1
 90
        0
176
     1
 62
    18
420
        0
176
     1
 90
       50
176
     1
 90
        3
176
     1
 62
     5
420
      255
176
     1
290
     0
176
     1
 90
       50
176
     1
 90
       50
176
     1
 90
       50
176
     1
290
     0
176
     1
 90
       50
176
     1
 62
   256
176
     0
 40
1.0
176
     0
 90
        2
176
     1
  1
strokes_ogs.tif
176
     1
290
     0
176
     1
 40
1.0
176
     1
 40
1.0
176
     1
  0
VISUALSTYLE
  5
2C
102
{ACAD_REACTORS
330
2A
102
}
330
2A
100
AcDbVisualStyle
  2
FlatWithEdges
 70
     1
177
     3
291
     1
 70
    58
 90
        2
176
     1
 90
        1
176
     1
 90
        1
176
     1
 90
        2
176
     1
 40
0.6
176
     1
 40
30.0
176
     1
 62
     7
420
 16777215
176
     1
 90
        1
176
     1
 90
        0
176
     1
 62
     7
176
     1
 62
   257
176
     1
 90
        1
176
     1
 90
        1
176
     1
 40
1.0
176
     1
 90
        0
176
     1
 62
   257
176
     1
 40
1.0
176
     1
 90
        1
176
     1
 90
        6
176
     1
 90
        2
176
     1
 62
     7
176
     1
 90
        5
176
     1
 90
        0
176
     1
 90
        0
176
     1
290
     0
176
     1
 90
       13
176
     1
 40
0.0
176
     1
 90
        0
176
     1
290
     0
176
     1
290
     1
176
     1
290
     1
176
     1
290
     0
176
     1
290
     0
176
     1
290
     0
176
     1
290
     0
176
     1
290
     0
176
     1
290
     0
176
     1
 90
       50
176
     1
 40
0.0
176
     1
 40
1.0
176
     1
 90
        0
176
     1
 62
    18
420
        0
176
     1
 90
       50
176
     1
 90
        3
176
     1
 62
     5
420
      255
176
     1
290
     0
176
     1
 90
       50
176
     1
 90
       50
176
     1
 90
       50
176
     1
290
     0
176
     1
 90
       50
176
     1
 62
   256
176
     0
 40
1.0
176
     0
 90
        2
176
     1
  1
strokes_ogs.tif
176
     1
290
     0
176
     1
 40
1.0
176
     1
 40
1.0
176
     1
  0
VISUALSTYLE
  5
2D
102
{ACAD_REACTORS
330
2A
102
}
330
2A
100
AcDbVisualStyle
  2
Gouraud
 70
     2
177
     3
291
     1
 70
    58
 90
        2
176
     1
 90
        2
176
     1
 90
        1
176
     1
 90
        2
176
     1
 40
0.6
176
     1
 40
30.0
176
     1
 62
     7
420
 16777215
176
     1
 90
        0
176
     1
 90
        0
176
     1
 62
     7
176
     1
 62
   257
176
     1
 90
        1
176
     1
 90
        1
176
     1
 40
1.0
176
     1
 90
        0
176
     1
 62
     7
176
     1
 40
1.0
176
     1
 90
        1
176
     1
 90
        6
176
     1
 90
        2
176
     1
 62
     7
176
     1
 90
        5
176
     1
 90
        0
176
     1
 90
        0
176
     1
290
     0
176
     1
 90
       13
176
     1
 40
0.0
176
     1
 90
        0
176
     1
290
     0
176
     1
290
     1
176
     1
290
     1
176
     1
290
     0
176
     1
290
     0
176
     1
290
     0
176
     1
290
     0
176
     1
290
     0
176
     1
290
     0
176
     1
 90
       50
176
     1
 40
0.0
176
     1
 40
1.0
176
     1
 90
        0
176
     1
 62
    18
420
        0
176
     1
 90
       50
176
     1
 90
        3
176
     1
 62
     5
420
      255
176
     1
290
     0
176
     1
 90
       50
176
     1
 90
       50
176
     1
 90
       50
176
     1
290
     0
176
     1
 90
       50
176
     1
 62
   256
176
     0
 40
1.0
176
     0
 90
        2
176
     1
  1
strokes_ogs.tif
176
     1
290
     0
176
     1
 40
1.0
176
     1
 40
1.0
176
     1
  0
VISUALSTYLE
  5
2E
102
{ACAD_REACTORS
330
2A
102
}
330
2A
100
AcDbVisualStyle
  2
GouraudWithEdges
 70
     3
177
     3
291
     1
 70
    58
 90
        2
176
     1
 90
        2
176
     1
 90
        1
176
     1
 90
        2
176
     1
 40
0.6
176
     1
 40
30.0
176
     1
 62
     7
420
 16777215
176
     1
 90
        1
176
     1
 90
        0
176
     1
 62
     7
176
     1
 62
   257
176
     1
 90
        1
176
     1
 90
        1
176
     1
 40
1.0
176
     1
 90
        0
176
     1
 62
   257
176
     1
 40
1.0
176
     1
 90
        1
176
     1
 90
        6
176
     1
 90
        2
176
     1
 62
     7
176
     1
 90
        5
176
     1
 90
        0
176
     1
 90
        0
176
     1
290
     0
176
     1
 90
       13
176
     1
 40
0.0
176
     1
 90
        0
176
     1
290
     0
176
     1
290
     1
176
     1
290
     1
176
     1
290
     0
176
     1
290
     0
176
     1
290
     0
176
     1
290
     0
176
     1
290
     0
176
     1
290
     0
176
     1
 90
       50
176
     1
 40
0.0
176
     1
 40
1.0
176
     1
 90
        0
176
     1
 62
    18
420
        0
176
     1
 90
       50
176
     1
 90
        3
176
     1
 62
     5
420
      255
176
     1
290
     0
176
     1
 90
       50
176
     1
 90
       50
176
     1
 90
       50
176
     1
290
     0
176
     1
 90
       50
176
     1
 62
   256
176
     0
 40
1.0
176
     0
 90
        2
176
     1
  1
strokes_ogs.tif
176
     1
290
     0
176
     1
 40
1.0
176
     1
 40
1.0
176
     1
  0
VISUALSTYLE
  5
31
102
{ACAD_REACTORS
330
2A
102
}
330
2A
100
AcDbVisualStyle
  2
Hidden
 70
     6
177
     3
291
     0
 70
    58
 90
        1
176
     1
 90
        2
176
     1
 90
        2
176
     1
 90
        0
176
     1
 40
0.6
176
     1
 40
30.0
176
     1
 62
     7
420
 16777215
176
     1
 90
        2
176
     1
 90
        2
176
     1
 62
     7
176
     1
 62
   257
176
     1
 90
        2
176
     1
 90
        1
176
     1
 40
40.0
176
     1
 90
        0
176
     1
 62
   257
176
     1
 40
1.0
176
     1
 90
        1
176
     1
 90
        6
176
     1
 90
        2
176
     1
 62
     7
176
     1
 90
        3
176
     1
 90
        0
176
     1
 90
        0
176
     1
290
     0
176
     1
 90
        1
176
     1
 40
0.0
176
     1
 90
        0
176
     1
290
     0
176
     1
290
     1
176
     1
290
     1
176
     1
290
     0
176
     1
290
     0
176
     1
290
     0
176
     1
290
     0
176
     1
290
     0
176
     1
290
     0
176
     1
 90
       50
176
     1
 40
0.0
176
     1
 40
1.0
176
     1
 90
        0
176
     1
 62
    18
420
        0
176
     1
 90
       50
176
     1
 90
        3
176
     1
 62
     5
420
      255
176
     1
290
     0
176
     1
 90
       50
176
     1
 90
       50
176
     1
 90
       50
176
     1
290
     0
176
     1
 90
       50
176
     1
 62
   256
176
     0
 40
1.0
176
     0
 90
        2
176
     1
  1
strokes_ogs.tif
176
     1
290
     0
176
     1
 40
1.0
176
     1
 40
1.0
176
     1
  0
VISUALSTYLE
  5
3B
102
{ACAD_REACTORS
330
2A
102
}
330
2A
100
AcDbVisualStyle
  2
JitterOff
 70
    20
177
     3
291
     1
 70
    58
 90
        2
176
     0
 90
        2
176
     0
 90
        0
176
     0
 90
        0
176
     0
 40
0.6
176
     0
 40
30.0
176
     0
 62
     7
420
 16777215
176
     0
 90
        1
176
     0
 90
        4
176
     0
 62
     7
176
     0
 62
   257
176
     0
 90
        1
176
     0
 90
        1
176
     0
 40
1.0
176
     0
 90
       10
176
     2
 62
     7
176
     0
 40
1.0
176
     0
 90
        1
176
     0
 90
        6
176
     0
 90
        2
176
     0
 62
     7
176
     0
 90
        5
176
     0
 90
        0
176
     0
 90
        0
176
     0
290
     0
176
     0
 90
        1
176
     0
 40
0.0
176
     0
 90
        0
176
     0
290
     0
176
     0
290
     1
176
     0
290
     1
176
     0
290
     0
176
     0
290
     0
176
     0
290
     0
176
     0
290
     0
176
     0
290
     0
176
     0
290
     0
176
     0
 90
       50
176
     0
 40
0.0
176
     0
 40
1.0
176
     0
 90
        0
176
     0
 62
    18
420
        0
176
     0
 90
       50
176
     0
 90
        3
176
     0
 62
     5
420
      255
176
     0
290
     0
176
     0
 90
       50
176
     0
 90
       50
176
     0
 90
       50
176
     0
290
     0
176
     0
 90
       50
176
     0
 62
   256
176
     0
 40
1.0
176
     0
 90
        2
176
     0
  1
strokes_ogs.tif
176
     0
290
     0
176
     0
 40
1.0
176
     0
 40
1.0
176
     0
  0
VISUALSTYLE
  5
38
102
{ACAD_REACTORS
330
2A
102
}
330
2A
100
AcDbVisualStyle
  2
Linepattern
 70
    14
177
     3
291
     1
 70
    58
 90
        2
176
     1
 90
        2
176
     1
 90
        0
176
     1
 90
        0
176
     1
 40
0.6
176
     1
 40
30.0
176
     1
 62
     7
420
 16777215
176
     1
 90
        1
176
     1
 90
        4
176
     1
 62
     7
176
     1
 62
   257
176
     1
 90
        7
176
     1
 90
        7
176
     1
 40
1.0
176
     1
 90
        8
176
     1
 62
     7
176
     1
 40
1.0
176
     1
 90
        1
176
     1
 90
        6
176
     1
 90
        2
176
     1
 62
     7
176
     1
 90
        5
176
     1
 90
        0
176
     1
 90
        0
176
     1
290
     0
176
     1
 90
        1
176
     1
 40
0.0
176
     1
 90
        0
176
     1
290
     0
176
     1
290
     1
176
     1
290
     1
176
     1
290
     0
176
     1
290
     0
176
     1
290
     0
176
     1
290
     0
176
     1
290
     0
176
     1
290
     0
176
     1
 90
       50
176
     1
 40
0.0
176
     1
 40
1.0
176
     1
 90
        0
176
     1
 62
    18
420
        0
176
     1
 90
       50
176
     1
 90
        3
176
     1
 62
     5
420
      255
176
     1
290
     0
176
     1
 90
       50
176
     1
 90
       50
176
     1
 90
       50
176
     1
290
     0
176
     1
 90
       50
176
     1
 62
   256
176
     0
 40
1.0
176
     0
 90
        2
176
     1
  1
strokes_ogs.tif
176
     1
290
     0
176
     1
 40
1.0
176
     1
 40
1.0
176
     1
  0
VISUALSTYLE
  5
3C
102
{ACAD_REACTORS
330
2A
102
}
330
2A
100
AcDbVisualStyle
  2
OverhangOff
 70
    21
177
     3
291
     1
 70
    58
 90
        2
176
     0
 90
        2
176
     0
 90
        0
176
     0
 90
        0
176
     0
 40
0.6
176
     0
 40
30.0
176
     0
 62
     7
420
 16777215
176
     0
 90
        1
176
     0
 90
        4
176
     0
 62
     7
176
     0
 62
   257
176
     0
 90
        1
176
     0
 90
        1
176
     0
 40
1.0
176
     0
 90
        9
176
     2
 62
     7
176
     0
 40
1.0
176
     0
 90
        1
176
     0
 90
        6
176
     0
 90
        2
176
     0
 62
     7
176
     0
 90
        5
176
     0
 90
        0
176
     0
 90
        0
176
     0
290
     0
176
     0
 90
        1
176
     0
 40
0.0
176
     0
 90
        0
176
     0
290
     0
176
     0
290
     1
176
     0
290
     1
176
     0
290
     0
176
     0
290
     0
176
     0
290
     0
176
     0
290
     0
176
     0
290
     0
176
     0
290
     0
176
     0
 90
       50
176
     0
 40
0.0
176
     0
 40
1.0
176
     0
 90
        0
176
     0
 62
    18
420
        0
176
     0
 90
       50
176
     0
 90
        3
176
     0
 62
     5
420
      255
176
     0
290
     0
176
     0
 90
       50
176
     0
 90
       50
176
     0
 90
       50
176
     0
290
     0
176
     0
 90
       50
176
     0
 62
   256
176
     0
 40
1.0
176
     0
 90
        2
176
     0
  1
strokes_ogs.tif
176
     0
290
     0
176
     0
 40
1.0
176
     0
 40
1.0
176
     0
  0
VISUALSTYLE
  5
33
102
{ACAD_REACTORS
330
2A
102
}
330
2A
100
AcDbVisualStyle
  2
Realistic
 70
     8
177
     3
291
     0
 70
    58
 90
        2
176
     1
 90
        3
176
     1
 90
        0
176
     1
 90
        2
176
     1
 40
0.6
176
     1
 40
30.0
176
     1
 62
     7
420
 16777215
176
     1
 90
        0
176
     1
 90
        0
176
     1
 62
     7
176
     1
 62
   257
176
     1
 90
        1
176
     1
 90
        1
176
     1
 40
1.0
176
     1
 90
        8
176
     1
 62
   257
176
     1
 40
1.0
176
     1
 90
        1
176
     1
 90
        6
176
     1
 90
        2
176
     1
 62
     7
176
     1
 90
        3
176
     1
 90
        0
176
     1
 90
        0
176
     1
290
     0
176
     1
 90
       13
176
     1
 40
0.0
176
     1
 90
        0
176
     1
290
     0
176
     1
290
     1
176
     1
290
     1
176
     1
290
     0
176
     1
290
     0
176
     1
290
     0
176
     1
290
     0
176
     1
290
     0
176
     1
290
     0
176
     1
 90
       50
176
     1
 40
0.0
176
     1
 40
1.0
176
     1
 90
        0
176
     1
 62
    18
420
        0
176
     1
 90
       50
176
     1
 90
        3
176
     1
 62
     5
420
      255
176
     1
290
     0
176
     1
 90
       50
176
     1
 90
       50
176
     1
 90
       50
176
     1
290
     0
176
     1
 90
       50
176
     1
 62
   256
176
     0
 40
1.0
176
     0
 90
        2
176
     1
  1
strokes_ogs.tif
176
     1
290
     0
176
     1
 40
1.0
176
     1
 40
1.0
176
     1
  0
VISUALSTYLE
  5
42
102
{ACAD_REACTORS
330
2A
102
}
330
2A
100
AcDbVisualStyle
  2
Shaded
 70
    27
177
     3
291
     0
 70
    58
 90
        2
176
     1
 90
        2
176
     1
 90
        1
176
     1
 90
        2
176
     1
 40
0.6
176
     1
 40
30.0
176
     1
 62
     7
420
 16777215
176
     1
 90
        0
176
     1
 90
        4
176
     1
 62
     7
176
     1
 62
   257
176
     1
 90
        1
176
     1
 90
        1
176
     1
 40
1.0
176
     1
 90
        8
176
     1
 62
   257
176
     1
 40
1.0
176
     1
 90
        1
176
     1
 90
        6
176
     1
 90
        2
176
     1
 62
     8
420
  7895160
176
     1
 90
        3
176
     1
 90
        0
176
     1
 90
        0
176
     1
290
     0
176
     1
 90
        5
176
     1
 40
0.0
176
     1
 90
        0
176
     1
290
     0
176
     1
290
     1
176
     1
290
     1
176
     1
290
     0
176
     1
290
     0
176
     1
290
     0
176
     1
290
     0
176
     1
290
     0
176
     1
290
     0
176
     1
 90
       50
176
     1
 40
0.0
176
     1
 40
1.0
176
     1
 90
        0
176
     1
 62
    18
420
        0
176
     1
 90
       50
176
     1
 90
        3
176
     1
 62
     5
420
      255
176
     1
290
     0
176
     1
 90
       50
176
     1
 90
       50
176
     1
 90
       50
176
     1
290
     0
176
     1
 90
       50
176
     1
 62
   256
176
     0
 40
1.0
176
     0
 90
        2
176
     1
  1
strokes_ogs.tif
176
     1
290
     0
176
     1
 40
1.0
176
     1
 40
1.0
176
     1
  0
VISUALSTYLE
  5
41
102
{ACAD_REACTORS
330
2A
102
}
330
2A
100
AcDbVisualStyle
  2
Shaded with edges
 70
    26
177
     3
291
     0
 70
    58
 90
        2
176
     1
 90
        2
176
     1
 90
        1
176
     1
 90
        2
176
     1
 40
0.6
176
     1
 40
30.0
176
     1
 62
     7
420
 16777215
176
     1
 90
        1
176
     1
 90
       10
176
     1
 62
     7
176
     1
 62
   257
176
     1
 90
        2
176
     1
 90
        1
176
     1
 40
1.0
176
     1
 90
        8
176
     1
 62
   257
176
     1
 40
1.0
176
     1
 90
        1
176
     1
 90
        6
176
     1
 90
        2
176
     1
 62
     7
176
     1
 90
        3
176
     1
 90
        0
176
     1
 90
        0
176
     1
290
     0
176
     1
 90
        5
176
     1
 40
0.0
176
     1
 90
        0
176
     1
290
     0
176
     1
290
     1
176
     1
290
     1
176
     1
290
     0
176
     1
290
     0
176
     1
290
     0
176
     1
290
     0
176
     1
290
     0
176
     1
290
     0
176
     1
 90
       50
176
     1
 40
0.0
176
     1
 40
1.0
176
     1
 90
        0
176
     1
 62
    18
420
        0
176
     1
 90
       50
176
     1
 90
        3
176
     1
 62
     5
420
      255
176
     1
290
     0
176
     1
 90
       50
176
     1
 90
       50
176
     1
 90
       50
176
     1
290
     0
176
     1
 90
       50
176
     1
 62
   256
176
     0
 40
1.0
176
     0
 90
        2
176
     1
  1
strokes_ogs.tif
176
     1
290
     0
176
     1
 40
1.0
176
     1
 40
1.0
176
     1
  0
VISUALSTYLE
  5
3E
102
{ACAD_REACTORS
330
2A
102
}
330
2A
100
AcDbVisualStyle
  2
Shades of Gray
 70
    23
177
     3
291
     0
 70
    58
 90
        2
176
     1
 90
        2
176
     1
 90
        3
176
     1
 90
        0
176
     1
 40
0.6
176
     1
 40
30.0
176
     1
 62
     7
420
 16777215
176
     1
 90
        2
176
     1
 90
        2
176
     1
 62
     7
176
     1
 62
     7
176
     1
 90
        1
176
     1
 90
        1
176
     1
 40
40.0
176
     1
 90
        8
176
     1
 62
     7
176
     1
 40
1.0
176
     1
 90
        1
176
     1
 90
        6
176
     1
 90
        2
176
     1
 62
     7
176
     1
 90
        3
176
     1
 90
        0
176
     1
 90
        0
176
     1
290
     0
176
     1
 90
        1
176
     1
 40
0.0
176
     1
 90
        0
176
     1
290
     0
176
     1
290
     1
176
     1
290
     1
176
     1
290
     0
176
     1
290
     0
176
     1
290
     0
176
     1
290
     0
176
     1
290
     0
176
     1
290
     0
176
     1
 90
       50
176
     1
 40
0.0
176
     1
 40
1.0
176
     1
 90
        0
176
     1
 62
    18
420
        0
176
     1
 90
       50
176
     1
 90
        3
176
     1
 62
     5
420
      255
176
     1
290
     0
176
     1
 90
       50
176
     1
 90
       50
176
     1
 90
       50
176
     1
290
     0
176
     1
 90
       50
176
     1
 62
   256
176
     0
 40
1.0
176
     0
 90
        2
176
     1
  1
strokes_ogs.tif
176
     1
290
     0
176
     1
 40
1.0
176
     1
 40
1.0
176
     1
  0
VISUALSTYLE
  5
3F
102
{ACAD_REACTORS
330
2A
102
}
330
2A
100
AcDbVisualStyle
  2
Sketchy
 70
    24
177
     3
291
     0
 70
    58
 90
        1
176
     1
 90
        2
176
     1
 90
        2
176
     1
 90
        0
176
     1
 40
0.6
176
     1
 40
30.0
176
     1
 62
     7
420
 16777215
176
     1
 90
        2
176
     1
 90
        2
176
     1
 62
     7
176
     1
 62
     7
176
     1
 90
        1
176
     1
 90
        1
176
     1
 40
40.0
176
     1
 90
       11
176
     1
 62
     7
176
     1
 40
1.0
176
     1
 90
        1
176
     1
 90
        6
176
     1
 90
        2
176
     1
 62
     7
176
     1
 90
        6
176
     1
 90
        0
176
     1
 90
        0
176
     1
290
     0
176
     1
 90
        1
176
     1
 40
0.0
176
     1
 90
        0
176
     1
290
     0
176
     1
290
     1
176
     1
290
     1
176
     1
290
     0
176
     1
290
     0
176
     1
290
     0
176
     1
290
     0
176
     1
290
     0
176
     1
290
     0
176
     1
 90
       50
176
     1
 40
0.0
176
     1
 40
1.0
176
     1
 90
        0
176
     1
 62
    18
420
        0
176
     1
 90
       50
176
     1
 90
        3
176
     1
 62
     5
420
      255
176
     1
290
     0
176
     1
 90
       50
176
     1
 90
       50
176
     1
 90
       50
176
     1
290
     0
176
     1
 90
       50
176
     1
 62
   256
176
     0
 40
1.0
176
     0
 90
        2
176
     1
  1
strokes_ogs.tif
176
     1
290
     0
176
     1
 40
1.0
176
     1
 40
1.0
176
     1
  0
VISUALSTYLE
  5
37
102
{ACAD_REACTORS
330
2A
102
}
330
2A
100
AcDbVisualStyle
  2
Thicken
 70
    13
177
     3
291
     1
 70
    58
 90
        2
176
     1
 90
        2
176
     1
 90
        0
176
     1
 90
        0
176
     1
 40
0.6
176
     1
 40
30.0
176
     1
 62
     7
420
 16777215
176
     1
 90
        1
176
     1
 90
        4
176
     1
 62
     7
176
     1
 62
   257
176
     1
 90
        1
176
     1
 90
        1
176
     1
 40
1.0
176
     1
 90
       12
176
     1
 62
     7
176
     1
 40
1.0
176
     1
 90
        1
176
     1
 90
        6
176
     1
 90
        2
176
     1
 62
     7
176
     1
 90
        5
176
     1
 90
        0
176
     1
 90
        0
176
     1
290
     0
176
     1
 90
        1
176
     1
 40
0.0
176
     1
 90
        0
176
     1
290
     0
176
     1
290
     1
176
     1
290
     1
176
     1
290
     0
176
     1
290
     0
176
     1
290
     0
176
     1
290
     0
176
     1
290
     0
176
     1
290
     0
176
     1
 90
       50
176
     1
 40
0.0
176
     1
 40
1.0
176
     1
 90
        0
176
     1
 62
    18
420
        0
176
     1
 90
       50
176
     1
 90
        3
176
     1
 62
     5
420
      255
176
     1
290
     0
176
     1
 90
       50
176
     1
 90
       50
176
     1
 90
       50
176
     1
290
     0
176
     1
 90
       50
176
     1
 62
   256
176
     0
 40
1.0
176
     0
 90
        2
176
     1
  1
strokes_ogs.tif
176
     1
290
     0
176
     1
 40
1.0
176
     1
 40
1.0
176
     1
  0
VISUALSTYLE
  5
30
102
{ACAD_REACTORS
330
2A
102
}
330
2A
100
AcDbVisualStyle
  2
Wireframe
 70
     5
177
     3
291
     0
 70
    58
 90
        0
176
     1
 90
        2
176
     1
 90
        0
176
     1
 90
        0
176
     1
 40
0.6
176
     1
 40
30.0
176
     1
 62
     7
420
 16777215
176
     1
 90
        1
176
     1
 90
        4
176
     1
 62
     7
176
     1
 62
   257
176
     1
 90
        1
176
     1
 90
        1
176
     1
 40
1.0
176
     1
 90
        0
176
     1
 62
   257
176
     1
 40
1.0
176
     1
 90
        1
176
     1
 90
        6
176
     1
 90
        2
176
     1
 62
     7
176
     1
 90
        3
176
     1
 90
        0
176
     1
 90
        0
176
     1
290
     0
176
     1
 90
        1
176
     1
 40
0.0
176
     1
 90
        0
176
     1
290
     0
176
     1
290
     1
176
     1
290
     1
176
     1
290
     0
176
     1
290
     0
176
     1
290
     0
176
     1
290
     0
176
     1
290
     0
176
     1
290
     0
176
     1
 90
       50
176
     1
 40
0.0
176
     1
 40
1.0
176
     1
 90
        0
176
     1
 62
    18
420
        0
176
     1
 90
       50
176
     1
 90
        3
176
     1
 62
     5
420
      255
176
     1
290
     0
176
     1
 90
       50
176
     1
 90
       50
176
     1
 90
       50
176
     1
290
     0
176
     1
 90
       50
176
     1
 62
   256
176
     0
 40
1.0
176
     0
 90
        2
176
     1
  1
strokes_ogs.tif
176
     1
290
     0
176
     1
 40
1.0
176
     1
 40
1.0
176
     1
  0
VISUALSTYLE
  5
40
102
{ACAD_REACTORS
330
2A
102
}
330
2A
100
AcDbVisualStyle
  2
X-Ray
 70
    25
177
     3
291
     0
 70
    58
 90
        2
176
     1
 90
        2
176
     1
 90
        1
176
     1
 90
        1
176
     1
 40
0.5
176
     1
 40
30.0
176
     1
 62
     7
420
 16777215
176
     1
 90
        1
176
     1
 90
        0
176
     1
 62
     7
176
     1
 62
   257
176
     1
 90
        1
176
     1
 90
        1
176
     1
 40
1.0
176
     1
 90
        8
176
     1
 62
     7
176
     1
 40
1.0
176
     1
 90
        1
176
     1
 90
        6
176
     1
 90
        2
176
     1
 62
     7
176
     1
 90
        3
176
     1
 90
        0
176
     1
 90
        0
176
     1
290
     0
176
     1
 90
       13
176
     1
 40
0.0
176
     1
 90
        0
176
     1
290
     0
176
     1
290
     1
176
     1
290
     1
176
     1
290
     0
176
     1
290
     0
176
     1
290
     0
176
     1
290
     0
176
     1
290
     0
176
     1
290
     0
176
     1
 90
       50
176
     1
 40
0.0
176
     1
 40
1.0
176
     1
 90
        0
176
     1
 62
    18
420
        0
176
     1
 90
       50
176
     1
 90
        3
176
     1
 62
     5
420
      255
176
     1
290
     0
176
     1
 90
       50
176
     1
 90
       50
176
     1
 90
       50
176
     1
290
     0
176
     1
 90
       50
176
     1
 62
   256
176
     0
 40
1.0
176
     0
 90
        2
176
     1
  1
strokes_ogs.tif
176
     1
290
     0
176
     1
 40
1.0
176
     1
 40
1.0
176
     1
  0
DICTIONARYVAR
  5
1D7
102
{ACAD_REACTORS
330
1D6
102
}
330
1D6
100
DictionaryVariables
280
     0
  1
1:1
  0
DICTIONARYVAR
  5
1DC
102
{ACAD_REACTORS
330
1D6
102
}
330
1D6
100
DictionaryVariables
280
     0
  1
Standard
  0
DICTIONARYVAR
  5
1DB
102
{ACAD_REACTORS
330
1D6
102
}
330
1D6
100
DictionaryVariables
280
     0
  1
Standard
  0
DICTIONARY
  5
1D8
330
6A
100
AcDbDictionary
280
     1
281
     1
  3
ACAD_ROUNDTRIP_2008_TABLESTYLE_CELLSTYLEMAP
360
1D9
  0
CELLSTYLEMAP
  5
1D9
102
{ACAD_REACTORS
330
1D8
102
}
330
1D8
100
AcDbCellStyleMap
 90
        3
300
CELLSTYLE
  1
TABLEFORMAT_BEGIN
 90
        5
170
     1
 91
        0
 92
    32768
 62
   257
 93
        1
300
CONTENTFORMAT
  1
CONTENTFORMAT_BEGIN
 90
        0
 91
        0
 92
        4
 93
        0
300

 40
0.0
140
1.0
 94
        5
 62
     0
340
11
144
0.25
309
CONTENTFORMAT_END
171
     1
301
MARGIN
  1
CELLMARGIN_BEGIN
 40
0.06
 40
0.06
 40
0.06
 40
0.06
 40
0.06
 40
0.06
309
CELLMARGIN_END
 94
        6
 95
        1
302
GRIDFORMAT
  1
GRIDFORMAT_BEGIN
 90
        0
 91
        1
 62
     0
 92
       -2
340
14
 93
        0
 40
0.045
309
GRIDFORMAT_END
 95
        2
302
GRIDFORMAT
  1
GRIDFORMAT_BEGIN
 90
        0
 91
        1
 62
     0
 92
       -2
340
14
 93
        0
 40
0.045
309
GRIDFORMAT_END
 95
        4
302
GRIDFORMAT
  1
GRIDFORMAT_BEGIN
 90
        0
 91
        1
 62
     0
 92
       -2
340
14
 93
        0
 40
0.045
309
GRIDFORMAT_END
 95
        8
302
GRIDFORMAT
  1
GRIDFORMAT_BEGIN
 90
        0
 91
        1
 62
     0
 92
       -2
340
14
 93
        0
 40
0.045
309
GRIDFORMAT_END
 95
       16
302
GRIDFORMAT
  1
GRIDFORMAT_BEGIN
 90
        0
 91
        1
 62
     0
 92
       -2
340
14
 93
        0
 40
0.045
309
GRIDFORMAT_END
 95
       32
302
GRIDFORMAT
  1
GRIDFORMAT_BEGIN
 90
        0
 91
        1
 62
     0
 92
       -2
340
14
 93
        0
 40
0.045
309
GRIDFORMAT_END
309
TABLEFORMAT_END
  1
CELLSTYLE_BEGIN
 90
        1
 91
        1
300
_TITLE
309
CELLSTYLE_END
300
CELLSTYLE
  1
TABLEFORMAT_BEGIN
 90
        5
170
     1
 91
        0
 92
        0
 62
   257
 93
        1
300
CONTENTFORMAT
  1
CONTENTFORMAT_BEGIN
 90
        0
 91
        0
 92
        4
 93
        0
300

 40
0.0
140
1.0
 94
        5
 62
     0
340
11
144
0.18
309
CONTENTFORMAT_END
171
     1
301
MARGIN
  1
CELLMARGIN_BEGIN
 40
0.06
 40
0.06
 40
0.06
 40
0.06
 40
0.06
 40
0.06
309
CELLMARGIN_END
 94
        6
 95
        1
302
GRIDFORMAT
  1
GRIDFORMAT_BEGIN
 90
        0
 91
        1
 62
     0
 92
       -2
340
14
 93
        0
 40
0.045
309
GRIDFORMAT_END
 95
        2
302
GRIDFORMAT
  1
GRIDFORMAT_BEGIN
 90
        0
 91
        1
 62
     0
 92
       -2
340
14
 93
        0
 40
0.045
309
GRIDFORMAT_END
 95
        4
302
GRIDFORMAT
  1
GRIDFORMAT_BEGIN
 90
        0
 91
        1
 62
     0
 92
       -2
340
14
 93
        0
 40
0.045
309
GRIDFORMAT_END
 95
        8
302
GRIDFORMAT
  1
GRIDFORMAT_BEGIN
 90
        0
 91
        1
 62
     0
 92
       -2
340
14
 93
        0
 40
0.045
309
GRIDFORMAT_END
 95
       16
302
GRIDFORMAT
  1
GRIDFORMAT_BEGIN
 90
        0
 91
        1
 62
     0
 92
       -2
340
14
 93
        0
 40
0.045
309
GRIDFORMAT_END
 95
       32
302
GRIDFORMAT
  1
GRIDFORMAT_BEGIN
 90
        0
 91
        1
 62
     0
 92
       -2
340
14
 93
        0
 40
0.045
309
GRIDFORMAT_END
309
TABLEFORMAT_END
  1
CELLSTYLE_BEGIN
 90
        2
 91
        1
300
_HEADER
309
CELLSTYLE_END
300
CELLSTYLE
  1
TABLEFORMAT_BEGIN
 90
        5
170
     1
 91
        0
 92
        0
 62
   257
 93
        1
300
CONTENTFORMAT
  1
CONTENTFORMAT_BEGIN
 90
        0
 91
        0
 92
        4
 93
        0
300

 40
0.0
140
1.0
 94
        2
 62
     0
340
11
144
0.18
309
CONTENTFORMAT_END
171
     1
301
MARGIN
  1
CELLMARGIN_BEGIN
 40
0.06
 40
0.06
 40
0.06
 40
0.06
 40
0.06
 40
0.06
309
CELLMARGIN_END
 94
        6
 95
        1
302
GRIDFORMAT
  1
GRIDFORMAT_BEGIN
 90
        0
 91
        1
 62
     0
 92
       -2
340
14
 93
        0
 40
0.045
309
GRIDFORMAT_END
 95
        2
302
GRIDFORMAT
  1
GRIDFORMAT_BEGIN
 90
        0
 91
        1
 62
     0
 92
       -2
340
14
 93
        0
 40
0.045
309
GRIDFORMAT_END
 95
        4
302
GRIDFORMAT
  1
GRIDFORMAT_BEGIN
 90
        0
 91
        1
 62
     0
 92
       -2
340
14
 93
        0
 40
0.045
309
GRIDFORMAT_END
 95
        8
302
GRIDFORMAT
  1
GRIDFORMAT_BEGIN
 90
        0
 91
        1
 62
     0
 92
       -2
340
14
 93
        0
 40
0.045
309
GRIDFORMAT_END
 95
       16
302
GRIDFORMAT
  1
GRIDFORMAT_BEGIN
 90
        0
 91
        1
 62
     0
 92
       -2
340
14
 93
        0
 40
0.045
309
GRIDFORMAT_END
 95
       32
302
GRIDFORMAT
  1
GRIDFORMAT_BEGIN
 90
        0
 91
        1
 62
     0
 92
       -2
340
14
 93
        0
 40
0.045
309
GRIDFORMAT_END
309
TABLEFORMAT_END
  1
CELLSTYLE_BEGIN
 90
        3
 91
        2
300
_DATA
309
CELLSTYLE_END
  0
ENDSEC
  0
EOF