0
SECTION
  2
HEADER
  9
$ACADVER
  1
AC1027
  9
$ACADMAINTVER
 70
   105
  9
$DWGCODEPAGE
  3
ANSI_1252
  9
$REQUIREDVERSIONS
160
                 0
  9
$COMMENTS
  1
File was created by Cadenas
  9
$CUSTOMPROPERTYTAG
  1
NN
  9
$CUSTOMPROPERTY
  1
Eccentric Collar Narrow Slot Take Up Inch Bore
  9
$CUSTOMPROPERTYTAG
  1
NT
  9
$CUSTOMPROPERTY
  1
SXR Take-Up Bearings -Narrow Slot -(Normal Duty)
  9
$CUSTOMPROPERTYTAG
  1
NB
  9
$CUSTOMPROPERTY
  1
131182
  9
$CUSTOMPROPERTYTAG
  1
NBSYN
  9
$CUSTOMPROPERTY
  1
$PN.
  9
$CUSTOMPROPERTYTAG
  1
LINA
  9
$CUSTOMPROPERTY
  1
131182
  9
$CUSTOMPROPERTYTAG
  1
SERIES
  9
$CUSTOMPROPERTY
  1
212
  9
$CUSTOMPROPERTYTAG
  1
SS
  9
$CUSTOMPROPERTY
  1
2-1/4
  9
$CUSTOMPROPERTYTAG
  1
PN
  9
$CUSTOMPROPERTY
  1
131182
  9
$CUSTOMPROPERTYTAG
  1
DESCRIPTION
  9
$CUSTOMPROPERTY
  1
NSTU-SXR-204
  9
$CUSTOMPROPERTYTAG
  1
W
  9
$CUSTOMPROPERTY
  1
10.0
  9
$CUSTOMPROPERTYTAG
  1
FS
  9
$CUSTOMPROPERTY
  1
NS415
  9
$CUSTOMPROPERTYTAG
  1
A
  9
$CUSTOMPROPERTY
  1
2.74
  9
$CUSTOMPROPERTYTAG
  1
B
  9
$CUSTOMPROPERTY
  1
6.69
  9
$CUSTOMPROPERTYTAG
  1
C
  9
$CUSTOMPROPERTY
  1
0.313
  9
$CUSTOMPROPERTYTAG
  1
D
  9
$CUSTOMPROPERTY
  1
3.75
  9
$CUSTOMPROPERTYTAG
  1
E
  9
$CUSTOMPROPERTY
  1
3.88
  9
$CUSTOMPROPERTYTAG
  1
F
  9
$CUSTOMPROPERTY
  1
1
  9
$CUSTOMPROPERTYTAG
  1
G
  9
$CUSTOMPROPERTY
  1
0.69
  9
$CUSTOMPROPERTYTAG
  1
H
  9
$CUSTOMPROPERTY
  1
1.28
  9
$CUSTOMPROPERTYTAG
  1
J
  9
$CUSTOMPROPERTY
  1
1.63
  9
$CUSTOMPROPERTYTAG
  1
L
  9
$CUSTOMPROPERTY
  1
3.31
  9
$CUSTOMPROPERTYTAG
  1
M
  9
$CUSTOMPROPERTY
  1
4.947 / 4.917
  9
$CUSTOMPROPERTYTAG
  1
N
  9
$CUSTOMPROPERTY
  1
5.75
  9
$CUSTOMPROPERTYTAG
  1
P
  9
$CUSTOMPROPERTY
  1
0.44
  9
$CUSTOMPROPERTYTAG
  1
R
  9
$CUSTOMPROPERTY
  1
0.90
  9
$CUSTOMPROPERTYTAG
  1
S
  9
$CUSTOMPROPERTY
  1
1.84
  9
$CUSTOMPROPERTYTAG
  1
COMPANY
  9
$CUSTOMPROPERTY
  1
baldor
  9
$INSBASE
 10
0.0
 20
0.0
 30
0.0
  9
$EXTMIN
 10
1.000000000000000E+20
 20
1.000000000000000E+20
 30
1.000000000000000E+20
  9
$EXTMAX
 10
-1.000000000000000E+20
 20
-1.000000000000000E+20
 30
-1.000000000000000E+20
  9
$LIMMIN
 10
0.0
 20
0.0
  9
$LIMMAX
 10
12.0
 20
9.0
  9
$ORTHOMODE
 70
     0
  9
$REGENMODE
 70
     1
  9
$FILLMODE
 70
     1
  9
$QTEXTMODE
 70
     0
  9
$MIRRTEXT
 70
     1
  9
$LTSCALE
 40
1.0
  9
$ATTMODE
 70
     1
  9
$TEXTSIZE
 40
0.2
  9
$TRACEWID
 40
0.05
  9
$TEXTSTYLE
  7
Standard
  9
$CLAYER
  8
0
  9
$CELTYPE
  6
ByLayer
  9
$CECOLOR
 62
   256
  9
$CELTSCALE
 40
1.0
  9
$DISPSILH
 70
     0
  9
$DIMSCALE
 40
1.0
  9
$DIMASZ
 40
0.18
  9
$DIMEXO
 40
0.0625
  9
$DIMDLI
 40
0.38
  9
$DIMRND
 40
0.0
  9
$DIMDLE
 40
0.0
  9
$DIMEXE
 40
0.18
  9
$DIMTP
 40
0.0
  9
$DIMTM
 40
0.0
  9
$DIMTXT
 40
0.18
  9
$DIMCEN
 40
0.09
  9
$DIMTSZ
 40
0.0
  9
$DIMTOL
 70
     0
  9
$DIMLIM
 70
     0
  9
$DIMTIH
 70
     1
  9
$DIMTOH
 70
     1
  9
$DIMSE1
 70
     0
  9
$DIMSE2
 70
     0
  9
$DIMTAD
 70
     0
  9
$DIMZIN
 70
     0
  9
$DIMBLK
  1

  9
$DIMASO
 70
     1
  9
$DIMSHO
 70
     1
  9
$DIMPOST
  1

  9
$DIMAPOST
  1

  9
$DIMALT
 70
     0
  9
$DIMALTD
 70
     2
  9
$DIMALTF
 40
25.4
  9
$DIMLFAC
 40
1.0
  9
$DIMTOFL
 70
     0
  9
$DIMTVP
 40
0.0
  9
$DIMTIX
 70
     0
  9
$DIMSOXD
 70
     0
  9
$DIMSAH
 70
     0
  9
$DIMBLK1
  1

  9
$DIMBLK2
  1

  9
$DIMSTYLE
  2
Standard
  9
$DIMCLRD
 70
     0
  9
$DIMCLRE
 70
     0
  9
$DIMCLRT
 70
     0
  9
$DIMTFAC
 40
1.0
  9
$DIMGAP
 40
0.09
  9
$DIMJUST
 70
     0
  9
$DIMSD1
 70
     0
  9
$DIMSD2
 70
     0
  9
$DIMTOLJ
 70
     1
  9
$DIMTZIN
 70
     0
  9
$DIMALTZ
 70
     0
  9
$DIMALTTZ
 70
     0
  9
$DIMUPT
 70
     0
  9
$DIMDEC
 70
     4
  9
$DIMTDEC
 70
     4
  9
$DIMALTU
 70
     2
  9
$DIMALTTD
 70
     2
  9
$DIMTXSTY
  7
Standard
  9
$DIMAUNIT
 70
     0
  9
$DIMADEC
 70
     0
  9
$DIMALTRND
 40
0.0
  9
$DIMAZIN
 70
     0
  9
$DIMDSEP
 70
    46
  9
$DIMATFIT
 70
     3
  9
$DIMFRAC
 70
     0
  9
$DIMLDRBLK
  1

  9
$DIMLUNIT
 70
     2
  9
$DIMLWD
 70
    -2
  9
$DIMLWE
 70
    -2
  9
$DIMTMOVE
 70
     0
  9
$DIMFXL
 40
1.0
  9
$DIMFXLON
 70
     0
  9
$DIMJOGANG
 40
0.7853981633974483
  9
$DIMTFILL
 70
     0
  9
$DIMTFILLCLR
 70
     0
  9
$DIMARCSYM
 70
     0
  9
$DIMLTYPE
  6

  9
$DIMLTEX1
  6

  9
$DIMLTEX2
  6

  9
$DIMTXTDIRECTION
 70
     0
  9
$LUNITS
 70
     2
  9
$LUPREC
 70
     4
  9
$SKETCHINC
 40
0.1
  9
$FILLETRAD
 40
0.5
  9
$AUNITS
 70
     0
  9
$AUPREC
 70
     0
  9
$MENU
  1
.
  9
$ELEVATION
 40
0.0
  9
$PELEVATION
 40
0.0
  9
$THICKNESS
 40
0.0
  9
$LIMCHECK
 70
     0
  9
$CHAMFERA
 40
0.0
  9
$CHAMFERB
 40
0.0
  9
$CHAMFERC
 40
0.0
  9
$CHAMFERD
 40
0.0
  9
$SKPOLY
 70
     0
  9
$TDCREATE
 40
2458168.980812581
  9
$TDUCREATE
 40
2458168.939145914
  9
$TDUPDATE
 40
2458168.980812766
  9
$TDUUPDATE
 40
2458168.9391461
  9
$TDINDWG
 40
0.0000000116
  9
$TDUSRTIMER
 40
0.0000000116
  9
$USRTIMER
 70
     1
  9
$ANGBASE
 50
0.0
  9
$ANGDIR
 70
     0
  9
$PDMODE
 70
     0
  9
$PDSIZE
 40
0.0
  9
$PLINEWID
 40
0.0
  9
$SPLFRAME
 70
     0
  9
$SPLINETYPE
 70
     6
  9
$SPLINESEGS
 70
     8
  9
$HANDSEED
  5
197
  9
$SURFTAB1
 70
     6
  9
$SURFTAB2
 70
     6
  9
$SURFTYPE
 70
     6
  9
$SURFU
 70
     6
  9
$SURFV
 70
     6
  9
$UCSBASE
  2

  9
$UCSNAME
  2

  9
$UCSORG
 10
0.0
 20
0.0
 30
0.0
  9
$UCSXDIR
 10
1.0
 20
0.0
 30
0.0
  9
$UCSYDIR
 10
0.0
 20
1.0
 30
0.0
  9
$UCSORTHOREF
  2

  9
$UCSORTHOVIEW
 70
     0
  9
$UCSORGTOP
 10
0.0
 20
0.0
 30
0.0
  9
$UCSORGBOTTOM
 10
0.0
 20
0.0
 30
0.0
  9
$UCSORGLEFT
 10
0.0
 20
0.0
 30
0.0
  9
$UCSORGRIGHT
 10
0.0
 20
0.0
 30
0.0
  9
$UCSORGFRONT
 10
0.0
 20
0.0
 30
0.0
  9
$UCSORGBACK
 10
0.0
 20
0.0
 30
0.0
  9
$PUCSBASE
  2

  9
$PUCSNAME
  2

  9
$PUCSORG
 10
0.0
 20
0.0
 30
0.0
  9
$PUCSXDIR
 10
1.0
 20
0.0
 30
0.0
  9
$PUCSYDIR
 10
0.0
 20
1.0
 30
0.0
  9
$PUCSORTHOREF
  2

  9
$PUCSORTHOVIEW
 70
     0
  9
$PUCSORGTOP
 10
0.0
 20
0.0
 30
0.0
  9
$PUCSORGBOTTOM
 10
0.0
 20
0.0
 30
0.0
  9
$PUCSORGLEFT
 10
0.0
 20
0.0
 30
0.0
  9
$PUCSORGRIGHT
 10
0.0
 20
0.0
 30
0.0
  9
$PUCSORGFRONT
 10
0.0
 20
0.0
 30
0.0
  9
$PUCSORGBACK
 10
0.0
 20
0.0
 30
0.0
  9
$USERI1
 70
     0
  9
$USERI2
 70
     0
  9
$USERI3
 70
     0
  9
$USERI4
 70
     0
  9
$USERI5
 70
     0
  9
$USERR1
 40
0.0
  9
$USERR2
 40
0.0
  9
$USERR3
 40
0.0
  9
$USERR4
 40
0.0
  9
$USERR5
 40
0.0
  9
$WORLDVIEW
 70
     1
  9
$SHADEDGE
 70
     3
  9
$SHADEDIF
 70
    70
  9
$TILEMODE
 70
     1
  9
$MAXACTVP
 70
    64
  9
$PINSBASE
 10
0.0
 20
0.0
 30
0.0
  9
$PLIMCHECK
 70
     0
  9
$PEXTMIN
 10
1.000000000000000E+20
 20
1.000000000000000E+20
 30
1.000000000000000E+20
  9
$PEXTMAX
 10
-1.000000000000000E+20
 20
-1.000000000000000E+20
 30
-1.000000000000000E+20
  9
$PLIMMIN
 10
0.0
 20
0.0
  9
$PLIMMAX
 10
12.0
 20
9.0
  9
$UNITMODE
 70
     0
  9
$VISRETAIN
 70
     1
  9
$PLINEGEN
 70
     0
  9
$PSLTSCALE
 70
     1
  9
$TREEDEPTH
 70
  3020
  9
$CMLSTYLE
  2
Standard
  9
$CMLJUST
 70
     0
  9
$CMLSCALE
 40
1.0
  9
$PROXYGRAPHICS
 70
     1
  9
$MEASUREMENT
 70
     0
  9
$CELWEIGHT
370
    -1
  9
$ENDCAPS
280
     0
  9
$JOINSTYLE
280
     0
  9
$LWDISPLAY
290
     0
  9
$INSUNITS
 70
     1
  9
$HYPERLINKBASE
  1

  9
$STYLESHEET
  1

  9
$XEDIT
290
     1
  9
$CEPSNTYPE
380
     0
  9
$PSTYLEMODE
290
     1
  9
$FINGERPRINTGUID
  2
{7E1C30A0-523B-495F-9D2A-2CA5383DC4EA}
  9
$VERSIONGUID
  2
{FAEB1C32-E019-11D5-929B-00C0DF256EC4}
  9
$EXTNAMES
290
     1
  9
$PSVPSCALE
 40
0.0
  9
$OLESTARTUP
290
     0
  9
$SORTENTS
280
   127
  9
$INDEXCTL
280
     0
  9
$HIDETEXT
280
     1
  9
$XCLIPFRAME
280
     2
  9
$HALOGAP
280
     0
  9
$OBSCOLOR
 70
   257
  9
$OBSLTYPE
280
     0
  9
$INTERSECTIONDISPLAY
280
     0
  9
$INTERSECTIONCOLOR
 70
   257
  9
$DIMASSOC
280
     2
  9
$PROJECTNAME
  1

  9
$CAMERADISPLAY
290
     0
  9
$LENSLENGTH
 40
50.0
  9
$CAMERAHEIGHT
 40
0.0
  9
$STEPSPERSEC
 40
2.0
  9
$STEPSIZE
 40
6.0
  9
$3DDWFPREC
 40
2.0
  9
$PSOLWIDTH
 40
0.25
  9
$PSOLHEIGHT
 40
4.0
  9
$LOFTANG1
 40
1.570796326794897
  9
$LOFTANG2
 40
1.570796326794897
  9
$LOFTMAG1
 40
0.0
  9
$LOFTMAG2
 40
0.0
  9
$LOFTPARAM
 70
     7
  9
$LOFTNORMALS
280
     1
  9
$LATITUDE
 40
37.795
  9
$LONGITUDE
 40
-122.394
  9
$NORTHDIRECTION
 40
0.0
  9
$TIMEZONE
 70
 -8000
  9
$LIGHTGLYPHDISPLAY
280
     1
  9
$TILEMODELIGHTSYNCH
280
     1
  9
$CMATERIAL
347
44
  9
$SOLIDHIST
280
     0
  9
$SHOWHIST
280
     1
  9
$DWFFRAME
280
     2
  9
$DGNFRAME
280
     2
  9
$REALWORLDSCALE
290
     1
  9
$INTERFERECOLOR
 62
   256
  9
$CSHADOW
280
     0
  9
$SHADOWPLANELOCATION
 40
0.0
  0
ENDSEC
  0
SECTION
  2
CLASSES
  0
CLASS
  1
ACDBDICTIONARYWDFLT
  2
AcDbDictionaryWithDefault
  3
ObjectDBX Classes
 90
        0
 91
        4
280
     0
281
     0
  0
CLASS
  1
VISUALSTYLE
  2
AcDbVisualStyle
  3
ObjectDBX Classes
 90
     4095
 91
        4
280
     0
281
     0
  0
CLASS
  1
MATERIAL
  2
AcDbMaterial
  3
ObjectDBX Classes
 90
     1153
 91
        4
280
     0
281
     0
  0
CLASS
  1
SCALE
  2
AcDbScale
  3
ObjectDBX Classes
 90
     1153
 91
        4
280
     0
281
     0
  0
CLASS
  1
TABLESTYLE
  2
AcDbTableStyle
  3
ObjectDBX Classes
 90
     4095
 91
        4
280
     0
281
     0
  0
CLASS
  1
MLEADERSTYLE
  2
AcDbMLeaderStyle
  3
ACDB_MLEADERSTYLE_CLASS
 90
     4095
 91
        4
280
     0
281
     0
  0
CLASS
  1
SUN
  2
AcDbSun
  3
SCENEOE
 90
     1153
 91
        4
280
     0
281
     0
  0
CLASS
  1
DICTIONARYVAR
  2
AcDbDictionaryVar
  3
ObjectDBX Classes
 90
        0
 91
        4
280
     0
281
     0
  0
CLASS
  1
CELLSTYLEMAP
  2
AcDbCellStyleMap
  3
ObjectDBX Classes
 90
     1152
 91
        4
280
     0
281
     0
  0
ENDSEC
  0
SECTION
  2
TABLES
  0
TABLE
  2
VPORT
  5
8
330
0
100
AcDbSymbolTable
 70
     1
  0
VPORT
  5
29
330
8
100
AcDbSymbolTableRecord
100
AcDbViewportTableRecord
  2
*Active
 70
     0
 10
0.0
 20
0.0
 11
1.0
 21
1.0
 12
5.304257130155086
 22
-3.375
 13
0.0
 23
0.0
 14
0.5
 24
0.5
 15
0.5
 25
0.5
 16
0.0
 26
0.0
 36
1.0
 17
0.0
 27
0.0
 37
0.0
 40
13.77
 41
1.229530742622527
 42
50.0
 43
0.0
 44
0.0
 50
0.0
 51
0.0
 71
     0
 72
   100
 73
     1
 74
     3
 75
     0
 76
     0
 77
     0
 78
     0
281
     0
 65
     1
110
0.0
120
0.0
130
0.0
111
1.0
121
0.0
131
0.0
112
0.0
122
1.0
132
0.0
 79
     0
146
0.0
348
2F
 60
     3
 61
     5
292
     1
282
     1
141
0.0
142
0.0
 63
   250
361
6D
  0
ENDTAB
  0
TABLE
  2
LTYPE
  5
5
330
0
100
AcDbSymbolTable
 70
     3
  0
LTYPE
  5
14
330
5
100
AcDbSymbolTableRecord
100
AcDbLinetypeTableRecord
  2
ByBlock
 70
     0
  3

 72
    65
 73
     0
 40
0.0
  0
LTYPE
  5
15
330
5
100
AcDbSymbolTableRecord
100
AcDbLinetypeTableRecord
  2
ByLayer
 70
     0
  3

 72
    65
 73
     0
 40
0.0
  0
LTYPE
  5
16
330
5
100
AcDbSymbolTableRecord
100
AcDbLinetypeTableRecord
  2
Continuous
 70
     0
  3
Solid line
 72
    65
 73
     0
 40
0.0
  0
LTYPE
  5
9B
330
5
100
AcDbSymbolTableRecord
100
AcDbLinetypeTableRecord
  2
Dashed
 70
     0
  3

 72
    65
 73
     2
 40
2.0
 49
1.0
 74
     0
 49
-1.0
 74
     0
  0
LTYPE
  5
C2
330
5
100
AcDbSymbolTableRecord
100
AcDbLinetypeTableRecord
  2
Center
 70
     0
  3

 72
    65
 73
     4
 40
1.5
 49
0.45
 74
     0
 49
-0.5
 74
     0
 49
0.05
 74
     0
 49
-0.5
 74
     0
  0
ENDTAB
  0
TABLE
  2
LAYER
  5
2
330
0
100
AcDbSymbolTable
 70
     8
  0
LAYER
  5
10
330
2
100
AcDbSymbolTableRecord
100
AcDbLayerTableRecord
  2
0
 70
     0
 62
     7
  6
Continuous
370
    -3
390
F
347
46
348
0
  0
LAYER
  5
6E
330
2
100
AcDbSymbolTableRecord
100
AcDbLayerTableRecord
  2
AM_6
 70
     0
 62
    -2
  6
Continuous
370
    35
390
F
347
46
348
0
  0
LAYER
  5
9C
330
2
100
AcDbSymbolTableRecord
100
AcDbLayerTableRecord
  2
AM_9
 70
     0
 62
     6
  6
Dashed
370
    25
390
F
347
46
348
0
  0
LAYER
  5
BB
330
2
100
AcDbSymbolTableRecord
100
AcDbLayerTableRecord
  2
AM_5
 70
     0
 62
     3
  6
Continuous
370
    25
390
F
347
46
348
0
  0
LAYER
  5
C3
330
2
100
AcDbSymbolTableRecord
100
AcDbLayerTableRecord
  2
AM_7
 70
     0
 62
     7
  6
Center
370
    25
390
F
347
46
348
0
  0
LAYER
  5
C7
330
2
100
AcDbSymbolTableRecord
100
AcDbLayerTableRecord
  2
AM_0
 70
     0
 62
     7
  6
Continuous
370
    50
390
F
347
46
348
0
  0
LAYER
  5
D5
330
2
100
AcDbSymbolTableRecord
100
AcDbLayerTableRecord
  2
AM_4
 70
     0
 62
     3
  6
Continuous
370
    25
390
F
347
46
348
0
  0
LAYER
  5
189
330
2
100
AcDbSymbolTableRecord
100
AcDbLayerTableRecord
  2
ConnectionPoints
 70
     0
 62
     7
  6
Continuous
370
    50
390
F
347
46
348
0
  0
ENDTAB
  0
TABLE
  2
STYLE
  5
3
330
0
100
AcDbSymbolTable
 70
     1
  0
STYLE
  5
11
330
3
100
AcDbSymbolTableRecord
100
AcDbTextStyleTableRecord
  2
Standard
 70
     0
 40
0.0
 41
1.0
 50
0.0
 71
     0
 42
0.2
  3
txt
  4

  0
ENDTAB
  0
TABLE
  2
VIEW
  5
6
330
0
100
AcDbSymbolTable
 70
     0
  0
ENDTAB
  0
TABLE
  2
UCS
  5
7
330
0
100
AcDbSymbolTable
 70
     0
  0
ENDTAB
  0
TABLE
  2
APPID
  5
9
330
0
100
AcDbSymbolTable
 70
     1
  0
APPID
  5
12
330
9
100
AcDbSymbolTableRecord
100
AcDbRegAppTableRecord
  2
ACAD
 70
     0
  0
ENDTAB
  0
TABLE
  2
DIMSTYLE
  5
A
330
0
100
AcDbSymbolTable
 70
     1
100
AcDbDimStyleTable
  0
DIMSTYLE
105
27
330
A
100
AcDbSymbolTableRecord
100
AcDbDimStyleTableRecord
  2
Standard
 70
     0
178
     0
340
11
  0
ENDTAB
  0
TABLE
  2
BLOCK_RECORD
  5
1
330
0
100
AcDbSymbolTable
 70
     4
  0
BLOCK_RECORD
  5
1F
330
1
100
AcDbSymbolTableRecord
100
AcDbBlockTableRecord
  2
*Model_Space
340
22
 70
     0
280
     1
281
     0
  0
BLOCK_RECORD
  5
1B
330
1
100
AcDbSymbolTableRecord
100
AcDbBlockTableRecord
  2
*Paper_Space
340
1E
 70
     0
280
     1
281
     0
  0
BLOCK_RECORD
  5
23
330
1
100
AcDbSymbolTableRecord
100
AcDbBlockTableRecord
  2
*Paper_Space0
340
26
 70
     0
280
     1
281
     0
  0
BLOCK_RECORD
  5
8A
330
1
100
AcDbSymbolTableRecord
100
AcDbBlockTableRecord
  2
1_405016_Inch_0_in_131182_0
340
0
102
{BLKREFS
331
8B
102
}
 70
     0
280
     1
281
     0
  0
BLOCK_RECORD
  5
10B
330
1
100
AcDbSymbolTableRecord
100
AcDbBlockTableRecord
  2
2_131928_0_in_131182_0
340
0
102
{BLKREFS
331
10C
102
}
 70
     0
280
     1
281
     0
  0
BLOCK_RECORD
  5
139
330
1
100
AcDbSymbolTableRecord
100
AcDbBlockTableRecord
  2
3_131182H_0_in_131182_0
340
0
102
{BLKREFS
331
13A
102
}
 70
     0
280
     1
281
     0
  0
ENDTAB
  0
ENDSEC
  0
SECTION
  2
BLOCKS
  0
BLOCK
  5
20
330
1F
100
AcDbEntity
  8
0
100
AcDbBlockBegin
  2
*Model_Space
 70
     0
 10
0.0
 20
0.0
 30
0.0
  3
*Model_Space
  1

  0
ENDBLK
  5
21
330
1F
100
AcDbEntity
  8
0
100
AcDbBlockEnd
  0
BLOCK
  5
1C
330
1B
100
AcDbEntity
 67
     1
  8
0
100
AcDbBlockBegin
  2
*Paper_Space
 70
     0
 10
0.0
 20
0.0
 30
0.0
  3
*Paper_Space
  1

  0
ENDBLK
  5
1D
330
1B
100
AcDbEntity
 67
     1
  8
0
100
AcDbBlockEnd
  0
BLOCK
  5
24
330
23
100
AcDbEntity
  8
0
100
AcDbBlockBegin
  2
*Paper_Space0
 70
     0
 10
0.0
 20
0.0
 30
0.0
  3
*Paper_Space0
  1

  0
ENDBLK
  5
25
330
23
100
AcDbEntity
  8
0
100
AcDbBlockEnd
  0
BLOCK
  5
8C
330
8A
100
AcDbEntity
  8
0
100
AcDbBlockBegin
  2
1_405016_Inch_0_in_131182_0
 70
     2
 10
0.0
 20
0.0
 30
0.0
  3
1_405016_Inch_0_in_131182_0
  1

  0
ATTDEF
  5
8E
330
8A
100
AcDbEntity
  8
AM_6
100
AcDbText
 10
2.836743535382185
 20
-1.146925698355158
 30
0.0
 40
0.5
  1
405016 -Inch
100
AcDbAttributeDefinition
  3

  2
NN
 70
     8
280
     0
  0
ATTDEF
  5
8F
330
8A
100
AcDbEntity
  8
AM_6
100
AcDbText
 10
2.836743535382185
 20
-1.646925698355158
 30
0.0
 40
0.5
  1
Grease Fitting
100
AcDbAttributeDefinition
  3

  2
NT
 70
     8
280
     0
  0
ATTDEF
  5
90
330
8A
100
AcDbEntity
  8
AM_6
100
AcDbText
 10
2.836743535382185
 20
-2.146925698355158
 30
0.0
 40
0.5
  1
405016-Inch
100
AcDbAttributeDefinition
  3

  2
NB
 70
     8
280
     0
  0
ATTDEF
  5
91
330
8A
100
AcDbEntity
  8
AM_6
100
AcDbText
 10
2.836743535382185
 20
-2.646925698355158
 30
0.0
 40
0.5
  1
$MN.-Inch
100
AcDbAttributeDefinition
  3

  2
NBSYN
 70
     8
280
     0
  0
ATTDEF
  5
92
330
8A
100
AcDbEntity
  8
AM_6
100
AcDbText
 10
2.836743535382185
 20
-3.146925698355158
 30
0.0
 40
0.5
  1
405016
100
AcDbAttributeDefinition
  3

  2
LINA
 70
     8
280
     0
  0
ATTDEF
  5
93
330
8A
100
AcDbEntity
  8
AM_6
100
AcDbText
 10
2.836743535382185
 20
-3.646925698355158
 30
0.0
 40
0.5
  1
405016
100
AcDbAttributeDefinition
  3

  2
MN
 70
     8
280
     0
  0
ATTDEF
  5
94
330
8A
100
AcDbEntity
  8
AM_6
100
AcDbText
 10
2.836743535382185
 20
-4.146925698355158
 30
0.0
 40
0.5
  1
7/16 HEX
100
AcDbAttributeDefinition
  3

  2
H
 70
     8
280
     0
  0
ATTDEF
  5
95
330
8A
100
AcDbEntity
  8
AM_6
100
AcDbText
 10
2.836743535382185
 20
-4.646925698355158
 30
0.0
 40
0.5
  1
0.383
100
AcDbAttributeDefinition
  3

  2
NDR
 70
     8
280
     0
  0
ATTDEF
  5
96
330
8A
100
AcDbEntity
  8
AM_6
100
AcDbText
 10
2.836743535382185
 20
-5.146925698355158
 30
0.0
 40
0.5
  1
0.337
100
AcDbAttributeDefinition
  3

  2
KDR
 70
     8
280
     0
  0
ATTDEF
  5
97
330
8A
100
AcDbEntity
  8
AM_6
100
AcDbText
 10
2.836743535382185
 20
-5.646925698355158
 30
0.0
 40
0.5
  1
0.1575
100
AcDbAttributeDefinition
  3

  2
BZE
 70
     8
280
     0
  0
ATTDEF
  5
98
330
8A
100
AcDbEntity
  8
AM_6
100
AcDbText
 10
2.836743535382185
 20
-6.146925698355158
 30
0.0
 40
0.5
  1
0.4375
100
AcDbAttributeDefinition
  3

  2
HEX
 70
     8
280
     0
  0
ATTDEF
  5
99
330
8A
100
AcDbEntity
  8
AM_6
100
AcDbText
 10
2.836743535382185
 20
-6.646925698355158
 30
0.0
 40
0.5
  1
0.281250
100
AcDbAttributeDefinition
  3

  2
HEX2
 70
     8
280
     0
  0
ATTDEF
  5
9A
330
8A
100
AcDbEntity
  8
AM_6
100
AcDbText
 10
2.836743535382185
 20
-7.146925698355158
 30
0.0
 40
0.5
  1
baldor
100
AcDbAttributeDefinition
  3

  2
COMPANY
 70
     8
280
     0
  0
LINE
  5
9D
330
8A
100
AcDbEntity
  8
AM_9
 48
0.002192202824573
100
AcDbLine
 10
-2.163256464617815
 20
-1.435629893480119
 30
0.0
 11
-2.324920190495039
 21
-1.15562010651988
 31
0.0
  0
LINE
  5
9E
330
8A
100
AcDbEntity
  8
AM_9
 48
0.002192202824573
100
AcDbLine
 10
-2.324920190495039
 20
-1.15562010651988
 30
0.0
 11
-2.357368163507523
 21
-1.146925698355158
 31
0.0
  0
LINE
  5
9F
330
8A
100
AcDbEntity
  8
AM_9
 48
0.002192202824573
100
AcDbLine
 10
-2.171950872782537
 20
-1.468077866492603
 30
0.0
 11
-2.163256464617815
 21
-1.435629893480119
 31
0.0
  0
ARC
  5
A0
330
8A
100
AcDbEntity
  8
AM_9
 48
0.002192202824573
100
AcDbCircle
 10
-2.714989640864215
 20
-1.567499999999999
 30
0.0
 40
0.2000000000000006
100
AcDbArc
 50
165.8401042776992
 51
253.7754806439363
  0
LINE
  5
A1
330
8A
100
AcDbEntity
  8
AM_9
 48
0.002192202824573
100
AcDbLine
 10
-2.171950872782537
 20
-1.468077866492603
 30
0.0
 11
-2.357368163507523
 21
-1.146925698355158
 31
0.0
  0
LINE
  5
A2
330
8A
100
AcDbEntity
  8
AM_9
 48
0.002192202824573
100
AcDbLine
 10
-2.357368163507523
 20
-1.146925698355158
 30
0.0
 11
-2.523538846110458
 21
-1.236062980665428
 31
0.0
  0
LINE
  5
A3
330
8A
100
AcDbEntity
  8
AM_9
 48
0.002192202824573
100
AcDbLine
 10
-2.332231364989003
 20
-1.567417257835811
 30
0.0
 11
-2.171950872782537
 21
-1.468077866492603
 31
0.0
  0
LINE
  5
A4
330
8A
100
AcDbEntity
  8
AM_9
 48
0.002192202824573
100
AcDbLine
 10
-2.860399282448356
 20
-1.74520229571137
 30
0.0
 11
-2.871720855672233
 21
-1.751738809059826
 31
0.0
  0
LINE
  5
A5
330
8A
100
AcDbEntity
  8
AM_9
 48
0.002192202824573
100
AcDbLine
 10
-2.941589164053148
 20
-1.60457729571137
 30
0.0
 11
-2.952910737277024
 21
-1.611113809059826
 31
0.0
  0
LWPOLYLINE
  5
A6
330
8A
100
AcDbEntity
  8
AM_9
 48
0.002192202824573
100
AcDbPolyline
 90
        6
 70
     0
 43
0.0
 10
-2.941589164053148
 20
-1.60457729571137
 10
-2.924973322065619
 20
-1.628510622598914
 10
-2.908918709410486
 20
-1.653367212109331
 10
-2.893435043346802
 20
-1.679566312422038
 10
-2.878946128232052
 20
-1.706595324422914
 10
-2.860399282448356
 20
-1.74520229571137
  0
LINE
  5
A7
330
8A
100
AcDbEntity
  8
AM_9
 48
0.002192202824573
100
AcDbLine
 10
-2.660029829022718
 20
-1.662693186483899
 30
0.0
 11
-2.770308387857358
 21
-1.471685119596829
 31
0.0
  0
ELLIPSE
  5
A8
330
8A
100
AcDbEntity
  8
AM_9
 48
0.002192202824573
100
AcDbEllipse
 10
-2.785605776359513
 20
-1.608270244837341
 30
0.0
 11
-0.07031250000000001
 21
0.1217848224071869
 31
0.0
210
0.0
220
0.0
230
1.0
 40
0.9063077870366483
 41
5.859216366485141
 42
9.848746901463825
  0
LWPOLYLINE
  5
A9
330
8A
100
AcDbEntity
  8
AM_9
 48
0.002192202824573
100
AcDbPolyline
 90
        6
 70
     0
 43
0.0
 10
-2.860399282448356
 20
-1.74520229571137
 10
-2.831194674948833
 20
-1.745146258798399
 10
-2.802320906234701
 20
-1.745585121917566
 10
-2.773632175647173
 20
-1.746646289109957
 10
-2.745843694074202
 20
-1.748363121169831
 10
-2.709224436409859
 20
-1.751671457656344
  0
LWPOLYLINE
  5
AA
330
8A
100
AcDbEntity
  8
AM_9
 48
0.002192202824573
100
AcDbPolyline
 90
        6
 70
     0
 43
0.0
 10
-2.871604199619441
 20
-1.470421457656344
 10
-2.881913335976771
 20
-1.492992854288234
 10
-2.893257162810981
 20
-1.516456884363538
 10
-2.905971137387788
 20
-1.541210167846305
 10
-2.91986706357748
 20
-1.566768689712644
 10
-2.941589164053148
 20
-1.60457729571137
  0
LWPOLYLINE
  5
AB
330
8A
100
AcDbEntity
  8
AM_9
 48
0.002192202824573
100
AcDbPolyline
 90
        5
 70
     0
 43
0.0
 10
-2.670420540680256
 20
-1.644695945966246
 10
-2.678388005756448
 20
-1.660209976006311
 10
-2.68914407919063
 20
-1.67435797563067
 10
-2.701787130713074
 20
-1.685955943415793
 10
-2.712196656333126
 20
-1.692904528105157
  0
LWPOLYLINE
  5
AC
330
8A
100
AcDbEntity
  8
AM_9
 48
0.002192202824573
100
AcDbPolyline
 90
       13
 70
     0
 43
0.0
 10
-2.670420540680256
 20
-1.644695945966246
 10
-2.665465880208188
 20
-1.628701216295605
 10
-2.663357995741445
 20
-1.612644458256412
 10
-2.663837767459331
 20
-1.595877825105295
 10
-2.66705330441197
 20
-1.578429808725254
 10
-2.673071667654752
 20
-1.560957633207593
 10
-2.681422755474498
 20
-1.544747492794572
 10
-2.692296355951247
 20
-1.529477046299115
 10
-2.70469467766523
 20
-1.516547828583382
 10
-2.719118108031222
 20
-1.505495849846331
 10
-2.734631087892039
 20
-1.497226804053058
 10
-2.75172449167901
 20
-1.491703487144151
 10
-2.759558741048176
 20
-1.490304054033754
  0
LINE
  5
AD
330
8A
100
AcDbEntity
  8
AM_9
 48
0.002192202824573
100
AcDbLine
 10
-2.822186866973557
 20
-1.502373288128892
 30
0.0
 11
-2.840605776359513
 21
-1.513007450421053
 31
0.0
  0
LINE
  5
AE
330
8A
100
AcDbEntity
  8
AM_9
 48
0.002192202824573
100
AcDbLine
 10
-2.730605776359513
 20
-1.703533039253629
 30
0.0
 11
-2.712186938332401
 21
-1.692898918160516
 31
0.0
  0
LWPOLYLINE
  5
AF
330
8A
100
AcDbEntity
  8
AM_9
 48
0.002192202824573
100
AcDbPolyline
 90
        3
 70
     0
 43
0.0
 10
-2.836816325635448
 20
-1.512750445473131
 10
-2.827056204540399
 20
-1.505381372029879
 10
-2.822194557376147
 20
-1.502377728641494
  0
LWPOLYLINE
  5
B0
330
8A
100
AcDbEntity
  8
AM_9
 48
0.002192202824573
100
AcDbPolyline
 90
       20
 70
     0
 43
0.0
 10
-2.712196656333126
 20
-1.692904528105157
 10
-2.716677553858915
 20
-1.695334802540261
 10
-2.732579430665795
 20
-1.701712011960484
 10
-2.749940400487514
 20
-1.70526170963818
 10
-2.767295877617759
 20
-1.705684256104104
 10
-2.785153589202047
 20
-1.702990967168627
 10
-2.801983350702121
 20
-1.697417196040507
 10
-2.818300094602827
 20
-1.688797239076489
 10
-2.83269914546266
 20
-1.677880991490922
 10
-2.845631498328407
 20
-1.664336212655024
 10
-2.855991226488108
 20
-1.649330271317741
 10
-2.864101401304805
 20
-1.632408286749774
 10
-2.869278042495646
 20
-1.615004703027538
 10
-2.871677978939795
 20
-1.596607393511457
 10
-2.871100394982669
 20
-1.578747455120003
 10
-2.867528691173545
 20
-1.560922481606625
 10
-2.861251143905881
 20
-1.5445960564441
 10
-2.85209354484316
 20
-1.529328872764631
 10
-2.840797355681149
 20
-1.516370478489193
 10
-2.836816325635448
 20
-1.512750445473131
  0
LWPOLYLINE
  5
B1
330
8A
100
AcDbEntity
  8
AM_9
 48
0.002192202824573
100
AcDbPolyline
 90
        5
 70
     0
 43
0.0
 10
-2.822194557376147
 20
-1.502377728641494
 10
-2.811994714800917
 20
-1.497268942862664
 10
-2.795201291981257
 20
-1.491820477436415
 10
-2.777801955827262
 20
-1.489480939756072
 10
-2.759558741048159
 20
-1.490304054033761
  0
ELLIPSE
  5
B2
330
8A
100
AcDbEntity
  8
AM_9
 48
0.002192202824573
100
AcDbEllipse
 10
-2.785605776359513
 20
-1.608270244837341
 30
0.0
 11
-0.0703125000000018
 21
0.1217848224071851
 31
0.0
210
0.0
220
0.0
230
1.0
 40
0.906307787036654
 41
3.764821264091932
 42
4.571432719802693
  0
ELLIPSE
  5
B3
330
8A
100
AcDbEntity
  8
AM_9
 48
0.002192202824573
100
AcDbEllipse
 10
-2.785605776359515
 20
-1.608270244837347
 30
0.0
 11
-0.07031250000002175
 21
0.1217848224071827
 31
0.0
210
0.0
220
0.0
230
1.0
 40
0.9063077870366834
 41
4.853345240966594
 42
5.659956696677283
  0
LWPOLYLINE
  5
B4
330
8A
100
AcDbEntity
  8
AM_9
 48
0.002192202824573
100
AcDbPolyline
 90
        5
 70
     0
 43
0.0
 10
-2.871720855672233
 20
-1.751738809059826
 10
-2.893583244170859
 20
-1.718670119967152
 10
-2.914479331100852
 20
-1.684312409178915
 10
-2.934396950655762
 20
-1.648126446285356
 10
-2.952910737277024
 20
-1.611113809059826
  0
LWPOLYLINE
  5
B5
330
8A
100
AcDbEntity
  8
AM_9
 48
0.002192202824573
100
AcDbPolyline
 90
        4
 70
     0
 43
0.0
 10
-2.770365587425982
 20
-1.757753656518158
 10
-2.797888018028752
 20
-1.756802555641742
 10
-2.835506812389935
 20
-1.754676787031713
 10
-2.871720855672233
 20
-1.751738809059826
  0
LWPOLYLINE
  5
B6
330
8A
100
AcDbEntity
  8
AM_9
 48
0.002192202824573
100
AcDbPolyline
 90
        4
 70
     0
 43
0.0
 10
-2.952910737277024
 20
-1.611113809059826
 10
-2.938033619233949
 20
-1.579688517736611
 10
-2.921604346991274
 20
-1.546997724328327
 10
-2.907153362432942
 20
-1.519798739865948
  0
ELLIPSE
  5
B7
330
8A
100
AcDbEntity
  8
AM_9
 48
0.002192202824573
100
AcDbEllipse
 10
-2.803905683898046
 20
-1.618835701380858
 30
0.0
 11
-0.07031250000000001
 21
0.1217848224071869
 31
0.0
210
0.0
220
0.0
230
1.0
 40
0.906307787036649
 41
0.2351446217641744
 42
2.90509721977352
  0
LWPOLYLINE
  5
B8
330
8A
100
AcDbEntity
  8
AM_9
 48
0.002192202824573
100
AcDbPolyline
 90
       17
 70
     0
 43
0.0
 10
-2.746571120526121
 20
-1.61363150456823
 10
-2.742974080398057
 20
-1.62671201379541
 10
-2.740545676149205
 20
-1.645595904780241
 10
-2.741333294363351
 20
-1.663846018915859
 10
-2.745164158715835
 20
-1.680824292025083
 10
-2.751794072460751
 20
-1.696035781726898
 10
-2.761011503891984
 20
-1.709139193923736
 10
-2.772752733649308
 20
-1.719874846040125
 10
-2.787097231658737
 20
-1.727869699412228
 10
-2.803835031351756
 20
-1.732451150813642
 10
-2.819736555022329
 20
-1.733158207194944
 10
-2.837667774371024
 20
-1.730239260600833
 10
-2.855158169549102
 20
-1.723650865403089
 10
-2.871602864486775
 20
-1.713699650165201
 10
-2.886430705838674
 20
-1.700758518752466
 10
-2.899087540967083
 20
-1.685315403597695
 10
-2.904429042703701
 20
-1.676872889647148
  0
LWPOLYLINE
  5
B9
330
8A
100
AcDbEntity
  8
AM_9
 48
0.002192202824573
100
AcDbPolyline
 90
       16
 70
     0
 43
0.0
 10
-2.904429042703701
 20
-1.676872889647148
 10
-2.908466783930182
 20
-1.669279754005831
 10
-2.915676146662976
 20
-1.650845386754081
 10
-2.919688043945306
 20
-1.631914162567534
 10
-2.920446738584754
 20
-1.613269654209708
 10
-2.918064457529346
 20
-1.595602713399281
 10
-2.912761449846297
 20
-1.579482274093928
 10
-2.904780114825577
 20
-1.565321515979744
 10
-2.894267857160634
 20
-1.553403388358696
 10
-2.881195847618054
 20
-1.544014545613311
 10
-2.865537995973559
 20
-1.537676887964538
 10
-2.84992342854392
 20
-1.535206630160215
 10
-2.833852238678169
 20
-1.535967194027784
 10
-2.816047171143879
 20
-1.540427455498257
 10
-2.798919167889382
 20
-1.548439025019332
 10
-2.785475669883032
 20
-1.557690770211492
  0
ELLIPSE
  5
BA
330
8A
100
AcDbEntity
  8
AM_9
 48
0.002192202824573
100
AcDbEllipse
 10
-2.854906587162031
 20
-1.648281086609234
 30
0.0
 11
0.06659694825923307
 21
-0.1153492980140273
 31
0.0
210
0.0
220
0.0
230
1.0
 40
0.9063077870366515
 41
0.0
 42
6.283185307179586
  0
LINE
  5
BC
330
8A
100
AcDbEntity
  8
AM_5
 48
0.002192202824573
100
AcDbLine
 10
-2.313447676488732
 20
-1.528716103579453
 30
0.0
 11
-2.163256464617815
 21
-1.435629893480119
 31
0.0
  0
LINE
  5
BD
330
8A
100
AcDbEntity
  8
AM_5
 48
0.002192202824573
100
AcDbLine
 10
-2.334145369911194
 20
-1.564565560186641
 30
0.0
 11
-2.313447676488732
 21
-1.528716103579452
 31
0.0
  0
LINE
  5
BE
330
8A
100
AcDbEntity
  8
AM_5
 48
0.002192202824573
100
AcDbLine
 10
-2.301942062063617
 20
-1.54864441233605
 30
0.0
 11
-2.49213643354365
 21
-1.219218097619004
 31
0.0
  0
LINE
  5
BF
330
8A
100
AcDbEntity
  8
AM_5
 48
0.002192202824573
100
AcDbLine
 10
-2.480630819118535
 20
-1.239146406375599
 30
0.0
 11
-2.324920190495039
 21
-1.15562010651988
 31
0.0
  0
LINE
  5
C0
330
8A
100
AcDbEntity
  8
AM_5
 48
0.002192202824573
100
AcDbLine
 10
-2.522026205963459
 20
-1.239146406375599
 30
0.0
 11
-2.480630819118535
 21
-1.239146406375599
 31
0.0
  0
ELLIPSE
  5
C1
330
8A
100
AcDbEntity
  8
AM_9
 48
0.002192202824573
100
AcDbEllipse
 10
-2.785605776359513
 20
-1.608270244837341
 30
0.0
 11
-0.05500000000000103
 21
0.09526279441628784
 31
0.0
210
0.0
220
0.0
230
1.0
 40
0.9063077870366493
 41
0.0
 42
6.283185307179586
  0
LINE
  5
C4
330
8A
100
AcDbEntity
  8
AM_7
 48
0.002192202824573
100
AcDbLine
 10
-2.920400041324338
 20
-1.68609375
 30
0.0
 11
-2.211883007853193
 21
-1.27703125
 31
0.0
  0
LINE
  5
C5
330
8A
100
AcDbEntity
  8
AM_7
 48
0.002192202824573
100
AcDbLine
 10
-2.924989640864212
 20
-1.567500000000004
 30
0.0
 11
-2.50498964086422
 21
-1.567500000000004
 31
0.0
  0
LINE
  5
C6
330
8A
100
AcDbEntity
  8
AM_7
 48
0.002192202824573
100
AcDbLine
 10
-2.714989640864216
 20
-1.7775
 30
0.0
 11
-2.714989640864216
 21
-1.357500000000008
 31
0.0
  0
LINE
  5
C8
330
8A
100
AcDbEntity
  8
AM_0
 48
0.002192202824573
100
AcDbLine
 10
-2.478417159683376
 20
-1.683505557077846
 30
0.0
 11
-2.697167159683376
 21
-1.304619442922154
 31
0.0
  0
LINE
  5
C9
330
8A
100
AcDbEntity
  8
AM_0
 48
0.002192202824573
100
AcDbLine
 10
-2.706234759379991
 20
-1.270778700151693
 30
0.0
 11
-2.697167159683376
 21
-1.304619442922154
 31
0.0
  0
LINE
  5
CA
330
8A
100
AcDbEntity
  8
AM_0
 48
0.002192202824573
100
AcDbLine
 10
-2.478417159683376
 20
-1.683505557077846
 30
0.0
 11
-2.453644016609529
 21
-1.708278700151693
 31
0.0
  0
LINE
  5
CB
330
8A
100
AcDbEntity
  8
AM_0
 48
0.002192202824573
100
AcDbLine
 10
-2.382747019608318
 20
-1.667346299848307
 30
0.0
 11
-2.391814619304932
 21
-1.633505557077846
 31
0.0
  0
LINE
  5
CC
330
8A
100
AcDbEntity
  8
AM_0
 48
0.002192202824573
100
AcDbLine
 10
-2.391814619304932
 20
-1.633505557077846
 30
0.0
 11
-2.610564619304933
 21
-1.254619442922154
 31
0.0
  0
LINE
  5
CD
330
8A
100
AcDbEntity
  8
AM_0
 48
0.002192202824573
100
AcDbLine
 10
-2.610564619304933
 20
-1.254619442922154
 30
0.0
 11
-2.635337762378779
 21
-1.229846299848307
 31
0.0
  0
ARC
  5
CE
330
8A
100
AcDbEntity
  8
AM_0
 48
0.002192202824573
100
AcDbCircle
 10
-2.714989640864216
 20
-1.567500000000001
 30
0.0
 40
0.1999999999999986
100
AcDbArc
 50
253.7754806439363
 51
300.0000000000001
  0
ARC
  5
CF
330
8A
100
AcDbEntity
  8
AM_0
 48
0.002192202824573
100
AcDbCircle
 10
-2.714989640864214
 20
-1.567500000000001
 30
0.0
 40
0.2000000000000022
100
AcDbArc
 50
120.0000000000003
 51
165.8401042776987
  0
LINE
  5
D0
330
8A
100
AcDbEntity
  8
AM_0
 48
0.002192202824573
100
AcDbLine
 10
-2.523538846110458
 20
-1.236062980665428
 30
0.0
 11
-2.529287001559388
 21
-1.239146406375599
 31
0.0
  0
LINE
  5
D1
330
8A
100
AcDbEntity
  8
AM_0
 48
0.002192202824573
100
AcDbLine
 10
-2.337775767709158
 20
-1.570853593624401
 30
0.0
 11
-2.332231364989003
 21
-1.567417257835811
 31
0.0
  0
LINE
  5
D2
330
8A
100
AcDbEntity
  8
AM_0
 48
0.002192202824573
100
AcDbLine
 10
-2.333531384634273
 20
-1.578205080756888
 30
0.0
 11
-2.533531384634273
 21
-1.231794919243112
 31
0.0
  0
LINE
  5
D3
330
8A
100
AcDbEntity
  8
AM_0
 48
0.002192202824573
100
AcDbLine
 10
-2.533531384634273
 20
-1.231794919243112
 30
0.0
 11
-2.601189619304932
 21
-1.270857419243112
 31
0.0
  0
LINE
  5
D4
330
8A
100
AcDbEntity
  8
AM_0
 48
0.002192202824573
100
AcDbLine
 10
-2.401189619304933
 20
-1.617267580756887
 30
0.0
 11
-2.333531384634273
 21
-1.578205080756888
 31
0.0
  0
LINE
  5
D6
330
8A
100
AcDbEntity
  8
AM_4
 48
0.002192202824573
100
AcDbLine
 10
-2.770308387857358
 20
-1.471685119596829
 30
0.0
 11
-2.814989640864216
 21
-1.394294919243112
 31
0.0
  0
LINE
  5
D7
330
8A
100
AcDbEntity
  8
AM_0
 48
0.002192202824573
100
AcDbLine
 10
-2.687792159683377
 20
-1.320857419243112
 30
0.0
 11
-2.814989640864216
 21
-1.394294919243112
 31
0.0
  0
LINE
  5
D8
330
8A
100
AcDbEntity
  8
AM_0
 48
0.002192202824573
100
AcDbLine
 10
-2.614989640864216
 20
-1.740705080756888
 30
0.0
 11
-2.487792159683377
 21
-1.667267580756888
 31
0.0
  0
LINE
  5
D9
330
8A
100
AcDbEntity
  8
AM_4
 48
0.002192202824573
100
AcDbLine
 10
-2.614989640864216
 20
-1.740705080756888
 30
0.0
 11
-2.660029829022718
 21
-1.662693186483899
 31
0.0
  0
LWPOLYLINE
  5
DA
330
8A
100
AcDbEntity
  8
AM_0
 48
0.002192202824573
100
AcDbPolyline
 90
        3
 70
     0
 43
0.0
 10
-2.453644016609529
 20
-1.708278700151693
 10
-2.475121687527152
 20
-1.684384432388115
 10
-2.493070631144453
 20
-1.658125
  0
LINE
  5
DB
330
8A
100
AcDbEntity
  8
AM_0
 48
0.002192202824573
100
AcDbLine
 10
-2.453644016609529
 20
-1.708278700151693
 30
0.0
 11
-2.382747019608318
 21
-1.667346299848307
 31
0.0
  0
LWPOLYLINE
  5
DC
330
8A
100
AcDbEntity
  8
AM_0
 48
0.002192202824573
100
AcDbPolyline
 90
        3
 70
     0
 43
0.0
 10
-2.40646809076601
 20
-1.608125
 10
-2.392753897903625
 20
-1.636665440392517
 10
-2.382747019608318
 20
-1.667346299848307
  0
LWPOLYLINE
  5
DD
330
8A
100
AcDbEntity
  8
AM_0
 48
0.002192202824573
100
AcDbPolyline
 90
        3
 70
     0
 43
0.0
 10
-2.445894705300933
 20
-1.557971299848307
 10
-2.424417034383311
 20
-1.581865567611885
 10
-2.40646809076601
 20
-1.608125
  0
LWPOLYLINE
  5
DE
330
8A
100
AcDbEntity
  8
AM_0
 48
0.002192202824573
100
AcDbPolyline
 90
        3
 70
     0
 43
0.0
 10
-2.493070631144453
 20
-1.658125
 10
-2.506784824006838
 20
-1.629584559607482
 10
-2.516791702302145
 20
-1.598903700151693
  0
LINE
  5
DF
330
8A
100
AcDbEntity
  8
AM_0
 48
0.002192202824573
100
AcDbLine
 10
-2.706234759379991
 20
-1.270778700151693
 30
0.0
 11
-2.635337762378779
 21
-1.229846299848307
 31
0.0
  0
LWPOLYLINE
  5
E0
330
8A
100
AcDbEntity
  8
AM_0
 48
0.002192202824573
100
AcDbPolyline
 90
        3
 70
     0
 43
0.0
 10
-2.682513688222299
 20
-1.33
 10
-2.696227881084683
 20
-1.301459559607483
 10
-2.706234759379991
 20
-1.270778700151693
  0
LWPOLYLINE
  5
E1
330
8A
100
AcDbEntity
  8
AM_0
 48
0.002192202824573
100
AcDbPolyline
 90
        3
 70
     0
 43
0.0
 10
-2.595911147843855
 20
-1.28
 10
-2.582196954981471
 20
-1.308540440392517
 10
-2.572190076686164
 20
-1.339221299848307
  0
LWPOLYLINE
  5
E2
330
8A
100
AcDbEntity
  8
AM_0
 48
0.002192202824573
100
AcDbPolyline
 90
        3
 70
     0
 43
0.0
 10
-2.635337762378779
 20
-1.229846299848307
 10
-2.613860091461157
 20
-1.253740567611885
 10
-2.595911147843855
 20
-1.28
  0
LINE
  5
E3
330
8A
100
AcDbEntity
  8
AM_0
 48
0.002192202824573
100
AcDbLine
 10
-2.643087073687375
 20
-1.380153700151693
 30
0.0
 11
-2.572190076686164
 21
-1.339221299848307
 31
0.0
  0
LWPOLYLINE
  5
E4
330
8A
100
AcDbEntity
  8
AM_0
 48
0.002192202824573
100
AcDbPolyline
 90
        3
 70
     0
 43
0.0
 10
-2.516791702302145
 20
-1.598903700151693
 10
-2.553985312393216
 20
-1.54778862725104
 10
-2.587792159683377
 20
-1.4940625
  0
LINE
  5
E5
330
8A
100
AcDbEntity
  8
AM_0
 48
0.002192202824573
100
AcDbLine
 10
-2.516791702302145
 20
-1.598903700151693
 30
0.0
 11
-2.445894705300933
 21
-1.557971299848307
 31
0.0
  0
LWPOLYLINE
  5
E6
330
8A
100
AcDbEntity
  8
AM_0
 48
0.002192202824573
100
AcDbPolyline
 90
        3
 70
     0
 43
0.0
 10
-2.501189619304932
 20
-1.4440625
 10
-2.471688505019394
 20
-1.499946690392517
 10
-2.445894705300933
 20
-1.557971299848307
  0
LWPOLYLINE
  5
E7
330
8A
100
AcDbEntity
  8
AM_0
 48
0.002192202824573
100
AcDbPolyline
 90
        4
 70
     0
 43
0.0
 10
-2.572190076686164
 20
-1.339221299848307
 10
-2.554337343875309
 20
-1.362972765773117
 10
-2.526695643408743
 20
-1.402736426839267
 10
-2.501189619304932
 20
-1.4440625
  0
LWPOLYLINE
  5
E8
330
8A
100
AcDbEntity
  8
AM_0
 48
0.002192202824573
100
AcDbPolyline
 90
        4
 70
     0
 43
0.0
 10
-2.587792159683377
 20
-1.4940625
 10
-2.610764424118878
 20
-1.451438249398529
 10
-2.631444067224797
 20
-1.407490353255273
 10
-2.643087073687375
 20
-1.380153700151693
  0
LWPOLYLINE
  5
E9
330
8A
100
AcDbEntity
  8
AM_0
 48
0.002192202824573
100
AcDbPolyline
 90
        3
 70
     0
 43
0.0
 10
-2.643087073687375
 20
-1.380153700151693
 10
-2.664564744604998
 20
-1.356259432388115
 10
-2.682513688222299
 20
-1.33
  0
LINE
  5
EA
330
8A
100
AcDbEntity
  8
AM_0
 48
0.002192202824573
100
AcDbLine
 10
-2.720911682629404
 20
-1.758419092407283
 30
0.0
 11
-2.770365587425982
 21
-1.757753656518158
 31
0.0
  0
LINE
  5
EB
330
8A
100
AcDbEntity
  8
AM_0
 48
0.002192202824573
100
AcDbLine
 10
-2.907153362432942
 20
-1.519798739865948
 30
0.0
 11
-2.883291445838986
 21
-1.477169092407283
 31
0.0
  0
LWPOLYLINE
  5
EC
330
8A
100
AcDbEntity
  8
AM_0
 48
0.002192202824573
100
AcDbPolyline
 90
        3
 70
     0
 43
0.0
 10
-2.720427820281582
 20
-1.476889734350518
 10
-2.748490120250426
 20
-1.474238843014548
 10
-2.778278225088412
 20
-1.472187592413266
  0
LINE
  5
ED
330
8A
100
AcDbEntity
  8
AM_0
 48
0.002192202824573
100
AcDbLine
 10
-2.778278225088412
 20
-1.472187592413266
 30
0.0
 11
-2.804287034114396
 21
-1.471052666893888
 31
0.0
  0
LWPOLYLINE
  5
EE
330
8A
100
AcDbEntity
  8
AM_0
 48
0.002192202824573
100
AcDbPolyline
 90
        3
 70
     0
 43
0.0
 10
-2.804287034114396
 20
-1.471052666893888
 10
-2.827277068806636
 20
-1.470510369847584
 10
-2.871604199619441
 20
-1.470421457656344
  0
LINE
  5
EF
330
8A
100
AcDbEntity
  8
AM_0
 48
0.002192202824573
100
AcDbLine
 10
-2.871604199619441
 20
-1.470421457656344
 30
0.0
 11
-2.883291445838986
 21
-1.477169092407283
 31
0.0
  0
LWPOLYLINE
  5
F0
330
8A
100
AcDbEntity
  8
AM_0
 48
0.002192202824573
100
AcDbPolyline
 90
        3
 70
     0
 43
0.0
 10
-2.883291445838986
 20
-1.477169092407283
 10
-2.853611624605184
 20
-1.479648491521736
 10
-2.822586941652929
 20
-1.481618123437406
  0
LWPOLYLINE
  5
F1
330
8A
100
AcDbEntity
  8
AM_0
 48
0.002192202824573
100
AcDbPolyline
 90
        3
 70
     0
 43
0.0
 10
-2.709224436409859
 20
-1.751671457656344
 10
-2.692250754076336
 20
-1.722339189975666
 10
-2.676112496892153
 20
-1.693057477599441
  0
LINE
  5
F2
330
8A
100
AcDbEntity
  8
AM_0
 48
0.002192202824573
100
AcDbLine
 10
-2.676112496892153
 20
-1.693057477599441
 30
0.0
 11
-2.664090966710346
 21
-1.669965725501071
 31
0.0
  0
LWPOLYLINE
  5
F3
330
8A
100
AcDbEntity
  8
AM_0
 48
0.002192202824573
100
AcDbPolyline
 90
        3
 70
     0
 43
0.0
 10
-2.664090966710346
 20
-1.669965725501071
 10
-2.654925980133788
 20
-1.651421611213501
 10
-2.639237938676791
 20
-1.617514734350518
  0
LWPOLYLINE
  5
F4
330
8A
100
AcDbEntity
  8
AM_0
 48
0.002192202824573
100
AcDbPolyline
 90
        3
 70
     0
 43
0.0
 10
-2.694412404430687
 20
-1.703622934142958
 10
-2.708147582195259
 20
-1.731327936735335
 10
-2.720911682629404
 20
-1.758419092407283
  0
LINE
  5
F5
330
8A
100
AcDbEntity
  8
AM_0
 48
0.002192202824573
100
AcDbLine
 10
-2.709224436409859
 20
-1.751671457656344
 30
0.0
 11
-2.720911682629404
 21
-1.758419092407283
 31
0.0
  0
LWPOLYLINE
  5
F6
330
8A
100
AcDbEntity
  8
AM_0
 48
0.002192202824573
100
AcDbPolyline
 90
        3
 70
     0
 43
0.0
 10
-2.651293587987769
 20
-1.624475066725467
 10
-2.667180872550865
 20
-1.652576183495197
 10
-2.68239087424888
 20
-1.680531182044589
  0
LWPOLYLINE
  5
F7
330
8A
100
AcDbEntity
  8
AM_0
 48
0.002192202824573
100
AcDbPolyline
 90
        3
 70
     0
 43
0.0
 10
-2.796578132626946
 20
-1.482753048956784
 10
-2.764927581772922
 20
-1.48355559349426
 10
-2.73248346959256
 20
-1.483850066725467
  0
LWPOLYLINE
  5
F8
330
8A
100
AcDbEntity
  8
AM_0
 48
0.002192202824573
100
AcDbPolyline
 90
        3
 70
     0
 43
0.0
 10
-2.639237938676791
 20
-1.617514734350518
 10
-2.652233826526402
 20
-1.589890958955648
 10
-2.666447726640643
 20
-1.562287038418517
  0
LINE
  5
F9
330
8A
100
AcDbEntity
  8
AM_0
 48
0.002192202824573
100
AcDbLine
 10
-2.666447726640643
 20
-1.562287038418517
 30
0.0
 11
-2.68620412659391
 21
-1.528067949924796
 31
0.0
  0
LWPOLYLINE
  5
FA
330
8A
100
AcDbEntity
  8
AM_0
 48
0.002192202824573
100
AcDbPolyline
 90
        3
 70
     0
 43
0.0
 10
-2.68620412659391
 20
-1.528067949924796
 10
-2.695452762007804
 20
-1.5134112730526
 10
-2.720427820281582
 20
-1.476889734350518
  0
LINE
  5
FB
330
8A
100
AcDbEntity
  8
AM_0
 48
0.002192202824573
100
AcDbLine
 10
-2.720427820281582
 20
-1.476889734350518
 30
0.0
 11
-2.73248346959256
 21
-1.483850066725467
 31
0.0
  0
LWPOLYLINE
  5
FC
330
8A
100
AcDbEntity
  8
AM_0
 48
0.002192202824573
100
AcDbPolyline
 90
        3
 70
     0
 43
0.0
 10
-2.73248346959256
 20
-1.483850066725467
 10
-2.71895020409217
 20
-1.511294122408012
 10
-2.704504034132445
 20
-1.53863340646832
  0
LWPOLYLINE
  5
FD
330
8A
100
AcDbEntity
  8
AM_0
 48
0.002192202824573
100
AcDbPolyline
 90
        3
 70
     0
 43
0.0
 10
-2.684747634179176
 20
-1.572852494962034
 10
-2.668365679560198
 20
-1.598922855181632
 10
-2.651293587987769
 20
-1.624475066725467
  0
LINE
  5
FE
330
8A
100
AcDbEntity
  8
AM_0
 48
0.002192202824573
100
AcDbLine
 10
-2.639237938676791
 20
-1.617514734350518
 30
0.0
 11
-2.651293587987769
 21
-1.624475066725467
 31
0.0
  0
LINE
  5
FF
330
8A
100
AcDbEntity
  8
AM_0
 48
0.002192202824573
100
AcDbLine
 10
-2.822586941652929
 20
-1.481618123437406
 30
0.0
 11
-2.796578132626946
 21
-1.482753048956784
 31
0.0
  0
ELLIPSE
  5
100
330
8A
100
AcDbEntity
  8
AM_0
 48
0.002192202824573
100
AcDbEllipse
 10
-2.803905683898047
 20
-1.61883570138086
 30
0.0
 11
-0.07031250000000312
 21
0.1217848224071838
 31
0.0
210
0.0
220
0.0
230
1.0
 40
0.9063077870366495
 41
2.905097219773498
 42
3.565561594284222
  0
ELLIPSE
  5
101
330
8A
100
AcDbEntity
  8
AM_0
 48
0.002192202824573
100
AcDbEllipse
 10
-2.803905683898047
 20
-1.618835701380859
 30
0.0
 11
-0.07031249999999332
 21
0.1217848224071898
 31
0.0
210
0.0
220
0.0
230
1.0
 40
0.9063077870366515
 41
5.859216366485184
 42
6.518329928943805
  0
LINE
  5
102
330
8A
100
AcDbEntity
  8
AM_0
 48
0.002192202824573
100
AcDbLine
 10
-2.68239087424888
 20
-1.680531182044589
 30
0.0
 11
-2.694412404430687
 21
-1.703622934142958
 31
0.0
  0
ELLIPSE
  5
103
330
8A
100
AcDbEntity
  8
AM_0
 48
0.002192202824573
100
AcDbEllipse
 10
-2.803905683898039
 20
-1.618835701380859
 30
0.0
 11
-0.07031249999999731
 21
0.1217848224071796
 31
0.0
210
0.0
220
0.0
230
1.0
 40
0.906307787036652
 41
3.764821264091912
 42
4.57143271980272
  0
LINE
  5
104
330
8A
100
AcDbEntity
  8
AM_0
 48
0.002192202824573
100
AcDbLine
 10
-2.704504034132445
 20
-1.53863340646832
 30
0.0
 11
-2.684747634179176
 21
-1.572852494962034
 31
0.0
  0
ELLIPSE
  5
105
330
8A
100
AcDbEntity
  8
AM_0
 48
0.002192202824573
100
AcDbEllipse
 10
-2.803905683898045
 20
-1.618835701380856
 30
0.0
 11
-0.07031249999999911
 21
0.1217848224071842
 31
0.0
210
0.0
220
0.0
230
1.0
 40
0.90630778703665
 41
4.853345240966663
 42
5.659956696677445
  0
LWPOLYLINE
  5
106
330
8A
100
AcDbEntity
  8
AM_0
 48
0.002192202824573
100
AcDbPolyline
 90
        6
 70
     0
 43
0.0
 10
-2.990933432792414
 20
-1.608410327691527
 10
-2.994166914526644
 20
-1.626054511194725
 10
-2.99494633313568
 20
-1.649664362206085
 10
-2.991820978859744
 20
-1.673391038964108
 10
-2.98486407316528
 20
-1.696538109875472
 10
-2.974797261999547
 20
-1.7175
  0
LWPOLYLINE
  5
107
330
8A
100
AcDbEntity
  8
AM_0
 48
0.002192202824573
100
AcDbPolyline
 90
       30
 70
     0
 43
0.0
 10
-2.899101720470701
 20
-1.782491485440489
 10
-2.891228413559648
 20
-1.785179402978577
 10
-2.868360788159888
 20
-1.790089506283127
 10
-2.845310389067864
 20
-1.790868632182795
 10
-2.822790008254477
 20
-1.787510658921886
 10
-2.801483013685869
 20
-1.780148352572536
 10
-2.782014240181165
 20
-1.76903680729441
 10
-2.76493331550274
 20
-1.754530183316596
 10
-2.750717838684392
 20
-1.737072850848129
 10
-2.73975078433581
 20
-1.717165477844709
 10
-2.732334282000883
 20
-1.695365010417299
 10
-2.728684522195107
 20
-1.672282546296761
 10
-2.728920596693869
 20
-1.648575737861103
 10
-2.733053439345389
 20
-1.624932686729327
 10
-2.740980054308044
 20
-1.60204963117459
 10
-2.752484528123852
 20
-1.5806072016088
 10
-2.767244083096722
 20
-1.561248795877936
 10
-2.784834436767364
 20
-1.544564369813933
 10
-2.804742576614967
 20
-1.531067692893435
 10
-2.826376745482867
 20
-1.521180863823666
 10
-2.849080088834131
 20
-1.515216036179956
 10
-2.87215193894468
 20
-1.513357139730855
 10
-2.894877529662327
 20
-1.515647495024065
 10
-2.916562660893435
 20
-1.521989305735496
 10
-2.936565122541846
 20
-1.53215712627289
 10
-2.95431490089042
 20
-1.545820308429823
 10
-2.969315231893516
 20
-1.562556610381323
 10
-2.981158882814871
 20
-1.581878536475815
 10
-2.989522594980349
 20
-1.603243649009287
 10
-2.990933432792414
 20
-1.608410327691527
  0
LWPOLYLINE
  5
108
330
8A
100
AcDbEntity
  8
AM_0
 48
0.002192202824573
100
AcDbPolyline
 90
        6
 70
     0
 43
0.0
 10
-2.974797261999547
 20
-1.7175
 10
-2.967395483437276
 20
-1.729088313857705
 10
-2.951867464260778
 20
-1.747789261476888
 10
-2.933622223834488
 20
-1.763691327983521
 10
-2.913205769689277
 20
-1.776286521320664
 10
-2.899101720470701
 20
-1.782491485440489
  0
ELLIPSE
  5
109
330
8A
100
AcDbEntity
  8
AM_0
 48
0.002192202824573
100
AcDbEllipse
 10
-2.89357523083686
 20
-1.670606438444094
 30
0.0
 11
0.05174132036229517
 21
-0.08961859571819297
 31
0.0
210
0.0
220
0.0
230
1.0
 40
0.9063077870366506
 41
0.0
 42
6.283185307179586
  0
ELLIPSE
  5
10A
330
8A
100
AcDbEntity
  8
AM_4
 48
0.002192202824573
100
AcDbEllipse
 10
-2.865581568639378
 20
-1.654444290038777
 30
0.0
 11
-0.06957427803571696
 21
0.1205061844577879
 31
0.0
210
0.0
220
0.0
230
1.0
 40
0.9063077870366506
 41
0.0
 42
6.283185307179586
  0
ENDBLK
  5
8D
330
8A
100
AcDbEntity
  8
0
100
AcDbBlockEnd
  0
BLOCK
  5
10D
330
10B
100
AcDbEntity
  8
0
100
AcDbBlockBegin
  2
2_131928_0_in_131182_0
 70
     2
 10
0.0
 20
0.0
 30
0.0
  3
2_131928_0_in_131182_0
  1

  0
ATTDEF
  5
10F
330
10B
100
AcDbEntity
  8
AM_6
100
AcDbText
 10
7.156093834344878
 20
2.156093834344878
 30
0.0
 40
0.5
  1
Eccentric Collar Insert Inch Bore
100
AcDbAttributeDefinition
  3

  2
NN
 70
     8
280
     0
  0
ATTDEF
  5
110
330
10B
100
AcDbEntity
  8
AM_6
100
AcDbText
 10
7.156093834344878
 20
1.656093834344878
 30
0.0
 40
0.5
  1
SXR Normal Duty Bearing Inserts
100
AcDbAttributeDefinition
  3

  2
NT
 70
     8
280
     0
  0
ATTDEF
  5
111
330
10B
100
AcDbEntity
  8
AM_6
100
AcDbText
 10
7.156093834344878
 20
1.156093834344878
 30
0.0
 40
0.5
  1
131928
100
AcDbAttributeDefinition
  3

  2
NB
 70
     8
280
     0
  0
ATTDEF
  5
112
330
10B
100
AcDbEntity
  8
AM_6
100
AcDbText
 10
7.156093834344878
 20
0.6560938343448779
 30
0.0
 40
0.5
  1
$PN.
100
AcDbAttributeDefinition
  3

  2
NBSYN
 70
     8
280
     0
  0
ATTDEF
  5
113
330
10B
100
AcDbEntity
  8
AM_6
100
AcDbText
 10
7.156093834344878
 20
0.1560938343448779
 30
0.0
 40
0.5
  1
131928
100
AcDbAttributeDefinition
  3

  2
LINA
 70
     8
280
     0
  0
ATTDEF
  5
114
330
10B
100
AcDbEntity
  8
AM_6
100
AcDbText
 10
7.156093834344878
 20
-0.3439061656551221
 30
0.0
 40
0.5
  1
212
100
AcDbAttributeDefinition
  3

  2
SERIES
 70
     8
280
     0
  0
ATTDEF
  5
115
330
10B
100
AcDbEntity
  8
AM_6
100
AcDbText
 10
7.156093834344878
 20
-0.8439061656551221
 30
0.0
 40
0.5
  1
2-1/4
100
AcDbAttributeDefinition
  3

  2
SS
 70
     8
280
     0
  0
ATTDEF
  5
116
330
10B
100
AcDbEntity
  8
AM_6
100
AcDbText
 10
7.156093834344878
 20
-1.343906165655122
 30
0.0
 40
0.5
  1
131928
100
AcDbAttributeDefinition
  3

  2
PN
 70
     8
280
     0
  0
ATTDEF
  5
117
330
10B
100
AcDbEntity
  8
AM_6
100
AcDbText
 10
7.156093834344878
 20
-1.843906165655122
 30
0.0
 40
0.5
  1
INS-SXR-204
100
AcDbAttributeDefinition
  3

  2
DESCRIPTION
 70
     8
280
     0
  0
ATTDEF
  5
118
330
10B
100
AcDbEntity
  8
AM_6
100
AcDbText
 10
7.156093834344878
 20
-2.343906165655122
 30
0.0
 40
0.5
  1
3.8
100
AcDbAttributeDefinition
  3

  2
WEIGHT
 70
     8
280
     0
  0
ATTDEF
  5
119
330
10B
100
AcDbEntity
  8
AM_6
100
AcDbText
 10
7.156093834344878
 20
-2.843906165655122
 30
0.0
 40
0.5
  1
2.74
100
AcDbAttributeDefinition
  3

  2
A
 70
     8
280
     0
  0
ATTDEF
  5
11A
330
10B
100
AcDbEntity
  8
AM_6
100
AcDbText
 10
7.156093834344878
 20
-3.343906165655122
 30
0.0
 40
0.5
  1
1.02
100
AcDbAttributeDefinition
  3

  2
C
 70
     8
280
     0
  0
ATTDEF
  5
11B
330
10B
100
AcDbEntity
  8
AM_6
100
AcDbText
 10
7.156093834344878
 20
-3.843906165655122
 30
0.0
 40
0.5
  1
4.3307
100
AcDbAttributeDefinition
  3

  2
D
 70
     8
280
     0
  0
ATTDEF
  5
11C
330
10B
100
AcDbEntity
  8
AM_6
100
AcDbText
 10
7.156093834344878
 20
-4.343906165655122
 30
0.0
 40
0.5
  1
0.25
100
AcDbAttributeDefinition
  3

  2
J
 70
     8
280
     0
  0
ATTDEF
  5
11D
330
10B
100
AcDbEntity
  8
AM_6
100
AcDbText
 10
7.156093834344878
 20
-4.843906165655122
 30
0.0
 40
0.5
  1
3.31
100
AcDbAttributeDefinition
  3

  2
L
 70
     8
280
     0
  0
ATTDEF
  5
11E
330
10B
100
AcDbEntity
  8
AM_6
100
AcDbText
 10
7.156093834344878
 20
-5.343906165655122
 30
0.0
 40
0.5
  1
7/16-20
100
AcDbAttributeDefinition
  3

  2
N
 70
     8
280
     0
  0
ATTDEF
  5
11F
330
10B
100
AcDbEntity
  8
AM_6
100
AcDbText
 10
7.156093834344878
 20
-5.843906165655122
 30
0.0
 40
0.5
  1
0.90
100
AcDbAttributeDefinition
  3

  2
W
 70
     8
280
     0
  0
ATTDEF
  5
120
330
10B
100
AcDbEntity
  8
AM_6
100
AcDbText
 10
7.156093834344878
 20
-6.343906165655122
 30
0.0
 40
0.5
  1
1.84
100
AcDbAttributeDefinition
  3

  2
Y
 70
     8
280
     0
  0
ATTDEF
  5
121
330
10B
100
AcDbEntity
  8
AM_6
100
AcDbText
 10
7.156093834344878
 20
-6.843906165655122
 30
0.0
 40
0.5
  1
2.97
100
AcDbAttributeDefinition
  3

  2
Z
 70
     8
280
     0
  0
ATTDEF
  5
122
330
10B
100
AcDbEntity
  8
AM_6
100
AcDbText
 10
7.156093834344878
 20
-7.343906165655122
 30
0.0
 40
0.5
  1
baldor
100
AcDbAttributeDefinition
  3

  2
COMPANY
 70
     8
280
     0
  0
LINE
  5
123
330
10B
100
AcDbEntity
  8
AM_9
 48
0.0154304819006801
100
AcDbLine
 10
-0.0843607648946109
 20
-2.132016666666666
 30
0.0
 11
0.084360764894621
 21
-2.132016666666666
 31
0.0
  0
ARC
  5
124
330
10B
100
AcDbEntity
  8
AM_9
 48
0.0154304819006801
100
AcDbCircle
 10
-0.0000000000000001
 20
-2.132016666666666
 30
0.0
 40
0.1458333333333334
100
AcDbArc
 50
185.4886742301579
 51
354.5113257698426
  0
ELLIPSE
  5
125
330
10B
100
AcDbEntity
  8
AM_9
 48
0.0154304819006801
100
AcDbEllipse
 10
0.0000000000000001
 20
-2.145776284463195
 30
0.0
 11
-0.1451737951733557
 21
-4.335121495683802E-16
 31
0.0
210
0.0
220
0.0
230
1.0
 40
0.1164619361668983
 41
5.332470956518645
 42
10.37549231143026
  0
LWPOLYLINE
  5
126
330
10B
100
AcDbEntity
  8
AM_9
 48
0.0154304819006801
100
AcDbPolyline
 90
        5
 70
     0
 43
0.0
 10
0.084360764894621
 20
-2.132016666666666
 10
0.0405914502151976
 20
-2.129539410312934
 10
-0.0078670180820635
 20
-2.128887683538118
 10
-0.0553172227509643
 20
-2.130142231140399
 10
-0.0843607648946109
 20
-2.132016666666666
  0
CIRCLE
  5
127
330
10B
100
AcDbEntity
  8
AM_9
 48
0.0154304819006801
100
AcDbCircle
 10
0.0
 20
0.0
 30
0.0
 40
2.062238095238095
  0
CIRCLE
  5
128
330
10B
100
AcDbEntity
  8
AM_9
 48
0.0154304819006801
100
AcDbCircle
 10
0.0
 20
0.0
 30
0.0
 40
1.4646
  0
CIRCLE
  5
129
330
10B
100
AcDbEntity
  8
AM_9
 48
0.0154304819006801
100
AcDbCircle
 10
0.0
 20
0.0
 30
0.0
 40
1.485
  0
CIRCLE
  5
12A
330
10B
100
AcDbEntity
  8
AM_9
 48
0.0154304819006801
100
AcDbCircle
 10
0.0
 20
0.0
 30
0.0
 40
1.414285714285714
  0
CIRCLE
  5
12B
330
10B
100
AcDbEntity
  8
AM_9
 48
0.0154304819006801
100
AcDbCircle
 10
0.0
 20
0.0
 30
0.0
 40
1.139424978336205
  0
LINE
  5
12C
330
10B
100
AcDbEntity
  8
AM_9
 48
0.0154304819006801
100
AcDbLine
 10
1.65082963641735
 20
0.1174159764519259
 30
0.0
 11
1.65082963641735
 21
-0.1174159764519259
 31
0.0
  0
LINE
  5
12D
330
10B
100
AcDbEntity
  8
AM_9
 48
0.0154304819006801
100
AcDbLine
 10
1.106867377896791
 20
-0.20185
 30
0.0
 11
1.642728677767908
 21
-0.20185
 31
0.0
  0
LINE
  5
12E
330
10B
100
AcDbEntity
  8
AM_9
 48
0.0154304819006801
100
AcDbLine
 10
1.642728677767908
 20
0.20185
 30
0.0
 11
1.10678415824814
 21
0.20185
 31
0.0
  0
LINE
  5
12F
330
10B
100
AcDbEntity
  8
AM_5
 48
0.0154304819006801
100
AcDbLine
 10
1.103527723938099
 20
0.21875
 30
0.0
 11
1.64047963641735
 21
0.21875
 31
0.0
  0
LINE
  5
130
330
10B
100
AcDbEntity
  8
AM_5
 48
0.0154304819006801
100
AcDbLine
 10
1.103527723938099
 20
-0.21875
 30
0.0
 11
1.64047963641735
 21
-0.21875
 31
0.0
  0
CIRCLE
  5
131
330
10B
100
AcDbEntity
  8
AM_0
 48
0.0154304819006801
100
AcDbCircle
 10
0.0
 20
0.0
 30
0.0
 40
2.156093834344878
  0
CIRCLE
  5
132
330
10B
100
AcDbEntity
  8
AM_0
 48
0.0154304819006801
100
AcDbCircle
 10
0.0
 20
0.0
 30
0.0
 40
2.144467444961569
  0
CIRCLE
  5
133
330
10B
100
AcDbEntity
  8
AM_4
 48
0.0154304819006801
100
AcDbCircle
 10
0.0
 20
0.0
 30
0.0
 40
2.111884299428008
  0
CIRCLE
  5
134
330
10B
100
AcDbEntity
  8
AM_4
 48
0.0154304819006801
100
AcDbCircle
 10
0.0
 20
0.0
 30
0.0
 40
2.072091711894047
  0
CIRCLE
  5
135
330
10B
100
AcDbEntity
  8
AM_0
 48
0.0154304819006801
100
AcDbCircle
 10
0.0
 20
0.0
 30
0.0
 40
1.125
  0
CIRCLE
  5
136
330
10B
100
AcDbEntity
  8
AM_0
 48
0.0154304819006801
100
AcDbCircle
 10
0.0
 20
0.0
 30
0.0
 40
1.1454
  0
CIRCLE
  5
137
330
10B
100
AcDbEntity
  8
AM_4
 48
0.0154304819006801
100
AcDbCircle
 10
0.0
 20
0.0
 30
0.0
 40
1.6003125
  0
CIRCLE
  5
138
330
10B
100
AcDbEntity
  8
AM_0
 48
0.0154304819006801
100
AcDbCircle
 10
-0.0000000000000001
 20
0.0000000000000001
 30
0.0
 40
1.655
  0
ENDBLK
  5
10E
330
10B
100
AcDbEntity
  8
0
100
AcDbBlockEnd
  0
BLOCK
  5
13B
330
139
100
AcDbEntity
  8
0
100
AcDbBlockBegin
  2
3_131182H_0_in_131182_0
 70
     2
 10
0.0
 20
0.0
 30
0.0
  3
3_131182H_0_in_131182_0
  1

  0
ATTDEF
  5
13D
330
139
100
AcDbEntity
  8
AM_6
100
AcDbText
 10
8.960732499999999
 20
2.875
 30
0.0
 40
0.5
  1
NSTU-SXR -I-Housing
100
AcDbAttributeDefinition
  3

  2
NN
 70
     8
280
     0
  0
ATTDEF
  5
13E
330
139
100
AcDbEntity
  8
AM_6
100
AcDbText
 10
8.960732499999999
 20
2.375
 30
0.0
 40
0.5
  1
SXR Take-Up Bearings -Narrow Slot -(Normal Duty)
100
AcDbAttributeDefinition
  3

  2
NT
 70
     8
280
     0
  0
ATTDEF
  5
13F
330
139
100
AcDbEntity
  8
AM_6
100
AcDbText
 10
8.960732499999999
 20
1.875
 30
0.0
 40
0.5
  1
131182H
100
AcDbAttributeDefinition
  3

  2
NB
 70
     8
280
     0
  0
ATTDEF
  5
140
330
139
100
AcDbEntity
  8
AM_6
100
AcDbText
 10
8.960732499999999
 20
1.375
 30
0.0
 40
0.5
  1
$PN.H
100
AcDbAttributeDefinition
  3

  2
NBSYN
 70
     8
280
     0
  0
ATTDEF
  5
141
330
139
100
AcDbEntity
  8
AM_6
100
AcDbText
 10
8.960732499999999
 20
0.875
 30
0.0
 40
0.5
  1
131182
100
AcDbAttributeDefinition
  3

  2
LINA
 70
     8
280
     0
  0
ATTDEF
  5
142
330
139
100
AcDbEntity
  8
AM_6
100
AcDbText
 10
8.960732499999999
 20
0.375
 30
0.0
 40
0.5
  1
212
100
AcDbAttributeDefinition
  3

  2
SERIES
 70
     8
280
     0
  0
ATTDEF
  5
143
330
139
100
AcDbEntity
  8
AM_6
100
AcDbText
 10
8.960732499999999
 20
-0.125
 30
0.0
 40
0.5
  1
2-1/4
100
AcDbAttributeDefinition
  3

  2
SS
 70
     8
280
     0
  0
ATTDEF
  5
144
330
139
100
AcDbEntity
  8
AM_6
100
AcDbText
 10
8.960732499999999
 20
-0.625
 30
0.0
 40
0.5
  1
131182
100
AcDbAttributeDefinition
  3

  2
PN
 70
     8
280
     0
  0
ATTDEF
  5
145
330
139
100
AcDbEntity
  8
AM_6
100
AcDbText
 10
8.960732499999999
 20
-1.125
 30
0.0
 40
0.5
  1
NSTU-SXR-204
100
AcDbAttributeDefinition
  3

  2
DESCRIPTION
 70
     8
280
     0
  0
ATTDEF
  5
146
330
139
100
AcDbEntity
  8
AM_6
100
AcDbText
 10
8.960732499999999
 20
-1.625
 30
0.0
 40
0.5
  1
10.0
100
AcDbAttributeDefinition
  3

  2
W
 70
     8
280
     0
  0
ATTDEF
  5
147
330
139
100
AcDbEntity
  8
AM_6
100
AcDbText
 10
8.960732499999999
 20
-2.125
 30
0.0
 40
0.5
  1
NS415
100
AcDbAttributeDefinition
  3

  2
FS
 70
     8
280
     0
  0
ATTDEF
  5
148
330
139
100
AcDbEntity
  8
AM_6
100
AcDbText
 10
8.960732499999999
 20
-2.625
 30
0.0
 40
0.5
  1
2.74
100
AcDbAttributeDefinition
  3

  2
A
 70
     8
280
     0
  0
ATTDEF
  5
149
330
139
100
AcDbEntity
  8
AM_6
100
AcDbText
 10
8.960732499999999
 20
-3.125
 30
0.0
 40
0.5
  1
6.69
100
AcDbAttributeDefinition
  3

  2
B
 70
     8
280
     0
  0
ATTDEF
  5
14A
330
139
100
AcDbEntity
  8
AM_6
100
AcDbText
 10
8.960732499999999
 20
-3.625
 30
0.0
 40
0.5
  1
0.313
100
AcDbAttributeDefinition
  3

  2
C
 70
     8
280
     0
  0
ATTDEF
  5
14B
330
139
100
AcDbEntity
  8
AM_6
100
AcDbText
 10
8.960732499999999
 20
-4.125
 30
0.0
 40
0.5
  1
3.75
100
AcDbAttributeDefinition
  3

  2
D
 70
     8
280
     0
  0
ATTDEF
  5
14C
330
139
100
AcDbEntity
  8
AM_6
100
AcDbText
 10
8.960732499999999
 20
-4.625
 30
0.0
 40
0.5
  1
3.88
100
AcDbAttributeDefinition
  3

  2
E
 70
     8
280
     0
  0
ATTDEF
  5
14D
330
139
100
AcDbEntity
  8
AM_6
100
AcDbText
 10
8.960732499999999
 20
-5.125
 30
0.0
 40
0.5
  1
1
100
AcDbAttributeDefinition
  3

  2
F
 70
     8
280
     0
  0
ATTDEF
  5
14E
330
139
100
AcDbEntity
  8
AM_6
100
AcDbText
 10
8.960732499999999
 20
-5.625
 30
0.0
 40
0.5
  1
0.69
100
AcDbAttributeDefinition
  3

  2
G
 70
     8
280
     0
  0
ATTDEF
  5
14F
330
139
100
AcDbEntity
  8
AM_6
100
AcDbText
 10
8.960732499999999
 20
-6.125
 30
0.0
 40
0.5
  1
1.28
100
AcDbAttributeDefinition
  3

  2
H
 70
     8
280
     0
  0
ATTDEF
  5
150
330
139
100
AcDbEntity
  8
AM_6
100
AcDbText
 10
8.960732499999999
 20
-6.625
 30
0.0
 40
0.5
  1
1.63
100
AcDbAttributeDefinition
  3

  2
J
 70
     8
280
     0
  0
ATTDEF
  5
151
330
139
100
AcDbEntity
  8
AM_6
100
AcDbText
 10
8.960732499999999
 20
-7.125
 30
0.0
 40
0.5
  1
3.31
100
AcDbAttributeDefinition
  3

  2
L
 70
     8
280
     0
  0
ATTDEF
  5
152
330
139
100
AcDbEntity
  8
AM_6
100
AcDbText
 10
8.960732499999999
 20
-7.625
 30
0.0
 40
0.5
  1
4.947 / 4.917
100
AcDbAttributeDefinition
  3

  2
M
 70
     8
280
     0
  0
ATTDEF
  5
153
330
139
100
AcDbEntity
  8
AM_6
100
AcDbText
 10
8.960732499999999
 20
-8.125
 30
0.0
 40
0.5
  1
5.75
100
AcDbAttributeDefinition
  3

  2
N
 70
     8
280
     0
  0
ATTDEF
  5
154
330
139
100
AcDbEntity
  8
AM_6
100
AcDbText
 10
8.960732499999999
 20
-8.625
 30
0.0
 40
0.5
  1
0.44
100
AcDbAttributeDefinition
  3

  2
P
 70
     8
280
     0
  0
ATTDEF
  5
155
330
139
100
AcDbEntity
  8
AM_6
100
AcDbText
 10
8.960732499999999
 20
-9.125
 30
0.0
 40
0.5
  1
0.90
100
AcDbAttributeDefinition
  3

  2
R
 70
     8
280
     0
  0
ATTDEF
  5
156
330
139
100
AcDbEntity
  8
AM_6
100
AcDbText
 10
8.960732499999999
 20
-9.625
 30
0.0
 40
0.5
  1
1.84
100
AcDbAttributeDefinition
  3

  2
S
 70
     8
280
     0
  0
ATTDEF
  5
157
330
139
100
AcDbEntity
  8
AM_6
100
AcDbText
 10
8.960732499999999
 20
-10.125
 30
0.0
 40
0.5
  1
6955
100
AcDbAttributeDefinition
  3

  2
CAPS
 70
     8
280
     0
  0
ATTDEF
  5
158
330
139
100
AcDbEntity
  8
AM_6
100
AcDbText
 10
8.960732499999999
 20
-10.625
 30
0.0
 40
0.5
  1
11791
100
AcDbAttributeDefinition
  3

  2
CAPD
 70
     8
280
     0
  0
ATTDEF
  5
159
330
139
100
AcDbEntity
  8
AM_6
100
AcDbText
 10
8.960732499999999
 20
-11.125
 30
0.0
 40
0.5
  1
baldor
100
AcDbAttributeDefinition
  3

  2
COMPANY
 70
     8
280
     0
  0
LINE
  5
15A
330
139
100
AcDbEntity
  8
AM_9
 48
0.024078158636621
100
AcDbLine
 10
1.875
 20
-2.4735
 30
0.0
 11
-1.875
 21
-2.4735
 31
0.0
  0
LINE
  5
15B
330
139
100
AcDbEntity
  8
AM_9
 48
0.024078158636621
100
AcDbLine
 10
1.875
 20
2.4735
 30
0.0
 11
-1.875
 21
2.4735
 31
0.0
  0
LINE
  5
15C
330
139
100
AcDbEntity
  8
AM_9
 48
0.024078158636621
100
AcDbLine
 10
-0.7499999999999999
 20
-2.031314998344669
 30
0.0
 11
-0.7499999999999999
 21
-2.150837191072351
 31
0.0
  0
LINE
  5
15D
330
139
100
AcDbEntity
  8
AM_9
 48
0.024078158636621
100
AcDbLine
 10
0.7499999999999999
 20
2.031314998344669
 30
0.0
 11
0.7499999999999999
 21
2.150837191072351
 31
0.0
  0
ARC
  5
15E
330
139
100
AcDbEntity
  8
AM_9
 48
0.024078158636621
100
AcDbCircle
 10
0.0000000000000001
 20
-0.0000000000000027
 30
0.0
 40
2.277850000000003
100
AcDbArc
 50
70.77626362272213
 51
109.2237363772779
  0
LINE
  5
15F
330
139
100
AcDbEntity
  8
AM_9
 48
0.024078158636621
100
AcDbLine
 10
-0.7499999999999999
 20
2.150837191072351
 30
0.0
 11
-0.7499999999999999
 21
2.031314998344669
 31
0.0
  0
ARC
  5
160
330
139
100
AcDbEntity
  8
AM_9
 48
0.024078158636621
100
AcDbCircle
 10
0.0000000000000004
 20
0.0000000000000058
 30
0.0
 40
2.277850000000006
100
AcDbArc
 50
250.7762636227221
 51
289.2237363772778
  0
LINE
  5
161
330
139
100
AcDbEntity
  8
AM_9
 48
0.024078158636621
100
AcDbLine
 10
0.7499999999999992
 20
-2.150837191072351
 30
0.0
 11
0.7499999999999999
 21
-2.031314998344669
 31
0.0
  0
LINE
  5
162
330
139
100
AcDbEntity
  8
AM_9
 48
0.024078158636621
100
AcDbLine
 10
2.6
 20
-0.5
 30
0.0
 11
3.879999999999999
 21
-0.5
 31
0.0
  0
LINE
  5
163
330
139
100
AcDbEntity
  8
AM_9
 48
0.024078158636621
100
AcDbLine
 10
3.879999999999999
 20
0.5
 30
0.0
 11
2.6
 21
0.5
 31
0.0
  0
LINE
  5
164
330
139
100
AcDbEntity
  8
AM_9
 48
0.024078158636621
100
AcDbLine
 10
2.6
 20
0.5
 30
0.0
 11
2.6
 21
-0.5
 31
0.0
  0
LINE
  5
165
330
139
100
AcDbEntity
  8
AM_7
 48
0.024078158636621
100
AcDbLine
 10
-2.2736175
 20
0.0
 30
0.0
 11
3.960732499999999
 21
0.0
 31
0.0
  0
LINE
  5
166
330
139
100
AcDbEntity
  8
AM_7
 48
0.024078158636621
100
AcDbLine
 10
0.0
 20
-2.3174925
 30
0.0
 11
0.0
 21
2.2736175
 31
0.0
  0
LWPOLYLINE
  5
167
330
139
100
AcDbEntity
  8
AM_0
 48
0.024078158636621
100
AcDbPolyline
 90
       19
 70
     0
 43
0.0
 10
-1.8124
 20
2.874999999999999
 10
-1.817855949496004
 20
2.874761788100543
 10
-1.82327037592195
 20
2.874048965338563
 10
-1.828602072223418
 20
2.872866956725695
 10
-1.833810460972187
 20
2.871224758061198
 10
-1.838855903184968
 20
2.869134867468494
 10
-1.8437
 20
2.866613190276905
 10
-1.848305884915576
 20
2.863678917972491
 10
-1.852638504366378
 20
2.860354382139248
 10
-1.856664884502278
 20
2.856664884502278
 10
-1.860354382139248
 20
2.852638504366377
 10
-1.863678917972491
 20
2.848305884915575
 10
-1.866613190276906
 20
2.8437
 10
-1.869134867468494
 20
2.838855903184967
 10
-1.871224758061198
 20
2.833810460972187
 10
-1.872866956725696
 20
2.828602072223418
 10
-1.874048965338565
 20
2.82327037592195
 10
-1.874761788100544
 20
2.817855949496004
 10
-1.875
 20
2.8124
  0
LWPOLYLINE
  5
168
330
139
100
AcDbEntity
  8
AM_0
 48
0.024078158636621
100
AcDbPolyline
 90
       19
 70
     0
 43
0.0
 10
1.875
 20
2.8124
 10
1.874761788100543
 20
2.817855949496003
 10
1.874048965338564
 20
2.82327037592195
 10
1.872866956725696
 20
2.828602072223418
 10
1.871224758061198
 20
2.833810460972187
 10
1.869134867468494
 20
2.838855903184967
 10
1.866613190276906
 20
2.8437
 10
1.863678917972491
 20
2.848305884915575
 10
1.860354382139248
 20
2.852638504366377
 10
1.856664884502278
 20
2.856664884502278
 10
1.852638504366377
 20
2.860354382139248
 10
1.848305884915576
 20
2.863678917972491
 10
1.8437
 20
2.866613190276905
 10
1.838855903184968
 20
2.869134867468494
 10
1.833810460972187
 20
2.871224758061198
 10
1.828602072223418
 20
2.872866956725695
 10
1.82327037592195
 20
2.874048965338564
 10
1.817855949496004
 20
2.874761788100543
 10
1.8124
 20
2.875
  0
LINE
  5
169
330
139
100
AcDbEntity
  8
AM_0
 48
0.024078158636621
100
AcDbLine
 10
1.8124
 20
2.874999999999999
 30
0.0
 11
-1.8124
 21
2.875
 31
0.0
  0
LWPOLYLINE
  5
16A
330
139
100
AcDbEntity
  8
AM_0
 48
0.024078158636621
100
AcDbPolyline
 90
       19
 70
     0
 43
0.0
 10
1.8124
 20
-2.874999999999999
 10
1.817855949496004
 20
-2.874761788100543
 10
1.82327037592195
 20
-2.874048965338563
 10
1.828602072223418
 20
-2.872866956725695
 10
1.833810460972187
 20
-2.871224758061198
 10
1.838855903184968
 20
-2.869134867468494
 10
1.8437
 20
-2.866613190276905
 10
1.848305884915576
 20
-2.863678917972491
 10
1.852638504366378
 20
-2.860354382139248
 10
1.856664884502278
 20
-2.856664884502278
 10
1.860354382139248
 20
-2.852638504366377
 10
1.863678917972491
 20
-2.848305884915575
 10
1.866613190276906
 20
-2.8437
 10
1.869134867468494
 20
-2.838855903184967
 10
1.871224758061198
 20
-2.833810460972187
 10
1.872866956725696
 20
-2.828602072223418
 10
1.874048965338565
 20
-2.82327037592195
 10
1.874761788100544
 20
-2.817855949496004
 10
1.875
 20
-2.8124
  0
LWPOLYLINE
  5
16B
330
139
100
AcDbEntity
  8
AM_0
 48
0.024078158636621
100
AcDbPolyline
 90
       19
 70
     0
 43
0.0
 10
-1.875
 20
-2.8124
 10
-1.874761788100544
 20
-2.817855949496003
 10
-1.874048965338565
 20
-2.82327037592195
 10
-1.872866956725696
 20
-2.828602072223418
 10
-1.871224758061198
 20
-2.833810460972187
 10
-1.869134867468495
 20
-2.838855903184967
 10
-1.866613190276906
 20
-2.8437
 10
-1.863678917972491
 20
-2.848305884915575
 10
-1.860354382139249
 20
-2.852638504366377
 10
-1.856664884502278
 20
-2.856664884502278
 10
-1.852638504366378
 20
-2.860354382139247
 10
-1.848305884915576
 20
-2.863678917972491
 10
-1.8437
 20
-2.866613190276905
 10
-1.838855903184968
 20
-2.869134867468494
 10
-1.833810460972187
 20
-2.871224758061198
 10
-1.828602072223418
 20
-2.872866956725695
 10
-1.82327037592195
 20
-2.874048965338563
 10
-1.817855949496004
 20
-2.874761788100543
 10
-1.812400000000001
 20
-2.874999999999999
  0
LINE
  5
16C
330
139
100
AcDbEntity
  8
AM_0
 48
0.024078158636621
100
AcDbLine
 10
1.8124
 20
-2.875
 30
0.0
 11
-1.8124
 21
-2.875
 31
0.0
  0
LINE
  5
16D
330
139
100
AcDbEntity
  8
AM_0
 48
0.024078158636621
100
AcDbLine
 10
-1.875
 20
-2.065129399036674
 30
0.0
 11
-1.875
 21
-2.8124
 31
0.0
  0
LINE
  5
16E
330
139
100
AcDbEntity
  8
AM_4
 48
0.024078158636621
100
AcDbLine
 10
1.875
 20
-2.8124
 30
0.0
 11
-1.875
 21
-2.8124
 31
0.0
  0
LINE
  5
16F
330
139
100
AcDbEntity
  8
AM_0
 48
0.024078158636621
100
AcDbLine
 10
1.875
 20
-2.065129399036674
 30
0.0
 11
1.875
 21
-2.8124
 31
0.0
  0
LINE
  5
170
330
139
100
AcDbEntity
  8
AM_0
 48
0.024078158636621
100
AcDbLine
 10
1.875
 20
2.8124
 30
0.0
 11
1.875
 21
2.065129399036674
 31
0.0
  0
LINE
  5
171
330
139
100
AcDbEntity
  8
AM_0
 48
0.024078158636621
100
AcDbLine
 10
-1.875
 20
2.8124
 30
0.0
 11
-1.875
 21
2.065129399036674
 31
0.0
  0
LINE
  5
172
330
139
100
AcDbEntity
  8
AM_4
 48
0.024078158636621
100
AcDbLine
 10
1.875
 20
2.8124
 30
0.0
 11
-1.875
 21
2.8124
 31
0.0
  0
ARC
  5
173
330
139
100
AcDbEntity
  8
AM_0
 48
0.024078158636621
100
AcDbCircle
 10
-0.0000000000000013
 20
-0.0000000000000016
 30
0.0
 40
2.810000000000002
100
AcDbArc
 50
14.72678564827017
 51
48.14407553227559
  0
ARC
  5
174
330
139
100
AcDbEntity
  8
AM_0
 48
0.024078158636621
100
AcDbCircle
 10
0.0000000000000001
 20
0.0000000000000004
 30
0.0
 40
2.789334048615471
100
AcDbArc
 50
47.7626424242422
 51
132.2373575757578
  0
ARC
  5
175
330
139
100
AcDbEntity
  8
AM_0
 48
0.024078158636621
100
AcDbCircle
 10
-0.0000000000000004
 20
0.0000000000000002
 30
0.0
 40
2.81
100
AcDbArc
 50
131.8559244677244
 51
228.1440755322756
  0
ARC
  5
176
330
139
100
AcDbEntity
  8
AM_0
 48
0.024078158636621
100
AcDbCircle
 10
0.0000000000000001
 20
0.0000000000000004
 30
0.0
 40
2.789334048615471
100
AcDbArc
 50
227.7626424242422
 51
312.2373575757578
  0
ARC
  5
177
330
139
100
AcDbEntity
  8
AM_0
 48
0.024078158636621
100
AcDbCircle
 10
-0.0000000000000067
 20
0.0000000000000049
 30
0.0
 40
2.810000000000008
100
AcDbArc
 50
311.8559244677244
 51
345.2732143517298
  0
ARC
  5
178
330
139
100
AcDbEntity
  8
AM_0
 48
0.024078158636621
100
AcDbCircle
 10
-0.0000000000000003
 20
0.0
 30
0.0
 40
2.747400000000001
100
AcDbArc
 50
10.94990968072636
 51
349.0500903192737
  0
CIRCLE
  5
179
330
139
100
AcDbEntity
  8
AM_0
 48
0.024078158636621
100
AcDbCircle
 10
0.0
 20
0.0
 30
0.0
 40
2.16535
  0
LWPOLYLINE
  5
17A
330
139
100
AcDbEntity
  8
AM_0
 48
0.024078158636621
100
AcDbPolyline
 90
        8
 70
     0
 43
0.0
 10
2.26535
 20
0.336409142430926
 10
2.270879893409933
 20
0.4024076238299504
 10
2.278167043820114
 20
0.4323112381255668
 10
2.289721773713103
 20
0.4614320559905693
 10
2.31227595849335
 20
0.4945574252042079
 10
2.335723453500237
 20
0.5129525572979712
 10
2.358583511312371
 20
0.5209454746529478
 10
2.369683333333334
 20
0.5218706736347616
  0
LINE
  5
17B
330
139
100
AcDbEntity
  8
AM_0
 48
0.024078158636621
100
AcDbLine
 10
2.26535
 20
0.336409142430926
 30
0.0
 11
2.26535
 21
-0.336409142430926
 31
0.0
  0
LWPOLYLINE
  5
17C
330
139
100
AcDbEntity
  8
AM_0
 48
0.024078158636621
100
AcDbPolyline
 90
        8
 70
     0
 43
0.0
 10
2.369683333333334
 20
-0.5218706736347616
 10
2.361751340530802
 20
-0.5213989897737106
 10
2.339951443954659
 20
-0.5150886072331193
 10
2.316065787883023
 20
-0.4983912647121144
 10
2.291646146127421
 20
-0.4651826530418391
 10
2.27894622972032
 20
-0.4347661674804331
 10
2.270794902574348
 20
-0.4019421421123988
 10
2.26535
 20
-0.336409142430926
  0
LINE
  5
17D
330
139
100
AcDbEntity
  8
AM_4
 48
0.024078158636621
100
AcDbLine
 10
2.369683333333334
 20
0.5218706736347616
 30
0.0
 11
2.369683333333334
 21
-0.5218706736347616
 31
0.0
  0
LINE
  5
17E
330
139
100
AcDbEntity
  8
AM_0
 48
0.024078158636621
100
AcDbLine
 10
2.369683333333334
 20
-0.5218706736347616
 30
0.0
 11
2.697379795282822
 21
-0.5218706736347616
 31
0.0
  0
LWPOLYLINE
  5
17F
330
139
100
AcDbEntity
  8
AM_0
 48
0.024078158636621
100
AcDbPolyline
 90
        5
 70
     0
 43
0.0
 10
2.697379795282822
 20
-0.5218706736347616
 10
2.699949754660115
 20
-0.5770804581861125
 10
2.703917523007366
 20
-0.6273969459840544
 10
2.709794692936276
 20
-0.6739435176665265
 10
2.717688734428081
 20
-0.7143304156779954
  0
LWPOLYLINE
  5
180
330
139
100
AcDbEntity
  8
AM_0
 48
0.024078158636621
100
AcDbPolyline
 90
        5
 70
     0
 43
0.0
 10
2.717688734428081
 20
0.7143304156779954
 10
2.710044762383243
 20
0.6755246777020854
 10
2.704281594361076
 20
0.6309848391428667
 10
2.700072845706043
 20
0.5790713718826566
 10
2.697379795282822
 20
0.5218706736347616
  0
LINE
  5
181
330
139
100
AcDbEntity
  8
AM_0
 48
0.024078158636621
100
AcDbLine
 10
2.697379795282822
 20
0.5218706736347616
 30
0.0
 11
2.369683333333334
 21
0.5218706736347616
 31
0.0
  0
LWPOLYLINE
  5
182
330
139
100
AcDbEntity
  8
AM_0
 48
0.024078158636621
100
AcDbPolyline
 90
       39
 70
     0
 43
0.0
 10
2.97
 20
0.0
 10
2.973021421360776
 20
-0.0361981554910939
 10
2.981894410674041
 20
-0.0713586973766731
 10
2.996391570355279
 20
-0.1044379232467174
 10
3.016016434628938
 20
-0.134646644892375
 10
3.040861350872879
 20
-0.1617072648409852
 10
3.069850481113346
 20
-0.184293497202982
 10
3.102892001775841
 20
-0.2019947511308225
 10
3.138550962762011
 20
-0.2138995010917137
 10
3.174947388023174
 20
-0.2194596389886029
 10
3.211791583648024
 20
-0.2189180825836714
 10
3.246953536145737
 20
-0.2124787709259961
 10
3.280541532006739
 20
-0.2005049400435628
 10
3.311988406381953
 20
-0.1830597292811412
 10
3.340144688882911
 20
-0.1607997898016476
 10
3.365006910706479
 20
-0.1332802157751699
 10
3.384953765439624
 20
-0.1019462080752004
 10
3.39938930996908
 20
-0.067419136650038
 10
3.407825454227933
 20
-0.0308556557278344
 10
3.409906150511134
 20
0.0055566817851352
 10
3.405991048105314
 20
0.0418075009820949
 10
3.396351768832519
 20
0.0762249416307034
 10
3.381349952097754
 20
0.1085596418204633
 10
3.360903050468239
 20
0.1385065559969649
 10
3.335874117496148
 20
0.1646837631484054
 10
3.305949071456367
 20
0.1869395722130752
 10
3.272636079649234
 20
0.203890358624937
 10
3.237019078262847
 20
0.2148910784364434
 10
3.199978256943398
 20
0.2197735980239017
 10
3.1638806592657
 20
0.2184212155186774
 10
3.128528370082463
 20
0.2112373989502838
 10
3.095197050094081
 20
0.1985048858930185
 10
3.064423489254061
 20
0.1806392536213404
 10
3.036232646845278
 20
0.1573128192852585
 10
3.012270357972622
 20
0.1296617690177793
 10
2.992867287170003
 20
0.0976144797206075
 10
2.979110891708875
 20
0.0626560771527725
 10
2.972305929620341
 20
0.0316766897252644
 10
2.97
 20
-0.0000000000000001
  0
LINE
  5
183
330
139
100
AcDbEntity
  8
AM_0
 48
0.024078158636621
100
AcDbLine
 10
2.689395313397489
 20
-0.815
 30
0.0
 11
3.775666666666667
 21
-0.815
 31
0.0
  0
LINE
  5
184
330
139
100
AcDbEntity
  8
AM_0
 48
0.024078158636621
100
AcDbLine
 10
3.775666666666667
 20
0.815
 30
0.0
 11
2.689323335729136
 21
0.815
 31
0.0
  0
LINE
  5
185
330
139
100
AcDbEntity
  8
AM_0
 48
0.024078158636621
100
AcDbLine
 10
3.879999999999999
 20
0.7106666666666683
 30
0.0
 11
3.879999999999999
 21
-0.7106666666666683
 31
0.0
  0
ARC
  5
186
330
139
100
AcDbEntity
  8
AM_0
 48
0.024078158636621
100
AcDbCircle
 10
3.775666666666669
 20
-0.7106666666666697
 30
0.0
 40
0.1043333333333303
100
AcDbArc
 50
269.9999999999985
 51
0.0000000000007316
  0
ARC
  5
187
330
139
100
AcDbEntity
  8
AM_0
 48
0.024078158636621
100
AcDbCircle
 10
3.775666666666669
 20
0.7106666666666692
 30
0.0
 40
0.1043333333333303
100
AcDbArc
 50
359.9999999999995
 51
90.00000000000146
  0
LINE
  5
188
330
139
100
AcDbEntity
  8
AM_4
 48
0.024078158636621
100
AcDbLine
 10
3.775666666666667
 20
0.815
 30
0.0
 11
3.775666666666667
 21
-0.815
 31
0.0
  0
ENDBLK
  5
13C
330
139
100
AcDbEntity
  8
0
100
AcDbBlockEnd
  0
ENDSEC
  0
SECTION
  2
ENTITIES
  0
ATTDEF
  5
6F
330
1F
100
AcDbEntity
  8
AM_6
100
AcDbText
 10
8.960732499999999
 20
2.875
 30
0.0
 40
0.5
  1
Eccentric Collar Narrow Slot Take Up Inch Bore
100
AcDbAttributeDefinition
  3

  2
NN
 70
     8
280
     0
  0
ATTDEF
  5
70
330
1F
100
AcDbEntity
  8
AM_6
100
AcDbText
 10
8.960732499999999
 20
2.375
 30
0.0
 40
0.5
  1
SXR Take-Up Bearings -Narrow Slot -(Normal Duty)
100
AcDbAttributeDefinition
  3

  2
NT
 70
     8
280
     0
  0
ATTDEF
  5
71
330
1F
100
AcDbEntity
  8
AM_6
100
AcDbText
 10
8.960732499999999
 20
1.875
 30
0.0
 40
0.5
  1
131182
100
AcDbAttributeDefinition
  3

  2
NB
 70
     8
280
     0
  0
ATTDEF
  5
72
330
1F
100
AcDbEntity
  8
AM_6
100
AcDbText
 10
8.960732499999999
 20
1.375
 30
0.0
 40
0.5
  1
$PN.
100
AcDbAttributeDefinition
  3

  2
NBSYN
 70
     8
280
     0
  0
ATTDEF
  5
73
330
1F
100
AcDbEntity
  8
AM_6
100
AcDbText
 10
8.960732499999999
 20
0.875
 30
0.0
 40
0.5
  1
131182
100
AcDbAttributeDefinition
  3

  2
LINA
 70
     8
280
     0
  0
ATTDEF
  5
74
330
1F
100
AcDbEntity
  8
AM_6
100
AcDbText
 10
8.960732499999999
 20
0.375
 30
0.0
 40
0.5
  1
212
100
AcDbAttributeDefinition
  3

  2
SERIES
 70
     8
280
     0
  0
ATTDEF
  5
75
330
1F
100
AcDbEntity
  8
AM_6
100
AcDbText
 10
8.960732499999999
 20
-0.125
 30
0.0
 40
0.5
  1
2-1/4
100
AcDbAttributeDefinition
  3

  2
SS
 70
     8
280
     0
  0
ATTDEF
  5
76
330
1F
100
AcDbEntity
  8
AM_6
100
AcDbText
 10
8.960732499999999
 20
-0.625
 30
0.0
 40
0.5
  1
131182
100
AcDbAttributeDefinition
  3

  2
PN
 70
     8
280
     0
  0
ATTDEF
  5
77
330
1F
100
AcDbEntity
  8
AM_6
100
AcDbText
 10
8.960732499999999
 20
-1.125
 30
0.0
 40
0.5
  1
NSTU-SXR-204
100
AcDbAttributeDefinition
  3

  2
DESCRIPTION
 70
     8
280
     0
  0
ATTDEF
  5
78
330
1F
100
AcDbEntity
  8
AM_6
100
AcDbText
 10
8.960732499999999
 20
-1.625
 30
0.0
 40
0.5
  1
10.0
100
AcDbAttributeDefinition
  3

  2
W
 70
     8
280
     0
  0
ATTDEF
  5
79
330
1F
100
AcDbEntity
  8
AM_6
100
AcDbText
 10
8.960732499999999
 20
-2.125
 30
0.0
 40
0.5
  1
NS415
100
AcDbAttributeDefinition
  3

  2
FS
 70
     8
280
     0
  0
ATTDEF
  5
7A
330
1F
100
AcDbEntity
  8
AM_6
100
AcDbText
 10
8.960732499999999
 20
-2.625
 30
0.0
 40
0.5
  1
2.74
100
AcDbAttributeDefinition
  3

  2
A
 70
     8
280
     0
  0
ATTDEF
  5
7B
330
1F
100
AcDbEntity
  8
AM_6
100
AcDbText
 10
8.960732499999999
 20
-3.125
 30
0.0
 40
0.5
  1
6.69
100
AcDbAttributeDefinition
  3

  2
B
 70
     8
280
     0
  0
ATTDEF
  5
7C
330
1F
100
AcDbEntity
  8
AM_6
100
AcDbText
 10
8.960732499999999
 20
-3.625
 30
0.0
 40
0.5
  1
0.313
100
AcDbAttributeDefinition
  3

  2
C
 70
     8
280
     0
  0
ATTDEF
  5
7D
330
1F
100
AcDbEntity
  8
AM_6
100
AcDbText
 10
8.960732499999999
 20
-4.125
 30
0.0
 40
0.5
  1
3.75
100
AcDbAttributeDefinition
  3

  2
D
 70
     8
280
     0
  0
ATTDEF
  5
7E
330
1F
100
AcDbEntity
  8
AM_6
100
AcDbText
 10
8.960732499999999
 20
-4.625
 30
0.0
 40
0.5
  1
3.88
100
AcDbAttributeDefinition
  3

  2
E
 70
     8
280
     0
  0
ATTDEF
  5
7F
330
1F
100
AcDbEntity
  8
AM_6
100
AcDbText
 10
8.960732499999999
 20
-5.125
 30
0.0
 40
0.5
  1
1
100
AcDbAttributeDefinition
  3

  2
F
 70
     8
280
     0
  0
ATTDEF
  5
80
330
1F
100
AcDbEntity
  8
AM_6
100
AcDbText
 10
8.960732499999999
 20
-5.625
 30
0.0
 40
0.5
  1
0.69
100
AcDbAttributeDefinition
  3

  2
G
 70
     8
280
     0
  0
ATTDEF
  5
81
330
1F
100
AcDbEntity
  8
AM_6
100
AcDbText
 10
8.960732499999999
 20
-6.125
 30
0.0
 40
0.5
  1
1.28
100
AcDbAttributeDefinition
  3

  2
H
 70
     8
280
     0
  0
ATTDEF
  5
82
330
1F
100
AcDbEntity
  8
AM_6
100
AcDbText
 10
8.960732499999999
 20
-6.625
 30
0.0
 40
0.5
  1
1.63
100
AcDbAttributeDefinition
  3

  2
J
 70
     8
280
     0
  0
ATTDEF
  5
83
330
1F
100
AcDbEntity
  8
AM_6
100
AcDbText
 10
8.960732499999999
 20
-7.125
 30
0.0
 40
0.5
  1
3.31
100
AcDbAttributeDefinition
  3

  2
L
 70
     8
280
     0
  0
ATTDEF
  5
84
330
1F
100
AcDbEntity
  8
AM_6
100
AcDbText
 10
8.960732499999999
 20
-7.625
 30
0.0
 40
0.5
  1
4.947 / 4.917
100
AcDbAttributeDefinition
  3

  2
M
 70
     8
280
     0
  0
ATTDEF
  5
85
330
1F
100
AcDbEntity
  8
AM_6
100
AcDbText
 10
8.960732499999999
 20
-8.125
 30
0.0
 40
0.5
  1
5.75
100
AcDbAttributeDefinition
  3

  2
N
 70
     8
280
     0
  0
ATTDEF
  5
86
330
1F
100
AcDbEntity
  8
AM_6
100
AcDbText
 10
8.960732499999999
 20
-8.625
 30
0.0
 40
0.5
  1
0.44
100
AcDbAttributeDefinition
  3

  2
P
 70
     8
280
     0
  0
ATTDEF
  5
87
330
1F
100
AcDbEntity
  8
AM_6
100
AcDbText
 10
8.960732499999999
 20
-9.125
 30
0.0
 40
0.5
  1
0.90
100
AcDbAttributeDefinition
  3

  2
R
 70
     8
280
     0
  0
ATTDEF
  5
88
330
1F
100
AcDbEntity
  8
AM_6
100
AcDbText
 10
8.960732499999999
 20
-9.625
 30
0.0
 40
0.5
  1
1.84
100
AcDbAttributeDefinition
  3

  2
S
 70
     8
280
     0
  0
ATTDEF
  5
89
330
1F
100
AcDbEntity
  8
AM_6
100
AcDbText
 10
8.960732499999999
 20
-10.125
 30
0.0
 40
0.5
  1
baldor
100
AcDbAttributeDefinition
  3

  2
COMPANY
 70
     8
280
     0
  0
INSERT
  5
8B
330
1F
100
AcDbEntity
  8
0
100
AcDbBlockReference
  2
1_405016_Inch_0_in_131182_0
 10
0.0
 20
0.0
 30
0.0
  0
INSERT
  5
10C
330
1F
100
AcDbEntity
  8
0
100
AcDbBlockReference
  2
2_131928_0_in_131182_0
 10
0.0
 20
0.0
 30
0.0
  0
INSERT
  5
13A
330
1F
100
AcDbEntity
  8
0
100
AcDbBlockReference
  2
3_131182H_0_in_131182_0
 10
0.0
 20
0.0
 30
0.0
  0
POINT
  5
18A
330
1F
100
AcDbEntity
  8
ConnectionPoints
100
AcDbPoint
 10
0.0
 20
0.0
 30
0.0
  0
POINT
  5
18B
330
1F
100
AcDbEntity
  8
ConnectionPoints
100
AcDbPoint
 10
0.0
 20
0.0
 30
1.84
  0
POINT
  5
18C
330
1F
100
AcDbEntity
  8
ConnectionPoints
100
AcDbPoint
 10
-2.433531384634273
 20
-1.405
 30
0.0
  0
POINT
  5
18D
330
1F
100
AcDbEntity
  8
ConnectionPoints
100
AcDbPoint
 10
0.0
 20
0.0
 30
1.84
  0
ENDSEC
  0
SECTION
  2
OBJECTS
  0
DICTIONARY
  5
C
330
0
100
AcDbDictionary
281
     1
  3
ACAD_DETAILVIEWSTYLE
350
195
  3
ACAD_GROUP
350
D
  3
ACAD_LAYOUT
350
1A
  3
ACAD_MATERIAL
350
43
  3
ACAD_MLEADERSTYLE
350
6B
  3
ACAD_MLINESTYLE
350
17
  3
ACAD_PLOTSETTINGS
350
19
  3
ACAD_PLOTSTYLENAME
350
E
  3
ACAD_SCALELIST
350
47
  3
ACAD_SECTIONVIEWSTYLE
350
196
  3
ACAD_TABLESTYLE
350
69
  3
ACAD_VISUALSTYLE
350
2A
  3
ACDB_RECOMPOSE_DATA
350
192
  3
AcDbVariableDictionary
350
18E
  0
SUN
  5
6D
330
29
100
AcDbSun
 90
        1
290
     0
 63
     7
421
 16777215
 40
1.0
291
     1
 91
  2455826
 92
 54000000
292
     0
 70
     2
 71
   256
280
     1
  0
DICTIONARY
  5
195
102
{ACAD_REACTORS
330
C
102
}
330
C
100
AcDbDictionary
281
     1
  0
DICTIONARY
  5
D
102
{ACAD_REACTORS
330
C
102
}
330
C
100
AcDbDictionary
281
     1
  0
DICTIONARY
  5
1A
102
{ACAD_REACTORS
330
C
102
}
330
C
100
AcDbDictionary
281
     1
  3
Layout1
350
1E
  3
Layout2
350
26
  3
Model
350
22
  0
DICTIONARY
  5
43
102
{ACAD_REACTORS
330
C
102
}
330
C
100
AcDbDictionary
281
     1
  3
ByBlock
350
45
  3
ByLayer
350
44
  3
Global
350
46
  0
DICTIONARY
  5
6B
102
{ACAD_REACTORS
330
C
102
}
330
C
100
AcDbDictionary
281
     1
  3
Standard
350
6C
  0
DICTIONARY
  5
17
102
{ACAD_REACTORS
330
C
102
}
330
C
100
AcDbDictionary
281
     1
  3
Standard
350
18
  0
DICTIONARY
  5
19
102
{ACAD_REACTORS
330
C
102
}
330
C
100
AcDbDictionary
281
     1
  0
ACDBDICTIONARYWDFLT
  5
E
102
{ACAD_REACTORS
330
C
102
}
330
C
100
AcDbDictionary
281
     1
  3
Normal
350
F
100
AcDbDictionaryWithDefault
340
F
  0
DICTIONARY
  5
47
102
{ACAD_REACTORS
330
C
102
}
330
C
100
AcDbDictionary
281
     1
  3
A0
350
48
  3
A1
350
49
  3
A2
350
4A
  3
A3
350
4B
  3
A4
350
4C
  3
A5
350
4D
  3
A6
350
4E
  3
A7
350
4F
  3
A8
350
50
  3
A9
350
51
  3
B0
350
52
  3
B1
350
53
  3
B2
350
54
  3
B3
350
55
  3
B4
350
56
  3
B5
350
57
  3
B6
350
58
  3
B7
350
59
  3
B8
350
5A
  3
B9
350
5B
  3
C0
350
5C
  3
C1
350
5D
  3
C2
350
5E
  3
C3
350
5F
  3
C4
350
60
  3
C5
350
61
  3
C6
350
62
  3
C7
350
63
  3
C8
350
64
  3
C9
350
65
  3
D0
350
66
  3
D1
350
67
  3
D2
350
68
  0
DICTIONARY
  5
196
102
{ACAD_REACTORS
330
C
102
}
330
C
100
AcDbDictionary
281
     1
  0
DICTIONARY
  5
69
102
{ACAD_REACTORS
330
C
102
}
330
C
100
AcDbDictionary
281
     1
  3
Standard
350
6A
  0
DICTIONARY
  5
2A
102
{ACAD_REACTORS
330
C
102
}
330
C
100
AcDbDictionary
281
     1
  3
2dWireframe
350
2F
  3
Basic
350
32
  3
Brighten
350
36
  3
ColorChange
350
3A
  3
Conceptual
350
34
  3
Dim
350
35
  3
EdgeColorOff
350
3D
  3
Facepattern
350
39
  3
Flat
350
2B
  3
FlatWithEdges
350
2C
  3
Gouraud
350
2D
  3
GouraudWithEdges
350
2E
  3
Hidden
350
31
  3
JitterOff
350
3B
  3
Linepattern
350
38
  3
OverhangOff
350
3C
  3
Realistic
350
33
  3
Shaded
350
42
  3
Shaded with edges
350
41
  3
Shades of Gray
350
3E
  3
Sketchy
350
3F
  3
Thicken
350
37
  3
Wireframe
350
30
  3
X-Ray
350
40
  0
XRECORD
  5
192
102
{ACAD_REACTORS
330
C
102
}
330
C
100
AcDbXrecord
280
     1
 90
        1
330
6A
  0
DICTIONARY
  5
18E
102
{ACAD_REACTORS
330
C
102
}
330
C
100
AcDbDictionary
281
     1
  3
CANNOSCALE
350
18F
  3
CMLEADERSTYLE
350
194
  3
CTABLESTYLE
350
193
  0
LAYOUT
  5
1E
102
{ACAD_REACTORS
330
1A
102
}
330
1A
100
AcDbPlotSettings
  1

  2
none_device
  4

  6

 40
0.0
 41
0.0
 42
0.0
 43
0.0
 44
0.0
 45
0.0
 46
0.0
 47
0.0
 48
0.0
 49
0.0
140
0.0
141
0.0
142
1.0
143
1.0
 70
   688
 72
     0
 73
     0
 74
     5
  7

 75
    16
 76
     0
 77
     2
 78
   300
147
1.0
148
0.0
149
0.0
100
AcDbLayout
  1
Layout1
 70
     1
 71
     1
 10
0.0
 20
0.0
 11
12.0
 21
9.0
 12
0.0
 22
0.0
 32
0.0
 14
1.000000000000000E+20
 24
1.000000000000000E+20
 34
1.000000000000000E+20
 15
-1.000000000000000E+20
 25
-1.000000000000000E+20
 35
-1.000000000000000E+20
146
0.0
 13
0.0
 23
0.0
 33
0.0
 16
1.0
 26
0.0
 36
0.0
 17
0.0
 27
1.0
 37
0.0
 76
     0
330
1B
  0
LAYOUT
  5
26
102
{ACAD_REACTORS
330
1A
102
}
330
1A
100
AcDbPlotSettings
  1

  2
none_device
  4

  6

 40
0.0
 41
0.0
 42
0.0
 43
0.0
 44
0.0
 45
0.0
 46
0.0
 47
0.0
 48
0.0
 49
0.0
140
0.0
141
0.0
142
1.0
143
1.0
 70
   688
 72
     0
 73
     0
 74
     5
  7

 75
    16
 76
     0
 77
     2
 78
   300
147
1.0
148
0.0
149
0.0
100
AcDbLayout
  1
Layout2
 70
     1
 71
     2
 10
0.0
 20
0.0
 11
0.0
 21
0.0
 12
0.0
 22
0.0
 32
0.0
 14
0.0
 24
0.0
 34
0.0
 15
0.0
 25
0.0
 35
0.0
146
0.0
 13
0.0
 23
0.0
 33
0.0
 16
1.0
 26
0.0
 36
0.0
 17
0.0
 27
1.0
 37
0.0
 76
     0
330
23
  0
LAYOUT
  5
22
102
{ACAD_REACTORS
330
1A
102
}
330
1A
100
AcDbPlotSettings
  1

  2
none_device
  4
Letter_(8.50_x_11.00_Inches)
  6

 40
6.35
 41
6.35
 42
6.35000508
 43
6.35000508
 44
215.9
 45
279.4
 46
0.0
 47
0.0
 48
0.0
 49
0.0
140
0.0
141
0.0
142
1.0
143
1.0
 70
  1712
 72
     0
 73
     0
 74
     0
  7

 75
     0
 76
     0
 77
     2
 78
   300
147
1.0
148
0.0
149
0.0
100
AcDbLayout
  1
Model
 70
     1
 71
     0
 10
0.0
 20
0.0
 11
12.0
 21
9.0
 12
0.0
 22
0.0
 32
0.0
 14
1.000000000000000E+20
 24
1.000000000000000E+20
 34
1.000000000000000E+20
 15
-1.000000000000000E+20
 25
-1.000000000000000E+20
 35
-1.000000000000000E+20
146
0.0
 13
0.0
 23
0.0
 33
0.0
 16
1.0
 26
0.0
 36
0.0
 17
0.0
 27
1.0
 37
0.0
 76
     0
330
1F
331
29
  0
MATERIAL
  5
45
102
{ACAD_REACTORS
330
43
102
}
330
43
100
AcDbMaterial
  1
ByBlock
 72
     1
 94
      127
  0
MATERIAL
  5
44
102
{ACAD_REACTORS
330
43
102
}
330
43
100
AcDbMaterial
  1
ByLayer
 72
     1
 94
      127
  0
MATERIAL
  5
46
102
{ACAD_REACTORS
330
43
102
}
330
43
100
AcDbMaterial
  1
Global
 72
     1
 94
      127
  0
MLEADERSTYLE
  5
6C
102
{ACAD_REACTORS
330
6B
102
}
330
6B
100
AcDbMLeaderStyle
179
     2
170
     2
171
     1
172
     0
 90
        2
 40
0.0
 41
0.0
173
     1
 91
-1056964608
340
14
 92
       -2
290
     1
 42
0.09
291
     1
 43
0.36
  3
Standard
341
0
 44
0.18
300

342
11
174
     1
178
     6
175
     1
176
     0
 93
-1056964608
 45
0.18
292
     0
297
     0
 46
0.18
343
0
 94
-1056964608
 47
1.0
 49
1.0
140
1.0
293
     1
141
0.0
294
     1
177
     0
142
1.0
295
     0
296
     0
143
0.125
271
     0
272
     9
273
     9
298
     0
  0
MLINESTYLE
  5
18
102
{ACAD_REACTORS
330
17
102
}
330
17
100
AcDbMlineStyle
  2
Standard
 70
     0
  3

 62
   256
 51
90.0
 52
90.0
 71
     2
 49
0.5
 62
   256
  6
BYLAYER
 49
-0.5
 62
   256
  6
BYLAYER
  0
ACDBPLACEHOLDER
  5
F
102
{ACAD_REACTORS
330
E
102
}
330
E
  0
SCALE
  5
48
102
{ACAD_REACTORS
330
47
102
}
330
47
100
AcDbScale
 70
     0
300
1:1
140
1.0
141
1.0
290
     1
  0
SCALE
  5
49
102
{ACAD_REACTORS
330
47
102
}
330
47
100
AcDbScale
 70
     0
300
1:2
140
1.0
141
2.0
290
     0
  0
SCALE
  5
4A
102
{ACAD_REACTORS
330
47
102
}
330
47
100
AcDbScale
 70
     0
300
1:4
140
1.0
141
4.0
290
     0
  0
SCALE
  5
4B
102
{ACAD_REACTORS
330
47
102
}
330
47
100
AcDbScale
 70
     0
300
1:5
140
1.0
141
5.0
290
     0
  0
SCALE
  5
4C
102
{ACAD_REACTORS
330
47
102
}
330
47
100
AcDbScale
 70
     0
300
1:8
140
1.0
141
8.0
290
     0
  0
SCALE
  5
4D
102
{ACAD_REACTORS
330
47
102
}
330
47
100
AcDbScale
 70
     0
300
1:10
140
1.0
141
10.0
290
     0
  0
SCALE
  5
4E
102
{ACAD_REACTORS
330
47
102
}
330
47
100
AcDbScale
 70
     0
300
1:16
140
1.0
141
16.0
290
     0
  0
SCALE
  5
4F
102
{ACAD_REACTORS
330
47
102
}
330
47
100
AcDbScale
 70
     0
300
1:20
140
1.0
141
20.0
290
     0
  0
SCALE
  5
50
102
{ACAD_REACTORS
330
47
102
}
330
47
100
AcDbScale
 70
     0
300
1:30
140
1.0
141
30.0
290
     0
  0
SCALE
  5
51
102
{ACAD_REACTORS
330
47
102
}
330
47
100
AcDbScale
 70
     0
300
1:40
140
1.0
141
40.0
290
     0
  0
SCALE
  5
52
102
{ACAD_REACTORS
330
47
102
}
330
47
100
AcDbScale
 70
     0
300
1:50
140
1.0
141
50.0
290
     0
  0
SCALE
  5
53
102
{ACAD_REACTORS
330
47
102
}
330
47
100
AcDbScale
 70
     0
300
1:100
140
1.0
141
100.0
290
     0
  0
SCALE
  5
54
102
{ACAD_REACTORS
330
47
102
}
330
47
100
AcDbScale
 70
     0
300
2:1
140
2.0
141
1.0
290
     0
  0
SCALE
  5
55
102
{ACAD_REACTORS
330
47
102
}
330
47
100
AcDbScale
 70
     0
300
4:1
140
4.0
141
1.0
290
     0
  0
SCALE
  5
56
102
{ACAD_REACTORS
330
47
102
}
330
47
100
AcDbScale
 70
     0
300
8:1
140
8.0
141
1.0
290
     0
  0
SCALE
  5
57
102
{ACAD_REACTORS
330
47
102
}
330
47
100
AcDbScale
 70
     0
300
10:1
140
10.0
141
1.0
290
     0
  0
SCALE
  5
58
102
{ACAD_REACTORS
330
47
102
}
330
47
100
AcDbScale
 70
     0
300
100:1
140
100.0
141
1.0
290
     0
  0
SCALE
  5
59
102
{ACAD_REACTORS
330
47
102
}
330
47
100
AcDbScale
 70
     0
300
1/128" = 1'-0"
140
0.0078125
141
12.0
290
     0
  0
SCALE
  5
5A
102
{ACAD_REACTORS
330
47
102
}
330
47
100
AcDbScale
 70
     0
300
1/64" = 1'-0"
140
0.015625
141
12.0
290
     0
  0
SCALE
  5
5B
102
{ACAD_REACTORS
330
47
102
}
330
47
100
AcDbScale
 70
     0
300
1/32" = 1'-0"
140
0.03125
141
12.0
290
     0
  0
SCALE
  5
5C
102
{ACAD_REACTORS
330
47
102
}
330
47
100
AcDbScale
 70
     0
300
1/16" = 1'-0"
140
0.0625
141
12.0
290
     0
  0
SCALE
  5
5D
102
{ACAD_REACTORS
330
47
102
}
330
47
100
AcDbScale
 70
     0
300
3/32" = 1'-0"
140
0.09375
141
12.0
290
     0
  0
SCALE
  5
5E
102
{ACAD_REACTORS
330
47
102
}
330
47
100
AcDbScale
 70
     0
300
1/8" = 1'-0"
140
0.125
141
12.0
290
     0
  0
SCALE
  5
5F
102
{ACAD_REACTORS
330
47
102
}
330
47
100
AcDbScale
 70
     0
300
3/16" = 1'-0"
140
0.1875
141
12.0
290
     0
  0
SCALE
  5
60
102
{ACAD_REACTORS
330
47
102
}
330
47
100
AcDbScale
 70
     0
300
1/4" = 1'-0"
140
0.25
141
12.0
290
     0
  0
SCALE
  5
61
102
{ACAD_REACTORS
330
47
102
}
330
47
100
AcDbScale
 70
     0
300
3/8" = 1'-0"
140
0.375
141
12.0
290
     0
  0
SCALE
  5
62
102
{ACAD_REACTORS
330
47
102
}
330
47
100
AcDbScale
 70
     0
300
1/2" = 1'-0"
140
0.5
141
12.0
290
     0
  0
SCALE
  5
63
102
{ACAD_REACTORS
330
47
102
}
330
47
100
AcDbScale
 70
     0
300
3/4" = 1'-0"
140
0.75
141
12.0
290
     0
  0
SCALE
  5
64
102
{ACAD_REACTORS
330
47
102
}
330
47
100
AcDbScale
 70
     0
300
1" = 1'-0"
140
1.0
141
12.0
290
     0
  0
SCALE
  5
65
102
{ACAD_REACTORS
330
47
102
}
330
47
100
AcDbScale
 70
     0
300
1-1/2" = 1'-0"
140
1.5
141
12.0
290
     0
  0
SCALE
  5
66
102
{ACAD_REACTORS
330
47
102
}
330
47
100
AcDbScale
 70
     0
300
3" = 1'-0"
140
3.0
141
12.0
290
     0
  0
SCALE
  5
67
102
{ACAD_REACTORS
330
47
102
}
330
47
100
AcDbScale
 70
     0
300
6" = 1'-0"
140
6.0
141
12.0
290
     0
  0
SCALE
  5
68
102
{ACAD_REACTORS
330
47
102
}
330
47
100
AcDbScale
 70
     0
300
1'-0" = 1'-0"
140
12.0
141
12.0
290
     0
  0
TABLESTYLE
  5
6A
102
{ACAD_REACTORS
330
69
102
}
102
{ACAD_XDICTIONARY
360
190
102
}
330
69
100
AcDbTableStyle
  3
Standard
 70
     0
 71
     0
 40
0.06
 41
0.06
280
     0
281
     0
  7
Standard
140
0.18
170
     2
 62
     0
 63
   257
283
     0
 90
        4
 91
        0
  1

274
    -2
284
     1
 64
     0
275
    -2
285
     1
 65
     0
276
    -2
286
     1
 66
     0
277
    -2
287
     1
 67
     0
278
    -2
288
     1
 68
     0
279
    -2
289
     1
 69
     0
  7
Standard
140
0.25
170
     5
 62
     0
 63
   257
283
     0
 90
        4
 91
        0
  1

274
    -2
284
     1
 64
     0
275
    -2
285
     1
 65
     0
276
    -2
286
     1
 66
     0
277
    -2
287
     1
 67
     0
278
    -2
288
     1
 68
     0
279
    -2
289
     1
 69
     0
  7
Standard
140
0.18
170
     5
 62
     0
 63
   257
283
     0
 90
        4
 91
        0
  1

274
    -2
284
     1
 64
     0
275
    -2
285
     1
 65
     0
276
    -2
286
     1
 66
     0
277
    -2
287
     1
 67
     0
278
    -2
288
     1
 68
     0
279
    -2
289
     1
 69
     0
  0
VISUALSTYLE
  5
2F
102
{ACAD_REACTORS
330
2A
102
}
330
2A
100
AcDbVisualStyle
  2
2dWireframe
 70
     4
177
     3
291
     0
 70
    58
 90
        0
176
     1
 90
        2
176
     1
 90
        0
176
     1
 90
        0
176
     1
 40
0.6
176
     1
 40
30.0
176
     1
 62
     7
420
 16777215
176
     1
 90
        1
176
     1
 90
        4
176
     1
 62
     7
176
     1
 62
   257
176
     1
 90
        1
176
     1
 90
        1
176
     1
 40
1.0
176
     1
 90
        0
176
     1
 62
   257
176
     1
 40
1.0
176
     1
 90
        1
176
     1
 90
        6
176
     1
 90
        2
176
     1
 62
     7
176
     1
 90
        5
176
     1
 90
        0
176
     1
 90
        0
176
     1
290
     0
176
     1
 90
        1
176
     1
 40
0.0
176
     1
 90
        0
176
     1
290
     1
176
     1
290
     1
176
     1
290
     0
176
     1
290
     0
176
     1
290
     0
176
     1
290
     0
176
     1
290
     0
176
     1
290
     0
176
     1
290
     0
176
     1
 90
       50
176
     1
 40
0.0
176
     1
 40
1.0
176
     1
 90
        0
176
     1
 62
    18
420
        0
176
     1
 90
       50
176
     1
 90
        3
176
     1
 62
     5
420
      255
176
     1
290
     0
176
     1
 90
       50
176
     1
 90
       50
176
     1
 90
       50
176
     1
290
     0
176
     1
 90
       50
176
     1
 62
   256
176
     0
 40
1.0
176
     0
 90
        2
176
     1
  1
strokes_ogs.tif
176
     1
290
     0
176
     1
 40
1.0
176
     1
 40
1.0
176
     1
  0
VISUALSTYLE
  5
32
102
{ACAD_REACTORS
330
2A
102
}
330
2A
100
AcDbVisualStyle
  2
Basic
 70
     7
177
     3
291
     1
 70
    58
 90
        1
176
     1
 90
        0
176
     1
 90
        1
176
     1
 90
        0
176
     1
 40
0.6
176
     1
 40
30.0
176
     1
 62
     7
420
 16777215
176
     1
 90
        0
176
     1
 90
        4
176
     1
 62
     7
176
     1
 62
   257
176
     1
 90
        1
176
     1
 90
        1
176
     1
 40
1.0
176
     1
 90
        8
176
     1
 62
     7
176
     1
 40
1.0
176
     1
 90
        1
176
     1
 90
        6
176
     1
 90
        2
176
     1
 62
     7
176
     1
 90
        5
176
     1
 90
        0
176
     1
 90
        0
176
     1
290
     0
176
     1
 90
        1
176
     1
 40
0.0
176
     1
 90
        0
176
     1
290
     0
176
     1
290
     1
176
     1
290
     1
176
     1
290
     0
176
     1
290
     0
176
     1
290
     0
176
     1
290
     0
176
     1
290
     0
176
     1
290
     0
176
     1
 90
       50
176
     1
 40
0.0
176
     1
 40
1.0
176
     1
 90
        0
176
     1
 62
    18
420
        0
176
     1
 90
       50
176
     1
 90
        3
176
     1
 62
     5
420
      255
176
     1
290
     0
176
     1
 90
       50
176
     1
 90
       50
176
     1
 90
       50
176
     1
290
     0
176
     1
 90
       50
176
     1
 62
   256
176
     0
 40
1.0
176
     0
 90
        2
176
     1
  1
strokes_ogs.tif
176
     1
290
     0
176
     1
 40
1.0
176
     1
 40
1.0
176
     1
  0
VISUALSTYLE
  5
36
102
{ACAD_REACTORS
330
2A
102
}
330
2A
100
AcDbVisualStyle
  2
Brighten
 70
    12
177
     3
291
     1
 70
    58
 90
        2
176
     1
 90
        2
176
     1
 90
        0
176
     1
 90
        0
176
     1
 40
0.6
176
     1
 40
30.0
176
     1
 62
     7
420
 16777215
176
     1
 90
        1
176
     1
 90
        4
176
     1
 62
     7
176
     1
 62
   257
176
     1
 90
        1
176
     1
 90
        1
176
     1
 40
1.0
176
     1
 90
        8
176
     1
 62
     7
176
     1
 40
1.0
176
     1
 90
        1
176
     1
 90
        6
176
     1
 90
        2
176
     1
 62
     7
176
     1
 90
        5
176
     1
 90
        0
176
     1
 90
        0
176
     1
290
     0
176
     1
 90
        1
176
     1
 40
50.0
176
     1
 90
        0
176
     1
290
     0
176
     1
290
     1
176
     1
290
     1
176
     1
290
     0
176
     1
290
     0
176
     1
290
     0
176
     1
290
     0
176
     1
290
     0
176
     1
290
     0
176
     1
 90
       50
176
     1
 40
0.0
176
     1
 40
1.0
176
     1
 90
        0
176
     1
 62
    18
420
        0
176
     1
 90
       50
176
     1
 90
        3
176
     1
 62
     5
420
      255
176
     1
290
     0
176
     1
 90
       50
176
     1
 90
       50
176
     1
 90
       50
176
     1
290
     0
176
     1
 90
       50
176
     1
 62
   256
176
     0
 40
1.0
176
     0
 90
        2
176
     1
  1
strokes_ogs.tif
176
     1
290
     0
176
     1
 40
1.0
176
     1
 40
1.0
176
     1
  0
VISUALSTYLE
  5
3A
102
{ACAD_REACTORS
330
2A
102
}
330
2A
100
AcDbVisualStyle
  2
ColorChange
 70
    16
177
     3
291
     1
 70
    58
 90
        2
176
     1
 90
        2
176
     1
 90
        3
176
     1
 90
        0
176
     1
 40
0.6
176
     1
 40
30.0
176
     1
 62
     8
420
  8421504
176
     1
 90
        1
176
     1
 90
        4
176
     1
 62
     7
176
     1
 62
   257
176
     1
 90
        1
176
     1
 90
        1
176
     1
 40
1.0
176
     1
 90
        8
176
     1
 62
     8
420
  8421504
176
     1
 40
1.0
176
     1
 90
        1
176
     1
 90
        6
176
     1
 90
        2
176
     1
 62
     7
176
     1
 90
        5
176
     1
 90
        0
176
     1
 90
        0
176
     1
290
     0
176
     1
 90
        1
176
     1
 40
0.0
176
     1
 90
        0
176
     1
290
     0
176
     1
290
     1
176
     1
290
     1
176
     1
290
     0
176
     1
290
     0
176
     1
290
     0
176
     1
290
     0
176
     1
290
     0
176
     1
290
     0
176
     1
 90
       50
176
     1
 40
0.0
176
     1
 40
1.0
176
     1
 90
        0
176
     1
 62
    18
420
        0
176
     1
 90
       50
176
     1
 90
        3
176
     1
 62
     5
420
      255
176
     1
290
     0
176
     1
 90
       50
176
     1
 90
       50
176
     1
 90
       50
176
     1
290
     0
176
     1
 90
       50
176
     1
 62
   256
176
     0
 40
1.0
176
     0
 90
        2
176
     1
  1
strokes_ogs.tif
176
     1
290
     0
176
     1
 40
1.0
176
     1
 40
1.0
176
     1
  0
VISUALSTYLE
  5
34
102
{ACAD_REACTORS
330
2A
102
}
330
2A
100
AcDbVisualStyle
  2
Conceptual
 70
     9
177
     3
291
     0
 70
    58
 90
        3
176
     1
 90
        2
176
     1
 90
        0
176
     1
 90
        0
176
     1
 40
0.6
176
     1
 40
30.0
176
     1
 62
     7
420
 16777215
176
     1
 90
        2
176
     1
 90
        2
176
     1
 62
     7
176
     1
 62
   257
176
     1
 90
        1
176
     1
 90
        1
176
     1
 40
179.0
176
     1
 90
        8
176
     1
 62
     7
176
     1
 40
1.0
176
     1
 90
        1
176
     1
 90
        6
176
     1
 90
        2
176
     1
 62
     7
176
     1
 90
        3
176
     1
 90
        0
176
     1
 90
        0
176
     1
290
     0
176
     1
 90
        1
176
     1
 40
0.0
176
     1
 90
        0
176
     1
290
     0
176
     1
290
     1
176
     1
290
     1
176
     1
290
     0
176
     1
290
     0
176
     1
290
     0
176
     1
290
     0
176
     1
290
     0
176
     1
290
     0
176
     1
 90
       50
176
     1
 40
0.0
176
     1
 40
1.0
176
     1
 90
        0
176
     1
 62
    18
420
        0
176
     1
 90
       50
176
     1
 90
        3
176
     1
 62
     5
420
      255
176
     1
290
     0
176
     1
 90
       50
176
     1
 90
       50
176
     1
 90
       50
176
     1
290
     0
176
     1
 90
       50
176
     1
 62
   256
176
     0
 40
1.0
176
     0
 90
        2
176
     1
  1
strokes_ogs.tif
176
     1
290
     0
176
     1
 40
1.0
176
     1
 40
1.0
176
     1
  0
VISUALSTYLE
  5
35
102
{ACAD_REACTORS
330
2A
102
}
330
2A
100
AcDbVisualStyle
  2
Dim
 70
    11
177
     3
291
     1
 70
    58
 90
        2
176
     1
 90
        2
176
     1
 90
        0
176
     1
 90
        0
176
     1
 40
0.6
176
     1
 40
30.0
176
     1
 62
     7
420
 16777215
176
     1
 90
        1
176
     1
 90
        4
176
     1
 62
     7
176
     1
 62
   257
176
     1
 90
        1
176
     1
 90
        1
176
     1
 40
1.0
176
     1
 90
        8
176
     1
 62
     7
176
     1
 40
1.0
176
     1
 90
        1
176
     1
 90
        6
176
     1
 90
        2
176
     1
 62
     7
176
     1
 90
        5
176
     1
 90
        0
176
     1
 90
        0
176
     1
290
     0
176
     1
 90
        1
176
     1
 40
-50.0
176
     1
 90
        0
176
     1
290
     0
176
     1
290
     1
176
     1
290
     1
176
     1
290
     0
176
     1
290
     0
176
     1
290
     0
176
     1
290
     0
176
     1
290
     0
176
     1
290
     0
176
     1
 90
       50
176
     1
 40
0.0
176
     1
 40
1.0
176
     1
 90
        0
176
     1
 62
    18
420
        0
176
     1
 90
       50
176
     1
 90
        3
176
     1
 62
     5
420
      255
176
     1
290
     0
176
     1
 90
       50
176
     1
 90
       50
176
     1
 90
       50
176
     1
290
     0
176
     1
 90
       50
176
     1
 62
   256
176
     0
 40
1.0
176
     0
 90
        2
176
     1
  1
strokes_ogs.tif
176
     1
290
     0
176
     1
 40
1.0
176
     1
 40
1.0
176
     1
  0
VISUALSTYLE
  5
3D
102
{ACAD_REACTORS
330
2A
102
}
330
2A
100
AcDbVisualStyle
  2
EdgeColorOff
 70
    22
177
     3
291
     1
 70
    58
 90
        2
176
     0
 90
        2
176
     0
 90
        0
176
     0
 90
        0
176
     0
 40
0.6
176
     0
 40
30.0
176
     0
 62
     7
420
 16777215
176
     0
 90
        1
176
     0
 90
        4
176
     0
 62
     7
176
     0
 62
   257
176
     0
 90
        1
176
     0
 90
        1
176
     0
 40
1.0
176
     0
 90
        8
176
     2
 62
     7
176
     0
 40
1.0
176
     0
 90
        1
176
     0
 90
        6
176
     0
 90
        2
176
     0
 62
     7
176
     0
 90
        5
176
     0
 90
        0
176
     0
 90
        0
176
     0
290
     0
176
     0
 90
        1
176
     0
 40
0.0
176
     0
 90
        0
176
     0
290
     0
176
     0
290
     1
176
     0
290
     1
176
     0
290
     0
176
     0
290
     0
176
     0
290
     0
176
     0
290
     0
176
     0
290
     0
176
     0
290
     0
176
     0
 90
       50
176
     0
 40
0.0
176
     0
 40
1.0
176
     0
 90
        0
176
     0
 62
    18
420
        0
176
     0
 90
       50
176
     0
 90
        3
176
     0
 62
     5
420
      255
176
     0
290
     0
176
     0
 90
       50
176
     0
 90
       50
176
     0
 90
       50
176
     0
290
     0
176
     0
 90
       50
176
     0
 62
   256
176
     0
 40
1.0
176
     0
 90
        2
176
     0
  1
strokes_ogs.tif
176
     0
290
     0
176
     0
 40
1.0
176
     0
 40
1.0
176
     0
  0
VISUALSTYLE
  5
39
102
{ACAD_REACTORS
330
2A
102
}
330
2A
100
AcDbVisualStyle
  2
Facepattern
 70
    15
177
     3
291
     1
 70
    58
 90
        2
176
     1
 90
        2
176
     1
 90
        0
176
     1
 90
        0
176
     1
 40
0.6
176
     1
 40
30.0
176
     1
 62
     7
420
 16777215
176
     1
 90
        1
176
     1
 90
        4
176
     1
 62
     7
176
     1
 62
   257
176
     1
 90
        1
176
     1
 90
        1
176
     1
 40
1.0
176
     1
 90
        8
176
     1
 62
     7
176
     1
 40
1.0
176
     1
 90
        1
176
     1
 90
        6
176
     1
 90
        2
176
     1
 62
     7
176
     1
 90
        5
176
     1
 90
        0
176
     1
 90
        0
176
     1
290
     0
176
     1
 90
        1
176
     1
 40
0.0
176
     1
 90
        0
176
     1
290
     0
176
     1
290
     1
176
     1
290
     1
176
     1
290
     0
176
     1
290
     0
176
     1
290
     0
176
     1
290
     0
176
     1
290
     0
176
     1
290
     0
176
     1
 90
       50
176
     1
 40
0.0
176
     1
 40
1.0
176
     1
 90
        0
176
     1
 62
    18
420
        0
176
     1
 90
       50
176
     1
 90
        3
176
     1
 62
     5
420
      255
176
     1
290
     0
176
     1
 90
       50
176
     1
 90
       50
176
     1
 90
       50
176
     1
290
     0
176
     1
 90
       50
176
     1
 62
   256
176
     0
 40
1.0
176
     0
 90
        2
176
     1
  1
strokes_ogs.tif
176
     1
290
     0
176
     1
 40
1.0
176
     1
 40
1.0
176
     1
  0
VISUALSTYLE
  5
2B
102
{ACAD_REACTORS
330
2A
102
}
330
2A
100
AcDbVisualStyle
  2
Flat
 70
     0
177
     3
291
     1
 70
    58
 90
        2
176
     1
 90
        1
176
     1
 90
        1
176
     1
 90
        2
176
     1
 40
0.6
176
     1
 40
30.0
176
     1
 62
     7
420
 16777215
176
     1
 90
        0
176
     1
 90
        0
176
     1
 62
     7
176
     1
 62
   257
176
     1
 90
        1
176
     1
 90
        1
176
     1
 40
1.0
176
     1
 90
        8
176
     1
 62
     7
176
     1
 40
1.0
176
     1
 90
        1
176
     1
 90
        6
176
     1
 90
        2
176
     1
 62
     7
176
     1
 90
        5
176
     1
 90
        0
176
     1
 90
        0
176
     1
290
     0
176
     1
 90
       13
176
     1
 40
0.0
176
     1
 90
        0
176
     1
290
     0
176
     1
290
     1
176
     1
290
     1
176
     1
290
     0
176
     1
290
     0
176
     1
290
     0
176
     1
290
     0
176
     1
290
     0
176
     1
290
     0
176
     1
 90
       50
176
     1
 40
0.0
176
     1
 40
1.0
176
     1
 90
        0
176
     1
 62
    18
420
        0
176
     1
 90
       50
176
     1
 90
        3
176
     1
 62
     5
420
      255
176
     1
290
     0
176
     1
 90
       50
176
     1
 90
       50
176
     1
 90
       50
176
     1
290
     0
176
     1
 90
       50
176
     1
 62
   256
176
     0
 40
1.0
176
     0
 90
        2
176
     1
  1
strokes_ogs.tif
176
     1
290
     0
176
     1
 40
1.0
176
     1
 40
1.0
176
     1
  0
VISUALSTYLE
  5
2C
102
{ACAD_REACTORS
330
2A
102
}
330
2A
100
AcDbVisualStyle
  2
FlatWithEdges
 70
     1
177
     3
291
     1
 70
    58
 90
        2
176
     1
 90
        1
176
     1
 90
        1
176
     1
 90
        2
176
     1
 40
0.6
176
     1
 40
30.0
176
     1
 62
     7
420
 16777215
176
     1
 90
        1
176
     1
 90
        0
176
     1
 62
     7
176
     1
 62
   257
176
     1
 90
        1
176
     1
 90
        1
176
     1
 40
1.0
176
     1
 90
        0
176
     1
 62
   257
176
     1
 40
1.0
176
     1
 90
        1
176
     1
 90
        6
176
     1
 90
        2
176
     1
 62
     7
176
     1
 90
        5
176
     1
 90
        0
176
     1
 90
        0
176
     1
290
     0
176
     1
 90
       13
176
     1
 40
0.0
176
     1
 90
        0
176
     1
290
     0
176
     1
290
     1
176
     1
290
     1
176
     1
290
     0
176
     1
290
     0
176
     1
290
     0
176
     1
290
     0
176
     1
290
     0
176
     1
290
     0
176
     1
 90
       50
176
     1
 40
0.0
176
     1
 40
1.0
176
     1
 90
        0
176
     1
 62
    18
420
        0
176
     1
 90
       50
176
     1
 90
        3
176
     1
 62
     5
420
      255
176
     1
290
     0
176
     1
 90
       50
176
     1
 90
       50
176
     1
 90
       50
176
     1
290
     0
176
     1
 90
       50
176
     1
 62
   256
176
     0
 40
1.0
176
     0
 90
        2
176
     1
  1
strokes_ogs.tif
176
     1
290
     0
176
     1
 40
1.0
176
     1
 40
1.0
176
     1
  0
VISUALSTYLE
  5
2D
102
{ACAD_REACTORS
330
2A
102
}
330
2A
100
AcDbVisualStyle
  2
Gouraud
 70
     2
177
     3
291
     1
 70
    58
 90
        2
176
     1
 90
        2
176
     1
 90
        1
176
     1
 90
        2
176
     1
 40
0.6
176
     1
 40
30.0
176
     1
 62
     7
420
 16777215
176
     1
 90
        0
176
     1
 90
        0
176
     1
 62
     7
176
     1
 62
   257
176
     1
 90
        1
176
     1
 90
        1
176
     1
 40
1.0
176
     1
 90
        0
176
     1
 62
     7
176
     1
 40
1.0
176
     1
 90
        1
176
     1
 90
        6
176
     1
 90
        2
176
     1
 62
     7
176
     1
 90
        5
176
     1
 90
        0
176
     1
 90
        0
176
     1
290
     0
176
     1
 90
       13
176
     1
 40
0.0
176
     1
 90
        0
176
     1
290
     0
176
     1
290
     1
176
     1
290
     1
176
     1
290
     0
176
     1
290
     0
176
     1
290
     0
176
     1
290
     0
176
     1
290
     0
176
     1
290
     0
176
     1
 90
       50
176
     1
 40
0.0
176
     1
 40
1.0
176
     1
 90
        0
176
     1
 62
    18
420
        0
176
     1
 90
       50
176
     1
 90
        3
176
     1
 62
     5
420
      255
176
     1
290
     0
176
     1
 90
       50
176
     1
 90
       50
176
     1
 90
       50
176
     1
290
     0
176
     1
 90
       50
176
     1
 62
   256
176
     0
 40
1.0
176
     0
 90
        2
176
     1
  1
strokes_ogs.tif
176
     1
290
     0
176
     1
 40
1.0
176
     1
 40
1.0
176
     1
  0
VISUALSTYLE
  5
2E
102
{ACAD_REACTORS
330
2A
102
}
330
2A
100
AcDbVisualStyle
  2
GouraudWithEdges
 70
     3
177
     3
291
     1
 70
    58
 90
        2
176
     1
 90
        2
176
     1
 90
        1
176
     1
 90
        2
176
     1
 40
0.6
176
     1
 40
30.0
176
     1
 62
     7
420
 16777215
176
     1
 90
        1
176
     1
 90
        0
176
     1
 62
     7
176
     1
 62
   257
176
     1
 90
        1
176
     1
 90
        1
176
     1
 40
1.0
176
     1
 90
        0
176
     1
 62
   257
176
     1
 40
1.0
176
     1
 90
        1
176
     1
 90
        6
176
     1
 90
        2
176
     1
 62
     7
176
     1
 90
        5
176
     1
 90
        0
176
     1
 90
        0
176
     1
290
     0
176
     1
 90
       13
176
     1
 40
0.0
176
     1
 90
        0
176
     1
290
     0
176
     1
290
     1
176
     1
290
     1
176
     1
290
     0
176
     1
290
     0
176
     1
290
     0
176
     1
290
     0
176
     1
290
     0
176
     1
290
     0
176
     1
 90
       50
176
     1
 40
0.0
176
     1
 40
1.0
176
     1
 90
        0
176
     1
 62
    18
420
        0
176
     1
 90
       50
176
     1
 90
        3
176
     1
 62
     5
420
      255
176
     1
290
     0
176
     1
 90
       50
176
     1
 90
       50
176
     1
 90
       50
176
     1
290
     0
176
     1
 90
       50
176
     1
 62
   256
176
     0
 40
1.0
176
     0
 90
        2
176
     1
  1
strokes_ogs.tif
176
     1
290
     0
176
     1
 40
1.0
176
     1
 40
1.0
176
     1
  0
VISUALSTYLE
  5
31
102
{ACAD_REACTORS
330
2A
102
}
330
2A
100
AcDbVisualStyle
  2
Hidden
 70
     6
177
     3
291
     0
 70
    58
 90
        1
176
     1
 90
        2
176
     1
 90
        2
176
     1
 90
        0
176
     1
 40
0.6
176
     1
 40
30.0
176
     1
 62
     7
420
 16777215
176
     1
 90
        2
176
     1
 90
        2
176
     1
 62
     7
176
     1
 62
   257
176
     1
 90
        2
176
     1
 90
        1
176
     1
 40
40.0
176
     1
 90
        0
176
     1
 62
   257
176
     1
 40
1.0
176
     1
 90
        1
176
     1
 90
        6
176
     1
 90
        2
176
     1
 62
     7
176
     1
 90
        3
176
     1
 90
        0
176
     1
 90
        0
176
     1
290
     0
176
     1
 90
        1
176
     1
 40
0.0
176
     1
 90
        0
176
     1
290
     0
176
     1
290
     1
176
     1
290
     1
176
     1
290
     0
176
     1
290
     0
176
     1
290
     0
176
     1
290
     0
176
     1
290
     0
176
     1
290
     0
176
     1
 90
       50
176
     1
 40
0.0
176
     1
 40
1.0
176
     1
 90
        0
176
     1
 62
    18
420
        0
176
     1
 90
       50
176
     1
 90
        3
176
     1
 62
     5
420
      255
176
     1
290
     0
176
     1
 90
       50
176
     1
 90
       50
176
     1
 90
       50
176
     1
290
     0
176
     1
 90
       50
176
     1
 62
   256
176
     0
 40
1.0
176
     0
 90
        2
176
     1
  1
strokes_ogs.tif
176
     1
290
     0
176
     1
 40
1.0
176
     1
 40
1.0
176
     1
  0
VISUALSTYLE
  5
3B
102
{ACAD_REACTORS
330
2A
102
}
330
2A
100
AcDbVisualStyle
  2
JitterOff
 70
    20
177
     3
291
     1
 70
    58
 90
        2
176
     0
 90
        2
176
     0
 90
        0
176
     0
 90
        0
176
     0
 40
0.6
176
     0
 40
30.0
176
     0
 62
     7
420
 16777215
176
     0
 90
        1
176
     0
 90
        4
176
     0
 62
     7
176
     0
 62
   257
176
     0
 90
        1
176
     0
 90
        1
176
     0
 40
1.0
176
     0
 90
       10
176
     2
 62
     7
176
     0
 40
1.0
176
     0
 90
        1
176
     0
 90
        6
176
     0
 90
        2
176
     0
 62
     7
176
     0
 90
        5
176
     0
 90
        0
176
     0
 90
        0
176
     0
290
     0
176
     0
 90
        1
176
     0
 40
0.0
176
     0
 90
        0
176
     0
290
     0
176
     0
290
     1
176
     0
290
     1
176
     0
290
     0
176
     0
290
     0
176
     0
290
     0
176
     0
290
     0
176
     0
290
     0
176
     0
290
     0
176
     0
 90
       50
176
     0
 40
0.0
176
     0
 40
1.0
176
     0
 90
        0
176
     0
 62
    18
420
        0
176
     0
 90
       50
176
     0
 90
        3
176
     0
 62
     5
420
      255
176
     0
290
     0
176
     0
 90
       50
176
     0
 90
       50
176
     0
 90
       50
176
     0
290
     0
176
     0
 90
       50
176
     0
 62
   256
176
     0
 40
1.0
176
     0
 90
        2
176
     0
  1
strokes_ogs.tif
176
     0
290
     0
176
     0
 40
1.0
176
     0
 40
1.0
176
     0
  0
VISUALSTYLE
  5
38
102
{ACAD_REACTORS
330
2A
102
}
330
2A
100
AcDbVisualStyle
  2
Linepattern
 70
    14
177
     3
291
     1
 70
    58
 90
        2
176
     1
 90
        2
176
     1
 90
        0
176
     1
 90
        0
176
     1
 40
0.6
176
     1
 40
30.0
176
     1
 62
     7
420
 16777215
176
     1
 90
        1
176
     1
 90
        4
176
     1
 62
     7
176
     1
 62
   257
176
     1
 90
        7
176
     1
 90
        7
176
     1
 40
1.0
176
     1
 90
        8
176
     1
 62
     7
176
     1
 40
1.0
176
     1
 90
        1
176
     1
 90
        6
176
     1
 90
        2
176
     1
 62
     7
176
     1
 90
        5
176
     1
 90
        0
176
     1
 90
        0
176
     1
290
     0
176
     1
 90
        1
176
     1
 40
0.0
176
     1
 90
        0
176
     1
290
     0
176
     1
290
     1
176
     1
290
     1
176
     1
290
     0
176
     1
290
     0
176
     1
290
     0
176
     1
290
     0
176
     1
290
     0
176
     1
290
     0
176
     1
 90
       50
176
     1
 40
0.0
176
     1
 40
1.0
176
     1
 90
        0
176
     1
 62
    18
420
        0
176
     1
 90
       50
176
     1
 90
        3
176
     1
 62
     5
420
      255
176
     1
290
     0
176
     1
 90
       50
176
     1
 90
       50
176
     1
 90
       50
176
     1
290
     0
176
     1
 90
       50
176
     1
 62
   256
176
     0
 40
1.0
176
     0
 90
        2
176
     1
  1
strokes_ogs.tif
176
     1
290
     0
176
     1
 40
1.0
176
     1
 40
1.0
176
     1
  0
VISUALSTYLE
  5
3C
102
{ACAD_REACTORS
330
2A
102
}
330
2A
100
AcDbVisualStyle
  2
OverhangOff
 70
    21
177
     3
291
     1
 70
    58
 90
        2
176
     0
 90
        2
176
     0
 90
        0
176
     0
 90
        0
176
     0
 40
0.6
176
     0
 40
30.0
176
     0
 62
     7
420
 16777215
176
     0
 90
        1
176
     0
 90
        4
176
     0
 62
     7
176
     0
 62
   257
176
     0
 90
        1
176
     0
 90
        1
176
     0
 40
1.0
176
     0
 90
        9
176
     2
 62
     7
176
     0
 40
1.0
176
     0
 90
        1
176
     0
 90
        6
176
     0
 90
        2
176
     0
 62
     7
176
     0
 90
        5
176
     0
 90
        0
176
     0
 90
        0
176
     0
290
     0
176
     0
 90
        1
176
     0
 40
0.0
176
     0
 90
        0
176
     0
290
     0
176
     0
290
     1
176
     0
290
     1
176
     0
290
     0
176
     0
290
     0
176
     0
290
     0
176
     0
290
     0
176
     0
290
     0
176
     0
290
     0
176
     0
 90
       50
176
     0
 40
0.0
176
     0
 40
1.0
176
     0
 90
        0
176
     0
 62
    18
420
        0
176
     0
 90
       50
176
     0
 90
        3
176
     0
 62
     5
420
      255
176
     0
290
     0
176
     0
 90
       50
176
     0
 90
       50
176
     0
 90
       50
176
     0
290
     0
176
     0
 90
       50
176
     0
 62
   256
176
     0
 40
1.0
176
     0
 90
        2
176
     0
  1
strokes_ogs.tif
176
     0
290
     0
176
     0
 40
1.0
176
     0
 40
1.0
176
     0
  0
VISUALSTYLE
  5
33
102
{ACAD_REACTORS
330
2A
102
}
330
2A
100
AcDbVisualStyle
  2
Realistic
 70
     8
177
     3
291
     0
 70
    58
 90
        2
176
     1
 90
        3
176
     1
 90
        0
176
     1
 90
        2
176
     1
 40
0.6
176
     1
 40
30.0
176
     1
 62
     7
420
 16777215
176
     1
 90
        0
176
     1
 90
        0
176
     1
 62
     7
176
     1
 62
   257
176
     1
 90
        1
176
     1
 90
        1
176
     1
 40
1.0
176
     1
 90
        8
176
     1
 62
   257
176
     1
 40
1.0
176
     1
 90
        1
176
     1
 90
        6
176
     1
 90
        2
176
     1
 62
     7
176
     1
 90
        3
176
     1
 90
        0
176
     1
 90
        0
176
     1
290
     0
176
     1
 90
       13
176
     1
 40
0.0
176
     1
 90
        0
176
     1
290
     0
176
     1
290
     1
176
     1
290
     1
176
     1
290
     0
176
     1
290
     0
176
     1
290
     0
176
     1
290
     0
176
     1
290
     0
176
     1
290
     0
176
     1
 90
       50
176
     1
 40
0.0
176
     1
 40
1.0
176
     1
 90
        0
176
     1
 62
    18
420
        0
176
     1
 90
       50
176
     1
 90
        3
176
     1
 62
     5
420
      255
176
     1
290
     0
176
     1
 90
       50
176
     1
 90
       50
176
     1
 90
       50
176
     1
290
     0
176
     1
 90
       50
176
     1
 62
   256
176
     0
 40
1.0
176
     0
 90
        2
176
     1
  1
strokes_ogs.tif
176
     1
290
     0
176
     1
 40
1.0
176
     1
 40
1.0
176
     1
  0
VISUALSTYLE
  5
42
102
{ACAD_REACTORS
330
2A
102
}
330
2A
100
AcDbVisualStyle
  2
Shaded
 70
    27
177
     3
291
     0
 70
    58
 90
        2
176
     1
 90
        2
176
     1
 90
        1
176
     1
 90
        2
176
     1
 40
0.6
176
     1
 40
30.0
176
     1
 62
     7
420
 16777215
176
     1
 90
        0
176
     1
 90
        4
176
     1
 62
     7
176
     1
 62
   257
176
     1
 90
        1
176
     1
 90
        1
176
     1
 40
1.0
176
     1
 90
        8
176
     1
 62
   257
176
     1
 40
1.0
176
     1
 90
        1
176
     1
 90
        6
176
     1
 90
        2
176
     1
 62
     8
420
  7895160
176
     1
 90
        3
176
     1
 90
        0
176
     1
 90
        0
176
     1
290
     0
176
     1
 90
        5
176
     1
 40
0.0
176
     1
 90
        0
176
     1
290
     0
176
     1
290
     1
176
     1
290
     1
176
     1
290
     0
176
     1
290
     0
176
     1
290
     0
176
     1
290
     0
176
     1
290
     0
176
     1
290
     0
176
     1
 90
       50
176
     1
 40
0.0
176
     1
 40
1.0
176
     1
 90
        0
176
     1
 62
    18
420
        0
176
     1
 90
       50
176
     1
 90
        3
176
     1
 62
     5
420
      255
176
     1
290
     0
176
     1
 90
       50
176
     1
 90
       50
176
     1
 90
       50
176
     1
290
     0
176
     1
 90
       50
176
     1
 62
   256
176
     0
 40
1.0
176
     0
 90
        2
176
     1
  1
strokes_ogs.tif
176
     1
290
     0
176
     1
 40
1.0
176
     1
 40
1.0
176
     1
  0
VISUALSTYLE
  5
41
102
{ACAD_REACTORS
330
2A
102
}
330
2A
100
AcDbVisualStyle
  2
Shaded with edges
 70
    26
177
     3
291
     0
 70
    58
 90
        2
176
     1
 90
        2
176
     1
 90
        1
176
     1
 90
        2
176
     1
 40
0.6
176
     1
 40
30.0
176
     1
 62
     7
420
 16777215
176
     1
 90
        1
176
     1
 90
       10
176
     1
 62
     7
176
     1
 62
   257
176
     1
 90
        2
176
     1
 90
        1
176
     1
 40
1.0
176
     1
 90
        8
176
     1
 62
   257
176
     1
 40
1.0
176
     1
 90
        1
176
     1
 90
        6
176
     1
 90
        2
176
     1
 62
     7
176
     1
 90
        3
176
     1
 90
        0
176
     1
 90
        0
176
     1
290
     0
176
     1
 90
        5
176
     1
 40
0.0
176
     1
 90
        0
176
     1
290
     0
176
     1
290
     1
176
     1
290
     1
176
     1
290
     0
176
     1
290
     0
176
     1
290
     0
176
     1
290
     0
176
     1
290
     0
176
     1
290
     0
176
     1
 90
       50
176
     1
 40
0.0
176
     1
 40
1.0
176
     1
 90
        0
176
     1
 62
    18
420
        0
176
     1
 90
       50
176
     1
 90
        3
176
     1
 62
     5
420
      255
176
     1
290
     0
176
     1
 90
       50
176
     1
 90
       50
176
     1
 90
       50
176
     1
290
     0
176
     1
 90
       50
176
     1
 62
   256
176
     0
 40
1.0
176
     0
 90
        2
176
     1
  1
strokes_ogs.tif
176
     1
290
     0
176
     1
 40
1.0
176
     1
 40
1.0
176
     1
  0
VISUALSTYLE
  5
3E
102
{ACAD_REACTORS
330
2A
102
}
330
2A
100
AcDbVisualStyle
  2
Shades of Gray
 70
    23
177
     3
291
     0
 70
    58
 90
        2
176
     1
 90
        2
176
     1
 90
        3
176
     1
 90
        0
176
     1
 40
0.6
176
     1
 40
30.0
176
     1
 62
     7
420
 16777215
176
     1
 90
        2
176
     1
 90
        2
176
     1
 62
     7
176
     1
 62
     7
176
     1
 90
        1
176
     1
 90
        1
176
     1
 40
40.0
176
     1
 90
        8
176
     1
 62
     7
176
     1
 40
1.0
176
     1
 90
        1
176
     1
 90
        6
176
     1
 90
        2
176
     1
 62
     7
176
     1
 90
        3
176
     1
 90
        0
176
     1
 90
        0
176
     1
290
     0
176
     1
 90
        1
176
     1
 40
0.0
176
     1
 90
        0
176
     1
290
     0
176
     1
290
     1
176
     1
290
     1
176
     1
290
     0
176
     1
290
     0
176
     1
290
     0
176
     1
290
     0
176
     1
290
     0
176
     1
290
     0
176
     1
 90
       50
176
     1
 40
0.0
176
     1
 40
1.0
176
     1
 90
        0
176
     1
 62
    18
420
        0
176
     1
 90
       50
176
     1
 90
        3
176
     1
 62
     5
420
      255
176
     1
290
     0
176
     1
 90
       50
176
     1
 90
       50
176
     1
 90
       50
176
     1
290
     0
176
     1
 90
       50
176
     1
 62
   256
176
     0
 40
1.0
176
     0
 90
        2
176
     1
  1
strokes_ogs.tif
176
     1
290
     0
176
     1
 40
1.0
176
     1
 40
1.0
176
     1
  0
VISUALSTYLE
  5
3F
102
{ACAD_REACTORS
330
2A
102
}
330
2A
100
AcDbVisualStyle
  2
Sketchy
 70
    24
177
     3
291
     0
 70
    58
 90
        1
176
     1
 90
        2
176
     1
 90
        2
176
     1
 90
        0
176
     1
 40
0.6
176
     1
 40
30.0
176
     1
 62
     7
420
 16777215
176
     1
 90
        2
176
     1
 90
        2
176
     1
 62
     7
176
     1
 62
     7
176
     1
 90
        1
176
     1
 90
        1
176
     1
 40
40.0
176
     1
 90
       11
176
     1
 62
     7
176
     1
 40
1.0
176
     1
 90
        1
176
     1
 90
        6
176
     1
 90
        2
176
     1
 62
     7
176
     1
 90
        6
176
     1
 90
        0
176
     1
 90
        0
176
     1
290
     0
176
     1
 90
        1
176
     1
 40
0.0
176
     1
 90
        0
176
     1
290
     0
176
     1
290
     1
176
     1
290
     1
176
     1
290
     0
176
     1
290
     0
176
     1
290
     0
176
     1
290
     0
176
     1
290
     0
176
     1
290
     0
176
     1
 90
       50
176
     1
 40
0.0
176
     1
 40
1.0
176
     1
 90
        0
176
     1
 62
    18
420
        0
176
     1
 90
       50
176
     1
 90
        3
176
     1
 62
     5
420
      255
176
     1
290
     0
176
     1
 90
       50
176
     1
 90
       50
176
     1
 90
       50
176
     1
290
     0
176
     1
 90
       50
176
     1
 62
   256
176
     0
 40
1.0
176
     0
 90
        2
176
     1
  1
strokes_ogs.tif
176
     1
290
     0
176
     1
 40
1.0
176
     1
 40
1.0
176
     1
  0
VISUALSTYLE
  5
37
102
{ACAD_REACTORS
330
2A
102
}
330
2A
100
AcDbVisualStyle
  2
Thicken
 70
    13
177
     3
291
     1
 70
    58
 90
        2
176
     1
 90
        2
176
     1
 90
        0
176
     1
 90
        0
176
     1
 40
0.6
176
     1
 40
30.0
176
     1
 62
     7
420
 16777215
176
     1
 90
        1
176
     1
 90
        4
176
     1
 62
     7
176
     1
 62
   257
176
     1
 90
        1
176
     1
 90
        1
176
     1
 40
1.0
176
     1
 90
       12
176
     1
 62
     7
176
     1
 40
1.0
176
     1
 90
        1
176
     1
 90
        6
176
     1
 90
        2
176
     1
 62
     7
176
     1
 90
        5
176
     1
 90
        0
176
     1
 90
        0
176
     1
290
     0
176
     1
 90
        1
176
     1
 40
0.0
176
     1
 90
        0
176
     1
290
     0
176
     1
290
     1
176
     1
290
     1
176
     1
290
     0
176
     1
290
     0
176
     1
290
     0
176
     1
290
     0
176
     1
290
     0
176
     1
290
     0
176
     1
 90
       50
176
     1
 40
0.0
176
     1
 40
1.0
176
     1
 90
        0
176
     1
 62
    18
420
        0
176
     1
 90
       50
176
     1
 90
        3
176
     1
 62
     5
420
      255
176
     1
290
     0
176
     1
 90
       50
176
     1
 90
       50
176
     1
 90
       50
176
     1
290
     0
176
     1
 90
       50
176
     1
 62
   256
176
     0
 40
1.0
176
     0
 90
        2
176
     1
  1
strokes_ogs.tif
176
     1
290
     0
176
     1
 40
1.0
176
     1
 40
1.0
176
     1
  0
VISUALSTYLE
  5
30
102
{ACAD_REACTORS
330
2A
102
}
330
2A
100
AcDbVisualStyle
  2
Wireframe
 70
     5
177
     3
291
     0
 70
    58
 90
        0
176
     1
 90
        2
176
     1
 90
        0
176
     1
 90
        0
176
     1
 40
0.6
176
     1
 40
30.0
176
     1
 62
     7
420
 16777215
176
     1
 90
        1
176
     1
 90
        4
176
     1
 62
     7
176
     1
 62
   257
176
     1
 90
        1
176
     1
 90
        1
176
     1
 40
1.0
176
     1
 90
        0
176
     1
 62
   257
176
     1
 40
1.0
176
     1
 90
        1
176
     1
 90
        6
176
     1
 90
        2
176
     1
 62
     7
176
     1
 90
        3
176
     1
 90
        0
176
     1
 90
        0
176
     1
290
     0
176
     1
 90
        1
176
     1
 40
0.0
176
     1
 90
        0
176
     1
290
     0
176
     1
290
     1
176
     1
290
     1
176
     1
290
     0
176
     1
290
     0
176
     1
290
     0
176
     1
290
     0
176
     1
290
     0
176
     1
290
     0
176
     1
 90
       50
176
     1
 40
0.0
176
     1
 40
1.0
176
     1
 90
        0
176
     1
 62
    18
420
        0
176
     1
 90
       50
176
     1
 90
        3
176
     1
 62
     5
420
      255
176
     1
290
     0
176
     1
 90
       50
176
     1
 90
       50
176
     1
 90
       50
176
     1
290
     0
176
     1
 90
       50
176
     1
 62
   256
176
     0
 40
1.0
176
     0
 90
        2
176
     1
  1
strokes_ogs.tif
176
     1
290
     0
176
     1
 40
1.0
176
     1
 40
1.0
176
     1
  0
VISUALSTYLE
  5
40
102
{ACAD_REACTORS
330
2A
102
}
330
2A
100
AcDbVisualStyle
  2
X-Ray
 70
    25
177
     3
291
     0
 70
    58
 90
        2
176
     1
 90
        2
176
     1
 90
        1
176
     1
 90
        1
176
     1
 40
0.5
176
     1
 40
30.0
176
     1
 62
     7
420
 16777215
176
     1
 90
        1
176
     1
 90
        0
176
     1
 62
     7
176
     1
 62
   257
176
     1
 90
        1
176
     1
 90
        1
176
     1
 40
1.0
176
     1
 90
        8
176
     1
 62
     7
176
     1
 40
1.0
176
     1
 90
        1
176
     1
 90
        6
176
     1
 90
        2
176
     1
 62
     7
176
     1
 90
        3
176
     1
 90
        0
176
     1
 90
        0
176
     1
290
     0
176
     1
 90
       13
176
     1
 40
0.0
176
     1
 90
        0
176
     1
290
     0
176
     1
290
     1
176
     1
290
     1
176
     1
290
     0
176
     1
290
     0
176
     1
290
     0
176
     1
290
     0
176
     1
290
     0
176
     1
290
     0
176
     1
 90
       50
176
     1
 40
0.0
176
     1
 40
1.0
176
     1
 90
        0
176
     1
 62
    18
420
        0
176
     1
 90
       50
176
     1
 90
        3
176
     1
 62
     5
420
      255
176
     1
290
     0
176
     1
 90
       50
176
     1
 90
       50
176
     1
 90
       50
176
     1
290
     0
176
     1
 90
       50
176
     1
 62
   256
176
     0
 40
1.0
176
     0
 90
        2
176
     1
  1
strokes_ogs.tif
176
     1
290
     0
176
     1
 40
1.0
176
     1
 40
1.0
176
     1
  0
DICTIONARYVAR
  5
18F
102
{ACAD_REACTORS
330
18E
102
}
330
18E
100
DictionaryVariables
280
     0
  1
1:1
  0
DICTIONARYVAR
  5
194
102
{ACAD_REACTORS
330
18E
102
}
330
18E
100
DictionaryVariables
280
     0
  1
Standard
  0
DICTIONARYVAR
  5
193
102
{ACAD_REACTORS
330
18E
102
}
330
18E
100
DictionaryVariables
280
     0
  1
Standard
  0
DICTIONARY
  5
190
330
6A
100
AcDbDictionary
280
     1
281
     1
  3
ACAD_ROUNDTRIP_2008_TABLESTYLE_CELLSTYLEMAP
360
191
  0
CELLSTYLEMAP
  5
191
102
{ACAD_REACTORS
330
190
102
}
330
190
100
AcDbCellStyleMap
 90
        3
300
CELLSTYLE
  1
TABLEFORMAT_BEGIN
 90
        5
170
     1
 91
        0
 92
    32768
 62
   257
 93
        1
300
CONTENTFORMAT
  1
CONTENTFORMAT_BEGIN
 90
        0
 91
        0
 92
        4
 93
        0
300

 40
0.0
140
1.0
 94
        5
 62
     0
340
11
144
0.25
309
CONTENTFORMAT_END
171
     1
301
MARGIN
  1
CELLMARGIN_BEGIN
 40
0.06
 40
0.06
 40
0.06
 40
0.06
 40
0.06
 40
0.06
309
CELLMARGIN_END
 94
        6
 95
        1
302
GRIDFORMAT
  1
GRIDFORMAT_BEGIN
 90
        0
 91
        1
 62
     0
 92
       -2
340
14
 93
        0
 40
0.045
309
GRIDFORMAT_END
 95
        2
302
GRIDFORMAT
  1
GRIDFORMAT_BEGIN
 90
        0
 91
        1
 62
     0
 92
       -2
340
14
 93
        0
 40
0.045
309
GRIDFORMAT_END
 95
        4
302
GRIDFORMAT
  1
GRIDFORMAT_BEGIN
 90
        0
 91
        1
 62
     0
 92
       -2
340
14
 93
        0
 40
0.045
309
GRIDFORMAT_END
 95
        8
302
GRIDFORMAT
  1
GRIDFORMAT_BEGIN
 90
        0
 91
        1
 62
     0
 92
       -2
340
14
 93
        0
 40
0.045
309
GRIDFORMAT_END
 95
       16
302
GRIDFORMAT
  1
GRIDFORMAT_BEGIN
 90
        0
 91
        1
 62
     0
 92
       -2
340
14
 93
        0
 40
0.045
309
GRIDFORMAT_END
 95
       32
302
GRIDFORMAT
  1
GRIDFORMAT_BEGIN
 90
        0
 91
        1
 62
     0
 92
       -2
340
14
 93
        0
 40
0.045
309
GRIDFORMAT_END
309
TABLEFORMAT_END
  1
CELLSTYLE_BEGIN
 90
        1
 91
        1
300
_TITLE
309
CELLSTYLE_END
300
CELLSTYLE
  1
TABLEFORMAT_BEGIN
 90
        5
170
     1
 91
        0
 92
        0
 62
   257
 93
        1
300
CONTENTFORMAT
  1
CONTENTFORMAT_BEGIN
 90
        0
 91
        0
 92
        4
 93
        0
300

 40
0.0
140
1.0
 94
        5
 62
     0
340
11
144
0.18
309
CONTENTFORMAT_END
171
     1
301
MARGIN
  1
CELLMARGIN_BEGIN
 40
0.06
 40
0.06
 40
0.06
 40
0.06
 40
0.06
 40
0.06
309
CELLMARGIN_END
 94
        6
 95
        1
302
GRIDFORMAT
  1
GRIDFORMAT_BEGIN
 90
        0
 91
        1
 62
     0
 92
       -2
340
14
 93
        0
 40
0.045
309
GRIDFORMAT_END
 95
        2
302
GRIDFORMAT
  1
GRIDFORMAT_BEGIN
 90
        0
 91
        1
 62
     0
 92
       -2
340
14
 93
        0
 40
0.045
309
GRIDFORMAT_END
 95
        4
302
GRIDFORMAT
  1
GRIDFORMAT_BEGIN
 90
        0
 91
        1
 62
     0
 92
       -2
340
14
 93
        0
 40
0.045
309
GRIDFORMAT_END
 95
        8
302
GRIDFORMAT
  1
GRIDFORMAT_BEGIN
 90
        0
 91
        1
 62
     0
 92
       -2
340
14
 93
        0
 40
0.045
309
GRIDFORMAT_END
 95
       16
302
GRIDFORMAT
  1
GRIDFORMAT_BEGIN
 90
        0
 91
        1
 62
     0
 92
       -2
340
14
 93
        0
 40
0.045
309
GRIDFORMAT_END
 95
       32
302
GRIDFORMAT
  1
GRIDFORMAT_BEGIN
 90
        0
 91
        1
 62
     0
 92
       -2
340
14
 93
        0
 40
0.045
309
GRIDFORMAT_END
309
TABLEFORMAT_END
  1
CELLSTYLE_BEGIN
 90
        2
 91
        1
300
_HEADER
309
CELLSTYLE_END
300
CELLSTYLE
  1
TABLEFORMAT_BEGIN
 90
        5
170
     1
 91
        0
 92
        0
 62
   257
 93
        1
300
CONTENTFORMAT
  1
CONTENTFORMAT_BEGIN
 90
        0
 91
        0
 92
        4
 93
        0
300

 40
0.0
140
1.0
 94
        2
 62
     0
340
11
144
0.18
309
CONTENTFORMAT_END
171
     1
301
MARGIN
  1
CELLMARGIN_BEGIN
 40
0.06
 40
0.06
 40
0.06
 40
0.06
 40
0.06
 40
0.06
309
CELLMARGIN_END
 94
        6
 95
        1
302
GRIDFORMAT
  1
GRIDFORMAT_BEGIN
 90
        0
 91
        1
 62
     0
 92
       -2
340
14
 93
        0
 40
0.045
309
GRIDFORMAT_END
 95
        2
302
GRIDFORMAT
  1
GRIDFORMAT_BEGIN
 90
        0
 91
        1
 62
     0
 92
       -2
340
14
 93
        0
 40
0.045
309
GRIDFORMAT_END
 95
        4
302
GRIDFORMAT
  1
GRIDFORMAT_BEGIN
 90
        0
 91
        1
 62
     0
 92
       -2
340
14
 93
        0
 40
0.045
309
GRIDFORMAT_END
 95
        8
302
GRIDFORMAT
  1
GRIDFORMAT_BEGIN
 90
        0
 91
        1
 62
     0
 92
       -2
340
14
 93
        0
 40
0.045
309
GRIDFORMAT_END
 95
       16
302
GRIDFORMAT
  1
GRIDFORMAT_BEGIN
 90
        0
 91
        1
 62
     0
 92
       -2
340
14
 93
        0
 40
0.045
309
GRIDFORMAT_END
 95
       32
302
GRIDFORMAT
  1
GRIDFORMAT_BEGIN
 90
        0
 91
        1
 62
     0
 92
       -2
340
14
 93
        0
 40
0.045
309
GRIDFORMAT_END
309
TABLEFORMAT_END
  1
CELLSTYLE_BEGIN
 90
        3
 91
        2
300
_DATA
309
CELLSTYLE_END
  0
ENDSEC
  0
EOF