0
SECTION
  2
HEADER
  9
$ACADVER
  1
AC1027
  9
$ACADMAINTVER
 70
     8
  9
$DWGCODEPAGE
  3
ANSI_1252
  9
$REQUIREDVERSIONS
160
                 0
  9
$COMMENTS
  1
File was created by Cadenas
  9
$CUSTOMPROPERTYTAG
  1
NN
  9
$CUSTOMPROPERTY
  1
Eccentric Collar Narrow Slot Take Up Inch Bore
  9
$CUSTOMPROPERTYTAG
  1
NT
  9
$CUSTOMPROPERTY
  1
SXR Take-Up Bearings -Narrow Slot -(Normal Duty)
  9
$CUSTOMPROPERTYTAG
  1
NB
  9
$CUSTOMPROPERTY
  1
131180
  9
$CUSTOMPROPERTYTAG
  1
NBSYN
  9
$CUSTOMPROPERTY
  1
$PN.
  9
$CUSTOMPROPERTYTAG
  1
LINA
  9
$CUSTOMPROPERTY
  1
131180
  9
$CUSTOMPROPERTYTAG
  1
SERIES
  9
$CUSTOMPROPERTY
  1
211
  9
$CUSTOMPROPERTYTAG
  1
SS
  9
$CUSTOMPROPERTY
  1
2-3/16
  9
$CUSTOMPROPERTYTAG
  1
PN
  9
$CUSTOMPROPERTY
  1
131180
  9
$CUSTOMPROPERTYTAG
  1
DESCRIPTION
  9
$CUSTOMPROPERTY
  1
NSTU-SXR-203
  9
$CUSTOMPROPERTYTAG
  1
W
  9
$CUSTOMPROPERTY
  1
7.2
  9
$CUSTOMPROPERTYTAG
  1
FS
  9
$CUSTOMPROPERTY
  1
NS407
  9
$CUSTOMPROPERTYTAG
  1
A
  9
$CUSTOMPROPERTY
  1
2.59
  9
$CUSTOMPROPERTYTAG
  1
B
  9
$CUSTOMPROPERTY
  1
6.13
  9
$CUSTOMPROPERTYTAG
  1
C
  9
$CUSTOMPROPERTY
  1
0.313
  9
$CUSTOMPROPERTYTAG
  1
D
  9
$CUSTOMPROPERTY
  1
3.50
  9
$CUSTOMPROPERTYTAG
  1
E
  9
$CUSTOMPROPERTY
  1
3.63
  9
$CUSTOMPROPERTYTAG
  1
F
  9
$CUSTOMPROPERTY
  1
1
  9
$CUSTOMPROPERTYTAG
  1
G
  9
$CUSTOMPROPERTY
  1
0.69
  9
$CUSTOMPROPERTYTAG
  1
H
  9
$CUSTOMPROPERTY
  1
1.28
  9
$CUSTOMPROPERTYTAG
  1
J
  9
$CUSTOMPROPERTY
  1
1.75
  9
$CUSTOMPROPERTYTAG
  1
L
  9
$CUSTOMPROPERTY
  1
3.00
  9
$CUSTOMPROPERTYTAG
  1
M
  9
$CUSTOMPROPERTY
  1
4.448 / 4.418
  9
$CUSTOMPROPERTYTAG
  1
N
  9
$CUSTOMPROPERTY
  1
5.38
  9
$CUSTOMPROPERTYTAG
  1
P
  9
$CUSTOMPROPERTY
  1
0.44
  9
$CUSTOMPROPERTYTAG
  1
R
  9
$CUSTOMPROPERTY
  1
0.88
  9
$CUSTOMPROPERTYTAG
  1
S
  9
$CUSTOMPROPERTY
  1
1.71
  9
$CUSTOMPROPERTYTAG
  1
COMPANY
  9
$CUSTOMPROPERTY
  1
baldor
  9
$INSBASE
 10
0.0
 20
0.0
 30
0.0
  9
$EXTMIN
 10
1.000000000000000E+20
 20
1.000000000000000E+20
 30
1.000000000000000E+20
  9
$EXTMAX
 10
-1.000000000000000E+20
 20
-1.000000000000000E+20
 30
-1.000000000000000E+20
  9
$LIMMIN
 10
0.0
 20
0.0
  9
$LIMMAX
 10
12.0
 20
9.0
  9
$ORTHOMODE
 70
     0
  9
$REGENMODE
 70
     1
  9
$FILLMODE
 70
     1
  9
$QTEXTMODE
 70
     0
  9
$MIRRTEXT
 70
     1
  9
$LTSCALE
 40
1.0
  9
$ATTMODE
 70
     1
  9
$TEXTSIZE
 40
0.2
  9
$TRACEWID
 40
0.05
  9
$TEXTSTYLE
  7
Standard
  9
$CLAYER
  8
0
  9
$CELTYPE
  6
ByLayer
  9
$CECOLOR
 62
   256
  9
$CELTSCALE
 40
1.0
  9
$DISPSILH
 70
     0
  9
$DIMSCALE
 40
1.0
  9
$DIMASZ
 40
0.18
  9
$DIMEXO
 40
0.0625
  9
$DIMDLI
 40
0.38
  9
$DIMRND
 40
0.0
  9
$DIMDLE
 40
0.0
  9
$DIMEXE
 40
0.18
  9
$DIMTP
 40
0.0
  9
$DIMTM
 40
0.0
  9
$DIMTXT
 40
0.18
  9
$DIMCEN
 40
0.09
  9
$DIMTSZ
 40
0.0
  9
$DIMTOL
 70
     0
  9
$DIMLIM
 70
     0
  9
$DIMTIH
 70
     1
  9
$DIMTOH
 70
     1
  9
$DIMSE1
 70
     0
  9
$DIMSE2
 70
     0
  9
$DIMTAD
 70
     0
  9
$DIMZIN
 70
     0
  9
$DIMBLK
  1

  9
$DIMASO
 70
     1
  9
$DIMSHO
 70
     1
  9
$DIMPOST
  1

  9
$DIMAPOST
  1

  9
$DIMALT
 70
     0
  9
$DIMALTD
 70
     2
  9
$DIMALTF
 40
25.4
  9
$DIMLFAC
 40
1.0
  9
$DIMTOFL
 70
     0
  9
$DIMTVP
 40
0.0
  9
$DIMTIX
 70
     0
  9
$DIMSOXD
 70
     0
  9
$DIMSAH
 70
     0
  9
$DIMBLK1
  1

  9
$DIMBLK2
  1

  9
$DIMSTYLE
  2
Standard
  9
$DIMCLRD
 70
     0
  9
$DIMCLRE
 70
     0
  9
$DIMCLRT
 70
     0
  9
$DIMTFAC
 40
1.0
  9
$DIMGAP
 40
0.09
  9
$DIMJUST
 70
     0
  9
$DIMSD1
 70
     0
  9
$DIMSD2
 70
     0
  9
$DIMTOLJ
 70
     1
  9
$DIMTZIN
 70
     0
  9
$DIMALTZ
 70
     0
  9
$DIMALTTZ
 70
     0
  9
$DIMUPT
 70
     0
  9
$DIMDEC
 70
     4
  9
$DIMTDEC
 70
     4
  9
$DIMALTU
 70
     2
  9
$DIMALTTD
 70
     2
  9
$DIMTXSTY
  7
Standard
  9
$DIMAUNIT
 70
     0
  9
$DIMADEC
 70
     0
  9
$DIMALTRND
 40
0.0
  9
$DIMAZIN
 70
     0
  9
$DIMDSEP
 70
    46
  9
$DIMATFIT
 70
     3
  9
$DIMFRAC
 70
     0
  9
$DIMLDRBLK
  1

  9
$DIMLUNIT
 70
     2
  9
$DIMLWD
 70
    -2
  9
$DIMLWE
 70
    -2
  9
$DIMTMOVE
 70
     0
  9
$DIMFXL
 40
1.0
  9
$DIMFXLON
 70
     0
  9
$DIMJOGANG
 40
0.7853981633974483
  9
$DIMTFILL
 70
     0
  9
$DIMTFILLCLR
 70
     0
  9
$DIMARCSYM
 70
     0
  9
$DIMLTYPE
  6

  9
$DIMLTEX1
  6

  9
$DIMLTEX2
  6

  9
$DIMTXTDIRECTION
 70
     0
  9
$LUNITS
 70
     2
  9
$LUPREC
 70
     4
  9
$SKETCHINC
 40
0.1
  9
$FILLETRAD
 40
0.5
  9
$AUNITS
 70
     0
  9
$AUPREC
 70
     0
  9
$MENU
  1
.
  9
$ELEVATION
 40
0.0
  9
$PELEVATION
 40
0.0
  9
$THICKNESS
 40
0.0
  9
$LIMCHECK
 70
     0
  9
$CHAMFERA
 40
0.0
  9
$CHAMFERB
 40
0.0
  9
$CHAMFERC
 40
0.0
  9
$CHAMFERD
 40
0.0
  9
$SKPOLY
 70
     0
  9
$TDCREATE
 40
2458168.980825312
  9
$TDUCREATE
 40
2458168.939158646
  9
$TDUPDATE
 40
2458168.980825486
  9
$TDUUPDATE
 40
2458168.93915882
  9
$TDINDWG
 40
0.0000000116
  9
$TDUSRTIMER
 40
0.0000000116
  9
$USRTIMER
 70
     1
  9
$ANGBASE
 50
0.0
  9
$ANGDIR
 70
     0
  9
$PDMODE
 70
     0
  9
$PDSIZE
 40
0.0
  9
$PLINEWID
 40
0.0
  9
$SPLFRAME
 70
     0
  9
$SPLINETYPE
 70
     6
  9
$SPLINESEGS
 70
     8
  9
$HANDSEED
  5
1DB
  9
$SURFTAB1
 70
     6
  9
$SURFTAB2
 70
     6
  9
$SURFTYPE
 70
     6
  9
$SURFU
 70
     6
  9
$SURFV
 70
     6
  9
$UCSBASE
  2

  9
$UCSNAME
  2

  9
$UCSORG
 10
0.0
 20
0.0
 30
0.0
  9
$UCSXDIR
 10
1.0
 20
0.0
 30
0.0
  9
$UCSYDIR
 10
0.0
 20
1.0
 30
0.0
  9
$UCSORTHOREF
  2

  9
$UCSORTHOVIEW
 70
     0
  9
$UCSORGTOP
 10
0.0
 20
0.0
 30
0.0
  9
$UCSORGBOTTOM
 10
0.0
 20
0.0
 30
0.0
  9
$UCSORGLEFT
 10
0.0
 20
0.0
 30
0.0
  9
$UCSORGRIGHT
 10
0.0
 20
0.0
 30
0.0
  9
$UCSORGFRONT
 10
0.0
 20
0.0
 30
0.0
  9
$UCSORGBACK
 10
0.0
 20
0.0
 30
0.0
  9
$PUCSBASE
  2

  9
$PUCSNAME
  2

  9
$PUCSORG
 10
0.0
 20
0.0
 30
0.0
  9
$PUCSXDIR
 10
1.0
 20
0.0
 30
0.0
  9
$PUCSYDIR
 10
0.0
 20
1.0
 30
0.0
  9
$PUCSORTHOREF
  2

  9
$PUCSORTHOVIEW
 70
     0
  9
$PUCSORGTOP
 10
0.0
 20
0.0
 30
0.0
  9
$PUCSORGBOTTOM
 10
0.0
 20
0.0
 30
0.0
  9
$PUCSORGLEFT
 10
0.0
 20
0.0
 30
0.0
  9
$PUCSORGRIGHT
 10
0.0
 20
0.0
 30
0.0
  9
$PUCSORGFRONT
 10
0.0
 20
0.0
 30
0.0
  9
$PUCSORGBACK
 10
0.0
 20
0.0
 30
0.0
  9
$USERI1
 70
     0
  9
$USERI2
 70
     0
  9
$USERI3
 70
     0
  9
$USERI4
 70
     0
  9
$USERI5
 70
     0
  9
$USERR1
 40
0.0
  9
$USERR2
 40
0.0
  9
$USERR3
 40
0.0
  9
$USERR4
 40
0.0
  9
$USERR5
 40
0.0
  9
$WORLDVIEW
 70
     1
  9
$SHADEDGE
 70
     3
  9
$SHADEDIF
 70
    70
  9
$TILEMODE
 70
     1
  9
$MAXACTVP
 70
    64
  9
$PINSBASE
 10
0.0
 20
0.0
 30
0.0
  9
$PLIMCHECK
 70
     0
  9
$PEXTMIN
 10
1.000000000000000E+20
 20
1.000000000000000E+20
 30
1.000000000000000E+20
  9
$PEXTMAX
 10
-1.000000000000000E+20
 20
-1.000000000000000E+20
 30
-1.000000000000000E+20
  9
$PLIMMIN
 10
0.0
 20
0.0
  9
$PLIMMAX
 10
12.0
 20
9.0
  9
$UNITMODE
 70
     0
  9
$VISRETAIN
 70
     1
  9
$PLINEGEN
 70
     0
  9
$PSLTSCALE
 70
     1
  9
$TREEDEPTH
 70
  3020
  9
$CMLSTYLE
  2
Standard
  9
$CMLJUST
 70
     0
  9
$CMLSCALE
 40
1.0
  9
$PROXYGRAPHICS
 70
     1
  9
$MEASUREMENT
 70
     0
  9
$CELWEIGHT
370
    -1
  9
$ENDCAPS
280
     0
  9
$JOINSTYLE
280
     0
  9
$LWDISPLAY
290
     0
  9
$INSUNITS
 70
     1
  9
$HYPERLINKBASE
  1

  9
$STYLESHEET
  1

  9
$XEDIT
290
     1
  9
$CEPSNTYPE
380
     0
  9
$PSTYLEMODE
290
     1
  9
$FINGERPRINTGUID
  2
{EE02CCA2-FC0B-4C31-AA84-09FD4A21C150}
  9
$VERSIONGUID
  2
{FAEB1C32-E019-11D5-929B-00C0DF256EC4}
  9
$EXTNAMES
290
     1
  9
$PSVPSCALE
 40
0.0
  9
$OLESTARTUP
290
     0
  9
$SORTENTS
280
   127
  9
$INDEXCTL
280
     0
  9
$HIDETEXT
280
     1
  9
$XCLIPFRAME
280
     2
  9
$HALOGAP
280
     0
  9
$OBSCOLOR
 70
   257
  9
$OBSLTYPE
280
     0
  9
$INTERSECTIONDISPLAY
280
     0
  9
$INTERSECTIONCOLOR
 70
   257
  9
$DIMASSOC
280
     2
  9
$PROJECTNAME
  1

  9
$CAMERADISPLAY
290
     0
  9
$LENSLENGTH
 40
50.0
  9
$CAMERAHEIGHT
 40
0.0
  9
$STEPSPERSEC
 40
2.0
  9
$STEPSIZE
 40
6.0
  9
$3DDWFPREC
 40
2.0
  9
$PSOLWIDTH
 40
0.25
  9
$PSOLHEIGHT
 40
4.0
  9
$LOFTANG1
 40
1.570796326794897
  9
$LOFTANG2
 40
1.570796326794897
  9
$LOFTMAG1
 40
0.0
  9
$LOFTMAG2
 40
0.0
  9
$LOFTPARAM
 70
     7
  9
$LOFTNORMALS
280
     1
  9
$LATITUDE
 40
37.795
  9
$LONGITUDE
 40
-122.394
  9
$NORTHDIRECTION
 40
0.0
  9
$TIMEZONE
 70
 -8000
  9
$LIGHTGLYPHDISPLAY
280
     1
  9
$TILEMODELIGHTSYNCH
280
     1
  9
$CMATERIAL
347
44
  9
$SOLIDHIST
280
     0
  9
$SHOWHIST
280
     1
  9
$DWFFRAME
280
     2
  9
$DGNFRAME
280
     2
  9
$REALWORLDSCALE
290
     1
  9
$INTERFERECOLOR
 62
   256
  9
$CSHADOW
280
     0
  9
$SHADOWPLANELOCATION
 40
0.0
  0
ENDSEC
  0
SECTION
  2
CLASSES
  0
CLASS
  1
ACDBDICTIONARYWDFLT
  2
AcDbDictionaryWithDefault
  3
ObjectDBX Classes
 90
        0
 91
        4
280
     0
281
     0
  0
CLASS
  1
VISUALSTYLE
  2
AcDbVisualStyle
  3
ObjectDBX Classes
 90
     4095
 91
        4
280
     0
281
     0
  0
CLASS
  1
MATERIAL
  2
AcDbMaterial
  3
ObjectDBX Classes
 90
     1153
 91
        4
280
     0
281
     0
  0
CLASS
  1
SCALE
  2
AcDbScale
  3
ObjectDBX Classes
 90
     1153
 91
        4
280
     0
281
     0
  0
CLASS
  1
TABLESTYLE
  2
AcDbTableStyle
  3
ObjectDBX Classes
 90
     4095
 91
        4
280
     0
281
     0
  0
CLASS
  1
MLEADERSTYLE
  2
AcDbMLeaderStyle
  3
ACDB_MLEADERSTYLE_CLASS
 90
     4095
 91
        4
280
     0
281
     0
  0
CLASS
  1
SUN
  2
AcDbSun
  3
SCENEOE
 90
     1153
 91
        4
280
     0
281
     0
  0
CLASS
  1
DICTIONARYVAR
  2
AcDbDictionaryVar
  3
ObjectDBX Classes
 90
        0
 91
        4
280
     0
281
     0
  0
CLASS
  1
CELLSTYLEMAP
  2
AcDbCellStyleMap
  3
ObjectDBX Classes
 90
     1152
 91
        4
280
     0
281
     0
  0
ENDSEC
  0
SECTION
  2
TABLES
  0
TABLE
  2
VPORT
  5
8
330
0
100
AcDbSymbolTable
 70
     1
  0
VPORT
  5
29
330
8
100
AcDbSymbolTableRecord
100
AcDbViewportTableRecord
  2
*Active
 70
     0
 10
0.0
 20
0.0
 11
1.0
 21
1.0
 12
-0.4149999999999991
 22
0.0
 13
0.0
 23
0.0
 14
0.5
 24
0.5
 15
0.5
 25
0.5
 16
0.0
 26
0.0
 36
1.0
 17
0.0
 27
0.0
 37
0.0
 40
5.487599999999999
 41
0.5295539033457244
 42
50.0
 43
0.0
 44
0.0
 50
0.0
 51
0.0
 71
     0
 72
   100
 73
     1
 74
     3
 75
     0
 76
     0
 77
     0
 78
     0
281
     0
 65
     1
110
0.0
120
0.0
130
0.0
111
1.0
121
0.0
131
0.0
112
0.0
122
1.0
132
0.0
 79
     0
146
0.0
348
2F
 60
     3
 61
     5
292
     1
282
     1
141
0.0
142
0.0
 63
   250
361
6D
  0
ENDTAB
  0
TABLE
  2
LTYPE
  5
5
330
0
100
AcDbSymbolTable
 70
     3
  0
LTYPE
  5
14
330
5
100
AcDbSymbolTableRecord
100
AcDbLinetypeTableRecord
  2
ByBlock
 70
     0
  3

 72
    65
 73
     0
 40
0.0
  0
LTYPE
  5
15
330
5
100
AcDbSymbolTableRecord
100
AcDbLinetypeTableRecord
  2
ByLayer
 70
     0
  3

 72
    65
 73
     0
 40
0.0
  0
LTYPE
  5
16
330
5
100
AcDbSymbolTableRecord
100
AcDbLinetypeTableRecord
  2
Continuous
 70
     0
  3
Solid line
 72
    65
 73
     0
 40
0.0
  0
LTYPE
  5
9F
330
5
100
AcDbSymbolTableRecord
100
AcDbLinetypeTableRecord
  2
Dashed
 70
     0
  3

 72
    65
 73
     2
 40
2.0
 49
1.0
 74
     0
 49
-1.0
 74
     0
  0
LTYPE
  5
147
330
5
100
AcDbSymbolTableRecord
100
AcDbLinetypeTableRecord
  2
Center
 70
     0
  3

 72
    65
 73
     4
 40
1.5
 49
0.45
 74
     0
 49
-0.5
 74
     0
 49
0.05
 74
     0
 49
-0.5
 74
     0
  0
ENDTAB
  0
TABLE
  2
LAYER
  5
2
330
0
100
AcDbSymbolTable
 70
     7
  0
LAYER
  5
10
330
2
100
AcDbSymbolTableRecord
100
AcDbLayerTableRecord
  2
0
 70
     0
 62
     7
  6
Continuous
370
    -3
390
F
347
46
348
0
  0
LAYER
  5
72
330
2
100
AcDbSymbolTableRecord
100
AcDbLayerTableRecord
  2
AM_6
 70
     0
 62
    -2
  6
Continuous
370
    35
390
F
347
46
348
0
  0
LAYER
  5
A0
330
2
100
AcDbSymbolTableRecord
100
AcDbLayerTableRecord
  2
AM_9
 70
     0
 62
     6
  6
Dashed
370
    25
390
F
347
46
348
0
  0
LAYER
  5
145
330
2
100
AcDbSymbolTableRecord
100
AcDbLayerTableRecord
  2
AM_5
 70
     0
 62
     3
  6
Continuous
370
    25
390
F
347
46
348
0
  0
LAYER
  5
148
330
2
100
AcDbSymbolTableRecord
100
AcDbLayerTableRecord
  2
AM_7
 70
     0
 62
     7
  6
Center
370
    25
390
F
347
46
348
0
  0
LAYER
  5
14B
330
2
100
AcDbSymbolTableRecord
100
AcDbLayerTableRecord
  2
AM_4
 70
     0
 62
     7
  6
Continuous
370
    50
390
F
347
46
348
0
  0
LAYER
  5
1CD
330
2
100
AcDbSymbolTableRecord
100
AcDbLayerTableRecord
  2
ConnectionPoints
 70
     0
 62
     7
  6
Continuous
370
    50
390
F
347
46
348
0
  0
ENDTAB
  0
TABLE
  2
STYLE
  5
3
330
0
100
AcDbSymbolTable
 70
     1
  0
STYLE
  5
11
330
3
100
AcDbSymbolTableRecord
100
AcDbTextStyleTableRecord
  2
Standard
 70
     0
 40
0.0
 41
1.0
 50
0.0
 71
     0
 42
0.2
  3
txt
  4

  0
ENDTAB
  0
TABLE
  2
VIEW
  5
6
330
0
100
AcDbSymbolTable
 70
     0
  0
ENDTAB
  0
TABLE
  2
UCS
  5
7
330
0
100
AcDbSymbolTable
 70
     0
  0
ENDTAB
  0
TABLE
  2
APPID
  5
9
330
0
100
AcDbSymbolTable
 70
     1
  0
APPID
  5
12
330
9
100
AcDbSymbolTableRecord
100
AcDbRegAppTableRecord
  2
ACAD
 70
     0
  0
ENDTAB
  0
TABLE
  2
DIMSTYLE
  5
A
330
0
100
AcDbSymbolTable
 70
     1
100
AcDbDimStyleTable
  0
DIMSTYLE
105
27
330
A
100
AcDbSymbolTableRecord
100
AcDbDimStyleTableRecord
  2
Standard
 70
     0
178
     0
340
11
  0
ENDTAB
  0
TABLE
  2
BLOCK_RECORD
  5
1
330
0
100
AcDbSymbolTable
 70
     5
  0
BLOCK_RECORD
  5
1F
330
1
100
AcDbSymbolTableRecord
100
AcDbBlockTableRecord
  2
*Model_Space
340
22
 70
     0
280
     1
281
     0
  0
BLOCK_RECORD
  5
1B
330
1
100
AcDbSymbolTableRecord
100
AcDbBlockTableRecord
  2
*Paper_Space
340
1E
 70
     0
280
     1
281
     0
  0
BLOCK_RECORD
  5
23
330
1
100
AcDbSymbolTableRecord
100
AcDbBlockTableRecord
  2
*Paper_Space0
340
26
 70
     0
280
     1
281
     0
  0
BLOCK_RECORD
  5
6E
330
1
100
AcDbSymbolTableRecord
100
AcDbBlockTableRecord
  2
1_131180_2
340
0
102
{BLKREFS
331
6F
102
}
 70
     0
280
     1
281
     0
  0
BLOCK_RECORD
  5
8E
330
1
100
AcDbSymbolTableRecord
100
AcDbBlockTableRecord
  2
2_405016_Inch_0_in_131180_2
340
0
102
{BLKREFS
331
8F
102
}
 70
     0
280
     1
281
     0
  0
BLOCK_RECORD
  5
103
330
1
100
AcDbSymbolTableRecord
100
AcDbBlockTableRecord
  2
3_131927_0_in_131180_2
340
0
102
{BLKREFS
331
104
102
}
 70
     0
280
     1
281
     0
  0
BLOCK_RECORD
  5
16C
330
1
100
AcDbSymbolTableRecord
100
AcDbBlockTableRecord
  2
4_131180H_0_in_131180_2
340
0
102
{BLKREFS
331
16D
102
}
 70
     0
280
     1
281
     0
  0
ENDTAB
  0
ENDSEC
  0
SECTION
  2
BLOCKS
  0
BLOCK
  5
20
330
1F
100
AcDbEntity
  8
0
100
AcDbBlockBegin
  2
*Model_Space
 70
     0
 10
0.0
 20
0.0
 30
0.0
  3
*Model_Space
  1

  0
ENDBLK
  5
21
330
1F
100
AcDbEntity
  8
0
100
AcDbBlockEnd
  0
BLOCK
  5
1C
330
1B
100
AcDbEntity
 67
     1
  8
0
100
AcDbBlockBegin
  2
*Paper_Space
 70
     0
 10
0.0
 20
0.0
 30
0.0
  3
*Paper_Space
  1

  0
ENDBLK
  5
1D
330
1B
100
AcDbEntity
 67
     1
  8
0
100
AcDbBlockEnd
  0
BLOCK
  5
24
330
23
100
AcDbEntity
  8
0
100
AcDbBlockBegin
  2
*Paper_Space0
 70
     0
 10
0.0
 20
0.0
 30
0.0
  3
*Paper_Space0
  1

  0
ENDBLK
  5
25
330
23
100
AcDbEntity
  8
0
100
AcDbBlockEnd
  0
BLOCK
  5
70
330
6E
100
AcDbEntity
  8
0
100
AcDbBlockBegin
  2
1_131180_2
 70
     2
 10
0.0
 20
0.0
 30
0.0
  3
1_131180_2
  1

  0
ATTDEF
  5
73
330
6E
100
AcDbEntity
  8
AM_6
100
AcDbText
 10
6.0095
 20
2.69
 30
0.0
 40
0.5
  1
Eccentric Collar Narrow Slot Take Up Inch Bore
100
AcDbAttributeDefinition
  3

  2
NN
 70
     8
280
     0
  0
ATTDEF
  5
74
330
6E
100
AcDbEntity
  8
AM_6
100
AcDbText
 10
6.0095
 20
2.19
 30
0.0
 40
0.5
  1
SXR Take-Up Bearings -Narrow Slot -(Normal Duty)
100
AcDbAttributeDefinition
  3

  2
NT
 70
     8
280
     0
  0
ATTDEF
  5
75
330
6E
100
AcDbEntity
  8
AM_6
100
AcDbText
 10
6.0095
 20
1.69
 30
0.0
 40
0.5
  1
131180
100
AcDbAttributeDefinition
  3

  2
NB
 70
     8
280
     0
  0
ATTDEF
  5
76
330
6E
100
AcDbEntity
  8
AM_6
100
AcDbText
 10
6.0095
 20
1.19
 30
0.0
 40
0.5
  1
$PN.
100
AcDbAttributeDefinition
  3

  2
NBSYN
 70
     8
280
     0
  0
ATTDEF
  5
77
330
6E
100
AcDbEntity
  8
AM_6
100
AcDbText
 10
6.0095
 20
0.69
 30
0.0
 40
0.5
  1
131180
100
AcDbAttributeDefinition
  3

  2
LINA
 70
     8
280
     0
  0
ATTDEF
  5
78
330
6E
100
AcDbEntity
  8
AM_6
100
AcDbText
 10
6.0095
 20
0.1899999999999999
 30
0.0
 40
0.5
  1
211
100
AcDbAttributeDefinition
  3

  2
SERIES
 70
     8
280
     0
  0
ATTDEF
  5
79
330
6E
100
AcDbEntity
  8
AM_6
100
AcDbText
 10
6.0095
 20
-0.3100000000000001
 30
0.0
 40
0.5
  1
2-3/16
100
AcDbAttributeDefinition
  3

  2
SS
 70
     8
280
     0
  0
ATTDEF
  5
7A
330
6E
100
AcDbEntity
  8
AM_6
100
AcDbText
 10
6.0095
 20
-0.81
 30
0.0
 40
0.5
  1
131180
100
AcDbAttributeDefinition
  3

  2
PN
 70
     8
280
     0
  0
ATTDEF
  5
7B
330
6E
100
AcDbEntity
  8
AM_6
100
AcDbText
 10
6.0095
 20
-1.31
 30
0.0
 40
0.5
  1
NSTU-SXR-203
100
AcDbAttributeDefinition
  3

  2
DESCRIPTION
 70
     8
280
     0
  0
ATTDEF
  5
7C
330
6E
100
AcDbEntity
  8
AM_6
100
AcDbText
 10
6.0095
 20
-1.81
 30
0.0
 40
0.5
  1
7.2
100
AcDbAttributeDefinition
  3

  2
W
 70
     8
280
     0
  0
ATTDEF
  5
7D
330
6E
100
AcDbEntity
  8
AM_6
100
AcDbText
 10
6.0095
 20
-2.31
 30
0.0
 40
0.5
  1
NS407
100
AcDbAttributeDefinition
  3

  2
FS
 70
     8
280
     0
  0
ATTDEF
  5
7E
330
6E
100
AcDbEntity
  8
AM_6
100
AcDbText
 10
6.0095
 20
-2.81
 30
0.0
 40
0.5
  1
2.59
100
AcDbAttributeDefinition
  3

  2
A
 70
     8
280
     0
  0
ATTDEF
  5
7F
330
6E
100
AcDbEntity
  8
AM_6
100
AcDbText
 10
6.0095
 20
-3.31
 30
0.0
 40
0.5
  1
6.13
100
AcDbAttributeDefinition
  3

  2
B
 70
     8
280
     0
  0
ATTDEF
  5
80
330
6E
100
AcDbEntity
  8
AM_6
100
AcDbText
 10
6.0095
 20
-3.81
 30
0.0
 40
0.5
  1
0.313
100
AcDbAttributeDefinition
  3

  2
C
 70
     8
280
     0
  0
ATTDEF
  5
81
330
6E
100
AcDbEntity
  8
AM_6
100
AcDbText
 10
6.0095
 20
-4.31
 30
0.0
 40
0.5
  1
3.50
100
AcDbAttributeDefinition
  3

  2
D
 70
     8
280
     0
  0
ATTDEF
  5
82
330
6E
100
AcDbEntity
  8
AM_6
100
AcDbText
 10
6.0095
 20
-4.81
 30
0.0
 40
0.5
  1
3.63
100
AcDbAttributeDefinition
  3

  2
E
 70
     8
280
     0
  0
ATTDEF
  5
83
330
6E
100
AcDbEntity
  8
AM_6
100
AcDbText
 10
6.0095
 20
-5.31
 30
0.0
 40
0.5
  1
1
100
AcDbAttributeDefinition
  3

  2
F
 70
     8
280
     0
  0
ATTDEF
  5
84
330
6E
100
AcDbEntity
  8
AM_6
100
AcDbText
 10
6.0095
 20
-5.81
 30
0.0
 40
0.5
  1
0.69
100
AcDbAttributeDefinition
  3

  2
G
 70
     8
280
     0
  0
ATTDEF
  5
85
330
6E
100
AcDbEntity
  8
AM_6
100
AcDbText
 10
6.0095
 20
-6.31
 30
0.0
 40
0.5
  1
1.28
100
AcDbAttributeDefinition
  3

  2
H
 70
     8
280
     0
  0
ATTDEF
  5
86
330
6E
100
AcDbEntity
  8
AM_6
100
AcDbText
 10
6.0095
 20
-6.81
 30
0.0
 40
0.5
  1
1.75
100
AcDbAttributeDefinition
  3

  2
J
 70
     8
280
     0
  0
ATTDEF
  5
87
330
6E
100
AcDbEntity
  8
AM_6
100
AcDbText
 10
6.0095
 20
-7.31
 30
0.0
 40
0.5
  1
3.00
100
AcDbAttributeDefinition
  3

  2
L
 70
     8
280
     0
  0
ATTDEF
  5
88
330
6E
100
AcDbEntity
  8
AM_6
100
AcDbText
 10
6.0095
 20
-7.81
 30
0.0
 40
0.5
  1
4.448 / 4.418
100
AcDbAttributeDefinition
  3

  2
M
 70
     8
280
     0
  0
ATTDEF
  5
89
330
6E
100
AcDbEntity
  8
AM_6
100
AcDbText
 10
6.0095
 20
-8.31
 30
0.0
 40
0.5
  1
5.38
100
AcDbAttributeDefinition
  3

  2
N
 70
     8
280
     0
  0
ATTDEF
  5
8A
330
6E
100
AcDbEntity
  8
AM_6
100
AcDbText
 10
6.0095
 20
-8.81
 30
0.0
 40
0.5
  1
0.44
100
AcDbAttributeDefinition
  3

  2
P
 70
     8
280
     0
  0
ATTDEF
  5
8B
330
6E
100
AcDbEntity
  8
AM_6
100
AcDbText
 10
6.0095
 20
-9.31
 30
0.0
 40
0.5
  1
0.88
100
AcDbAttributeDefinition
  3

  2
R
 70
     8
280
     0
  0
ATTDEF
  5
8C
330
6E
100
AcDbEntity
  8
AM_6
100
AcDbText
 10
6.0095
 20
-9.81
 30
0.0
 40
0.5
  1
1.71
100
AcDbAttributeDefinition
  3

  2
S
 70
     8
280
     0
  0
ATTDEF
  5
8D
330
6E
100
AcDbEntity
  8
AM_6
100
AcDbText
 10
6.0095
 20
-10.31
 30
0.0
 40
0.5
  1
baldor
100
AcDbAttributeDefinition
  3

  2
COMPANY
 70
     8
280
     0
  0
INSERT
  5
8F
330
6E
100
AcDbEntity
  8
0
100
AcDbBlockReference
  2
2_405016_Inch_0_in_131180_2
 10
0.0
 20
0.0
 30
0.0
  0
INSERT
  5
104
330
6E
100
AcDbEntity
  8
0
100
AcDbBlockReference
  2
3_131927_0_in_131180_2
 10
0.0
 20
0.0
 30
0.0
  0
INSERT
  5
16D
330
6E
100
AcDbEntity
  8
0
100
AcDbBlockReference
  2
4_131180H_0_in_131180_2
 10
0.0
 20
0.0
 30
0.0
  0
ENDBLK
  5
71
330
6E
100
AcDbEntity
  8
0
100
AcDbBlockEnd
  0
BLOCK
  5
90
330
8E
100
AcDbEntity
  8
0
100
AcDbBlockBegin
  2
2_405016_Inch_0_in_131180_2
 70
     2
 10
0.0
 20
0.0
 30
0.0
  3
2_405016_Inch_0_in_131180_2
  1

  0
ATTDEF
  5
92
330
8E
100
AcDbEntity
  8
AM_6
100
AcDbText
 10
5.218750000000001
 20
-0.9919256983551602
 30
0.0
 40
0.5
  1
405016 -Inch
100
AcDbAttributeDefinition
  3

  2
NN
 70
     8
280
     0
  0
ATTDEF
  5
93
330
8E
100
AcDbEntity
  8
AM_6
100
AcDbText
 10
5.218750000000001
 20
-1.49192569835516
 30
0.0
 40
0.5
  1
Grease Fitting
100
AcDbAttributeDefinition
  3

  2
NT
 70
     8
280
     0
  0
ATTDEF
  5
94
330
8E
100
AcDbEntity
  8
AM_6
100
AcDbText
 10
5.218750000000001
 20
-1.99192569835516
 30
0.0
 40
0.5
  1
405016-Inch
100
AcDbAttributeDefinition
  3

  2
NB
 70
     8
280
     0
  0
ATTDEF
  5
95
330
8E
100
AcDbEntity
  8
AM_6
100
AcDbText
 10
5.218750000000001
 20
-2.49192569835516
 30
0.0
 40
0.5
  1
$MN.-Inch
100
AcDbAttributeDefinition
  3

  2
NBSYN
 70
     8
280
     0
  0
ATTDEF
  5
96
330
8E
100
AcDbEntity
  8
AM_6
100
AcDbText
 10
5.218750000000001
 20
-2.99192569835516
 30
0.0
 40
0.5
  1
405016
100
AcDbAttributeDefinition
  3

  2
LINA
 70
     8
280
     0
  0
ATTDEF
  5
97
330
8E
100
AcDbEntity
  8
AM_6
100
AcDbText
 10
5.218750000000001
 20
-3.49192569835516
 30
0.0
 40
0.5
  1
405016
100
AcDbAttributeDefinition
  3

  2
MN
 70
     8
280
     0
  0
ATTDEF
  5
98
330
8E
100
AcDbEntity
  8
AM_6
100
AcDbText
 10
5.218750000000001
 20
-3.99192569835516
 30
0.0
 40
0.5
  1
7/16 HEX
100
AcDbAttributeDefinition
  3

  2
H
 70
     8
280
     0
  0
ATTDEF
  5
99
330
8E
100
AcDbEntity
  8
AM_6
100
AcDbText
 10
5.218750000000001
 20
-4.491925698355161
 30
0.0
 40
0.5
  1
0.383
100
AcDbAttributeDefinition
  3

  2
NDR
 70
     8
280
     0
  0
ATTDEF
  5
9A
330
8E
100
AcDbEntity
  8
AM_6
100
AcDbText
 10
5.218750000000001
 20
-4.991925698355161
 30
0.0
 40
0.5
  1
0.337
100
AcDbAttributeDefinition
  3

  2
KDR
 70
     8
280
     0
  0
ATTDEF
  5
9B
330
8E
100
AcDbEntity
  8
AM_6
100
AcDbText
 10
5.218750000000001
 20
-5.491925698355161
 30
0.0
 40
0.5
  1
0.1575
100
AcDbAttributeDefinition
  3

  2
BZE
 70
     8
280
     0
  0
ATTDEF
  5
9C
330
8E
100
AcDbEntity
  8
AM_6
100
AcDbText
 10
5.218750000000001
 20
-5.991925698355161
 30
0.0
 40
0.5
  1
0.4375
100
AcDbAttributeDefinition
  3

  2
HEX
 70
     8
280
     0
  0
ATTDEF
  5
9D
330
8E
100
AcDbEntity
  8
AM_6
100
AcDbText
 10
5.218750000000001
 20
-6.491925698355161
 30
0.0
 40
0.5
  1
0.281250
100
AcDbAttributeDefinition
  3

  2
HEX2
 70
     8
280
     0
  0
ATTDEF
  5
9E
330
8E
100
AcDbEntity
  8
AM_6
100
AcDbText
 10
5.218750000000001
 20
-6.991925698355161
 30
0.0
 40
0.5
  1
baldor
100
AcDbAttributeDefinition
  3

  2
COMPANY
 70
     8
280
     0
  0
LWPOLYLINE
  5
A1
330
8E
100
AcDbEntity
  8
AM_9
100
AcDbPolyline
 90
        5
 70
     0
 43
0.0
 10
-0.1791093260592888
 20
-1.596738809059826
 10
-0.1842540823997055
 20
-1.563670119967152
 10
-0.1862220679364952
 20
-1.529312409178914
 10
-0.1844124966919382
 20
-1.493126446285356
 10
-0.1791093260592888
 20
-1.456113809059826
  0
LINE
  5
A2
330
8E
100
AcDbEntity
  8
AM_9
100
AcDbLine
 10
-0.1510741298357571
 20
-1.44957729571137
 30
0.0
 11
-0.1791093260592888
 21
-1.456113809059826
 31
0.0
  0
LWPOLYLINE
  5
A3
330
8E
100
AcDbEntity
  8
AM_9
100
AcDbPolyline
 90
        5
 70
     0
 43
0.0
 10
-0.1791093260592888
 20
-1.456113809059826
 10
-0.198835512140694
 20
-1.424688517736611
 10
-0.2156330920108726
 20
-1.391997724328327
 10
-0.2290462109660022
 20
-1.357506153690794
 10
-0.2389369657326277
 20
-1.322169092407283
  0
LINE
  5
A4
330
8E
100
AcDbEntity
  8
AM_9
100
AcDbLine
 10
-0.2099962668917054
 20
-1.315421457656344
 30
0.0
 11
-0.2389369657326277
 21
-1.322169092407283
 31
0.0
  0
LINE
  5
A5
330
8E
100
AcDbEntity
  8
AM_9
100
AcDbLine
 10
-0.2389369657326277
 20
-1.322169092407283
 30
0.0
 11
-0.2711532636537957
 21
-1.326618123437406
 31
0.0
  0
LWPOLYLINE
  5
A6
330
8E
100
AcDbEntity
  8
AM_9
100
AcDbPolyline
 90
        3
 70
     0
 43
0.0
 10
-0.2813919000363601
 20
-1.327753048956784
 10
-0.2911775952746244
 20
-1.32855559349426
 10
-0.2987675689889719
 20
-1.328850066725467
  0
LWPOLYLINE
  5
A7
330
8E
100
AcDbEntity
  8
AM_9
100
AcDbPolyline
 90
        5
 70
     0
 43
0.0
 10
-0.2389369657326277
 20
-1.603419092407284
 10
-0.2295338871417797
 20
-1.60299806213629
 10
-0.2166871171046321
 20
-1.601802555641742
 10
-0.1996402057054679
 20
-1.599676787031713
 10
-0.1791093260592888
 20
-1.596738809059826
  0
LINE
  5
A8
330
8E
100
AcDbEntity
  8
AM_9
100
AcDbLine
 10
-0.1510741298357571
 20
-1.59020229571137
 30
0.0
 11
-0.1791093260592888
 21
-1.596738809059826
 31
0.0
  0
LINE
  5
A9
330
8E
100
AcDbEntity
  8
AM_9
100
AcDbLine
 10
-0.452415808934145
 20
-1.616254016496842
 30
0.0
 11
-0.3774664534000949
 21
-1.634780662014441
 31
0.0
  0
LINE
  5
AA
330
8E
100
AcDbEntity
  8
AM_9
100
AcDbLine
 10
-0.4395859245204076
 20
-1.368349390582632
 30
0.0
 11
-0.4986131040655764
 21
-1.418113178260487
 31
0.0
  0
LWPOLYLINE
  5
AB
330
8E
100
AcDbEntity
  8
AM_9
100
AcDbPolyline
 90
        3
 70
     0
 43
0.0
 10
-0.2689146070947223
 20
-1.321889734350518
 10
-0.2512755937295761
 20
-1.319238843014547
 10
-0.2360765106845276
 20
-1.317187592413266
  0
LWPOLYLINE
  5
AC
330
8E
100
AcDbEntity
  8
AM_9
100
AcDbPolyline
 90
        9
 70
     0
 43
0.0
 10
-0.3849371794564819
 20
-1.367607749156762
 10
-0.3907216046434501
 20
-1.364101696901648
 10
-0.3990023153409741
 20
-1.360569279989971
 10
-0.4073061282645335
 20
-1.358694708476242
 10
-0.4156032699857443
 20
-1.358454434728505
 10
-0.424445052273663
 20
-1.360072941245751
 10
-0.4324079087199397
 20
-1.363413787937646
 10
-0.4393666334287313
 20
-1.36816567966713
 10
-0.4402565730338253
 20
-1.368925877777783
  0
LWPOLYLINE
  5
AD
330
8E
100
AcDbEntity
  8
AM_9
100
AcDbPolyline
 90
        3
 70
     0
 43
0.0
 10
-0.3773182915367908
 20
-1.373620700414264
 10
-0.3823815621376298
 20
-1.369442944091859
 10
-0.3849371794564819
 20
-1.367607749156762
  0
LWPOLYLINE
  5
AE
330
8E
100
AcDbEntity
  8
AM_9
100
AcDbPolyline
 90
        9
 70
     0
 43
0.0
 10
-0.3779174375717139
 20
-1.63466676400318
 10
-0.3710948409789686
 20
-1.635875325818712
 10
-0.3628104344361024
 20
-1.635856583854706
 10
-0.35408603478498
 20
-1.633976909847687
 10
-0.3462574218515971
 20
-1.630417843354671
 10
-0.3394373507575519
 20
-1.625483862763626
 10
-0.3335310940967586
 20
-1.619300130041264
 10
-0.3284173084651199
 20
-1.611789834096998
 10
-0.3244326485478503
 20
-1.603690460521679
  0
LWPOLYLINE
  5
AF
330
8E
100
AcDbEntity
  8
AM_9
100
AcDbPolyline
 90
        3
 70
     0
 43
0.0
 10
-0.1093750000000001
 20
-1.175
 10
-0.0546875000000001
 20
-1.146459559607482
 10
-0.0000000000000001
 20
-1.115778700151693
  0
LWPOLYLINE
  5
B0
330
8E
100
AcDbEntity
  8
AM_9
100
AcDbPolyline
 90
        3
 70
     0
 43
0.0
 10
-0.0000000000000001
 20
-1.115778700151693
 10
0.0544416102741494
 20
-1.146326042662265
 10
0.1093749999999998
 20
-1.175
  0
LWPOLYLINE
  5
B1
330
8E
100
AcDbEntity
  8
AM_9
100
AcDbPolyline
 90
        6
 70
     0
 43
0.0
 10
-0.1510741298357571
 20
-1.59020229571137
 10
-0.1564222384464443
 20
-1.590146258798399
 10
-0.1639940363880806
 20
-1.590585121917566
 10
-0.1744063212866123
 20
-1.591646289109958
 10
-0.1876759562813859
 20
-1.593363121169831
 10
-0.2099962668917054
 20
-1.596671457656343
  0
LINE
  5
B2
330
8E
100
AcDbEntity
  8
AM_9
100
AcDbLine
 10
-0.1423570367247507
 20
-1.50366044418589
 30
0.0
 11
-0.1419585098156051
 21
-1.517769408754154
 31
0.0
  0
LWPOLYLINE
  5
B3
330
8E
100
AcDbEntity
  8
AM_9
100
AcDbPolyline
 90
        3
 70
     0
 43
0.0
 10
-0.1510741298357572
 20
-1.44957729571137
 10
-0.1458778226760521
 20
-1.473510622598914
 10
-0.1432350859847851
 20
-1.492560561819995
  0
LINE
  5
B4
330
8E
100
AcDbEntity
  8
AM_9
100
AcDbLine
 10
-0.1803457750798689
 20
-1.361840191165211
 30
0.0
 11
-0.1765789831125444
 21
-1.369205855542361
 31
0.0
  0
LINE
  5
B5
330
8E
100
AcDbEntity
  8
AM_9
100
AcDbLine
 10
-0.182960786494436
 20
-1.357011181854652
 30
0.0
 11
-0.1811753282578816
 21
-1.360285125613264
 31
0.0
  0
LWPOLYLINE
  5
B6
330
8E
100
AcDbEntity
  8
AM_9
100
AcDbPolyline
 90
        3
 70
     0
 43
0.0
 10
-0.2099962668917055
 20
-1.315421457656344
 10
-0.1943573015029059
 20
-1.337992854288234
 10
-0.1838601031632031
 20
-1.355397654438569
  0
LWPOLYLINE
  5
B7
330
8E
100
AcDbEntity
  8
AM_9
100
AcDbPolyline
 90
        4
 70
     0
 43
0.0
 10
-0.2258378743019628
 20
-1.316052666893888
 10
-0.2189176876709016
 20
-1.315510369847584
 10
-0.2138633349839128
 20
-1.315330911862199
 10
-0.2099962668917054
 20
-1.315421457656344
  0
LWPOLYLINE
  5
B8
330
8E
100
AcDbEntity
  8
AM_9
100
AcDbPolyline
 90
        3
 70
     0
 43
0.0
 10
-0.142908225215331
 20
-1.539952025626321
 10
-0.1441228263802216
 20
-1.551595324422914
 10
-0.1510741298357571
 20
-1.59020229571137
  0
LWPOLYLINE
  5
B9
330
8E
100
AcDbEntity
  8
AM_9
100
AcDbPolyline
 90
        3
 70
     0
 43
0.0
 10
-0.1419585098156051
 20
-1.517769408754154
 10
-0.1420496512545707
 20
-1.524566312422038
 10
-0.1426193522651211
 20
-1.536220042590737
  0
LWPOLYLINE
  5
BA
330
8E
100
AcDbEntity
  8
AM_9
100
AcDbPolyline
 90
        4
 70
     0
 43
0.0
 10
-0.1655186272077356
 20
-1.394868354922746
 10
-0.1598729403210872
 20
-1.411768689712644
 10
-0.1549033058439657
 20
-1.430607171961479
 10
-0.1510741298357571
 20
-1.44957729571137
  0
LINE
  5
BB
330
8E
100
AcDbEntity
  8
AM_9
100
AcDbLine
 10
-0.1765789831125444
 20
-1.369205855542361
 30
0.0
 11
-0.1737963240508535
 21
-1.375016802750606
 31
0.0
  0
ELLIPSE
  5
BC
330
8E
100
AcDbEntity
  8
AM_9
100
AcDbEllipse
 10
-0.2013892028241876
 20
-1.45327024483734
 30
0.0
 11
-0.0319308501143825
 21
0.1369518580960927
 31
0.0
210
0.0
220
0.0
230
1.0
 40
0.3659981507706669
 41
2.150416404658196
 42
6.139946939636895
  0
LWPOLYLINE
  5
BD
330
8E
100
AcDbEntity
  8
AM_9
100
AcDbPolyline
 90
        3
 70
     0
 43
0.0
 10
-0.3055458577949632
 20
-1.417852494962034
 10
-0.3030753670497809
 20
-1.443922855181632
 10
-0.2987675689889719
 20
-1.469475066725467
  0
LWPOLYLINE
  5
BE
330
8E
100
AcDbEntity
  8
AM_9
100
AcDbPolyline
 90
        4
 70
     0
 43
0.0
 10
-0.2602304684431209
 20
-1.373067949924796
 10
-0.2616913382589204
 20
-1.3584112730526
 10
-0.2647402074337707
 20
-1.339954770112759
 10
-0.2689146070947223
 20
-1.321889734350518
  0
LINE
  5
BF
330
8E
100
AcDbEntity
  8
AM_9
100
AcDbLine
 10
-0.2689146070947223
 20
-1.321889734350518
 30
0.0
 11
-0.2987675689889719
 21
-1.328850066725467
 31
0.0
  0
LWPOLYLINE
  5
C0
330
8E
100
AcDbEntity
  8
AM_9
100
AcDbPolyline
 90
        3
 70
     0
 43
0.0
 10
-0.3001593436617022
 20
-1.336740185070576
 10
-0.3030606061861224
 20
-1.356294122408012
 10
-0.3055458577949632
 20
-1.383633406468319
  0
LINE
  5
C1
330
8E
100
AcDbEntity
  8
AM_9
100
AcDbLine
 10
-0.2987675689889719
 20
-1.328850066725467
 30
0.0
 11
-0.3001593436617022
 21
-1.336740185070576
 31
0.0
  0
LINE
  5
C2
330
8E
100
AcDbEntity
  8
AM_9
100
AcDbLine
 10
-0.2711532636537957
 20
-1.326618123437406
 30
0.0
 11
-0.2813919000363601
 21
-1.327753048956784
 31
0.0
  0
ELLIPSE
  5
C3
330
8E
100
AcDbEntity
  8
AM_9
100
AcDbEllipse
 10
-0.2467045921760208
 20
-1.463835701380858
 30
0.0
 11
-0.03193085011438256
 21
0.1369518580960945
 31
0.0
210
0.0
220
0.0
230
1.0
 40
0.3659981507706661
 41
2.259335285211411
 42
6.139946939636897
  0
ELLIPSE
  5
C4
330
8E
100
AcDbEntity
  8
AM_9
100
AcDbEllipse
 10
-0.2467045921760215
 20
-1.463835701380858
 30
0.0
 11
-0.03193085011438251
 21
0.1369518580960942
 31
0.0
210
0.0
220
0.0
230
1.0
 40
0.3659981507706623
 41
1.242657843465998
 42
1.951156734850506
  0
LWPOLYLINE
  5
C5
330
8E
100
AcDbEntity
  8
AM_9
100
AcDbPolyline
 90
        3
 70
     0
 43
0.0
 10
-0.3055458577949632
 20
-1.383633406468319
 10
-0.3064767622622303
 20
-1.400869806845232
 10
-0.3055458577949632
 20
-1.417852494962034
  0
ELLIPSE
  5
C6
330
8E
100
AcDbEntity
  8
AM_9
100
AcDbEllipse
 10
-0.2467045921760266
 20
-1.463835701380846
 30
0.0
 11
-0.03193085011438038
 21
0.1369518580960767
 31
0.0
210
0.0
220
0.0
230
1.0
 40
0.3659981507706723
 41
0.0560213022649148
 42
0.8626327579757769
  0
LWPOLYLINE
  5
C7
330
8E
100
AcDbEntity
  8
AM_9
100
AcDbPolyline
 90
       15
 70
     0
 43
0.0
 10
-0.3250055329364651
 20
-1.605024508169595
 10
-0.3249990658964816
 20
-1.605010141976894
 10
-0.3243018209595516
 20
-1.603683809882466
 10
-0.3223657232798892
 20
-1.600745509177455
 10
-0.3188527787696601
 20
-1.596562590302164
 10
-0.3134430769536004
 20
-1.591610659945268
 10
-0.3059519383974607
 20
-1.586541184207571
 10
-0.2965716129201855
 20
-1.582183139095954
 10
-0.2860477994997511
 20
-1.579312656423518
 10
-0.2754620668290073
 20
-1.578288173295901
 10
-0.2658877058090366
 20
-1.578929613964815
 10
-0.2580405097211982
 20
-1.580667819678935
 10
-0.252232134866923
 20
-1.582810427183029
 10
-0.2484050691830064
 20
-1.584764299564469
 10
-0.2463199511497291
 20
-1.586114201500142
  0
LWPOLYLINE
  5
C8
330
8E
100
AcDbEntity
  8
AM_9
100
AcDbPolyline
 90
        4
 70
     0
 43
0.0
 10
-0.2457249882508971
 20
-1.586571960916105
 10
-0.2457276366987786
 20
-1.586569672438314
 10
-0.2464248494685232
 20
-1.585900262689183
 10
-0.2470660788351373
 20
-1.585229856232879
  0
LWPOLYLINE
  5
C9
330
8E
100
AcDbEntity
  8
AM_9
100
AcDbPolyline
 90
        3
 70
     0
 43
0.0
 10
-0.3007295065527503
 20
-1.355160014371972
 10
-0.3002443401672988
 20
-1.353675592323961
 10
-0.3001080482840256
 20
-1.353322263717043
  0
LWPOLYLINE
  5
CA
330
8E
100
AcDbEntity
  8
AM_9
100
AcDbPolyline
 90
       15
 70
     0
 43
0.0
 10
-0.3001741640613967
 20
-1.353467345617301
 10
-0.3010491402909006
 20
-1.355075418195022
 10
-0.3032184157822163
 20
-1.358243188346488
 10
-0.3070193941761433
 20
-1.362587260022827
 10
-0.3127614159947559
 20
-1.367608154031053
 10
-0.3205866637303159
 20
-1.372621311522389
 10
-0.3302175878684392
 20
-1.376783333053911
 10
-0.340827380657322
 20
-1.379363454065932
 10
-0.3513221650714083
 20
-1.380091565360751
 10
-0.3606530008680626
 20
-1.379225970333629
 10
-0.3681778397742669
 20
-1.3773749026871
 10
-0.3736514545723659
 20
-1.375227340745586
 10
-0.3771762895393742
 20
-1.373347921742518
 10
-0.3790019325308215
 20
-1.372126303575805
 10
-0.3793701660869062
 20
-1.371839068067767
  0
LINE
  5
CB
330
8E
100
AcDbEntity
  8
AM_9
100
AcDbLine
 10
-0.177120771554662
 20
-1.334661692407327
 30
0.0
 11
-0.2263662233581053
 21
-1.346143458059951
 31
0.0
  0
LINE
  5
CC
330
8E
100
AcDbEntity
  8
AM_9
100
AcDbLine
 10
-0.176412182290271
 20
-1.56039703161473
 30
0.0
 11
-0.1343592486638227
 21
-1.550592229115782
 31
0.0
  0
LWPOLYLINE
  5
CD
330
8E
100
AcDbEntity
  8
AM_9
100
AcDbPolyline
 90
       20
 70
     0
 43
0.0
 10
-0.1343659249938089
 20
-1.55059378540361
 10
-0.1293028157827818
 20
-1.547990967168627
 10
-0.1247141396218193
 20
-1.542417196040507
 10
-0.1208880884981782
 20
-1.533797239076489
 10
-0.118154598914599
 20
-1.522880991490922
 10
-0.1164278875396129
 20
-1.509336212655024
 10
-0.1158549073091555
 20
-1.494330271317741
 10
-0.1164156227038168
 20
-1.477408286749774
 10
-0.1180609686233502
 20
-1.460004703027538
 10
-0.1208367673933813
 20
-1.441607393511457
 10
-0.1245107513506023
 20
-1.423747455120003
 10
-0.1291842652280563
 20
-1.405922481606624
 10
-0.134472979061152
 20
-1.3895960564441
 10
-0.140518627090196
 20
-1.374328872764631
 10
-0.1468270783017121
 20
-1.361370478489193
 10
-0.1535654953592166
 20
-1.350381372029879
 10
-0.1601799433259584
 20
-1.342268942862664
 10
-0.1668493358980662
 20
-1.336820477436415
 10
-0.1731116383367607
 20
-1.334480939756072
 10
-0.1750512200710834
 20
-1.334385575124956
  0
LINE
  5
CE
330
8E
100
AcDbEntity
  8
AM_9
100
AcDbLine
 10
-0.1771125901748264
 20
-1.334659785344162
 30
0.0
 11
-0.1790373738502115
 21
-1.335304054033761
 31
0.0
  0
LWPOLYLINE
  5
CF
330
8E
100
AcDbEntity
  8
AM_9
100
AcDbPolyline
 90
        3
 70
     0
 43
0.0
 10
-0.2689146070947223
 20
-1.462514734350518
 10
-0.2634308483997529
 20
-1.434890958955647
 10
-0.2602304684431306
 20
-1.407287038418517
  0
LWPOLYLINE
  5
D0
330
8E
100
AcDbEntity
  8
AM_9
100
AcDbPolyline
 90
        5
 70
     0
 43
0.0
 10
-0.179037373850178
 20
-1.489695945966246
 10
-0.1733931390117468
 20
-1.505209976006311
 10
-0.1670729780242512
 20
-1.51935797563067
 10
-0.1606047421316796
 20
-1.530955943415793
 10
-0.1545847053027169
 20
-1.539399795482451
  0
ARC
  5
D1
330
8E
100
AcDbEntity
  8
AM_9
100
AcDbCircle
 10
-0.0000000000000001
 20
-1.4125
 30
0.0
 40
0.1999999999999998
100
AcDbArc
 50
219.3501735137619
 51
0.0
  0
LWPOLYLINE
  5
D2
330
8E
100
AcDbEntity
  8
AM_9
100
AcDbPolyline
 90
        6
 70
     0
 43
0.0
 10
-0.1545847053027169
 20
-1.539399795482451
 10
-0.1538031670974778
 20
-1.540334802540261
 10
-0.1472336073736394
 20
-1.546712011960484
 10
-0.1407130262602577
 20
-1.550261709638181
 10
-0.1347930597680668
 20
-1.550684256104104
 10
-0.1343659249938089
 20
-1.55059378540361
  0
LINE
  5
D3
330
8E
100
AcDbEntity
  8
AM_9
100
AcDbLine
 10
-0.2360765106845276
 20
-1.317187592413266
 30
0.0
 11
-0.2258378743019628
 21
-1.316052666893888
 31
0.0
  0
ELLIPSE
  5
D4
330
8E
100
AcDbEntity
  8
AM_9
100
AcDbEllipse
 10
-0.2013892028241879
 20
-1.453270244837343
 30
0.0
 11
-0.03193085011438323
 21
0.1369518580960973
 31
0.0
210
0.0
220
0.0
230
1.0
 40
0.3659981507705681
 41
0.0560213022650178
 42
0.8626327579757296
  0
LINE
  5
D5
330
8E
100
AcDbEntity
  8
AM_9
100
AcDbLine
 10
-0.2602304684431306
 20
-1.407287038418517
 30
0.0
 11
-0.2602304684431209
 21
-1.373067949924796
 31
0.0
  0
ELLIPSE
  5
D6
330
8E
100
AcDbEntity
  8
AM_9
100
AcDbEllipse
 10
-0.2013892028241879
 20
-1.453270244837341
 30
0.0
 11
-0.03193085011438282
 21
0.1369518580960956
 31
0.0
210
0.0
220
0.0
230
1.0
 40
0.3659981507706647
 41
1.144545279139743
 42
1.951156734850491
  0
LWPOLYLINE
  5
D7
330
8E
100
AcDbEntity
  8
AM_9
100
AcDbPolyline
 90
        3
 70
     0
 43
0.0
 10
-0.2099962668917054
 20
-1.596671457656343
 10
-0.2163479371246914
 20
-1.567339189975666
 10
-0.225837874301963
 20
-1.53805747759944
  0
LINE
  5
D8
330
8E
100
AcDbEntity
  8
AM_9
100
AcDbLine
 10
-0.225837874301963
 20
-1.53805747759944
 30
0.0
 11
-0.2360765106845278
 21
-1.514965725501071
 31
0.0
  0
LWPOLYLINE
  5
D9
330
8E
100
AcDbEntity
  8
AM_9
100
AcDbPolyline
 90
        4
 70
     0
 43
0.0
 10
-0.2360765106845278
 20
-1.514965725501071
 10
-0.2462091938631852
 20
-1.496421611213501
 10
-0.2570505402207575
 20
-1.479284690571682
 10
-0.2689146070947223
 20
-1.462514734350518
  0
LINE
  5
DA
330
8E
100
AcDbEntity
  8
AM_9
100
AcDbLine
 10
-0.2689146070947223
 20
-1.462514734350518
 30
0.0
 11
-0.2987675689889719
 21
-1.469475066725467
 31
0.0
  0
LWPOLYLINE
  5
DB
330
8E
100
AcDbEntity
  8
AM_9
100
AcDbPolyline
 90
        3
 70
     0
 43
0.0
 10
-0.2987675689889719
 20
-1.469475066725467
 10
-0.2912216284034025
 20
-1.497576183495197
 10
-0.28139190003636
 20
-1.525531182044589
  0
LINE
  5
DC
330
8E
100
AcDbEntity
  8
AM_9
100
AcDbLine
 10
-0.28139190003636
 20
-1.525531182044589
 30
0.0
 11
-0.2711532636537957
 21
-1.548622934142958
 31
0.0
  0
LWPOLYLINE
  5
DD
330
8E
100
AcDbEntity
  8
AM_9
100
AcDbPolyline
 90
        3
 70
     0
 43
0.0
 10
-0.2711532636537957
 20
-1.548622934142958
 10
-0.2561815527589922
 20
-1.576327936735335
 10
-0.2389369657326277
 20
-1.603419092407284
  0
LINE
  5
DE
330
8E
100
AcDbEntity
  8
AM_9
100
AcDbLine
 10
-0.2099962668917054
 20
-1.596671457656343
 30
0.0
 11
-0.2389369657326277
 21
-1.603419092407284
 31
0.0
  0
LWPOLYLINE
  5
DF
330
8E
100
AcDbEntity
  8
AM_9
100
AcDbPolyline
 90
        3
 70
     0
 43
0.0
 10
-0.0000000000000001
 20
-1.074846299848307
 10
-0.0544416102741497
 20
-1.098740567611884
 10
-0.1093750000000001
 20
-1.125
  0
LWPOLYLINE
  5
E0
330
8E
100
AcDbEntity
  8
AM_9
100
AcDbPolyline
 90
        3
 70
     0
 43
0.0
 10
0.1093749999999998
 20
-1.125
 10
0.0546874999999999
 20
-1.098852940392517
 10
-0.0000000000000001
 20
-1.074846299848307
  0
LWPOLYLINE
  5
E1
330
8E
100
AcDbEntity
  8
AM_9
100
AcDbPolyline
 90
        3
 70
     0
 43
0.0
 10
0.1093749999999998
 20
-1.175
 10
0.1640624999999998
 20
-1.201147059607482
 10
0.2187499999999999
 20
-1.225153700151693
  0
LWPOLYLINE
  5
E2
330
8E
100
AcDbEntity
  8
AM_9
100
AcDbPolyline
 90
        3
 70
     0
 43
0.0
 10
-0.2187500000000001
 20
-1.225153700151693
 10
-0.1643083897258505
 20
-1.201259432388115
 10
-0.1093750000000001
 20
-1.175
  0
LINE
  5
E3
330
8E
100
AcDbEntity
  8
AM_9
100
AcDbLine
 10
-0.0000000000000001
 20
-1.115778700151693
 30
0.0
 11
-0.0000000000000001
 21
-1.074846299848307
 31
0.0
  0
LWPOLYLINE
  5
E4
330
8E
100
AcDbEntity
  8
AM_9
100
AcDbPolyline
 90
        3
 70
     0
 43
0.0
 10
0.2187499999999999
 20
-1.184221299848307
 10
0.1643083897258503
 20
-1.153673957337735
 10
0.1093749999999998
 20
-1.125
  0
LWPOLYLINE
  5
E5
330
8E
100
AcDbEntity
  8
AM_9
100
AcDbPolyline
 90
        3
 70
     0
 43
0.0
 10
-0.1093750000000001
 20
-1.125
 10
-0.1640625000000001
 20
-1.153540440392517
 10
-0.2187500000000001
 20
-1.184221299848307
  0
ELLIPSE
  5
E6
330
8E
100
AcDbEntity
  8
AM_9
100
AcDbEllipse
 10
-0.0000000000000002
 20
-1.4125
 30
0.0
 11
-0.2
 21
2.449293598294706E-17
 31
0.0
210
0.0
220
0.0
230
1.0
 40
0.8660254037844397
 41
0.4619460205669643
 42
5.821239286612617
  0
LWPOLYLINE
  5
E7
330
8E
100
AcDbEntity
  8
AM_9
100
AcDbPolyline
 90
        7
 70
     0
 43
0.0
 10
-0.1790373738501785
 20
-1.489695945966246
 10
-0.1842628795203942
 20
-1.473701216295605
 10
-0.1891729979031394
 20
-1.457644458256412
 10
-0.1936098952159724
 20
-1.440877825105295
 10
-0.1971856748420372
 20
-1.423429808725254
 10
-0.1994144431868155
 20
-1.405957633207593
 10
-0.1999999999699529
 20
-1.39225755900097
  0
LINE
  5
E8
330
8E
100
AcDbEntity
  8
AM_9
100
AcDbLine
 10
0.1999999999999998
 20
-1.4125
 30
0.0
 11
0.1999999999999998
 21
-1.3390625
 31
0.0
  0
LWPOLYLINE
  5
E9
330
8E
100
AcDbEntity
  8
AM_9
100
AcDbPolyline
 90
        8
 70
     0
 43
0.0
 10
-0.1999999999699529
 20
-1.39225755900097
 10
-0.1999786710855128
 20
-1.389747492794571
 10
-0.1988321115509054
 20
-1.374477046299115
 10
-0.196164942998426
 20
-1.361547828583382
 10
-0.1920694300574959
 20
-1.350495849846331
 10
-0.1870948030566196
 20
-1.342226804053058
 10
-0.1815005947613931
 20
-1.336703487144151
 10
-0.1790373738501785
 20
-1.335304054033754
  0
LINE
  5
EA
330
8E
100
AcDbEntity
  8
AM_9
100
AcDbLine
 10
-0.2187500000000001
 20
-1.443903700151693
 30
0.0
 11
-0.2187500000000001
 21
-1.184221299848307
 31
0.0
  0
LWPOLYLINE
  5
EB
330
8E
100
AcDbEntity
  8
AM_9
100
AcDbPolyline
 90
        3
 70
     0
 43
0.0
 10
-0.1093750000000001
 20
-1.503125
 10
-0.1640625000000001
 20
-1.474584559607482
 10
-0.2187500000000001
 20
-1.443903700151693
  0
LWPOLYLINE
  5
EC
330
8E
100
AcDbEntity
  8
AM_9
100
AcDbPolyline
 90
        3
 70
     0
 43
0.0
 10
-0.0000000000000001
 20
-1.553278700151692
 10
-0.0544416102741497
 20
-1.529384432388115
 10
-0.1093750000000001
 20
-1.503125
  0
LWPOLYLINE
  5
ED
330
8E
100
AcDbEntity
  8
AM_9
100
AcDbPolyline
 90
        3
 70
     0
 43
0.0
 10
-0.2187500000000001
 20
-1.402971299848307
 10
-0.1643083897258505
 20
-1.426865567611884
 10
-0.1093750000000001
 20
-1.453125
  0
LINE
  5
EE
330
8E
100
AcDbEntity
  8
AM_9
100
AcDbLine
 10
-0.0000000000000001
 20
-1.553278700151692
 30
0.0
 11
-0.0000000000000001
 21
-1.512346299848307
 31
0.0
  0
LWPOLYLINE
  5
EF
330
8E
100
AcDbEntity
  8
AM_9
100
AcDbPolyline
 90
        3
 70
     0
 43
0.0
 10
0.1093749999999998
 20
-1.503125
 10
0.0546874999999999
 20
-1.529272059607482
 10
-0.0000000000000001
 20
-1.553278700151692
  0
LWPOLYLINE
  5
F0
330
8E
100
AcDbEntity
  8
AM_9
100
AcDbPolyline
 90
        3
 70
     0
 43
0.0
 10
0.2187499999999999
 20
-1.443903700151693
 10
0.1643083897258503
 20
-1.474451042662265
 10
0.1093749999999998
 20
-1.503125
  0
LINE
  5
F1
330
8E
100
AcDbEntity
  8
AM_9
100
AcDbLine
 10
0.2187499999999999
 20
-1.443903700151693
 30
0.0
 11
0.2187499999999999
 21
-1.184221299848307
 31
0.0
  0
LWPOLYLINE
  5
F2
330
8E
100
AcDbEntity
  8
AM_9
100
AcDbPolyline
 90
        3
 70
     0
 43
0.0
 10
0.1093749999999998
 20
-1.453125
 10
0.1640624999999998
 20
-1.426977940392517
 10
0.2187499999999999
 20
-1.402971299848307
  0
LWPOLYLINE
  5
F3
330
8E
100
AcDbEntity
  8
AM_9
100
AcDbPolyline
 90
        3
 70
     0
 43
0.0
 10
-0.1093750000000001
 20
-1.453125
 10
-0.0546875000000001
 20
-1.481665440392517
 10
-0.0000000000000001
 20
-1.512346299848307
  0
LWPOLYLINE
  5
F4
330
8E
100
AcDbEntity
  8
AM_9
100
AcDbPolyline
 90
        3
 70
     0
 43
0.0
 10
-0.0000000000000001
 20
-1.512346299848307
 10
0.0544416102741494
 20
-1.481798957337735
 10
0.1093749999999998
 20
-1.453125
  0
LINE
  5
F5
330
8E
100
AcDbEntity
  8
AM_9
100
AcDbLine
 10
0.1999999999999998
 20
-1.2890625
 30
0.0
 11
0.1999999999999998
 21
-1.25
 31
0.0
  0
LINE
  5
F6
330
8E
100
AcDbEntity
  8
AM_9
100
AcDbLine
 10
-0.1851454569549802
 20
-1.143809912570727
 30
0.0
 11
-0.1912304659644924
 21
-1.241022462287446
 31
0.0
  0
LINE
  5
F7
330
8E
100
AcDbEntity
  8
AM_9
100
AcDbLine
 10
0.1912304659644922
 20
-1.241022462287446
 30
0.0
 11
0.1851454569549799
 21
-1.143809912570727
 31
0.0
  0
ELLIPSE
  5
F8
330
8E
100
AcDbEntity
  8
AM_9
100
AcDbEllipse
 10
-0.0000000000000001
 20
-1.140625
 30
0.0
 11
0.1616637258772237
 21
0.0
 31
0.0
210
0.0
220
0.0
230
1.0
 40
0.8660254037844384
 41
0.0
 42
6.283185307179586
  0
ELLIPSE
  5
F9
330
8E
100
AcDbEntity
  8
AM_9
100
AcDbEllipse
 10
-0.4687500000000006
 20
-1.515606438444094
 30
0.0
 11
-0.02349716402074586
 21
0.1007796617096759
 31
0.0
210
0.0
220
0.0
230
1.0
 40
0.3659981507706612
 41
0.0
 42
6.283185307179586
  0
ELLIPSE
  5
FA
330
8E
100
AcDbEntity
  8
AM_9
100
AcDbEllipse
 10
-0.3729962569746644
 20
-1.493281086609234
 30
0.0
 11
-0.03024351534849262
 21
0.1297148559307584
 31
0.0
210
0.0
220
0.0
230
1.0
 40
0.3659981507706654
 41
0.0
 42
6.283185307179586
  0
ELLIPSE
  5
FB
330
8E
100
AcDbEntity
  8
AM_9
100
AcDbEllipse
 10
-0.2013892028241881
 20
-1.453270244837341
 30
0.0
 11
-0.02497702053391717
 21
0.1071267867773897
 31
0.0
210
0.0
220
0.0
230
1.0
 40
0.365998150770668
 41
0.0
 42
6.283185307179586
  0
ELLIPSE
  5
FC
330
8E
100
AcDbEntity
  8
AM_9
100
AcDbEllipse
 10
0.0000000000000003
 20
-1.339062499999999
 30
0.0
 11
-0.2000000000000004
 21
2.449293598294711E-17
 31
0.0
210
0.0
220
0.0
230
1.0
 40
0.8660254037844388
 41
0.0
 42
6.283185307179586
  0
ELLIPSE
  5
FD
330
8E
100
AcDbEntity
  8
AM_9
100
AcDbEllipse
 10
-0.0000000000000001
 20
-1.339062499999998
 30
0.0
 11
-0.2187500000000012
 21
2.678914873134850E-17
 31
0.0
210
0.0
220
0.0
230
1.0
 40
0.8660254037844392
 41
0.0
 42
6.283185307179586
  0
ELLIPSE
  5
FE
330
8E
100
AcDbEntity
  8
AM_9
100
AcDbEllipse
 10
-0.0000000000000001
 20
-1.289062499999999
 30
0.0
 11
-0.21875
 21
2.678914873134835E-17
 31
0.0
210
0.0
220
0.0
230
1.0
 40
0.8660254037844421
 41
0.0
 42
6.283185307179586
  0
ELLIPSE
  5
FF
330
8E
100
AcDbEntity
  8
AM_9
100
AcDbEllipse
 10
-0.0000000000000004
 20
-1.2890625
 30
0.0
 11
-0.1999999999999996
 21
2.980232263262461E-9
 31
0.0
210
0.0
220
0.0
230
1.0
 40
0.866025403784439
 41
0.0
 42
6.283185307179586
  0
ELLIPSE
  5
100
330
8E
100
AcDbEntity
  8
AM_9
100
AcDbEllipse
 10
-0.0000000000000001
 20
-1.25
 30
0.0
 11
-0.1999999999999998
 21
2.449293598294704E-17
 31
0.0
210
0.0
220
0.0
230
1.0
 40
0.8660254037844382
 41
0.0
 42
6.283185307179586
  0
ELLIPSE
  5
101
330
8E
100
AcDbEntity
  8
AM_9
100
AcDbEllipse
 10
-0.0000000000000001
 20
-1.25
 30
0.0
 11
-0.1915112338502294
 21
2.345336195354437E-17
 31
0.0
210
0.0
220
0.0
230
1.0
 40
0.8660254037844374
 41
0.0
 42
6.283185307179586
  0
ELLIPSE
  5
102
330
8E
100
AcDbEntity
  8
AM_9
100
AcDbEllipse
 10
-0.0000000000000002
 20
-1.152501782423881
 30
0.0
 11
-0.185417290724986
 21
2.270706915929283E-17
 31
0.0
210
0.0
220
0.0
230
1.0
 40
0.8660254037844288
 41
0.0
 42
6.283185307179586
  0
ENDBLK
  5
91
330
8E
100
AcDbEntity
  8
0
100
AcDbBlockEnd
  0
BLOCK
  5
105
330
103
100
AcDbEntity
  8
0
100
AcDbBlockBegin
  2
3_131927_0_in_131180_2
 70
     2
 10
0.0
 20
0.0
 30
0.0
  3
3_131927_0_in_131180_2
  1

  0
ATTDEF
  5
107
330
103
100
AcDbEntity
  8
AM_6
100
AcDbText
 10
6.0095
 20
1.968111460934537
 30
0.0
 40
0.5
  1
Eccentric Collar Insert Inch Bore
100
AcDbAttributeDefinition
  3

  2
NN
 70
     8
280
     0
  0
ATTDEF
  5
108
330
103
100
AcDbEntity
  8
AM_6
100
AcDbText
 10
6.0095
 20
1.468111460934537
 30
0.0
 40
0.5
  1
SXR Normal Duty Bearing Inserts
100
AcDbAttributeDefinition
  3

  2
NT
 70
     8
280
     0
  0
ATTDEF
  5
109
330
103
100
AcDbEntity
  8
AM_6
100
AcDbText
 10
6.0095
 20
0.9681114609345369
 30
0.0
 40
0.5
  1
131927
100
AcDbAttributeDefinition
  3

  2
NB
 70
     8
280
     0
  0
ATTDEF
  5
10A
330
103
100
AcDbEntity
  8
AM_6
100
AcDbText
 10
6.0095
 20
0.4681114609345369
 30
0.0
 40
0.5
  1
$PN.
100
AcDbAttributeDefinition
  3

  2
NBSYN
 70
     8
280
     0
  0
ATTDEF
  5
10B
330
103
100
AcDbEntity
  8
AM_6
100
AcDbText
 10
6.0095
 20
-0.0318885390654631
 30
0.0
 40
0.5
  1
131927
100
AcDbAttributeDefinition
  3

  2
LINA
 70
     8
280
     0
  0
ATTDEF
  5
10C
330
103
100
AcDbEntity
  8
AM_6
100
AcDbText
 10
6.0095
 20
-0.5318885390654631
 30
0.0
 40
0.5
  1
211
100
AcDbAttributeDefinition
  3

  2
SERIES
 70
     8
280
     0
  0
ATTDEF
  5
10D
330
103
100
AcDbEntity
  8
AM_6
100
AcDbText
 10
6.0095
 20
-1.031888539065463
 30
0.0
 40
0.5
  1
2-3/16
100
AcDbAttributeDefinition
  3

  2
SS
 70
     8
280
     0
  0
ATTDEF
  5
10E
330
103
100
AcDbEntity
  8
AM_6
100
AcDbText
 10
6.0095
 20
-1.531888539065463
 30
0.0
 40
0.5
  1
131927
100
AcDbAttributeDefinition
  3

  2
PN
 70
     8
280
     0
  0
ATTDEF
  5
10F
330
103
100
AcDbEntity
  8
AM_6
100
AcDbText
 10
6.0095
 20
-2.031888539065463
 30
0.0
 40
0.5
  1
INS-SXR-203
100
AcDbAttributeDefinition
  3

  2
DESCRIPTION
 70
     8
280
     0
  0
ATTDEF
  5
110
330
103
100
AcDbEntity
  8
AM_6
100
AcDbText
 10
6.0095
 20
-2.531888539065463
 30
0.0
 40
0.5
  1
2.9
100
AcDbAttributeDefinition
  3

  2
WEIGHT
 70
     8
280
     0
  0
ATTDEF
  5
111
330
103
100
AcDbEntity
  8
AM_6
100
AcDbText
 10
6.0095
 20
-3.031888539065463
 30
0.0
 40
0.5
  1
2.59
100
AcDbAttributeDefinition
  3

  2
A
 70
     8
280
     0
  0
ATTDEF
  5
112
330
103
100
AcDbEntity
  8
AM_6
100
AcDbText
 10
6.0095
 20
-3.531888539065463
 30
0.0
 40
0.5
  1
0.94
100
AcDbAttributeDefinition
  3

  2
C
 70
     8
280
     0
  0
ATTDEF
  5
113
330
103
100
AcDbEntity
  8
AM_6
100
AcDbText
 10
6.0095
 20
-4.031888539065463
 30
0.0
 40
0.5
  1
3.9370
100
AcDbAttributeDefinition
  3

  2
D
 70
     8
280
     0
  0
ATTDEF
  5
114
330
103
100
AcDbEntity
  8
AM_6
100
AcDbText
 10
6.0095
 20
-4.531888539065463
 30
0.0
 40
0.5
  1
0.25
100
AcDbAttributeDefinition
  3

  2
J
 70
     8
280
     0
  0
ATTDEF
  5
115
330
103
100
AcDbEntity
  8
AM_6
100
AcDbText
 10
6.0095
 20
-5.031888539065463
 30
0.0
 40
0.5
  1
3.00
100
AcDbAttributeDefinition
  3

  2
L
 70
     8
280
     0
  0
ATTDEF
  5
116
330
103
100
AcDbEntity
  8
AM_6
100
AcDbText
 10
6.0095
 20
-5.531888539065463
 30
0.0
 40
0.5
  1
3/8 - 24
100
AcDbAttributeDefinition
  3

  2
N
 70
     8
280
     0
  0
ATTDEF
  5
117
330
103
100
AcDbEntity
  8
AM_6
100
AcDbText
 10
6.0095
 20
-6.031888539065463
 30
0.0
 40
0.5
  1
0.88
100
AcDbAttributeDefinition
  3

  2
W
 70
     8
280
     0
  0
ATTDEF
  5
118
330
103
100
AcDbEntity
  8
AM_6
100
AcDbText
 10
6.0095
 20
-6.531888539065463
 30
0.0
 40
0.5
  1
1.71
100
AcDbAttributeDefinition
  3

  2
Y
 70
     8
280
     0
  0
ATTDEF
  5
119
330
103
100
AcDbEntity
  8
AM_6
100
AcDbText
 10
6.0095
 20
-7.031888539065463
 30
0.0
 40
0.5
  1
2.71
100
AcDbAttributeDefinition
  3

  2
Z
 70
     8
280
     0
  0
ATTDEF
  5
11A
330
103
100
AcDbEntity
  8
AM_6
100
AcDbText
 10
6.0095
 20
-7.531888539065463
 30
0.0
 40
0.5
  1
baldor
100
AcDbAttributeDefinition
  3

  2
COMPANY
 70
     8
280
     0
  0
LINE
  5
11B
330
103
100
AcDbEntity
  8
AM_9
100
AcDbLine
 10
0.3749999999999999
 20
-1.952875
 30
0.0
 11
0.3749999999999999
 21
-1.932473180682973
 31
0.0
  0
ARC
  5
11C
330
103
100
AcDbEntity
  8
AM_9
100
AcDbCircle
 10
0.2500000000000004
 20
-1.952875
 30
0.0
 40
0.1249999999999998
100
AcDbArc
 50
185.3328725433123
 51
0.0
  0
LINE
  5
11D
330
103
100
AcDbEntity
  8
AM_9
100
AcDbLine
 10
0.3749999999999999
 20
-1.952875
 30
0.0
 11
0.2162929687499309
 21
-1.952875
 31
0.0
  0
LINE
  5
11E
330
103
100
AcDbEntity
  8
AM_9
100
AcDbLine
 10
-1.134206392513693
 20
-1.09375
 30
0.0
 11
0.8611999999999999
 21
-1.09375
 31
0.0
  0
LINE
  5
11F
330
103
100
AcDbEntity
  8
AM_9
100
AcDbLine
 10
0.8611999999999999
 20
1.09375
 30
0.0
 11
-1.134206392513693
 21
1.09375
 31
0.0
  0
LINE
  5
120
330
103
100
AcDbEntity
  8
AM_9
100
AcDbLine
 10
-1.6912
 20
-1.09375
 30
0.0
 11
-1.160793607486307
 21
-1.09375
 31
0.0
  0
LINE
  5
121
330
103
100
AcDbEntity
  8
AM_9
100
AcDbLine
 10
-1.160793607486307
 20
1.09375
 30
0.0
 11
-1.6912
 21
1.09375
 31
0.0
  0
LINE
  5
122
330
103
100
AcDbEntity
  8
AM_9
100
AcDbLine
 10
-1.160793607486307
 20
1.09375
 30
0.0
 11
-1.160793607486307
 21
-1.09375
 31
0.0
  0
LINE
  5
123
330
103
100
AcDbEntity
  8
AM_9
100
AcDbLine
 10
-1.160793607486307
 20
-1.09375
 30
0.0
 11
-1.1475
 21
-1.107043607486307
 31
0.0
  0
LINE
  5
124
330
103
100
AcDbEntity
  8
AM_9
100
AcDbLine
 10
-1.1475
 20
1.107043607486307
 30
0.0
 11
-1.160793607486307
 21
1.09375
 31
0.0
  0
LINE
  5
125
330
103
100
AcDbEntity
  8
AM_9
100
AcDbLine
 10
-1.134206392513693
 20
1.09375
 30
0.0
 11
-1.134206392513693
 21
-1.09375
 31
0.0
  0
LINE
  5
126
330
103
100
AcDbEntity
  8
AM_9
100
AcDbLine
 10
-1.1475
 20
1.107043607486307
 30
0.0
 11
-1.1475
 21
-1.107043607486307
 31
0.0
  0
LINE
  5
127
330
103
100
AcDbEntity
  8
AM_9
100
AcDbLine
 10
-1.134206392513693
 20
1.09375
 30
0.0
 11
-1.1475
 21
1.107043607486307
 31
0.0
  0
LINE
  5
128
330
103
100
AcDbEntity
  8
AM_9
100
AcDbLine
 10
-1.1475
 20
-1.107043607486307
 30
0.0
 11
-1.134206392513693
 21
-1.09375
 31
0.0
  0
LINE
  5
129
330
103
100
AcDbEntity
  8
AM_9
100
AcDbLine
 10
0.8611999999999999
 20
-1.09375
 30
0.0
 11
0.88
 21
-1.11255
 31
0.0
  0
LINE
  5
12A
330
103
100
AcDbEntity
  8
AM_9
100
AcDbLine
 10
0.88
 20
1.11255
 30
0.0
 11
0.8611999999999999
 21
1.09375
 31
0.0
  0
LINE
  5
12B
330
103
100
AcDbEntity
  8
AM_9
100
AcDbLine
 10
-1.6912
 20
1.09375
 30
0.0
 11
-1.6912
 21
-1.09375
 31
0.0
  0
LINE
  5
12C
330
103
100
AcDbEntity
  8
AM_9
100
AcDbLine
 10
-1.6912
 20
1.09375
 30
0.0
 11
-1.71
 21
1.11255
 31
0.0
  0
LINE
  5
12D
330
103
100
AcDbEntity
  8
AM_9
100
AcDbLine
 10
-1.71
 20
-1.11255
 30
0.0
 11
-1.6912
 21
-1.09375
 31
0.0
  0
LINE
  5
12E
330
103
100
AcDbEntity
  8
AM_9
100
AcDbLine
 10
-0.6259999999999997
 20
-1.355
 30
0.0
 11
-0.47
 21
-1.355
 31
0.0
  0
LINE
  5
12F
330
103
100
AcDbEntity
  8
AM_9
100
AcDbLine
 10
-0.47
 20
1.355
 30
0.0
 11
-0.6259999999999997
 21
1.355
 31
0.0
  0
LINE
  5
130
330
103
100
AcDbEntity
  8
AM_9
100
AcDbLine
 10
0.8612000000000001
 20
0.1547887592818347
 30
0.0
 11
0.8612000000000001
 21
-0.154788759281848
 31
0.0
  0
LINE
  5
131
330
103
100
AcDbEntity
  8
AM_9
100
AcDbLine
 10
0.47
 20
-1.355
 30
0.0
 11
0.6260000000000001
 21
-1.355
 31
0.0
  0
LINE
  5
132
330
103
100
AcDbEntity
  8
AM_9
100
AcDbLine
 10
0.6260000000000001
 20
1.355
 30
0.0
 11
0.47
 21
1.355
 31
0.0
  0
LINE
  5
133
330
103
100
AcDbEntity
  8
AM_9
100
AcDbLine
 10
-0.2999999999999999
 20
-1.874761904761906
 30
0.0
 11
-0.2
 21
-1.874761904761906
 31
0.0
  0
LINE
  5
134
330
103
100
AcDbEntity
  8
AM_9
100
AcDbLine
 10
-0.2
 20
1.874761904761906
 30
0.0
 11
-0.2999999999999999
 21
1.874761904761906
 31
0.0
  0
LINE
  5
135
330
103
100
AcDbEntity
  8
AM_9
100
AcDbLine
 10
0.47
 20
1.881862123004764
 30
0.0
 11
0.47
 21
-1.881862123001796
 31
0.0
  0
ARC
  5
136
330
103
100
AcDbEntity
  8
AM_9
100
AcDbCircle
 10
0.4324000000000031
 20
-1.881862123004767
 30
0.0
 40
0.0375999999999968
100
AcDbArc
 50
282.9403792429962
 51
0.0
  0
ARC
  5
137
330
103
100
AcDbEntity
  8
AM_9
100
AcDbCircle
 10
0.4324000000000005
 20
1.881862123004765
 30
0.0
 40
0.0375999999999995
100
AcDbArc
 50
0.0
 51
77.05962075700066
  0
LINE
  5
138
330
103
100
AcDbEntity
  8
AM_9
100
AcDbLine
 10
-0.47
 20
1.881862123004764
 30
0.0
 11
-0.47
 21
-1.881861199235778
 31
0.0
  0
ARC
  5
139
330
103
100
AcDbEntity
  8
AM_9
100
AcDbCircle
 10
-0.4324000000000001
 20
-1.881862123004765
 30
0.0
 40
0.0375999999999999
100
AcDbArc
 50
180.0
 51
257.0596207569999
  0
ARC
  5
13A
330
103
100
AcDbEntity
  8
AM_9
100
AcDbCircle
 10
-0.4324000000000011
 20
1.881862123004765
 30
0.0
 40
0.037599999999999
100
AcDbArc
 50
102.9403792429989
 51
180.0
  0
LINE
  5
13B
330
103
100
AcDbEntity
  8
AM_9
100
AcDbLine
 10
-0.4408200321093793
 20
1.918507218983313
 30
0.0
 11
-0.4408200321093793
 21
-1.918507218983247
 31
0.0
  0
LINE
  5
13C
330
103
100
AcDbEntity
  8
AM_9
100
AcDbLine
 10
-0.2999999999999999
 20
1.945505654065287
 30
0.0
 11
-0.2999999999999999
 21
-1.94550565406522
 31
0.0
  0
ARC
  5
13D
330
103
100
AcDbEntity
  8
AM_9
100
AcDbCircle
 10
0.0000000000184612
 20
0.000000000096394
 30
0.0
 40
1.968500000098016
100
AcDbArc
 50
257.0596207571043
 51
261.2339465520211
  0
ARC
  5
13E
330
103
100
AcDbEntity
  8
AM_9
100
AcDbCircle
 10
0.0000000000184613
 20
-0.0000000000963942
 30
0.0
 40
1.968500000098016
100
AcDbArc
 50
98.76605344797898
 51
102.9403792428957
  0
LINE
  5
13F
330
103
100
AcDbEntity
  8
AM_9
100
AcDbLine
 10
-0.2000000000000002
 20
1.958313624014294
 30
0.0
 11
-0.2000000000000002
 21
-1.958313624014289
 31
0.0
  0
LINE
  5
140
330
103
100
AcDbEntity
  8
AM_9
100
AcDbLine
 10
0.440820032109379
 20
1.918507218983313
 30
0.0
 11
0.440820032109379
 21
-1.918507218983308
 31
0.0
  0
LINE
  5
141
330
103
100
AcDbEntity
  8
AM_9
100
AcDbLine
 10
0.1255410577314327
 20
-1.964492731680022
 30
0.0
 11
0.3749999999641487
 21
-1.932451098997821
 31
0.0
  0
ARC
  5
142
330
103
100
AcDbEntity
  8
AM_9
100
AcDbCircle
 10
-0.0000000000000133
 20
0.000000000000715
 30
0.0
 40
1.968500000000704
100
AcDbArc
 50
264.1686752533606
 51
273.6565189963778
  0
ARC
  5
143
330
103
100
AcDbEntity
  8
AM_9
100
AcDbCircle
 10
-0.0000000000027656
 20
0.0000000000137046
 30
0.0
 40
1.968500000013971
100
AcDbArc
 50
280.9768492682707
 51
282.940379242989
  0
ARC
  5
144
330
103
100
AcDbEntity
  8
AM_9
100
AcDbCircle
 10
-0.0000000000000202
 20
-0.0000000000003453
 30
0.0
 40
1.968500000000336
100
AcDbArc
 50
77.05962075700174
 51
95.83132474664029
  0
ARC
  5
146
330
103
100
AcDbEntity
  8
AM_5
100
AcDbCircle
 10
-1.42875
 20
0.0
 30
0.0
 40
0.1875000000000001
100
AcDbArc
 50
75.0
 51
15.0
  0
LINE
  5
149
330
103
100
AcDbEntity
  8
AM_7
100
AcDbLine
 10
-1.8395
 20
0.0
 30
0.0
 11
1.0095
 21
0.0
 31
0.0
  0
LINE
  5
14A
330
103
100
AcDbEntity
  8
AM_7
100
AcDbLine
 10
0.25
 20
-1.31885625
 30
0.0
 11
0.25
 21
-2.11401875
 31
0.0
  0
LINE
  5
14C
330
103
100
AcDbEntity
  8
AM_4
100
AcDbLine
 10
-1.0725
 20
-1.29047619047619
 30
0.0
 11
-1.035
 21
-1.29047619047619
 31
0.0
  0
LINE
  5
14D
330
103
100
AcDbEntity
  8
AM_4
100
AcDbLine
 10
-1.035
 20
1.29047619047619
 30
0.0
 11
-1.0725
 21
1.29047619047619
 31
0.0
  0
LINE
  5
14E
330
103
100
AcDbEntity
  8
AM_4
100
AcDbLine
 10
0.88
 20
1.3362
 30
0.0
 11
0.88
 21
-1.3362
 31
0.0
  0
LINE
  5
14F
330
103
100
AcDbEntity
  8
AM_4
100
AcDbLine
 10
0.88
 20
1.3362
 30
0.0
 11
0.8612
 21
1.355
 31
0.0
  0
LINE
  5
150
330
103
100
AcDbEntity
  8
AM_4
100
AcDbLine
 10
0.8612
 20
-1.355
 30
0.0
 11
0.88
 21
-1.3362
 31
0.0
  0
LINE
  5
151
330
103
100
AcDbEntity
  8
AM_4
100
AcDbLine
 10
-1.035
 20
1.3362
 30
0.0
 11
-1.035
 21
-1.3362
 31
0.0
  0
LINE
  5
152
330
103
100
AcDbEntity
  8
AM_4
100
AcDbLine
 10
-1.035
 20
-1.3362
 30
0.0
 11
-1.0162
 21
-1.355
 31
0.0
  0
LINE
  5
153
330
103
100
AcDbEntity
  8
AM_4
100
AcDbLine
 10
-1.0162
 20
1.355
 30
0.0
 11
-1.035
 21
1.3362
 31
0.0
  0
LINE
  5
154
330
103
100
AcDbEntity
  8
AM_4
100
AcDbLine
 10
-1.0162
 20
1.355
 30
0.0
 11
-1.0162
 21
-1.355
 31
0.0
  0
LINE
  5
155
330
103
100
AcDbEntity
  8
AM_4
100
AcDbLine
 10
-1.0162
 20
-1.355
 30
0.0
 11
-0.6259999999999997
 21
-1.355
 31
0.0
  0
LINE
  5
156
330
103
100
AcDbEntity
  8
AM_4
100
AcDbLine
 10
-0.6259999999999997
 20
1.355
 30
0.0
 11
-1.0162
 21
1.355
 31
0.0
  0
LINE
  5
157
330
103
100
AcDbEntity
  8
AM_4
100
AcDbLine
 10
0.8612000000000001
 20
-0.154788759281848
 30
0.0
 11
0.8612
 21
-1.355
 31
0.0
  0
LINE
  5
158
330
103
100
AcDbEntity
  8
AM_4
100
AcDbLine
 10
0.8612
 20
1.355
 30
0.0
 11
0.8612000000000001
 21
0.1547887592818347
 31
0.0
  0
LINE
  5
159
330
103
100
AcDbEntity
  8
AM_4
100
AcDbLine
 10
0.6260000000000001
 20
-1.355
 30
0.0
 11
0.8612
 21
-1.355
 31
0.0
  0
LINE
  5
15A
330
103
100
AcDbEntity
  8
AM_4
100
AcDbLine
 10
0.8612
 20
1.355
 30
0.0
 11
0.6260000000000001
 21
1.355
 31
0.0
  0
LINE
  5
15B
330
103
100
AcDbEntity
  8
AM_4
100
AcDbLine
 10
-1.71
 20
1.453125
 30
0.0
 11
-1.71
 21
-1.453124999998001
 31
0.0
  0
ARC
  5
15C
330
103
100
AcDbEntity
  8
AM_4
100
AcDbCircle
 10
-1.663125000000001
 20
-1.453125
 30
0.0
 40
0.0468749999999993
100
AcDbArc
 50
180.0
 51
270.0
  0
ARC
  5
15D
330
103
100
AcDbEntity
  8
AM_4
100
AcDbCircle
 10
-1.663125000000001
 20
1.453125
 30
0.0
 40
0.0468749999999996
100
AcDbArc
 50
90.0
 51
180.0
  0
LINE
  5
15E
330
103
100
AcDbEntity
  8
AM_4
100
AcDbLine
 10
-1.0725
 20
1.453125
 30
0.0
 11
-1.0725
 21
-1.453124999998001
 31
0.0
  0
ARC
  5
15F
330
103
100
AcDbEntity
  8
AM_4
100
AcDbCircle
 10
-1.119374999999999
 20
-1.453125000000001
 30
0.0
 40
0.0468749999999991
100
AcDbArc
 50
270.0
 51
0.0
  0
ARC
  5
160
330
103
100
AcDbEntity
  8
AM_4
100
AcDbCircle
 10
-1.119374999999999
 20
1.453125000000001
 30
0.0
 40
0.0468749999999991
100
AcDbArc
 50
0.0
 51
90.0
  0
LINE
  5
161
330
103
100
AcDbEntity
  8
AM_4
100
AcDbLine
 10
-1.663125
 20
1.5
 30
0.0
 11
-1.663125
 21
-1.5
 31
0.0
  0
LWPOLYLINE
  5
162
330
103
100
AcDbEntity
  8
AM_4
100
AcDbPolyline
 90
        9
 70
     0
 43
0.0
 10
-1.531937708859685
 20
0.1358552786618502
 10
-1.507730275384444
 20
0.1511975554540806
 10
-1.48129637295895
 20
0.1623060032434381
 10
-1.453346202761278
 20
0.1687999822489799
 10
-1.424697214716469
 20
0.1705518540838697
 10
-1.396279137374935
 20
0.1674639139544373
 10
-1.368775622825144
 20
0.1597104695456378
 10
-1.346301870360044
 20
0.1493434499809778
 10
-1.325562291140315
 20
0.1358552786618501
  0
LWPOLYLINE
  5
163
330
103
100
AcDbEntity
  8
AM_4
100
AcDbPolyline
 90
        9
 70
     0
 43
0.0
 10
-1.325562291140315
 20
-0.1358552786618502
 10
-1.349769724615556
 20
-0.1511975554540806
 10
-1.37620362704105
 20
-0.1623060032434381
 10
-1.404153797238722
 20
-0.1687999822489799
 10
-1.432802785283531
 20
-0.1705518540838697
 10
-1.461220862625065
 20
-0.1674639139544373
 10
-1.488724377174856
 20
-0.1597104695456378
 10
-1.511198129639955
 20
-0.1493434499809778
 10
-1.531937708859685
 20
-0.1358552786618501
  0
LINE
  5
164
330
103
100
AcDbEntity
  8
AM_4
100
AcDbLine
 10
-1.119374999999999
 20
1.5
 30
0.0
 11
-1.119374999999999
 21
-1.5
 31
0.0
  0
LINE
  5
165
330
103
100
AcDbEntity
  8
AM_4
100
AcDbLine
 10
-1.663125
 20
-1.5
 30
0.0
 11
-1.119374999999999
 21
-1.5
 31
0.0
  0
LINE
  5
166
330
103
100
AcDbEntity
  8
AM_4
100
AcDbLine
 10
-1.119374999999999
 20
1.5
 30
0.0
 11
-1.663125
 21
1.5
 31
0.0
  0
ARC
  5
167
330
103
100
AcDbEntity
  8
AM_4
100
AcDbCircle
 10
-1.42875
 20
0.0
 30
0.0
 40
0.1705999999999999
100
AcDbArc
 50
127.2181748028442
 51
232.7818251971559
  0
LWPOLYLINE
  5
168
330
103
100
AcDbEntity
  8
AM_4
100
AcDbPolyline
 90
       14
 70
     0
 43
0.0
 10
-1.531937708859685
 20
-0.1358552786618502
 10
-1.546970833287953
 20
-0.1243752951346991
 10
-1.560672848052196
 20
-0.1113393611656359
 10
-1.578987186832341
 20
-0.0880830702038623
 10
-1.592929191155915
 20
-0.0619673514549782
 10
-1.601532375216789
 20
-0.0351949210968272
 10
-1.605345027544268
 20
-0.0073276504502083
 10
-1.6042940952226
 20
0.0194679629065527
 10
-1.598781919642671
 20
0.0457077835481999
 10
-1.589052154284845
 20
0.0704374359614344
 10
-1.575473931483488
 20
0.0932743205700052
 10
-1.557811562323521
 20
0.1142873724911435
 10
-1.53704144133903
 20
0.1322423378809896
 10
-1.531937708859685
 20
0.1358552786618502
  0
ARC
  5
169
330
103
100
AcDbEntity
  8
AM_4
100
AcDbCircle
 10
-1.42875
 20
0.0
 30
0.0
 40
0.1706000000000001
100
AcDbArc
 50
307.2181748028443
 51
52.78182519715571
  0
LWPOLYLINE
  5
16A
330
103
100
AcDbEntity
  8
AM_4
100
AcDbPolyline
 90
       14
 70
     0
 43
0.0
 10
-1.325562291140315
 20
0.1358552786618502
 10
-1.310529166712063
 20
0.1243752951347128
 10
-1.296827151947833
 20
0.1113393611656668
 10
-1.278512813167681
 20
0.088083070203897
 10
-1.2645708088441
 20
0.0619673514550156
 10
-1.255967624783219
 20
0.0351949210968657
 10
-1.252154972455733
 20
0.0073276504502466
 10
-1.253205904777395
 20
-0.0194679629065152
 10
-1.258718080357319
 20
-0.0457077835481644
 10
-1.268447845715138
 20
-0.070437435961401
 10
-1.282026068516489
 20
-0.0932743205699746
 10
-1.299688437676451
 20
-0.1142873724911161
 10
-1.320458558660938
 20
-0.1322423378809661
 10
-1.325562291140315
 20
-0.1358552786618501
  0
ARC
  5
16B
330
103
100
AcDbEntity
  8
AM_5
100
AcDbCircle
 10
-1.42875
 20
-0.0000000000000002
 30
0.0
 40
0.1875
100
AcDbArc
 50
345.0
 51
285.0
  0
ENDBLK
  5
106
330
103
100
AcDbEntity
  8
0
100
AcDbBlockEnd
  0
BLOCK
  5
16E
330
16C
100
AcDbEntity
  8
0
100
AcDbBlockBegin
  2
4_131180H_0_in_131180_2
 70
     2
 10
0.0
 20
0.0
 30
0.0
  3
4_131180H_0_in_131180_2
  1

  0
ATTDEF
  5
170
330
16C
100
AcDbEntity
  8
AM_6
100
AcDbText
 10
5.875000000000007
 20
2.69
 30
0.0
 40
0.5
  1
NSTU-SXR -I-Housing
100
AcDbAttributeDefinition
  3

  2
NN
 70
     8
280
     0
  0
ATTDEF
  5
171
330
16C
100
AcDbEntity
  8
AM_6
100
AcDbText
 10
5.875000000000007
 20
2.19
 30
0.0
 40
0.5
  1
SXR Take-Up Bearings -Narrow Slot -(Normal Duty)
100
AcDbAttributeDefinition
  3

  2
NT
 70
     8
280
     0
  0
ATTDEF
  5
172
330
16C
100
AcDbEntity
  8
AM_6
100
AcDbText
 10
5.875000000000007
 20
1.69
 30
0.0
 40
0.5
  1
131180H
100
AcDbAttributeDefinition
  3

  2
NB
 70
     8
280
     0
  0
ATTDEF
  5
173
330
16C
100
AcDbEntity
  8
AM_6
100
AcDbText
 10
5.875000000000007
 20
1.19
 30
0.0
 40
0.5
  1
$PN.H
100
AcDbAttributeDefinition
  3

  2
NBSYN
 70
     8
280
     0
  0
ATTDEF
  5
174
330
16C
100
AcDbEntity
  8
AM_6
100
AcDbText
 10
5.875000000000007
 20
0.69
 30
0.0
 40
0.5
  1
131180
100
AcDbAttributeDefinition
  3

  2
LINA
 70
     8
280
     0
  0
ATTDEF
  5
175
330
16C
100
AcDbEntity
  8
AM_6
100
AcDbText
 10
5.875000000000007
 20
0.1899999999999999
 30
0.0
 40
0.5
  1
211
100
AcDbAttributeDefinition
  3

  2
SERIES
 70
     8
280
     0
  0
ATTDEF
  5
176
330
16C
100
AcDbEntity
  8
AM_6
100
AcDbText
 10
5.875000000000007
 20
-0.3100000000000001
 30
0.0
 40
0.5
  1
2-3/16
100
AcDbAttributeDefinition
  3

  2
SS
 70
     8
280
     0
  0
ATTDEF
  5
177
330
16C
100
AcDbEntity
  8
AM_6
100
AcDbText
 10
5.875000000000007
 20
-0.81
 30
0.0
 40
0.5
  1
131180
100
AcDbAttributeDefinition
  3

  2
PN
 70
     8
280
     0
  0
ATTDEF
  5
178
330
16C
100
AcDbEntity
  8
AM_6
100
AcDbText
 10
5.875000000000007
 20
-1.31
 30
0.0
 40
0.5
  1
NSTU-SXR-203
100
AcDbAttributeDefinition
  3

  2
DESCRIPTION
 70
     8
280
     0
  0
ATTDEF
  5
179
330
16C
100
AcDbEntity
  8
AM_6
100
AcDbText
 10
5.875000000000007
 20
-1.81
 30
0.0
 40
0.5
  1
7.2
100
AcDbAttributeDefinition
  3

  2
W
 70
     8
280
     0
  0
ATTDEF
  5
17A
330
16C
100
AcDbEntity
  8
AM_6
100
AcDbText
 10
5.875000000000007
 20
-2.31
 30
0.0
 40
0.5
  1
NS407
100
AcDbAttributeDefinition
  3

  2
FS
 70
     8
280
     0
  0
ATTDEF
  5
17B
330
16C
100
AcDbEntity
  8
AM_6
100
AcDbText
 10
5.875000000000007
 20
-2.81
 30
0.0
 40
0.5
  1
2.59
100
AcDbAttributeDefinition
  3

  2
A
 70
     8
280
     0
  0
ATTDEF
  5
17C
330
16C
100
AcDbEntity
  8
AM_6
100
AcDbText
 10
5.875000000000007
 20
-3.31
 30
0.0
 40
0.5
  1
6.13
100
AcDbAttributeDefinition
  3

  2
B
 70
     8
280
     0
  0
ATTDEF
  5
17D
330
16C
100
AcDbEntity
  8
AM_6
100
AcDbText
 10
5.875000000000007
 20
-3.81
 30
0.0
 40
0.5
  1
0.313
100
AcDbAttributeDefinition
  3

  2
C
 70
     8
280
     0
  0
ATTDEF
  5
17E
330
16C
100
AcDbEntity
  8
AM_6
100
AcDbText
 10
5.875000000000007
 20
-4.31
 30
0.0
 40
0.5
  1
3.50
100
AcDbAttributeDefinition
  3

  2
D
 70
     8
280
     0
  0
ATTDEF
  5
17F
330
16C
100
AcDbEntity
  8
AM_6
100
AcDbText
 10
5.875000000000007
 20
-4.81
 30
0.0
 40
0.5
  1
3.63
100
AcDbAttributeDefinition
  3

  2
E
 70
     8
280
     0
  0
ATTDEF
  5
180
330
16C
100
AcDbEntity
  8
AM_6
100
AcDbText
 10
5.875000000000007
 20
-5.31
 30
0.0
 40
0.5
  1
1
100
AcDbAttributeDefinition
  3

  2
F
 70
     8
280
     0
  0
ATTDEF
  5
181
330
16C
100
AcDbEntity
  8
AM_6
100
AcDbText
 10
5.875000000000007
 20
-5.81
 30
0.0
 40
0.5
  1
0.69
100
AcDbAttributeDefinition
  3

  2
G
 70
     8
280
     0
  0
ATTDEF
  5
182
330
16C
100
AcDbEntity
  8
AM_6
100
AcDbText
 10
5.875000000000007
 20
-6.31
 30
0.0
 40
0.5
  1
1.28
100
AcDbAttributeDefinition
  3

  2
H
 70
     8
280
     0
  0
ATTDEF
  5
183
330
16C
100
AcDbEntity
  8
AM_6
100
AcDbText
 10
5.875000000000007
 20
-6.81
 30
0.0
 40
0.5
  1
1.75
100
AcDbAttributeDefinition
  3

  2
J
 70
     8
280
     0
  0
ATTDEF
  5
184
330
16C
100
AcDbEntity
  8
AM_6
100
AcDbText
 10
5.875000000000007
 20
-7.31
 30
0.0
 40
0.5
  1
3.00
100
AcDbAttributeDefinition
  3

  2
L
 70
     8
280
     0
  0
ATTDEF
  5
185
330
16C
100
AcDbEntity
  8
AM_6
100
AcDbText
 10
5.875000000000007
 20
-7.81
 30
0.0
 40
0.5
  1
4.448 / 4.418
100
AcDbAttributeDefinition
  3

  2
M
 70
     8
280
     0
  0
ATTDEF
  5
186
330
16C
100
AcDbEntity
  8
AM_6
100
AcDbText
 10
5.875000000000007
 20
-8.31
 30
0.0
 40
0.5
  1
5.38
100
AcDbAttributeDefinition
  3

  2
N
 70
     8
280
     0
  0
ATTDEF
  5
187
330
16C
100
AcDbEntity
  8
AM_6
100
AcDbText
 10
5.875000000000007
 20
-8.81
 30
0.0
 40
0.5
  1
0.44
100
AcDbAttributeDefinition
  3

  2
P
 70
     8
280
     0
  0
ATTDEF
  5
188
330
16C
100
AcDbEntity
  8
AM_6
100
AcDbText
 10
5.875000000000007
 20
-9.31
 30
0.0
 40
0.5
  1
0.88
100
AcDbAttributeDefinition
  3

  2
R
 70
     8
280
     0
  0
ATTDEF
  5
189
330
16C
100
AcDbEntity
  8
AM_6
100
AcDbText
 10
5.875000000000007
 20
-9.81
 30
0.0
 40
0.5
  1
1.71
100
AcDbAttributeDefinition
  3

  2
S
 70
     8
280
     0
  0
ATTDEF
  5
18A
330
16C
100
AcDbEntity
  8
AM_6
100
AcDbText
 10
5.875000000000007
 20
-10.31
 30
0.0
 40
0.5
  1
5630
100
AcDbAttributeDefinition
  3

  2
CAPS
 70
     8
280
     0
  0
ATTDEF
  5
18B
330
16C
100
AcDbEntity
  8
AM_6
100
AcDbText
 10
5.875000000000007
 20
-10.81
 30
0.0
 40
0.5
  1
9975
100
AcDbAttributeDefinition
  3

  2
CAPD
 70
     8
280
     0
  0
ATTDEF
  5
18C
330
16C
100
AcDbEntity
  8
AM_6
100
AcDbText
 10
5.875000000000007
 20
-11.31
 30
0.0
 40
0.5
  1
baldor
100
AcDbAttributeDefinition
  3

  2
COMPANY
 70
     8
280
     0
  0
LINE
  5
18D
330
16C
100
AcDbEntity
  8
AM_9
100
AcDbLine
 10
-0.1878000000000001
 20
1.828471553572059
 30
0.0
 11
-0.1878000000000001
 21
2.077875
 31
0.0
  0
LINE
  5
18E
330
16C
100
AcDbEntity
  8
AM_9
100
AcDbLine
 10
-0.1878000000000001
 20
1.945733920105012
 30
0.0
 11
0.626
 21
1.945733920105012
 31
0.0
  0
LINE
  5
18F
330
16C
100
AcDbEntity
  8
AM_9
100
AcDbLine
 10
0.626
 20
2.077875
 30
0.0
 11
-0.1878000000000001
 21
2.077875
 31
0.0
  0
LINE
  5
190
330
16C
100
AcDbEntity
  8
AM_9
100
AcDbLine
 10
-0.1878000000000001
 20
-2.077875
 30
0.0
 11
-0.1878000000000001
 21
-1.828471553572059
 31
0.0
  0
LINE
  5
191
330
16C
100
AcDbEntity
  8
AM_9
100
AcDbLine
 10
-0.1878000000000001
 20
-1.945733920105012
 30
0.0
 11
0.626
 21
-1.945733920105012
 31
0.0
  0
LINE
  5
192
330
16C
100
AcDbEntity
  8
AM_9
100
AcDbLine
 10
-0.1878000000000001
 20
-2.077875
 30
0.0
 11
0.626
 21
-2.077875
 31
0.0
  0
LINE
  5
193
330
16C
100
AcDbEntity
  8
AM_9
100
AcDbLine
 10
-0.1878000000000001
 20
1.828471553572059
 30
0.0
 11
0.626
 21
1.828471553572059
 31
0.0
  0
LINE
  5
194
330
16C
100
AcDbEntity
  8
AM_9
100
AcDbLine
 10
0.626
 20
-1.828471553572059
 30
0.0
 11
-0.1878000000000001
 21
-1.828471553572059
 31
0.0
  0
LINE
  5
195
330
16C
100
AcDbEntity
  8
AM_9
100
AcDbLine
 10
-0.626
 20
-1.9685
 30
0.0
 11
-0.1878000000000001
 21
-1.9685
 31
0.0
  0
LINE
  5
196
330
16C
100
AcDbEntity
  8
AM_9
100
AcDbLine
 10
-0.1878000000000001
 20
1.9685
 30
0.0
 11
-0.626
 21
1.9685
 31
0.0
  0
LINE
  5
197
330
16C
100
AcDbEntity
  8
AM_9
100
AcDbLine
 10
0.6260000000000001
 20
0.6113501451705116
 30
0.0
 11
0.6260000000000001
 21
-0.6113501451705079
 31
0.0
  0
LINE
  5
198
330
16C
100
AcDbEntity
  8
AM_9
100
AcDbLine
 10
-0.6259999999999998
 20
-0.6113501451705126
 30
0.0
 11
-0.6259999999999998
 21
0.6113501451705071
 31
0.0
  0
LINE
  5
199
330
16C
100
AcDbEntity
  8
AM_9
100
AcDbLine
 10
0.3923736194461882
 20
-0.7820920295992705
 30
0.0
 11
0.3923736194461882
 21
0.7820920295992677
 31
0.0
  0
LINE
  5
19A
330
16C
100
AcDbEntity
  8
AM_9
100
AcDbLine
 10
-0.3923736194461882
 20
-0.7820920295992705
 30
0.0
 11
-0.3923736194461882
 21
0.7820920295992677
 31
0.0
  0
LINE
  5
19B
330
16C
100
AcDbEntity
  8
AM_9
100
AcDbLine
 10
0.449210051304968
 20
-0.22
 30
0.0
 11
0.8470311374455853
 21
-0.22
 31
0.0
  0
LINE
  5
19C
330
16C
100
AcDbEntity
  8
AM_9
100
AcDbLine
 10
0.8470905186164893
 20
0.22
 30
0.0
 11
0.4493854792233112
 21
0.22
 31
0.0
  0
LINE
  5
19D
330
16C
100
AcDbEntity
  8
AM_9
100
AcDbLine
 10
-0.8470905186164911
 20
-0.22
 30
0.0
 11
-0.4493854792233108
 21
-0.22
 31
0.0
  0
LINE
  5
19E
330
16C
100
AcDbEntity
  8
AM_9
100
AcDbLine
 10
-0.4492100513049677
 20
0.22
 30
0.0
 11
-0.847031137445583
 21
0.22
 31
0.0
  0
LINE
  5
19F
330
16C
100
AcDbEntity
  8
AM_7
100
AcDbLine
 10
0.0000000000000002
 20
-0.9187500000000136
 30
0.0
 11
0.0000000000000002
 21
0.9187500000000003
 31
0.0
  0
LINE
  5
1A0
330
16C
100
AcDbEntity
  8
AM_4
100
AcDbLine
 10
-0.1564999999999999
 20
-2.224
 30
0.0
 11
-0.1564999999999999
 21
-2.69
 31
0.0
  0
LWPOLYLINE
  5
1A1
330
16C
100
AcDbEntity
  8
AM_4
100
AcDbPolyline
 90
       19
 70
     0
 43
0.0
 10
-0.406899999999999
 20
-2.69
 10
-0.4123559494960025
 20
-2.689761788100543
 10
-0.4177703759219489
 20
-2.689048965338564
 10
-0.4231020722234169
 20
-2.687866956725696
 10
-0.428310460972186
 20
-2.686224758061198
 10
-0.4333559031849669
 20
-2.684134867468494
 10
-0.4381999999999993
 20
-2.681613190276906
 10
-0.4428058849155747
 20
-2.678678917972491
 10
-0.4471385043663766
 20
-2.675354382139247
 10
-0.4511648845022772
 20
-2.671664884502278
 10
-0.4548543821392473
 20
-2.667638504366377
 10
-0.4581789179724902
 20
-2.663305884915575
 10
-0.4611131902769052
 20
-2.6587
 10
-0.4636348674684936
 20
-2.653855903184967
 10
-0.4657247580611972
 20
-2.648810460972186
 10
-0.4673669567256951
 20
-2.643602072223417
 10
-0.4685489653385636
 20
-2.638270375921949
 10
-0.4692617881005426
 20
-2.632855949496003
 10
-0.4694999999999994
 20
-2.627399999999999
  0
LINE
  5
1A2
330
16C
100
AcDbEntity
  8
AM_4
100
AcDbLine
 10
-0.4068999999999989
 20
-2.69
 30
0.0
 11
-0.1564999999999999
 21
-2.69
 31
0.0
  0
LWPOLYLINE
  5
1A3
330
16C
100
AcDbEntity
  8
AM_4
100
AcDbPolyline
 90
       19
 70
     0
 43
0.0
 10
0.4694999999999995
 20
-2.627399999999999
 10
0.4692617881005427
 20
-2.632855949496003
 10
0.4685489653385637
 20
-2.638270375921949
 10
0.4673669567256951
 20
-2.643602072223417
 10
0.4657247580611973
 20
-2.648810460972186
 10
0.4636348674684937
 20
-2.653855903184967
 10
0.4611131902769053
 20
-2.6587
 10
0.4581789179724902
 20
-2.663305884915575
 10
0.4548543821392474
 20
-2.667638504366377
 10
0.4511648845022772
 20
-2.671664884502278
 10
0.4471385043663766
 20
-2.675354382139247
 10
0.4428058849155748
 20
-2.678678917972491
 10
0.4381999999999993
 20
-2.681613190276906
 10
0.433355903184967
 20
-2.684134867468494
 10
0.428310460972186
 20
-2.686224758061198
 10
0.4231020722234169
 20
-2.687866956725696
 10
0.4177703759219489
 20
-2.689048965338564
 10
0.4123559494960025
 20
-2.689761788100543
 10
0.406899999999999
 20
-2.69
  0
LINE
  5
1A4
330
16C
100
AcDbEntity
  8
AM_4
100
AcDbLine
 10
0.1565000000000001
 20
-2.69
 30
0.0
 11
0.1565000000000001
 21
-2.224
 31
0.0
  0
LINE
  5
1A5
330
16C
100
AcDbEntity
  8
AM_4
100
AcDbLine
 10
0.1565000000000001
 20
-2.69
 30
0.0
 11
0.4068999999999989
 21
-2.69
 31
0.0
  0
LINE
  5
1A6
330
16C
100
AcDbEntity
  8
AM_4
100
AcDbLine
 10
-0.4694999999999999
 20
-1.756302173495205
 30
0.0
 11
-0.4694999999999999
 21
-2.627399999067187
 31
0.0
  0
LINE
  5
1A7
330
16C
100
AcDbEntity
  8
AM_4
100
AcDbLine
 10
-0.1564999999999999
 20
-2.224
 30
0.0
 11
0.1565000000000001
 21
-2.224
 31
0.0
  0
LINE
  5
1A8
330
16C
100
AcDbEntity
  8
AM_4
100
AcDbLine
 10
0.4695
 20
-2.627399999999999
 30
0.0
 11
0.4695000000000001
 21
-1.756302173495205
 31
0.0
  0
LINE
  5
1A9
330
16C
100
AcDbEntity
  8
AM_4
100
AcDbLine
 10
-0.1564999999999999
 20
-2.627399999999999
 30
0.0
 11
-0.4694999999999999
 21
-2.627399999067187
 31
0.0
  0
LINE
  5
1AA
330
16C
100
AcDbEntity
  8
AM_4
100
AcDbLine
 10
0.4695
 20
-2.627399999999999
 30
0.0
 11
0.1565000000000001
 21
-2.6274
 31
0.0
  0
LINE
  5
1AB
330
16C
100
AcDbEntity
  8
AM_4
100
AcDbLine
 10
-0.4694999999999999
 20
2.627399999999999
 30
0.0
 11
-0.4694999999999999
 21
1.756302173495205
 31
0.0
  0
LINE
  5
1AC
330
16C
100
AcDbEntity
  8
AM_4
100
AcDbLine
 10
0.4695000000000001
 20
1.756302173495205
 30
0.0
 11
0.4695000000000001
 21
2.6274
 31
0.0
  0
LINE
  5
1AD
330
16C
100
AcDbEntity
  8
AM_4
100
AcDbLine
 10
-0.1564999999999999
 20
2.224
 30
0.0
 11
-0.1564999999999999
 21
2.69
 31
0.0
  0
LINE
  5
1AE
330
16C
100
AcDbEntity
  8
AM_4
100
AcDbLine
 10
0.1565000000000001
 20
2.69
 30
0.0
 11
0.1565000000000001
 21
2.224
 31
0.0
  0
LINE
  5
1AF
330
16C
100
AcDbEntity
  8
AM_4
100
AcDbLine
 10
0.1565000000000001
 20
2.224
 30
0.0
 11
-0.1564999999999999
 21
2.224
 31
0.0
  0
LWPOLYLINE
  5
1B0
330
16C
100
AcDbEntity
  8
AM_4
100
AcDbPolyline
 90
       19
 70
     0
 43
0.0
 10
-0.4695
 20
2.627399999999999
 10
-0.4692617881005433
 20
2.632855949496003
 10
-0.4685489653385642
 20
2.638270375921949
 10
-0.4673669567256957
 20
2.643602072223417
 10
-0.4657247580611978
 20
2.648810460972186
 10
-0.4636348674684942
 20
2.653855903184967
 10
-0.4611131902769058
 20
2.6587
 10
-0.4581789179724908
 20
2.663305884915575
 10
-0.454854382139248
 20
2.667638504366377
 10
-0.4511648845022778
 20
2.671664884502278
 10
-0.4471385043663773
 20
2.675354382139247
 10
-0.4428058849155754
 20
2.678678917972491
 10
-0.4381999999999999
 20
2.681613190276906
 10
-0.4333559031849676
 20
2.684134867468494
 10
-0.4283104609721867
 20
2.686224758061198
 10
-0.4231020722234176
 20
2.687866956725696
 10
-0.4177703759219496
 20
2.689048965338564
 10
-0.4123559494960031
 20
2.689761788100543
 10
-0.4068999999999997
 20
2.69
  0
LINE
  5
1B1
330
16C
100
AcDbEntity
  8
AM_4
100
AcDbLine
 10
-0.4068999999999998
 20
2.69
 30
0.0
 11
-0.1564999999999999
 21
2.69
 31
0.0
  0
LINE
  5
1B2
330
16C
100
AcDbEntity
  8
AM_4
100
AcDbLine
 10
-0.1564999999999999
 20
2.6274
 30
0.0
 11
-0.4694999999999999
 21
2.627399999999999
 31
0.0
  0
LINE
  5
1B3
330
16C
100
AcDbEntity
  8
AM_4
100
AcDbLine
 10
0.4695000000000001
 20
2.6274
 30
0.0
 11
0.1565000000000001
 21
2.6274
 31
0.0
  0
LWPOLYLINE
  5
1B4
330
16C
100
AcDbEntity
  8
AM_4
100
AcDbPolyline
 90
       19
 70
     0
 43
0.0
 10
0.4068999999999989
 20
2.69
 10
0.4123559494960024
 20
2.689761788100543
 10
0.4177703759219489
 20
2.689048965338564
 10
0.4231020722234169
 20
2.687866956725696
 10
0.4283104609721861
 20
2.686224758061198
 10
0.4333559031849671
 20
2.684134867468494
 10
0.4381999999999994
 20
2.681613190276906
 10
0.4428058849155749
 20
2.678678917972491
 10
0.4471385043663769
 20
2.675354382139247
 10
0.4511648845022774
 20
2.671664884502277
 10
0.4548543821392477
 20
2.667638504366377
 10
0.4581789179724906
 20
2.663305884915575
 10
0.4611131902769056
 20
2.6587
 10
0.463634867468494
 20
2.653855903184967
 10
0.4657247580611976
 20
2.648810460972186
 10
0.4673669567256955
 20
2.643602072223417
 10
0.468548965338564
 20
2.638270375921949
 10
0.4692617881005431
 20
2.632855949496002
 10
0.4694999999999999
 20
2.627399999999999
  0
LINE
  5
1B5
330
16C
100
AcDbEntity
  8
AM_4
100
AcDbLine
 10
0.1565000000000001
 20
2.69
 30
0.0
 11
0.4068999999999989
 21
2.69
 31
0.0
  0
LINE
  5
1B6
330
16C
100
AcDbEntity
  8
AM_4
100
AcDbLine
 10
0.6260000000000001
 20
-0.6113501451705133
 30
0.0
 11
0.626
 21
-2.4374
 31
0.0
  0
LINE
  5
1B7
330
16C
100
AcDbEntity
  8
AM_4
100
AcDbLine
 10
0.4695000000000001
 20
-1.756302173495205
 30
0.0
 11
0.3923736194461882
 21
-1.785357107135713
 31
0.0
  0
LINE
  5
1B8
330
16C
100
AcDbEntity
  8
AM_4
100
AcDbLine
 10
0.3923736194461884
 20
1.785357107135713
 30
0.0
 11
0.4695000000000001
 21
1.756302173495205
 31
0.0
  0
LINE
  5
1B9
330
16C
100
AcDbEntity
  8
AM_4
100
AcDbLine
 10
0.626
 20
2.4374
 30
0.0
 11
0.4695
 21
2.47933404861547
 31
0.0
  0
LINE
  5
1BA
330
16C
100
AcDbEntity
  8
AM_4
100
AcDbLine
 10
0.4695
 20
-2.47933404861547
 30
0.0
 11
0.626
 21
-2.4374
 31
0.0
  0
LINE
  5
1BB
330
16C
100
AcDbEntity
  8
AM_4
100
AcDbLine
 10
0.626
 20
2.4374
 30
0.0
 11
0.6260000000000001
 21
0.6113501451705108
 31
0.0
  0
LINE
  5
1BC
330
16C
100
AcDbEntity
  8
AM_4
100
AcDbLine
 10
-0.4694999999999999
 20
1.756302173495205
 30
0.0
 11
-0.3923736194461881
 21
1.785357107135713
 31
0.0
  0
LINE
  5
1BD
330
16C
100
AcDbEntity
  8
AM_4
100
AcDbLine
 10
-0.3923736194461881
 20
-1.785357107135713
 30
0.0
 11
-0.4694999999999999
 21
-1.756302173495205
 31
0.0
  0
LINE
  5
1BE
330
16C
100
AcDbEntity
  8
AM_4
100
AcDbLine
 10
-0.6259999999999998
 20
-0.6113501451705133
 30
0.0
 11
-0.626
 21
-2.4374
 31
0.0
  0
LINE
  5
1BF
330
16C
100
AcDbEntity
  8
AM_4
100
AcDbLine
 10
-0.626
 20
-2.4374
 30
0.0
 11
-0.4695
 21
-2.47933404861547
 31
0.0
  0
LINE
  5
1C0
330
16C
100
AcDbEntity
  8
AM_4
100
AcDbLine
 10
-0.4695
 20
2.47933404861547
 30
0.0
 11
-0.626
 21
2.4374
 31
0.0
  0
LINE
  5
1C1
330
16C
100
AcDbEntity
  8
AM_4
100
AcDbLine
 10
-0.626
 20
2.4374
 30
0.0
 11
-0.6259999999999998
 21
0.6113501451705108
 31
0.0
  0
LINE
  5
1C2
330
16C
100
AcDbEntity
  8
AM_4
100
AcDbLine
 10
-0.3923736194461881
 20
-0.7820920295992705
 30
0.0
 11
-0.3923736194461881
 21
-1.785357107135713
 31
0.0
  0
LINE
  5
1C3
330
16C
100
AcDbEntity
  8
AM_4
100
AcDbLine
 10
0.3923736194461882
 20
-1.785357107135713
 30
0.0
 11
-0.3923736194461881
 21
-1.785357107135713
 31
0.0
  0
LINE
  5
1C4
330
16C
100
AcDbEntity
  8
AM_4
100
AcDbLine
 10
0.3923736194461884
 20
-0.7820920295992705
 30
0.0
 11
0.3923736194461882
 21
-1.785357107135713
 31
0.0
  0
LWPOLYLINE
  5
1C5
330
16C
100
AcDbEntity
  8
AM_4
100
AcDbPolyline
 90
        3
 70
     0
 43
0.0
 10
-0.3339861983602938
 20
0.8087510242990994
 10
-0.3366291807006457
 20
0.8076545020618754
 10
-0.3923736194461881
 20
0.7820920295992677
  0
LINE
  5
1C6
330
16C
100
AcDbEntity
  8
AM_4
100
AcDbLine
 10
0.3923736194461884
 20
0.7820920295992677
 30
0.0
 11
0.3811275653570415
 21
0.787633657816258
 31
0.0
  0
LINE
  5
1C7
330
16C
100
AcDbEntity
  8
AM_4
100
AcDbLine
 10
-0.3923736194461881
 20
1.785357107135713
 30
0.0
 11
-0.3923736194461881
 21
0.7820920295992677
 31
0.0
  0
LINE
  5
1C8
330
16C
100
AcDbEntity
  8
AM_4
100
AcDbLine
 10
0.3923736194461884
 20
1.785357107135713
 30
0.0
 11
0.3923736194461884
 21
0.7820920295992677
 31
0.0
  0
LINE
  5
1C9
330
16C
100
AcDbEntity
  8
AM_4
100
AcDbLine
 10
-0.3923736194461881
 20
1.785357107135713
 30
0.0
 11
0.3923736194461884
 21
1.785357107135713
 31
0.0
  0
CIRCLE
  5
1CA
330
16C
100
AcDbEntity
  8
AM_4
100
AcDbCircle
 10
0.0000000000000002
 20
0.0
 30
0.0
 40
0.5
  0
CIRCLE
  5
1CB
330
16C
100
AcDbEntity
  8
AM_4
100
AcDbCircle
 10
0.0000000000000002
 20
-0.0000000000000071
 30
0.0
 40
0.7706666666666744
  0
CIRCLE
  5
1CC
330
16C
100
AcDbEntity
  8
AM_4
100
AcDbCircle
 10
0.0000000000000002
 20
-0.0000000000000067
 30
0.0
 40
0.8750000000000066
  0
ENDBLK
  5
16F
330
16C
100
AcDbEntity
  8
0
100
AcDbBlockEnd
  0
ENDSEC
  0
SECTION
  2
ENTITIES
  0
INSERT
  5
6F
330
1F
100
AcDbEntity
  8
0
100
AcDbBlockReference
  2
1_131180_2
 10
0.0
 20
0.0
 30
0.0
  0
POINT
  5
1CE
330
1F
100
AcDbEntity
  8
ConnectionPoints
100
AcDbPoint
 10
0.0
 20
0.0
 30
0.0
  0
POINT
  5
1CF
330
1F
100
AcDbEntity
  8
ConnectionPoints
100
AcDbPoint
 10
-1.71
 20
0.0
 30
0.0000000000000001
  0
POINT
  5
1D0
330
1F
100
AcDbEntity
  8
ConnectionPoints
100
AcDbPoint
 10
-0.0000000000000001
 20
-1.25
 30
-2.165063509461097
  0
POINT
  5
1D1
330
1F
100
AcDbEntity
  8
ConnectionPoints
100
AcDbPoint
 10
-1.71
 20
0.0
 30
0.0000000000000001
  0
ENDSEC
  0
SECTION
  2
OBJECTS
  0
DICTIONARY
  5
C
330
0
100
AcDbDictionary
281
     1
  3
ACAD_DETAILVIEWSTYLE
350
1D9
  3
ACAD_GROUP
350
D
  3
ACAD_LAYOUT
350
1A
  3
ACAD_MATERIAL
350
43
  3
ACAD_MLEADERSTYLE
350
6B
  3
ACAD_MLINESTYLE
350
17
  3
ACAD_PLOTSETTINGS
350
19
  3
ACAD_PLOTSTYLENAME
350
E
  3
ACAD_SCALELIST
350
47
  3
ACAD_SECTIONVIEWSTYLE
350
1DA
  3
ACAD_TABLESTYLE
350
69
  3
ACAD_VISUALSTYLE
350
2A
  3
ACDB_RECOMPOSE_DATA
350
1D6
  3
AcDbVariableDictionary
350
1D2
  0
SUN
  5
6D
330
29
100
AcDbSun
 90
        1
290
     0
 63
     7
421
 16777215
 40
1.0
291
     1
 91
  2455826
 92
 54000000
292
     0
 70
     2
 71
   256
280
     1
  0
DICTIONARY
  5
1D9
102
{ACAD_REACTORS
330
C
102
}
330
C
100
AcDbDictionary
281
     1
  0
DICTIONARY
  5
D
102
{ACAD_REACTORS
330
C
102
}
330
C
100
AcDbDictionary
281
     1
  0
DICTIONARY
  5
1A
102
{ACAD_REACTORS
330
C
102
}
330
C
100
AcDbDictionary
281
     1
  3
Layout1
350
1E
  3
Layout2
350
26
  3
Model
350
22
  0
DICTIONARY
  5
43
102
{ACAD_REACTORS
330
C
102
}
330
C
100
AcDbDictionary
281
     1
  3
ByBlock
350
45
  3
ByLayer
350
44
  3
Global
350
46
  0
DICTIONARY
  5
6B
102
{ACAD_REACTORS
330
C
102
}
330
C
100
AcDbDictionary
281
     1
  3
Standard
350
6C
  0
DICTIONARY
  5
17
102
{ACAD_REACTORS
330
C
102
}
330
C
100
AcDbDictionary
281
     1
  3
Standard
350
18
  0
DICTIONARY
  5
19
102
{ACAD_REACTORS
330
C
102
}
330
C
100
AcDbDictionary
281
     1
  0
ACDBDICTIONARYWDFLT
  5
E
102
{ACAD_REACTORS
330
C
102
}
330
C
100
AcDbDictionary
281
     1
  3
Normal
350
F
100
AcDbDictionaryWithDefault
340
F
  0
DICTIONARY
  5
47
102
{ACAD_REACTORS
330
C
102
}
330
C
100
AcDbDictionary
281
     1
  3
A0
350
48
  3
A1
350
49
  3
A2
350
4A
  3
A3
350
4B
  3
A4
350
4C
  3
A5
350
4D
  3
A6
350
4E
  3
A7
350
4F
  3
A8
350
50
  3
A9
350
51
  3
B0
350
52
  3
B1
350
53
  3
B2
350
54
  3
B3
350
55
  3
B4
350
56
  3
B5
350
57
  3
B6
350
58
  3
B7
350
59
  3
B8
350
5A
  3
B9
350
5B
  3
C0
350
5C
  3
C1
350
5D
  3
C2
350
5E
  3
C3
350
5F
  3
C4
350
60
  3
C5
350
61
  3
C6
350
62
  3
C7
350
63
  3
C8
350
64
  3
C9
350
65
  3
D0
350
66
  3
D1
350
67
  3
D2
350
68
  0
DICTIONARY
  5
1DA
102
{ACAD_REACTORS
330
C
102
}
330
C
100
AcDbDictionary
281
     1
  0
DICTIONARY
  5
69
102
{ACAD_REACTORS
330
C
102
}
330
C
100
AcDbDictionary
281
     1
  3
Standard
350
6A
  0
DICTIONARY
  5
2A
102
{ACAD_REACTORS
330
C
102
}
330
C
100
AcDbDictionary
281
     1
  3
2dWireframe
350
2F
  3
Basic
350
32
  3
Brighten
350
36
  3
ColorChange
350
3A
  3
Conceptual
350
34
  3
Dim
350
35
  3
EdgeColorOff
350
3D
  3
Facepattern
350
39
  3
Flat
350
2B
  3
FlatWithEdges
350
2C
  3
Gouraud
350
2D
  3
GouraudWithEdges
350
2E
  3
Hidden
350
31
  3
JitterOff
350
3B
  3
Linepattern
350
38
  3
OverhangOff
350
3C
  3
Realistic
350
33
  3
Shaded
350
42
  3
Shaded with edges
350
41
  3
Shades of Gray
350
3E
  3
Sketchy
350
3F
  3
Thicken
350
37
  3
Wireframe
350
30
  3
X-Ray
350
40
  0
XRECORD
  5
1D6
102
{ACAD_REACTORS
330
C
102
}
330
C
100
AcDbXrecord
280
     1
 90
        1
330
6A
  0
DICTIONARY
  5
1D2
102
{ACAD_REACTORS
330
C
102
}
330
C
100
AcDbDictionary
281
     1
  3
CANNOSCALE
350
1D3
  3
CMLEADERSTYLE
350
1D8
  3
CTABLESTYLE
350
1D7
  0
LAYOUT
  5
1E
102
{ACAD_REACTORS
330
1A
102
}
330
1A
100
AcDbPlotSettings
  1

  2
none_device
  4

  6

 40
0.0
 41
0.0
 42
0.0
 43
0.0
 44
0.0
 45
0.0
 46
0.0
 47
0.0
 48
0.0
 49
0.0
140
0.0
141
0.0
142
1.0
143
1.0
 70
   688
 72
     0
 73
     0
 74
     5
  7

 75
    16
 76
     0
 77
     2
 78
   300
147
1.0
148
0.0
149
0.0
100
AcDbLayout
  1
Layout1
 70
     1
 71
     1
 10
0.0
 20
0.0
 11
12.0
 21
9.0
 12
0.0
 22
0.0
 32
0.0
 14
1.000000000000000E+20
 24
1.000000000000000E+20
 34
1.000000000000000E+20
 15
-1.000000000000000E+20
 25
-1.000000000000000E+20
 35
-1.000000000000000E+20
146
0.0
 13
0.0
 23
0.0
 33
0.0
 16
1.0
 26
0.0
 36
0.0
 17
0.0
 27
1.0
 37
0.0
 76
     0
330
1B
  0
LAYOUT
  5
26
102
{ACAD_REACTORS
330
1A
102
}
330
1A
100
AcDbPlotSettings
  1

  2
none_device
  4

  6

 40
0.0
 41
0.0
 42
0.0
 43
0.0
 44
0.0
 45
0.0
 46
0.0
 47
0.0
 48
0.0
 49
0.0
140
0.0
141
0.0
142
1.0
143
1.0
 70
   688
 72
     0
 73
     0
 74
     5
  7

 75
    16
 76
     0
 77
     2
 78
   300
147
1.0
148
0.0
149
0.0
100
AcDbLayout
  1
Layout2
 70
     1
 71
     2
 10
0.0
 20
0.0
 11
0.0
 21
0.0
 12
0.0
 22
0.0
 32
0.0
 14
0.0
 24
0.0
 34
0.0
 15
0.0
 25
0.0
 35
0.0
146
0.0
 13
0.0
 23
0.0
 33
0.0
 16
1.0
 26
0.0
 36
0.0
 17
0.0
 27
1.0
 37
0.0
 76
     0
330
23
  0
LAYOUT
  5
22
102
{ACAD_REACTORS
330
1A
102
}
330
1A
100
AcDbPlotSettings
  1

  2
none_device
  4
Letter_(8.50_x_11.00_Inches)
  6

 40
6.35
 41
6.35
 42
6.35000508
 43
6.35000508
 44
215.9
 45
279.4
 46
0.0
 47
0.0
 48
0.0
 49
0.0
140
0.0
141
0.0
142
1.0
143
1.0
 70
  1712
 72
     0
 73
     0
 74
     0
  7

 75
     0
 76
     0
 77
     2
 78
   300
147
1.0
148
0.0
149
0.0
100
AcDbLayout
  1
Model
 70
     1
 71
     0
 10
0.0
 20
0.0
 11
12.0
 21
9.0
 12
0.0
 22
0.0
 32
0.0
 14
1.000000000000000E+20
 24
1.000000000000000E+20
 34
1.000000000000000E+20
 15
-1.000000000000000E+20
 25
-1.000000000000000E+20
 35
-1.000000000000000E+20
146
0.0
 13
0.0
 23
0.0
 33
0.0
 16
1.0
 26
0.0
 36
0.0
 17
0.0
 27
1.0
 37
0.0
 76
     0
330
1F
331
29
  0
MATERIAL
  5
45
102
{ACAD_REACTORS
330
43
102
}
330
43
100
AcDbMaterial
  1
ByBlock
 72
     1
 94
      127
  0
MATERIAL
  5
44
102
{ACAD_REACTORS
330
43
102
}
330
43
100
AcDbMaterial
  1
ByLayer
 72
     1
 94
      127
  0
MATERIAL
  5
46
102
{ACAD_REACTORS
330
43
102
}
330
43
100
AcDbMaterial
  1
Global
 72
     1
 94
      127
  0
MLEADERSTYLE
  5
6C
102
{ACAD_REACTORS
330
6B
102
}
330
6B
100
AcDbMLeaderStyle
179
     2
170
     2
171
     1
172
     0
 90
        2
 40
0.0
 41
0.0
173
     1
 91
-1056964608
340
14
 92
       -2
290
     1
 42
0.09
291
     1
 43
0.36
  3
Standard
341
0
 44
0.18
300

342
11
174
     1
178
     6
175
     1
176
     0
 93
-1056964608
 45
0.18
292
     0
297
     0
 46
0.18
343
0
 94
-1056964608
 47
1.0
 49
1.0
140
1.0
293
     1
141
0.0
294
     1
177
     0
142
1.0
295
     0
296
     0
143
0.125
271
     0
272
     9
273
     9
298
     0
  0
MLINESTYLE
  5
18
102
{ACAD_REACTORS
330
17
102
}
330
17
100
AcDbMlineStyle
  2
Standard
 70
     0
  3

 62
   256
 51
90.0
 52
90.0
 71
     2
 49
0.5
 62
   256
  6
BYLAYER
 49
-0.5
 62
   256
  6
BYLAYER
  0
ACDBPLACEHOLDER
  5
F
102
{ACAD_REACTORS
330
E
102
}
330
E
  0
SCALE
  5
48
102
{ACAD_REACTORS
330
47
102
}
330
47
100
AcDbScale
 70
     0
300
1:1
140
1.0
141
1.0
290
     1
  0
SCALE
  5
49
102
{ACAD_REACTORS
330
47
102
}
330
47
100
AcDbScale
 70
     0
300
1:2
140
1.0
141
2.0
290
     0
  0
SCALE
  5
4A
102
{ACAD_REACTORS
330
47
102
}
330
47
100
AcDbScale
 70
     0
300
1:4
140
1.0
141
4.0
290
     0
  0
SCALE
  5
4B
102
{ACAD_REACTORS
330
47
102
}
330
47
100
AcDbScale
 70
     0
300
1:5
140
1.0
141
5.0
290
     0
  0
SCALE
  5
4C
102
{ACAD_REACTORS
330
47
102
}
330
47
100
AcDbScale
 70
     0
300
1:8
140
1.0
141
8.0
290
     0
  0
SCALE
  5
4D
102
{ACAD_REACTORS
330
47
102
}
330
47
100
AcDbScale
 70
     0
300
1:10
140
1.0
141
10.0
290
     0
  0
SCALE
  5
4E
102
{ACAD_REACTORS
330
47
102
}
330
47
100
AcDbScale
 70
     0
300
1:16
140
1.0
141
16.0
290
     0
  0
SCALE
  5
4F
102
{ACAD_REACTORS
330
47
102
}
330
47
100
AcDbScale
 70
     0
300
1:20
140
1.0
141
20.0
290
     0
  0
SCALE
  5
50
102
{ACAD_REACTORS
330
47
102
}
330
47
100
AcDbScale
 70
     0
300
1:30
140
1.0
141
30.0
290
     0
  0
SCALE
  5
51
102
{ACAD_REACTORS
330
47
102
}
330
47
100
AcDbScale
 70
     0
300
1:40
140
1.0
141
40.0
290
     0
  0
SCALE
  5
52
102
{ACAD_REACTORS
330
47
102
}
330
47
100
AcDbScale
 70
     0
300
1:50
140
1.0
141
50.0
290
     0
  0
SCALE
  5
53
102
{ACAD_REACTORS
330
47
102
}
330
47
100
AcDbScale
 70
     0
300
1:100
140
1.0
141
100.0
290
     0
  0
SCALE
  5
54
102
{ACAD_REACTORS
330
47
102
}
330
47
100
AcDbScale
 70
     0
300
2:1
140
2.0
141
1.0
290
     0
  0
SCALE
  5
55
102
{ACAD_REACTORS
330
47
102
}
330
47
100
AcDbScale
 70
     0
300
4:1
140
4.0
141
1.0
290
     0
  0
SCALE
  5
56
102
{ACAD_REACTORS
330
47
102
}
330
47
100
AcDbScale
 70
     0
300
8:1
140
8.0
141
1.0
290
     0
  0
SCALE
  5
57
102
{ACAD_REACTORS
330
47
102
}
330
47
100
AcDbScale
 70
     0
300
10:1
140
10.0
141
1.0
290
     0
  0
SCALE
  5
58
102
{ACAD_REACTORS
330
47
102
}
330
47
100
AcDbScale
 70
     0
300
100:1
140
100.0
141
1.0
290
     0
  0
SCALE
  5
59
102
{ACAD_REACTORS
330
47
102
}
330
47
100
AcDbScale
 70
     0
300
1/128" = 1'-0"
140
0.0078125
141
12.0
290
     0
  0
SCALE
  5
5A
102
{ACAD_REACTORS
330
47
102
}
330
47
100
AcDbScale
 70
     0
300
1/64" = 1'-0"
140
0.015625
141
12.0
290
     0
  0
SCALE
  5
5B
102
{ACAD_REACTORS
330
47
102
}
330
47
100
AcDbScale
 70
     0
300
1/32" = 1'-0"
140
0.03125
141
12.0
290
     0
  0
SCALE
  5
5C
102
{ACAD_REACTORS
330
47
102
}
330
47
100
AcDbScale
 70
     0
300
1/16" = 1'-0"
140
0.0625
141
12.0
290
     0
  0
SCALE
  5
5D
102
{ACAD_REACTORS
330
47
102
}
330
47
100
AcDbScale
 70
     0
300
3/32" = 1'-0"
140
0.09375
141
12.0
290
     0
  0
SCALE
  5
5E
102
{ACAD_REACTORS
330
47
102
}
330
47
100
AcDbScale
 70
     0
300
1/8" = 1'-0"
140
0.125
141
12.0
290
     0
  0
SCALE
  5
5F
102
{ACAD_REACTORS
330
47
102
}
330
47
100
AcDbScale
 70
     0
300
3/16" = 1'-0"
140
0.1875
141
12.0
290
     0
  0
SCALE
  5
60
102
{ACAD_REACTORS
330
47
102
}
330
47
100
AcDbScale
 70
     0
300
1/4" = 1'-0"
140
0.25
141
12.0
290
     0
  0
SCALE
  5
61
102
{ACAD_REACTORS
330
47
102
}
330
47
100
AcDbScale
 70
     0
300
3/8" = 1'-0"
140
0.375
141
12.0
290
     0
  0
SCALE
  5
62
102
{ACAD_REACTORS
330
47
102
}
330
47
100
AcDbScale
 70
     0
300
1/2" = 1'-0"
140
0.5
141
12.0
290
     0
  0
SCALE
  5
63
102
{ACAD_REACTORS
330
47
102
}
330
47
100
AcDbScale
 70
     0
300
3/4" = 1'-0"
140
0.75
141
12.0
290
     0
  0
SCALE
  5
64
102
{ACAD_REACTORS
330
47
102
}
330
47
100
AcDbScale
 70
     0
300
1" = 1'-0"
140
1.0
141
12.0
290
     0
  0
SCALE
  5
65
102
{ACAD_REACTORS
330
47
102
}
330
47
100
AcDbScale
 70
     0
300
1-1/2" = 1'-0"
140
1.5
141
12.0
290
     0
  0
SCALE
  5
66
102
{ACAD_REACTORS
330
47
102
}
330
47
100
AcDbScale
 70
     0
300
3" = 1'-0"
140
3.0
141
12.0
290
     0
  0
SCALE
  5
67
102
{ACAD_REACTORS
330
47
102
}
330
47
100
AcDbScale
 70
     0
300
6" = 1'-0"
140
6.0
141
12.0
290
     0
  0
SCALE
  5
68
102
{ACAD_REACTORS
330
47
102
}
330
47
100
AcDbScale
 70
     0
300
1'-0" = 1'-0"
140
12.0
141
12.0
290
     0
  0
TABLESTYLE
  5
6A
102
{ACAD_REACTORS
330
69
102
}
102
{ACAD_XDICTIONARY
360
1D4
102
}
330
69
100
AcDbTableStyle
  3
Standard
 70
     0
 71
     0
 40
0.06
 41
0.06
280
     0
281
     0
  7
Standard
140
0.18
170
     2
 62
     0
 63
   257
283
     0
 90
        4
 91
        0
  1

274
    -2
284
     1
 64
     0
275
    -2
285
     1
 65
     0
276
    -2
286
     1
 66
     0
277
    -2
287
     1
 67
     0
278
    -2
288
     1
 68
     0
279
    -2
289
     1
 69
     0
  7
Standard
140
0.25
170
     5
 62
     0
 63
   257
283
     0
 90
        4
 91
        0
  1

274
    -2
284
     1
 64
     0
275
    -2
285
     1
 65
     0
276
    -2
286
     1
 66
     0
277
    -2
287
     1
 67
     0
278
    -2
288
     1
 68
     0
279
    -2
289
     1
 69
     0
  7
Standard
140
0.18
170
     5
 62
     0
 63
   257
283
     0
 90
        4
 91
        0
  1

274
    -2
284
     1
 64
     0
275
    -2
285
     1
 65
     0
276
    -2
286
     1
 66
     0
277
    -2
287
     1
 67
     0
278
    -2
288
     1
 68
     0
279
    -2
289
     1
 69
     0
  0
VISUALSTYLE
  5
2F
102
{ACAD_REACTORS
330
2A
102
}
330
2A
100
AcDbVisualStyle
  2
2dWireframe
 70
     4
177
     3
291
     0
 70
    58
 90
        0
176
     1
 90
        2
176
     1
 90
        0
176
     1
 90
        0
176
     1
 40
0.6
176
     1
 40
30.0
176
     1
 62
     7
420
 16777215
176
     1
 90
        1
176
     1
 90
        4
176
     1
 62
     7
176
     1
 62
   257
176
     1
 90
        1
176
     1
 90
        1
176
     1
 40
1.0
176
     1
 90
        0
176
     1
 62
   257
176
     1
 40
1.0
176
     1
 90
        1
176
     1
 90
        6
176
     1
 90
        2
176
     1
 62
     7
176
     1
 90
        5
176
     1
 90
        0
176
     1
 90
        0
176
     1
290
     0
176
     1
 90
        1
176
     1
 40
0.0
176
     1
 90
        0
176
     1
290
     1
176
     1
290
     1
176
     1
290
     0
176
     1
290
     0
176
     1
290
     0
176
     1
290
     0
176
     1
290
     0
176
     1
290
     0
176
     1
290
     0
176
     1
 90
       50
176
     1
 40
0.0
176
     1
 40
1.0
176
     1
 90
        0
176
     1
 62
    18
420
        0
176
     1
 90
       50
176
     1
 90
        3
176
     1
 62
     5
420
      255
176
     1
290
     0
176
     1
 90
       50
176
     1
 90
       50
176
     1
 90
       50
176
     1
290
     0
176
     1
 90
       50
176
     1
 62
   256
176
     0
 40
1.0
176
     0
 90
        2
176
     1
  1
strokes_ogs.tif
176
     1
290
     0
176
     1
 40
1.0
176
     1
 40
1.0
176
     1
  0
VISUALSTYLE
  5
32
102
{ACAD_REACTORS
330
2A
102
}
330
2A
100
AcDbVisualStyle
  2
Basic
 70
     7
177
     3
291
     1
 70
    58
 90
        1
176
     1
 90
        0
176
     1
 90
        1
176
     1
 90
        0
176
     1
 40
0.6
176
     1
 40
30.0
176
     1
 62
     7
420
 16777215
176
     1
 90
        0
176
     1
 90
        4
176
     1
 62
     7
176
     1
 62
   257
176
     1
 90
        1
176
     1
 90
        1
176
     1
 40
1.0
176
     1
 90
        8
176
     1
 62
     7
176
     1
 40
1.0
176
     1
 90
        1
176
     1
 90
        6
176
     1
 90
        2
176
     1
 62
     7
176
     1
 90
        5
176
     1
 90
        0
176
     1
 90
        0
176
     1
290
     0
176
     1
 90
        1
176
     1
 40
0.0
176
     1
 90
        0
176
     1
290
     0
176
     1
290
     1
176
     1
290
     1
176
     1
290
     0
176
     1
290
     0
176
     1
290
     0
176
     1
290
     0
176
     1
290
     0
176
     1
290
     0
176
     1
 90
       50
176
     1
 40
0.0
176
     1
 40
1.0
176
     1
 90
        0
176
     1
 62
    18
420
        0
176
     1
 90
       50
176
     1
 90
        3
176
     1
 62
     5
420
      255
176
     1
290
     0
176
     1
 90
       50
176
     1
 90
       50
176
     1
 90
       50
176
     1
290
     0
176
     1
 90
       50
176
     1
 62
   256
176
     0
 40
1.0
176
     0
 90
        2
176
     1
  1
strokes_ogs.tif
176
     1
290
     0
176
     1
 40
1.0
176
     1
 40
1.0
176
     1
  0
VISUALSTYLE
  5
36
102
{ACAD_REACTORS
330
2A
102
}
330
2A
100
AcDbVisualStyle
  2
Brighten
 70
    12
177
     3
291
     1
 70
    58
 90
        2
176
     1
 90
        2
176
     1
 90
        0
176
     1
 90
        0
176
     1
 40
0.6
176
     1
 40
30.0
176
     1
 62
     7
420
 16777215
176
     1
 90
        1
176
     1
 90
        4
176
     1
 62
     7
176
     1
 62
   257
176
     1
 90
        1
176
     1
 90
        1
176
     1
 40
1.0
176
     1
 90
        8
176
     1
 62
     7
176
     1
 40
1.0
176
     1
 90
        1
176
     1
 90
        6
176
     1
 90
        2
176
     1
 62
     7
176
     1
 90
        5
176
     1
 90
        0
176
     1
 90
        0
176
     1
290
     0
176
     1
 90
        1
176
     1
 40
50.0
176
     1
 90
        0
176
     1
290
     0
176
     1
290
     1
176
     1
290
     1
176
     1
290
     0
176
     1
290
     0
176
     1
290
     0
176
     1
290
     0
176
     1
290
     0
176
     1
290
     0
176
     1
 90
       50
176
     1
 40
0.0
176
     1
 40
1.0
176
     1
 90
        0
176
     1
 62
    18
420
        0
176
     1
 90
       50
176
     1
 90
        3
176
     1
 62
     5
420
      255
176
     1
290
     0
176
     1
 90
       50
176
     1
 90
       50
176
     1
 90
       50
176
     1
290
     0
176
     1
 90
       50
176
     1
 62
   256
176
     0
 40
1.0
176
     0
 90
        2
176
     1
  1
strokes_ogs.tif
176
     1
290
     0
176
     1
 40
1.0
176
     1
 40
1.0
176
     1
  0
VISUALSTYLE
  5
3A
102
{ACAD_REACTORS
330
2A
102
}
330
2A
100
AcDbVisualStyle
  2
ColorChange
 70
    16
177
     3
291
     1
 70
    58
 90
        2
176
     1
 90
        2
176
     1
 90
        3
176
     1
 90
        0
176
     1
 40
0.6
176
     1
 40
30.0
176
     1
 62
     8
420
  8421504
176
     1
 90
        1
176
     1
 90
        4
176
     1
 62
     7
176
     1
 62
   257
176
     1
 90
        1
176
     1
 90
        1
176
     1
 40
1.0
176
     1
 90
        8
176
     1
 62
     8
420
  8421504
176
     1
 40
1.0
176
     1
 90
        1
176
     1
 90
        6
176
     1
 90
        2
176
     1
 62
     7
176
     1
 90
        5
176
     1
 90
        0
176
     1
 90
        0
176
     1
290
     0
176
     1
 90
        1
176
     1
 40
0.0
176
     1
 90
        0
176
     1
290
     0
176
     1
290
     1
176
     1
290
     1
176
     1
290
     0
176
     1
290
     0
176
     1
290
     0
176
     1
290
     0
176
     1
290
     0
176
     1
290
     0
176
     1
 90
       50
176
     1
 40
0.0
176
     1
 40
1.0
176
     1
 90
        0
176
     1
 62
    18
420
        0
176
     1
 90
       50
176
     1
 90
        3
176
     1
 62
     5
420
      255
176
     1
290
     0
176
     1
 90
       50
176
     1
 90
       50
176
     1
 90
       50
176
     1
290
     0
176
     1
 90
       50
176
     1
 62
   256
176
     0
 40
1.0
176
     0
 90
        2
176
     1
  1
strokes_ogs.tif
176
     1
290
     0
176
     1
 40
1.0
176
     1
 40
1.0
176
     1
  0
VISUALSTYLE
  5
34
102
{ACAD_REACTORS
330
2A
102
}
330
2A
100
AcDbVisualStyle
  2
Conceptual
 70
     9
177
     3
291
     0
 70
    58
 90
        3
176
     1
 90
        2
176
     1
 90
        0
176
     1
 90
        0
176
     1
 40
0.6
176
     1
 40
30.0
176
     1
 62
     7
420
 16777215
176
     1
 90
        2
176
     1
 90
        2
176
     1
 62
     7
176
     1
 62
   257
176
     1
 90
        1
176
     1
 90
        1
176
     1
 40
179.0
176
     1
 90
        8
176
     1
 62
     7
176
     1
 40
1.0
176
     1
 90
        1
176
     1
 90
        6
176
     1
 90
        2
176
     1
 62
     7
176
     1
 90
        3
176
     1
 90
        0
176
     1
 90
        0
176
     1
290
     0
176
     1
 90
        1
176
     1
 40
0.0
176
     1
 90
        0
176
     1
290
     0
176
     1
290
     1
176
     1
290
     1
176
     1
290
     0
176
     1
290
     0
176
     1
290
     0
176
     1
290
     0
176
     1
290
     0
176
     1
290
     0
176
     1
 90
       50
176
     1
 40
0.0
176
     1
 40
1.0
176
     1
 90
        0
176
     1
 62
    18
420
        0
176
     1
 90
       50
176
     1
 90
        3
176
     1
 62
     5
420
      255
176
     1
290
     0
176
     1
 90
       50
176
     1
 90
       50
176
     1
 90
       50
176
     1
290
     0
176
     1
 90
       50
176
     1
 62
   256
176
     0
 40
1.0
176
     0
 90
        2
176
     1
  1
strokes_ogs.tif
176
     1
290
     0
176
     1
 40
1.0
176
     1
 40
1.0
176
     1
  0
VISUALSTYLE
  5
35
102
{ACAD_REACTORS
330
2A
102
}
330
2A
100
AcDbVisualStyle
  2
Dim
 70
    11
177
     3
291
     1
 70
    58
 90
        2
176
     1
 90
        2
176
     1
 90
        0
176
     1
 90
        0
176
     1
 40
0.6
176
     1
 40
30.0
176
     1
 62
     7
420
 16777215
176
     1
 90
        1
176
     1
 90
        4
176
     1
 62
     7
176
     1
 62
   257
176
     1
 90
        1
176
     1
 90
        1
176
     1
 40
1.0
176
     1
 90
        8
176
     1
 62
     7
176
     1
 40
1.0
176
     1
 90
        1
176
     1
 90
        6
176
     1
 90
        2
176
     1
 62
     7
176
     1
 90
        5
176
     1
 90
        0
176
     1
 90
        0
176
     1
290
     0
176
     1
 90
        1
176
     1
 40
-50.0
176
     1
 90
        0
176
     1
290
     0
176
     1
290
     1
176
     1
290
     1
176
     1
290
     0
176
     1
290
     0
176
     1
290
     0
176
     1
290
     0
176
     1
290
     0
176
     1
290
     0
176
     1
 90
       50
176
     1
 40
0.0
176
     1
 40
1.0
176
     1
 90
        0
176
     1
 62
    18
420
        0
176
     1
 90
       50
176
     1
 90
        3
176
     1
 62
     5
420
      255
176
     1
290
     0
176
     1
 90
       50
176
     1
 90
       50
176
     1
 90
       50
176
     1
290
     0
176
     1
 90
       50
176
     1
 62
   256
176
     0
 40
1.0
176
     0
 90
        2
176
     1
  1
strokes_ogs.tif
176
     1
290
     0
176
     1
 40
1.0
176
     1
 40
1.0
176
     1
  0
VISUALSTYLE
  5
3D
102
{ACAD_REACTORS
330
2A
102
}
330
2A
100
AcDbVisualStyle
  2
EdgeColorOff
 70
    22
177
     3
291
     1
 70
    58
 90
        2
176
     0
 90
        2
176
     0
 90
        0
176
     0
 90
        0
176
     0
 40
0.6
176
     0
 40
30.0
176
     0
 62
     7
420
 16777215
176
     0
 90
        1
176
     0
 90
        4
176
     0
 62
     7
176
     0
 62
   257
176
     0
 90
        1
176
     0
 90
        1
176
     0
 40
1.0
176
     0
 90
        8
176
     2
 62
     7
176
     0
 40
1.0
176
     0
 90
        1
176
     0
 90
        6
176
     0
 90
        2
176
     0
 62
     7
176
     0
 90
        5
176
     0
 90
        0
176
     0
 90
        0
176
     0
290
     0
176
     0
 90
        1
176
     0
 40
0.0
176
     0
 90
        0
176
     0
290
     0
176
     0
290
     1
176
     0
290
     1
176
     0
290
     0
176
     0
290
     0
176
     0
290
     0
176
     0
290
     0
176
     0
290
     0
176
     0
290
     0
176
     0
 90
       50
176
     0
 40
0.0
176
     0
 40
1.0
176
     0
 90
        0
176
     0
 62
    18
420
        0
176
     0
 90
       50
176
     0
 90
        3
176
     0
 62
     5
420
      255
176
     0
290
     0
176
     0
 90
       50
176
     0
 90
       50
176
     0
 90
       50
176
     0
290
     0
176
     0
 90
       50
176
     0
 62
   256
176
     0
 40
1.0
176
     0
 90
        2
176
     0
  1
strokes_ogs.tif
176
     0
290
     0
176
     0
 40
1.0
176
     0
 40
1.0
176
     0
  0
VISUALSTYLE
  5
39
102
{ACAD_REACTORS
330
2A
102
}
330
2A
100
AcDbVisualStyle
  2
Facepattern
 70
    15
177
     3
291
     1
 70
    58
 90
        2
176
     1
 90
        2
176
     1
 90
        0
176
     1
 90
        0
176
     1
 40
0.6
176
     1
 40
30.0
176
     1
 62
     7
420
 16777215
176
     1
 90
        1
176
     1
 90
        4
176
     1
 62
     7
176
     1
 62
   257
176
     1
 90
        1
176
     1
 90
        1
176
     1
 40
1.0
176
     1
 90
        8
176
     1
 62
     7
176
     1
 40
1.0
176
     1
 90
        1
176
     1
 90
        6
176
     1
 90
        2
176
     1
 62
     7
176
     1
 90
        5
176
     1
 90
        0
176
     1
 90
        0
176
     1
290
     0
176
     1
 90
        1
176
     1
 40
0.0
176
     1
 90
        0
176
     1
290
     0
176
     1
290
     1
176
     1
290
     1
176
     1
290
     0
176
     1
290
     0
176
     1
290
     0
176
     1
290
     0
176
     1
290
     0
176
     1
290
     0
176
     1
 90
       50
176
     1
 40
0.0
176
     1
 40
1.0
176
     1
 90
        0
176
     1
 62
    18
420
        0
176
     1
 90
       50
176
     1
 90
        3
176
     1
 62
     5
420
      255
176
     1
290
     0
176
     1
 90
       50
176
     1
 90
       50
176
     1
 90
       50
176
     1
290
     0
176
     1
 90
       50
176
     1
 62
   256
176
     0
 40
1.0
176
     0
 90
        2
176
     1
  1
strokes_ogs.tif
176
     1
290
     0
176
     1
 40
1.0
176
     1
 40
1.0
176
     1
  0
VISUALSTYLE
  5
2B
102
{ACAD_REACTORS
330
2A
102
}
330
2A
100
AcDbVisualStyle
  2
Flat
 70
     0
177
     3
291
     1
 70
    58
 90
        2
176
     1
 90
        1
176
     1
 90
        1
176
     1
 90
        2
176
     1
 40
0.6
176
     1
 40
30.0
176
     1
 62
     7
420
 16777215
176
     1
 90
        0
176
     1
 90
        0
176
     1
 62
     7
176
     1
 62
   257
176
     1
 90
        1
176
     1
 90
        1
176
     1
 40
1.0
176
     1
 90
        8
176
     1
 62
     7
176
     1
 40
1.0
176
     1
 90
        1
176
     1
 90
        6
176
     1
 90
        2
176
     1
 62
     7
176
     1
 90
        5
176
     1
 90
        0
176
     1
 90
        0
176
     1
290
     0
176
     1
 90
       13
176
     1
 40
0.0
176
     1
 90
        0
176
     1
290
     0
176
     1
290
     1
176
     1
290
     1
176
     1
290
     0
176
     1
290
     0
176
     1
290
     0
176
     1
290
     0
176
     1
290
     0
176
     1
290
     0
176
     1
 90
       50
176
     1
 40
0.0
176
     1
 40
1.0
176
     1
 90
        0
176
     1
 62
    18
420
        0
176
     1
 90
       50
176
     1
 90
        3
176
     1
 62
     5
420
      255
176
     1
290
     0
176
     1
 90
       50
176
     1
 90
       50
176
     1
 90
       50
176
     1
290
     0
176
     1
 90
       50
176
     1
 62
   256
176
     0
 40
1.0
176
     0
 90
        2
176
     1
  1
strokes_ogs.tif
176
     1
290
     0
176
     1
 40
1.0
176
     1
 40
1.0
176
     1
  0
VISUALSTYLE
  5
2C
102
{ACAD_REACTORS
330
2A
102
}
330
2A
100
AcDbVisualStyle
  2
FlatWithEdges
 70
     1
177
     3
291
     1
 70
    58
 90
        2
176
     1
 90
        1
176
     1
 90
        1
176
     1
 90
        2
176
     1
 40
0.6
176
     1
 40
30.0
176
     1
 62
     7
420
 16777215
176
     1
 90
        1
176
     1
 90
        0
176
     1
 62
     7
176
     1
 62
   257
176
     1
 90
        1
176
     1
 90
        1
176
     1
 40
1.0
176
     1
 90
        0
176
     1
 62
   257
176
     1
 40
1.0
176
     1
 90
        1
176
     1
 90
        6
176
     1
 90
        2
176
     1
 62
     7
176
     1
 90
        5
176
     1
 90
        0
176
     1
 90
        0
176
     1
290
     0
176
     1
 90
       13
176
     1
 40
0.0
176
     1
 90
        0
176
     1
290
     0
176
     1
290
     1
176
     1
290
     1
176
     1
290
     0
176
     1
290
     0
176
     1
290
     0
176
     1
290
     0
176
     1
290
     0
176
     1
290
     0
176
     1
 90
       50
176
     1
 40
0.0
176
     1
 40
1.0
176
     1
 90
        0
176
     1
 62
    18
420
        0
176
     1
 90
       50
176
     1
 90
        3
176
     1
 62
     5
420
      255
176
     1
290
     0
176
     1
 90
       50
176
     1
 90
       50
176
     1
 90
       50
176
     1
290
     0
176
     1
 90
       50
176
     1
 62
   256
176
     0
 40
1.0
176
     0
 90
        2
176
     1
  1
strokes_ogs.tif
176
     1
290
     0
176
     1
 40
1.0
176
     1
 40
1.0
176
     1
  0
VISUALSTYLE
  5
2D
102
{ACAD_REACTORS
330
2A
102
}
330
2A
100
AcDbVisualStyle
  2
Gouraud
 70
     2
177
     3
291
     1
 70
    58
 90
        2
176
     1
 90
        2
176
     1
 90
        1
176
     1
 90
        2
176
     1
 40
0.6
176
     1
 40
30.0
176
     1
 62
     7
420
 16777215
176
     1
 90
        0
176
     1
 90
        0
176
     1
 62
     7
176
     1
 62
   257
176
     1
 90
        1
176
     1
 90
        1
176
     1
 40
1.0
176
     1
 90
        0
176
     1
 62
     7
176
     1
 40
1.0
176
     1
 90
        1
176
     1
 90
        6
176
     1
 90
        2
176
     1
 62
     7
176
     1
 90
        5
176
     1
 90
        0
176
     1
 90
        0
176
     1
290
     0
176
     1
 90
       13
176
     1
 40
0.0
176
     1
 90
        0
176
     1
290
     0
176
     1
290
     1
176
     1
290
     1
176
     1
290
     0
176
     1
290
     0
176
     1
290
     0
176
     1
290
     0
176
     1
290
     0
176
     1
290
     0
176
     1
 90
       50
176
     1
 40
0.0
176
     1
 40
1.0
176
     1
 90
        0
176
     1
 62
    18
420
        0
176
     1
 90
       50
176
     1
 90
        3
176
     1
 62
     5
420
      255
176
     1
290
     0
176
     1
 90
       50
176
     1
 90
       50
176
     1
 90
       50
176
     1
290
     0
176
     1
 90
       50
176
     1
 62
   256
176
     0
 40
1.0
176
     0
 90
        2
176
     1
  1
strokes_ogs.tif
176
     1
290
     0
176
     1
 40
1.0
176
     1
 40
1.0
176
     1
  0
VISUALSTYLE
  5
2E
102
{ACAD_REACTORS
330
2A
102
}
330
2A
100
AcDbVisualStyle
  2
GouraudWithEdges
 70
     3
177
     3
291
     1
 70
    58
 90
        2
176
     1
 90
        2
176
     1
 90
        1
176
     1
 90
        2
176
     1
 40
0.6
176
     1
 40
30.0
176
     1
 62
     7
420
 16777215
176
     1
 90
        1
176
     1
 90
        0
176
     1
 62
     7
176
     1
 62
   257
176
     1
 90
        1
176
     1
 90
        1
176
     1
 40
1.0
176
     1
 90
        0
176
     1
 62
   257
176
     1
 40
1.0
176
     1
 90
        1
176
     1
 90
        6
176
     1
 90
        2
176
     1
 62
     7
176
     1
 90
        5
176
     1
 90
        0
176
     1
 90
        0
176
     1
290
     0
176
     1
 90
       13
176
     1
 40
0.0
176
     1
 90
        0
176
     1
290
     0
176
     1
290
     1
176
     1
290
     1
176
     1
290
     0
176
     1
290
     0
176
     1
290
     0
176
     1
290
     0
176
     1
290
     0
176
     1
290
     0
176
     1
 90
       50
176
     1
 40
0.0
176
     1
 40
1.0
176
     1
 90
        0
176
     1
 62
    18
420
        0
176
     1
 90
       50
176
     1
 90
        3
176
     1
 62
     5
420
      255
176
     1
290
     0
176
     1
 90
       50
176
     1
 90
       50
176
     1
 90
       50
176
     1
290
     0
176
     1
 90
       50
176
     1
 62
   256
176
     0
 40
1.0
176
     0
 90
        2
176
     1
  1
strokes_ogs.tif
176
     1
290
     0
176
     1
 40
1.0
176
     1
 40
1.0
176
     1
  0
VISUALSTYLE
  5
31
102
{ACAD_REACTORS
330
2A
102
}
330
2A
100
AcDbVisualStyle
  2
Hidden
 70
     6
177
     3
291
     0
 70
    58
 90
        1
176
     1
 90
        2
176
     1
 90
        2
176
     1
 90
        0
176
     1
 40
0.6
176
     1
 40
30.0
176
     1
 62
     7
420
 16777215
176
     1
 90
        2
176
     1
 90
        2
176
     1
 62
     7
176
     1
 62
   257
176
     1
 90
        2
176
     1
 90
        1
176
     1
 40
40.0
176
     1
 90
        0
176
     1
 62
   257
176
     1
 40
1.0
176
     1
 90
        1
176
     1
 90
        6
176
     1
 90
        2
176
     1
 62
     7
176
     1
 90
        3
176
     1
 90
        0
176
     1
 90
        0
176
     1
290
     0
176
     1
 90
        1
176
     1
 40
0.0
176
     1
 90
        0
176
     1
290
     0
176
     1
290
     1
176
     1
290
     1
176
     1
290
     0
176
     1
290
     0
176
     1
290
     0
176
     1
290
     0
176
     1
290
     0
176
     1
290
     0
176
     1
 90
       50
176
     1
 40
0.0
176
     1
 40
1.0
176
     1
 90
        0
176
     1
 62
    18
420
        0
176
     1
 90
       50
176
     1
 90
        3
176
     1
 62
     5
420
      255
176
     1
290
     0
176
     1
 90
       50
176
     1
 90
       50
176
     1
 90
       50
176
     1
290
     0
176
     1
 90
       50
176
     1
 62
   256
176
     0
 40
1.0
176
     0
 90
        2
176
     1
  1
strokes_ogs.tif
176
     1
290
     0
176
     1
 40
1.0
176
     1
 40
1.0
176
     1
  0
VISUALSTYLE
  5
3B
102
{ACAD_REACTORS
330
2A
102
}
330
2A
100
AcDbVisualStyle
  2
JitterOff
 70
    20
177
     3
291
     1
 70
    58
 90
        2
176
     0
 90
        2
176
     0
 90
        0
176
     0
 90
        0
176
     0
 40
0.6
176
     0
 40
30.0
176
     0
 62
     7
420
 16777215
176
     0
 90
        1
176
     0
 90
        4
176
     0
 62
     7
176
     0
 62
   257
176
     0
 90
        1
176
     0
 90
        1
176
     0
 40
1.0
176
     0
 90
       10
176
     2
 62
     7
176
     0
 40
1.0
176
     0
 90
        1
176
     0
 90
        6
176
     0
 90
        2
176
     0
 62
     7
176
     0
 90
        5
176
     0
 90
        0
176
     0
 90
        0
176
     0
290
     0
176
     0
 90
        1
176
     0
 40
0.0
176
     0
 90
        0
176
     0
290
     0
176
     0
290
     1
176
     0
290
     1
176
     0
290
     0
176
     0
290
     0
176
     0
290
     0
176
     0
290
     0
176
     0
290
     0
176
     0
290
     0
176
     0
 90
       50
176
     0
 40
0.0
176
     0
 40
1.0
176
     0
 90
        0
176
     0
 62
    18
420
        0
176
     0
 90
       50
176
     0
 90
        3
176
     0
 62
     5
420
      255
176
     0
290
     0
176
     0
 90
       50
176
     0
 90
       50
176
     0
 90
       50
176
     0
290
     0
176
     0
 90
       50
176
     0
 62
   256
176
     0
 40
1.0
176
     0
 90
        2
176
     0
  1
strokes_ogs.tif
176
     0
290
     0
176
     0
 40
1.0
176
     0
 40
1.0
176
     0
  0
VISUALSTYLE
  5
38
102
{ACAD_REACTORS
330
2A
102
}
330
2A
100
AcDbVisualStyle
  2
Linepattern
 70
    14
177
     3
291
     1
 70
    58
 90
        2
176
     1
 90
        2
176
     1
 90
        0
176
     1
 90
        0
176
     1
 40
0.6
176
     1
 40
30.0
176
     1
 62
     7
420
 16777215
176
     1
 90
        1
176
     1
 90
        4
176
     1
 62
     7
176
     1
 62
   257
176
     1
 90
        7
176
     1
 90
        7
176
     1
 40
1.0
176
     1
 90
        8
176
     1
 62
     7
176
     1
 40
1.0
176
     1
 90
        1
176
     1
 90
        6
176
     1
 90
        2
176
     1
 62
     7
176
     1
 90
        5
176
     1
 90
        0
176
     1
 90
        0
176
     1
290
     0
176
     1
 90
        1
176
     1
 40
0.0
176
     1
 90
        0
176
     1
290
     0
176
     1
290
     1
176
     1
290
     1
176
     1
290
     0
176
     1
290
     0
176
     1
290
     0
176
     1
290
     0
176
     1
290
     0
176
     1
290
     0
176
     1
 90
       50
176
     1
 40
0.0
176
     1
 40
1.0
176
     1
 90
        0
176
     1
 62
    18
420
        0
176
     1
 90
       50
176
     1
 90
        3
176
     1
 62
     5
420
      255
176
     1
290
     0
176
     1
 90
       50
176
     1
 90
       50
176
     1
 90
       50
176
     1
290
     0
176
     1
 90
       50
176
     1
 62
   256
176
     0
 40
1.0
176
     0
 90
        2
176
     1
  1
strokes_ogs.tif
176
     1
290
     0
176
     1
 40
1.0
176
     1
 40
1.0
176
     1
  0
VISUALSTYLE
  5
3C
102
{ACAD_REACTORS
330
2A
102
}
330
2A
100
AcDbVisualStyle
  2
OverhangOff
 70
    21
177
     3
291
     1
 70
    58
 90
        2
176
     0
 90
        2
176
     0
 90
        0
176
     0
 90
        0
176
     0
 40
0.6
176
     0
 40
30.0
176
     0
 62
     7
420
 16777215
176
     0
 90
        1
176
     0
 90
        4
176
     0
 62
     7
176
     0
 62
   257
176
     0
 90
        1
176
     0
 90
        1
176
     0
 40
1.0
176
     0
 90
        9
176
     2
 62
     7
176
     0
 40
1.0
176
     0
 90
        1
176
     0
 90
        6
176
     0
 90
        2
176
     0
 62
     7
176
     0
 90
        5
176
     0
 90
        0
176
     0
 90
        0
176
     0
290
     0
176
     0
 90
        1
176
     0
 40
0.0
176
     0
 90
        0
176
     0
290
     0
176
     0
290
     1
176
     0
290
     1
176
     0
290
     0
176
     0
290
     0
176
     0
290
     0
176
     0
290
     0
176
     0
290
     0
176
     0
290
     0
176
     0
 90
       50
176
     0
 40
0.0
176
     0
 40
1.0
176
     0
 90
        0
176
     0
 62
    18
420
        0
176
     0
 90
       50
176
     0
 90
        3
176
     0
 62
     5
420
      255
176
     0
290
     0
176
     0
 90
       50
176
     0
 90
       50
176
     0
 90
       50
176
     0
290
     0
176
     0
 90
       50
176
     0
 62
   256
176
     0
 40
1.0
176
     0
 90
        2
176
     0
  1
strokes_ogs.tif
176
     0
290
     0
176
     0
 40
1.0
176
     0
 40
1.0
176
     0
  0
VISUALSTYLE
  5
33
102
{ACAD_REACTORS
330
2A
102
}
330
2A
100
AcDbVisualStyle
  2
Realistic
 70
     8
177
     3
291
     0
 70
    58
 90
        2
176
     1
 90
        3
176
     1
 90
        0
176
     1
 90
        2
176
     1
 40
0.6
176
     1
 40
30.0
176
     1
 62
     7
420
 16777215
176
     1
 90
        0
176
     1
 90
        0
176
     1
 62
     7
176
     1
 62
   257
176
     1
 90
        1
176
     1
 90
        1
176
     1
 40
1.0
176
     1
 90
        8
176
     1
 62
   257
176
     1
 40
1.0
176
     1
 90
        1
176
     1
 90
        6
176
     1
 90
        2
176
     1
 62
     7
176
     1
 90
        3
176
     1
 90
        0
176
     1
 90
        0
176
     1
290
     0
176
     1
 90
       13
176
     1
 40
0.0
176
     1
 90
        0
176
     1
290
     0
176
     1
290
     1
176
     1
290
     1
176
     1
290
     0
176
     1
290
     0
176
     1
290
     0
176
     1
290
     0
176
     1
290
     0
176
     1
290
     0
176
     1
 90
       50
176
     1
 40
0.0
176
     1
 40
1.0
176
     1
 90
        0
176
     1
 62
    18
420
        0
176
     1
 90
       50
176
     1
 90
        3
176
     1
 62
     5
420
      255
176
     1
290
     0
176
     1
 90
       50
176
     1
 90
       50
176
     1
 90
       50
176
     1
290
     0
176
     1
 90
       50
176
     1
 62
   256
176
     0
 40
1.0
176
     0
 90
        2
176
     1
  1
strokes_ogs.tif
176
     1
290
     0
176
     1
 40
1.0
176
     1
 40
1.0
176
     1
  0
VISUALSTYLE
  5
42
102
{ACAD_REACTORS
330
2A
102
}
330
2A
100
AcDbVisualStyle
  2
Shaded
 70
    27
177
     3
291
     0
 70
    58
 90
        2
176
     1
 90
        2
176
     1
 90
        1
176
     1
 90
        2
176
     1
 40
0.6
176
     1
 40
30.0
176
     1
 62
     7
420
 16777215
176
     1
 90
        0
176
     1
 90
        4
176
     1
 62
     7
176
     1
 62
   257
176
     1
 90
        1
176
     1
 90
        1
176
     1
 40
1.0
176
     1
 90
        8
176
     1
 62
   257
176
     1
 40
1.0
176
     1
 90
        1
176
     1
 90
        6
176
     1
 90
        2
176
     1
 62
     8
420
  7895160
176
     1
 90
        3
176
     1
 90
        0
176
     1
 90
        0
176
     1
290
     0
176
     1
 90
        5
176
     1
 40
0.0
176
     1
 90
        0
176
     1
290
     0
176
     1
290
     1
176
     1
290
     1
176
     1
290
     0
176
     1
290
     0
176
     1
290
     0
176
     1
290
     0
176
     1
290
     0
176
     1
290
     0
176
     1
 90
       50
176
     1
 40
0.0
176
     1
 40
1.0
176
     1
 90
        0
176
     1
 62
    18
420
        0
176
     1
 90
       50
176
     1
 90
        3
176
     1
 62
     5
420
      255
176
     1
290
     0
176
     1
 90
       50
176
     1
 90
       50
176
     1
 90
       50
176
     1
290
     0
176
     1
 90
       50
176
     1
 62
   256
176
     0
 40
1.0
176
     0
 90
        2
176
     1
  1
strokes_ogs.tif
176
     1
290
     0
176
     1
 40
1.0
176
     1
 40
1.0
176
     1
  0
VISUALSTYLE
  5
41
102
{ACAD_REACTORS
330
2A
102
}
330
2A
100
AcDbVisualStyle
  2
Shaded with edges
 70
    26
177
     3
291
     0
 70
    58
 90
        2
176
     1
 90
        2
176
     1
 90
        1
176
     1
 90
        2
176
     1
 40
0.6
176
     1
 40
30.0
176
     1
 62
     7
420
 16777215
176
     1
 90
        1
176
     1
 90
       10
176
     1
 62
     7
176
     1
 62
   257
176
     1
 90
        2
176
     1
 90
        1
176
     1
 40
1.0
176
     1
 90
        8
176
     1
 62
   257
176
     1
 40
1.0
176
     1
 90
        1
176
     1
 90
        6
176
     1
 90
        2
176
     1
 62
     7
176
     1
 90
        3
176
     1
 90
        0
176
     1
 90
        0
176
     1
290
     0
176
     1
 90
        5
176
     1
 40
0.0
176
     1
 90
        0
176
     1
290
     0
176
     1
290
     1
176
     1
290
     1
176
     1
290
     0
176
     1
290
     0
176
     1
290
     0
176
     1
290
     0
176
     1
290
     0
176
     1
290
     0
176
     1
 90
       50
176
     1
 40
0.0
176
     1
 40
1.0
176
     1
 90
        0
176
     1
 62
    18
420
        0
176
     1
 90
       50
176
     1
 90
        3
176
     1
 62
     5
420
      255
176
     1
290
     0
176
     1
 90
       50
176
     1
 90
       50
176
     1
 90
       50
176
     1
290
     0
176
     1
 90
       50
176
     1
 62
   256
176
     0
 40
1.0
176
     0
 90
        2
176
     1
  1
strokes_ogs.tif
176
     1
290
     0
176
     1
 40
1.0
176
     1
 40
1.0
176
     1
  0
VISUALSTYLE
  5
3E
102
{ACAD_REACTORS
330
2A
102
}
330
2A
100
AcDbVisualStyle
  2
Shades of Gray
 70
    23
177
     3
291
     0
 70
    58
 90
        2
176
     1
 90
        2
176
     1
 90
        3
176
     1
 90
        0
176
     1
 40
0.6
176
     1
 40
30.0
176
     1
 62
     7
420
 16777215
176
     1
 90
        2
176
     1
 90
        2
176
     1
 62
     7
176
     1
 62
     7
176
     1
 90
        1
176
     1
 90
        1
176
     1
 40
40.0
176
     1
 90
        8
176
     1
 62
     7
176
     1
 40
1.0
176
     1
 90
        1
176
     1
 90
        6
176
     1
 90
        2
176
     1
 62
     7
176
     1
 90
        3
176
     1
 90
        0
176
     1
 90
        0
176
     1
290
     0
176
     1
 90
        1
176
     1
 40
0.0
176
     1
 90
        0
176
     1
290
     0
176
     1
290
     1
176
     1
290
     1
176
     1
290
     0
176
     1
290
     0
176
     1
290
     0
176
     1
290
     0
176
     1
290
     0
176
     1
290
     0
176
     1
 90
       50
176
     1
 40
0.0
176
     1
 40
1.0
176
     1
 90
        0
176
     1
 62
    18
420
        0
176
     1
 90
       50
176
     1
 90
        3
176
     1
 62
     5
420
      255
176
     1
290
     0
176
     1
 90
       50
176
     1
 90
       50
176
     1
 90
       50
176
     1
290
     0
176
     1
 90
       50
176
     1
 62
   256
176
     0
 40
1.0
176
     0
 90
        2
176
     1
  1
strokes_ogs.tif
176
     1
290
     0
176
     1
 40
1.0
176
     1
 40
1.0
176
     1
  0
VISUALSTYLE
  5
3F
102
{ACAD_REACTORS
330
2A
102
}
330
2A
100
AcDbVisualStyle
  2
Sketchy
 70
    24
177
     3
291
     0
 70
    58
 90
        1
176
     1
 90
        2
176
     1
 90
        2
176
     1
 90
        0
176
     1
 40
0.6
176
     1
 40
30.0
176
     1
 62
     7
420
 16777215
176
     1
 90
        2
176
     1
 90
        2
176
     1
 62
     7
176
     1
 62
     7
176
     1
 90
        1
176
     1
 90
        1
176
     1
 40
40.0
176
     1
 90
       11
176
     1
 62
     7
176
     1
 40
1.0
176
     1
 90
        1
176
     1
 90
        6
176
     1
 90
        2
176
     1
 62
     7
176
     1
 90
        6
176
     1
 90
        0
176
     1
 90
        0
176
     1
290
     0
176
     1
 90
        1
176
     1
 40
0.0
176
     1
 90
        0
176
     1
290
     0
176
     1
290
     1
176
     1
290
     1
176
     1
290
     0
176
     1
290
     0
176
     1
290
     0
176
     1
290
     0
176
     1
290
     0
176
     1
290
     0
176
     1
 90
       50
176
     1
 40
0.0
176
     1
 40
1.0
176
     1
 90
        0
176
     1
 62
    18
420
        0
176
     1
 90
       50
176
     1
 90
        3
176
     1
 62
     5
420
      255
176
     1
290
     0
176
     1
 90
       50
176
     1
 90
       50
176
     1
 90
       50
176
     1
290
     0
176
     1
 90
       50
176
     1
 62
   256
176
     0
 40
1.0
176
     0
 90
        2
176
     1
  1
strokes_ogs.tif
176
     1
290
     0
176
     1
 40
1.0
176
     1
 40
1.0
176
     1
  0
VISUALSTYLE
  5
37
102
{ACAD_REACTORS
330
2A
102
}
330
2A
100
AcDbVisualStyle
  2
Thicken
 70
    13
177
     3
291
     1
 70
    58
 90
        2
176
     1
 90
        2
176
     1
 90
        0
176
     1
 90
        0
176
     1
 40
0.6
176
     1
 40
30.0
176
     1
 62
     7
420
 16777215
176
     1
 90
        1
176
     1
 90
        4
176
     1
 62
     7
176
     1
 62
   257
176
     1
 90
        1
176
     1
 90
        1
176
     1
 40
1.0
176
     1
 90
       12
176
     1
 62
     7
176
     1
 40
1.0
176
     1
 90
        1
176
     1
 90
        6
176
     1
 90
        2
176
     1
 62
     7
176
     1
 90
        5
176
     1
 90
        0
176
     1
 90
        0
176
     1
290
     0
176
     1
 90
        1
176
     1
 40
0.0
176
     1
 90
        0
176
     1
290
     0
176
     1
290
     1
176
     1
290
     1
176
     1
290
     0
176
     1
290
     0
176
     1
290
     0
176
     1
290
     0
176
     1
290
     0
176
     1
290
     0
176
     1
 90
       50
176
     1
 40
0.0
176
     1
 40
1.0
176
     1
 90
        0
176
     1
 62
    18
420
        0
176
     1
 90
       50
176
     1
 90
        3
176
     1
 62
     5
420
      255
176
     1
290
     0
176
     1
 90
       50
176
     1
 90
       50
176
     1
 90
       50
176
     1
290
     0
176
     1
 90
       50
176
     1
 62
   256
176
     0
 40
1.0
176
     0
 90
        2
176
     1
  1
strokes_ogs.tif
176
     1
290
     0
176
     1
 40
1.0
176
     1
 40
1.0
176
     1
  0
VISUALSTYLE
  5
30
102
{ACAD_REACTORS
330
2A
102
}
330
2A
100
AcDbVisualStyle
  2
Wireframe
 70
     5
177
     3
291
     0
 70
    58
 90
        0
176
     1
 90
        2
176
     1
 90
        0
176
     1
 90
        0
176
     1
 40
0.6
176
     1
 40
30.0
176
     1
 62
     7
420
 16777215
176
     1
 90
        1
176
     1
 90
        4
176
     1
 62
     7
176
     1
 62
   257
176
     1
 90
        1
176
     1
 90
        1
176
     1
 40
1.0
176
     1
 90
        0
176
     1
 62
   257
176
     1
 40
1.0
176
     1
 90
        1
176
     1
 90
        6
176
     1
 90
        2
176
     1
 62
     7
176
     1
 90
        3
176
     1
 90
        0
176
     1
 90
        0
176
     1
290
     0
176
     1
 90
        1
176
     1
 40
0.0
176
     1
 90
        0
176
     1
290
     0
176
     1
290
     1
176
     1
290
     1
176
     1
290
     0
176
     1
290
     0
176
     1
290
     0
176
     1
290
     0
176
     1
290
     0
176
     1
290
     0
176
     1
 90
       50
176
     1
 40
0.0
176
     1
 40
1.0
176
     1
 90
        0
176
     1
 62
    18
420
        0
176
     1
 90
       50
176
     1
 90
        3
176
     1
 62
     5
420
      255
176
     1
290
     0
176
     1
 90
       50
176
     1
 90
       50
176
     1
 90
       50
176
     1
290
     0
176
     1
 90
       50
176
     1
 62
   256
176
     0
 40
1.0
176
     0
 90
        2
176
     1
  1
strokes_ogs.tif
176
     1
290
     0
176
     1
 40
1.0
176
     1
 40
1.0
176
     1
  0
VISUALSTYLE
  5
40
102
{ACAD_REACTORS
330
2A
102
}
330
2A
100
AcDbVisualStyle
  2
X-Ray
 70
    25
177
     3
291
     0
 70
    58
 90
        2
176
     1
 90
        2
176
     1
 90
        1
176
     1
 90
        1
176
     1
 40
0.5
176
     1
 40
30.0
176
     1
 62
     7
420
 16777215
176
     1
 90
        1
176
     1
 90
        0
176
     1
 62
     7
176
     1
 62
   257
176
     1
 90
        1
176
     1
 90
        1
176
     1
 40
1.0
176
     1
 90
        8
176
     1
 62
     7
176
     1
 40
1.0
176
     1
 90
        1
176
     1
 90
        6
176
     1
 90
        2
176
     1
 62
     7
176
     1
 90
        3
176
     1
 90
        0
176
     1
 90
        0
176
     1
290
     0
176
     1
 90
       13
176
     1
 40
0.0
176
     1
 90
        0
176
     1
290
     0
176
     1
290
     1
176
     1
290
     1
176
     1
290
     0
176
     1
290
     0
176
     1
290
     0
176
     1
290
     0
176
     1
290
     0
176
     1
290
     0
176
     1
 90
       50
176
     1
 40
0.0
176
     1
 40
1.0
176
     1
 90
        0
176
     1
 62
    18
420
        0
176
     1
 90
       50
176
     1
 90
        3
176
     1
 62
     5
420
      255
176
     1
290
     0
176
     1
 90
       50
176
     1
 90
       50
176
     1
 90
       50
176
     1
290
     0
176
     1
 90
       50
176
     1
 62
   256
176
     0
 40
1.0
176
     0
 90
        2
176
     1
  1
strokes_ogs.tif
176
     1
290
     0
176
     1
 40
1.0
176
     1
 40
1.0
176
     1
  0
DICTIONARYVAR
  5
1D3
102
{ACAD_REACTORS
330
1D2
102
}
330
1D2
100
DictionaryVariables
280
     0
  1
1:1
  0
DICTIONARYVAR
  5
1D8
102
{ACAD_REACTORS
330
1D2
102
}
330
1D2
100
DictionaryVariables
280
     0
  1
Standard
  0
DICTIONARYVAR
  5
1D7
102
{ACAD_REACTORS
330
1D2
102
}
330
1D2
100
DictionaryVariables
280
     0
  1
Standard
  0
DICTIONARY
  5
1D4
330
6A
100
AcDbDictionary
280
     1
281
     1
  3
ACAD_ROUNDTRIP_2008_TABLESTYLE_CELLSTYLEMAP
360
1D5
  0
CELLSTYLEMAP
  5
1D5
102
{ACAD_REACTORS
330
1D4
102
}
330
1D4
100
AcDbCellStyleMap
 90
        3
300
CELLSTYLE
  1
TABLEFORMAT_BEGIN
 90
        5
170
     1
 91
        0
 92
    32768
 62
   257
 93
        1
300
CONTENTFORMAT
  1
CONTENTFORMAT_BEGIN
 90
        0
 91
        0
 92
        4
 93
        0
300

 40
0.0
140
1.0
 94
        5
 62
     0
340
11
144
0.25
309
CONTENTFORMAT_END
171
     1
301
MARGIN
  1
CELLMARGIN_BEGIN
 40
0.06
 40
0.06
 40
0.06
 40
0.06
 40
0.06
 40
0.06
309
CELLMARGIN_END
 94
        6
 95
        1
302
GRIDFORMAT
  1
GRIDFORMAT_BEGIN
 90
        0
 91
        1
 62
     0
 92
       -2
340
14
 93
        0
 40
0.045
309
GRIDFORMAT_END
 95
        2
302
GRIDFORMAT
  1
GRIDFORMAT_BEGIN
 90
        0
 91
        1
 62
     0
 92
       -2
340
14
 93
        0
 40
0.045
309
GRIDFORMAT_END
 95
        4
302
GRIDFORMAT
  1
GRIDFORMAT_BEGIN
 90
        0
 91
        1
 62
     0
 92
       -2
340
14
 93
        0
 40
0.045
309
GRIDFORMAT_END
 95
        8
302
GRIDFORMAT
  1
GRIDFORMAT_BEGIN
 90
        0
 91
        1
 62
     0
 92
       -2
340
14
 93
        0
 40
0.045
309
GRIDFORMAT_END
 95
       16
302
GRIDFORMAT
  1
GRIDFORMAT_BEGIN
 90
        0
 91
        1
 62
     0
 92
       -2
340
14
 93
        0
 40
0.045
309
GRIDFORMAT_END
 95
       32
302
GRIDFORMAT
  1
GRIDFORMAT_BEGIN
 90
        0
 91
        1
 62
     0
 92
       -2
340
14
 93
        0
 40
0.045
309
GRIDFORMAT_END
309
TABLEFORMAT_END
  1
CELLSTYLE_BEGIN
 90
        1
 91
        1
300
_TITLE
309
CELLSTYLE_END
300
CELLSTYLE
  1
TABLEFORMAT_BEGIN
 90
        5
170
     1
 91
        0
 92
        0
 62
   257
 93
        1
300
CONTENTFORMAT
  1
CONTENTFORMAT_BEGIN
 90
        0
 91
        0
 92
        4
 93
        0
300

 40
0.0
140
1.0
 94
        5
 62
     0
340
11
144
0.18
309
CONTENTFORMAT_END
171
     1
301
MARGIN
  1
CELLMARGIN_BEGIN
 40
0.06
 40
0.06
 40
0.06
 40
0.06
 40
0.06
 40
0.06
309
CELLMARGIN_END
 94
        6
 95
        1
302
GRIDFORMAT
  1
GRIDFORMAT_BEGIN
 90
        0
 91
        1
 62
     0
 92
       -2
340
14
 93
        0
 40
0.045
309
GRIDFORMAT_END
 95
        2
302
GRIDFORMAT
  1
GRIDFORMAT_BEGIN
 90
        0
 91
        1
 62
     0
 92
       -2
340
14
 93
        0
 40
0.045
309
GRIDFORMAT_END
 95
        4
302
GRIDFORMAT
  1
GRIDFORMAT_BEGIN
 90
        0
 91
        1
 62
     0
 92
       -2
340
14
 93
        0
 40
0.045
309
GRIDFORMAT_END
 95
        8
302
GRIDFORMAT
  1
GRIDFORMAT_BEGIN
 90
        0
 91
        1
 62
     0
 92
       -2
340
14
 93
        0
 40
0.045
309
GRIDFORMAT_END
 95
       16
302
GRIDFORMAT
  1
GRIDFORMAT_BEGIN
 90
        0
 91
        1
 62
     0
 92
       -2
340
14
 93
        0
 40
0.045
309
GRIDFORMAT_END
 95
       32
302
GRIDFORMAT
  1
GRIDFORMAT_BEGIN
 90
        0
 91
        1
 62
     0
 92
       -2
340
14
 93
        0
 40
0.045
309
GRIDFORMAT_END
309
TABLEFORMAT_END
  1
CELLSTYLE_BEGIN
 90
        2
 91
        1
300
_HEADER
309
CELLSTYLE_END
300
CELLSTYLE
  1
TABLEFORMAT_BEGIN
 90
        5
170
     1
 91
        0
 92
        0
 62
   257
 93
        1
300
CONTENTFORMAT
  1
CONTENTFORMAT_BEGIN
 90
        0
 91
        0
 92
        4
 93
        0
300

 40
0.0
140
1.0
 94
        2
 62
     0
340
11
144
0.18
309
CONTENTFORMAT_END
171
     1
301
MARGIN
  1
CELLMARGIN_BEGIN
 40
0.06
 40
0.06
 40
0.06
 40
0.06
 40
0.06
 40
0.06
309
CELLMARGIN_END
 94
        6
 95
        1
302
GRIDFORMAT
  1
GRIDFORMAT_BEGIN
 90
        0
 91
        1
 62
     0
 92
       -2
340
14
 93
        0
 40
0.045
309
GRIDFORMAT_END
 95
        2
302
GRIDFORMAT
  1
GRIDFORMAT_BEGIN
 90
        0
 91
        1
 62
     0
 92
       -2
340
14
 93
        0
 40
0.045
309
GRIDFORMAT_END
 95
        4
302
GRIDFORMAT
  1
GRIDFORMAT_BEGIN
 90
        0
 91
        1
 62
     0
 92
       -2
340
14
 93
        0
 40
0.045
309
GRIDFORMAT_END
 95
        8
302
GRIDFORMAT
  1
GRIDFORMAT_BEGIN
 90
        0
 91
        1
 62
     0
 92
       -2
340
14
 93
        0
 40
0.045
309
GRIDFORMAT_END
 95
       16
302
GRIDFORMAT
  1
GRIDFORMAT_BEGIN
 90
        0
 91
        1
 62
     0
 92
       -2
340
14
 93
        0
 40
0.045
309
GRIDFORMAT_END
 95
       32
302
GRIDFORMAT
  1
GRIDFORMAT_BEGIN
 90
        0
 91
        1
 62
     0
 92
       -2
340
14
 93
        0
 40
0.045
309
GRIDFORMAT_END
309
TABLEFORMAT_END
  1
CELLSTYLE_BEGIN
 90
        3
 91
        2
300
_DATA
309
CELLSTYLE_END
  0
ENDSEC
  0
EOF