0
SECTION
  2
HEADER
  9
$ACADVER
  1
AC1027
  9
$ACADMAINTVER
 70
     8
  9
$DWGCODEPAGE
  3
ANSI_1252
  9
$REQUIREDVERSIONS
160
                 0
  9
$COMMENTS
  1
File was created by Cadenas
  9
$CUSTOMPROPERTYTAG
  1
NN
  9
$CUSTOMPROPERTY
  1
Eccentric Collar Narrow Slot Take Up Inch Bore
  9
$CUSTOMPROPERTYTAG
  1
NT
  9
$CUSTOMPROPERTY
  1
SXR Take-Up Bearings -Narrow Slot -(Normal Duty)
  9
$CUSTOMPROPERTYTAG
  1
NB
  9
$CUSTOMPROPERTY
  1
131154
  9
$CUSTOMPROPERTYTAG
  1
NBSYN
  9
$CUSTOMPROPERTY
  1
$PN.
  9
$CUSTOMPROPERTYTAG
  1
LINA
  9
$CUSTOMPROPERTY
  1
131154
  9
$CUSTOMPROPERTYTAG
  1
SERIES
  9
$CUSTOMPROPERTY
  1
204
  9
$CUSTOMPROPERTYTAG
  1
SS
  9
$CUSTOMPROPERTY
  1
3/4
  9
$CUSTOMPROPERTYTAG
  1
PN
  9
$CUSTOMPROPERTY
  1
131154
  9
$CUSTOMPROPERTYTAG
  1
DESCRIPTION
  9
$CUSTOMPROPERTY
  1
NSTU-SXR-012
  9
$CUSTOMPROPERTYTAG
  1
W
  9
$CUSTOMPROPERTY
  1
1.5
  9
$CUSTOMPROPERTYTAG
  1
FS
  9
$CUSTOMPROPERTY
  1
NS210
  9
$CUSTOMPROPERTYTAG
  1
A
  9
$CUSTOMPROPERTY
  1
1.55
  9
$CUSTOMPROPERTYTAG
  1
B
  9
$CUSTOMPROPERTY
  1
3.50
  9
$CUSTOMPROPERTYTAG
  1
C
  9
$CUSTOMPROPERTY
  1
0.250
  9
$CUSTOMPROPERTYTAG
  1
D
  9
$CUSTOMPROPERTY
  1
1.50
  9
$CUSTOMPROPERTYTAG
  1
E
  9
$CUSTOMPROPERTY
  1
2.19
  9
$CUSTOMPROPERTYTAG
  1
F
  9
$CUSTOMPROPERTY
  1
3/4
  9
$CUSTOMPROPERTYTAG
  1
G
  9
$CUSTOMPROPERTY
  1
0.44
  9
$CUSTOMPROPERTYTAG
  1
H
  9
$CUSTOMPROPERTY
  1
0.88
  9
$CUSTOMPROPERTYTAG
  1
J
  9
$CUSTOMPROPERTY
  1
1.38
  9
$CUSTOMPROPERTYTAG
  1
L
  9
$CUSTOMPROPERTY
  1
1.31
  9
$CUSTOMPROPERTYTAG
  1
M
  9
$CUSTOMPROPERTY
  1
2.635 / 2.605
  9
$CUSTOMPROPERTYTAG
  1
N
  9
$CUSTOMPROPERTY
  1
3.13
  9
$CUSTOMPROPERTYTAG
  1
P
  9
$CUSTOMPROPERTY
  1
0.32
  9
$CUSTOMPROPERTYTAG
  1
R
  9
$CUSTOMPROPERTY
  1
0.50
  9
$CUSTOMPROPERTYTAG
  1
S
  9
$CUSTOMPROPERTY
  1
1.05
  9
$CUSTOMPROPERTYTAG
  1
COMPANY
  9
$CUSTOMPROPERTY
  1
baldor
  9
$INSBASE
 10
0.0
 20
0.0
 30
0.0
  9
$EXTMIN
 10
1.000000000000000E+20
 20
1.000000000000000E+20
 30
1.000000000000000E+20
  9
$EXTMAX
 10
-1.000000000000000E+20
 20
-1.000000000000000E+20
 30
-1.000000000000000E+20
  9
$LIMMIN
 10
0.0
 20
0.0
  9
$LIMMAX
 10
12.0
 20
9.0
  9
$ORTHOMODE
 70
     0
  9
$REGENMODE
 70
     1
  9
$FILLMODE
 70
     1
  9
$QTEXTMODE
 70
     0
  9
$MIRRTEXT
 70
     1
  9
$LTSCALE
 40
1.0
  9
$ATTMODE
 70
     1
  9
$TEXTSIZE
 40
0.2
  9
$TRACEWID
 40
0.05
  9
$TEXTSTYLE
  7
Standard
  9
$CLAYER
  8
0
  9
$CELTYPE
  6
ByLayer
  9
$CECOLOR
 62
   256
  9
$CELTSCALE
 40
1.0
  9
$DISPSILH
 70
     0
  9
$DIMSCALE
 40
1.0
  9
$DIMASZ
 40
0.18
  9
$DIMEXO
 40
0.0625
  9
$DIMDLI
 40
0.38
  9
$DIMRND
 40
0.0
  9
$DIMDLE
 40
0.0
  9
$DIMEXE
 40
0.18
  9
$DIMTP
 40
0.0
  9
$DIMTM
 40
0.0
  9
$DIMTXT
 40
0.18
  9
$DIMCEN
 40
0.09
  9
$DIMTSZ
 40
0.0
  9
$DIMTOL
 70
     0
  9
$DIMLIM
 70
     0
  9
$DIMTIH
 70
     1
  9
$DIMTOH
 70
     1
  9
$DIMSE1
 70
     0
  9
$DIMSE2
 70
     0
  9
$DIMTAD
 70
     0
  9
$DIMZIN
 70
     0
  9
$DIMBLK
  1

  9
$DIMASO
 70
     1
  9
$DIMSHO
 70
     1
  9
$DIMPOST
  1

  9
$DIMAPOST
  1

  9
$DIMALT
 70
     0
  9
$DIMALTD
 70
     2
  9
$DIMALTF
 40
25.4
  9
$DIMLFAC
 40
1.0
  9
$DIMTOFL
 70
     0
  9
$DIMTVP
 40
0.0
  9
$DIMTIX
 70
     0
  9
$DIMSOXD
 70
     0
  9
$DIMSAH
 70
     0
  9
$DIMBLK1
  1

  9
$DIMBLK2
  1

  9
$DIMSTYLE
  2
Standard
  9
$DIMCLRD
 70
     0
  9
$DIMCLRE
 70
     0
  9
$DIMCLRT
 70
     0
  9
$DIMTFAC
 40
1.0
  9
$DIMGAP
 40
0.09
  9
$DIMJUST
 70
     0
  9
$DIMSD1
 70
     0
  9
$DIMSD2
 70
     0
  9
$DIMTOLJ
 70
     1
  9
$DIMTZIN
 70
     0
  9
$DIMALTZ
 70
     0
  9
$DIMALTTZ
 70
     0
  9
$DIMUPT
 70
     0
  9
$DIMDEC
 70
     4
  9
$DIMTDEC
 70
     4
  9
$DIMALTU
 70
     2
  9
$DIMALTTD
 70
     2
  9
$DIMTXSTY
  7
Standard
  9
$DIMAUNIT
 70
     0
  9
$DIMADEC
 70
     0
  9
$DIMALTRND
 40
0.0
  9
$DIMAZIN
 70
     0
  9
$DIMDSEP
 70
    46
  9
$DIMATFIT
 70
     3
  9
$DIMFRAC
 70
     0
  9
$DIMLDRBLK
  1

  9
$DIMLUNIT
 70
     2
  9
$DIMLWD
 70
    -2
  9
$DIMLWE
 70
    -2
  9
$DIMTMOVE
 70
     0
  9
$DIMFXL
 40
1.0
  9
$DIMFXLON
 70
     0
  9
$DIMJOGANG
 40
0.7853981633974483
  9
$DIMTFILL
 70
     0
  9
$DIMTFILLCLR
 70
     0
  9
$DIMARCSYM
 70
     0
  9
$DIMLTYPE
  6

  9
$DIMLTEX1
  6

  9
$DIMLTEX2
  6

  9
$DIMTXTDIRECTION
 70
     0
  9
$LUNITS
 70
     2
  9
$LUPREC
 70
     4
  9
$SKETCHINC
 40
0.1
  9
$FILLETRAD
 40
0.5
  9
$AUNITS
 70
     0
  9
$AUPREC
 70
     0
  9
$MENU
  1
.
  9
$ELEVATION
 40
0.0
  9
$PELEVATION
 40
0.0
  9
$THICKNESS
 40
0.0
  9
$LIMCHECK
 70
     0
  9
$CHAMFERA
 40
0.0
  9
$CHAMFERB
 40
0.0
  9
$CHAMFERC
 40
0.0
  9
$CHAMFERD
 40
0.0
  9
$SKPOLY
 70
     0
  9
$TDCREATE
 40
2458168.980971968
  9
$TDUCREATE
 40
2458168.939305301
  9
$TDUPDATE
 40
2458168.980971968
  9
$TDUUPDATE
 40
2458168.939305301
  9
$TDINDWG
 40
0.0000000116
  9
$TDUSRTIMER
 40
0.0000000116
  9
$USRTIMER
 70
     1
  9
$ANGBASE
 50
0.0
  9
$ANGDIR
 70
     0
  9
$PDMODE
 70
     0
  9
$PDSIZE
 40
0.0
  9
$PLINEWID
 40
0.0
  9
$SPLFRAME
 70
     0
  9
$SPLINETYPE
 70
     6
  9
$SPLINESEGS
 70
     8
  9
$HANDSEED
  5
1E0
  9
$SURFTAB1
 70
     6
  9
$SURFTAB2
 70
     6
  9
$SURFTYPE
 70
     6
  9
$SURFU
 70
     6
  9
$SURFV
 70
     6
  9
$UCSBASE
  2

  9
$UCSNAME
  2

  9
$UCSORG
 10
0.0
 20
0.0
 30
0.0
  9
$UCSXDIR
 10
1.0
 20
0.0
 30
0.0
  9
$UCSYDIR
 10
0.0
 20
1.0
 30
0.0
  9
$UCSORTHOREF
  2

  9
$UCSORTHOVIEW
 70
     0
  9
$UCSORGTOP
 10
0.0
 20
0.0
 30
0.0
  9
$UCSORGBOTTOM
 10
0.0
 20
0.0
 30
0.0
  9
$UCSORGLEFT
 10
0.0
 20
0.0
 30
0.0
  9
$UCSORGRIGHT
 10
0.0
 20
0.0
 30
0.0
  9
$UCSORGFRONT
 10
0.0
 20
0.0
 30
0.0
  9
$UCSORGBACK
 10
0.0
 20
0.0
 30
0.0
  9
$PUCSBASE
  2

  9
$PUCSNAME
  2

  9
$PUCSORG
 10
0.0
 20
0.0
 30
0.0
  9
$PUCSXDIR
 10
1.0
 20
0.0
 30
0.0
  9
$PUCSYDIR
 10
0.0
 20
1.0
 30
0.0
  9
$PUCSORTHOREF
  2

  9
$PUCSORTHOVIEW
 70
     0
  9
$PUCSORGTOP
 10
0.0
 20
0.0
 30
0.0
  9
$PUCSORGBOTTOM
 10
0.0
 20
0.0
 30
0.0
  9
$PUCSORGLEFT
 10
0.0
 20
0.0
 30
0.0
  9
$PUCSORGRIGHT
 10
0.0
 20
0.0
 30
0.0
  9
$PUCSORGFRONT
 10
0.0
 20
0.0
 30
0.0
  9
$PUCSORGBACK
 10
0.0
 20
0.0
 30
0.0
  9
$USERI1
 70
     0
  9
$USERI2
 70
     0
  9
$USERI3
 70
     0
  9
$USERI4
 70
     0
  9
$USERI5
 70
     0
  9
$USERR1
 40
0.0
  9
$USERR2
 40
0.0
  9
$USERR3
 40
0.0
  9
$USERR4
 40
0.0
  9
$USERR5
 40
0.0
  9
$WORLDVIEW
 70
     1
  9
$SHADEDGE
 70
     3
  9
$SHADEDIF
 70
    70
  9
$TILEMODE
 70
     1
  9
$MAXACTVP
 70
    64
  9
$PINSBASE
 10
0.0
 20
0.0
 30
0.0
  9
$PLIMCHECK
 70
     0
  9
$PEXTMIN
 10
1.000000000000000E+20
 20
1.000000000000000E+20
 30
1.000000000000000E+20
  9
$PEXTMAX
 10
-1.000000000000000E+20
 20
-1.000000000000000E+20
 30
-1.000000000000000E+20
  9
$PLIMMIN
 10
0.0
 20
0.0
  9
$PLIMMAX
 10
12.0
 20
9.0
  9
$UNITMODE
 70
     0
  9
$VISRETAIN
 70
     1
  9
$PLINEGEN
 70
     0
  9
$PSLTSCALE
 70
     1
  9
$TREEDEPTH
 70
  3020
  9
$CMLSTYLE
  2
Standard
  9
$CMLJUST
 70
     0
  9
$CMLSCALE
 40
1.0
  9
$PROXYGRAPHICS
 70
     1
  9
$MEASUREMENT
 70
     0
  9
$CELWEIGHT
370
    -1
  9
$ENDCAPS
280
     0
  9
$JOINSTYLE
280
     0
  9
$LWDISPLAY
290
     0
  9
$INSUNITS
 70
     1
  9
$HYPERLINKBASE
  1

  9
$STYLESHEET
  1

  9
$XEDIT
290
     1
  9
$CEPSNTYPE
380
     0
  9
$PSTYLEMODE
290
     1
  9
$FINGERPRINTGUID
  2
{0D53151E-93C4-45A5-882C-963EE337DD1E}
  9
$VERSIONGUID
  2
{FAEB1C32-E019-11D5-929B-00C0DF256EC4}
  9
$EXTNAMES
290
     1
  9
$PSVPSCALE
 40
0.0
  9
$OLESTARTUP
290
     0
  9
$SORTENTS
280
   127
  9
$INDEXCTL
280
     0
  9
$HIDETEXT
280
     1
  9
$XCLIPFRAME
280
     2
  9
$HALOGAP
280
     0
  9
$OBSCOLOR
 70
   257
  9
$OBSLTYPE
280
     0
  9
$INTERSECTIONDISPLAY
280
     0
  9
$INTERSECTIONCOLOR
 70
   257
  9
$DIMASSOC
280
     2
  9
$PROJECTNAME
  1

  9
$CAMERADISPLAY
290
     0
  9
$LENSLENGTH
 40
50.0
  9
$CAMERAHEIGHT
 40
0.0
  9
$STEPSPERSEC
 40
2.0
  9
$STEPSIZE
 40
6.0
  9
$3DDWFPREC
 40
2.0
  9
$PSOLWIDTH
 40
0.25
  9
$PSOLHEIGHT
 40
4.0
  9
$LOFTANG1
 40
1.570796326794897
  9
$LOFTANG2
 40
1.570796326794897
  9
$LOFTMAG1
 40
0.0
  9
$LOFTMAG2
 40
0.0
  9
$LOFTPARAM
 70
     7
  9
$LOFTNORMALS
280
     1
  9
$LATITUDE
 40
37.795
  9
$LONGITUDE
 40
-122.394
  9
$NORTHDIRECTION
 40
0.0
  9
$TIMEZONE
 70
 -8000
  9
$LIGHTGLYPHDISPLAY
280
     1
  9
$TILEMODELIGHTSYNCH
280
     1
  9
$CMATERIAL
347
44
  9
$SOLIDHIST
280
     0
  9
$SHOWHIST
280
     1
  9
$DWFFRAME
280
     2
  9
$DGNFRAME
280
     2
  9
$REALWORLDSCALE
290
     1
  9
$INTERFERECOLOR
 62
   256
  9
$CSHADOW
280
     0
  9
$SHADOWPLANELOCATION
 40
0.0
  0
ENDSEC
  0
SECTION
  2
CLASSES
  0
CLASS
  1
ACDBDICTIONARYWDFLT
  2
AcDbDictionaryWithDefault
  3
ObjectDBX Classes
 90
        0
 91
        4
280
     0
281
     0
  0
CLASS
  1
VISUALSTYLE
  2
AcDbVisualStyle
  3
ObjectDBX Classes
 90
     4095
 91
        4
280
     0
281
     0
  0
CLASS
  1
MATERIAL
  2
AcDbMaterial
  3
ObjectDBX Classes
 90
     1153
 91
        4
280
     0
281
     0
  0
CLASS
  1
SCALE
  2
AcDbScale
  3
ObjectDBX Classes
 90
     1153
 91
        4
280
     0
281
     0
  0
CLASS
  1
TABLESTYLE
  2
AcDbTableStyle
  3
ObjectDBX Classes
 90
     4095
 91
        4
280
     0
281
     0
  0
CLASS
  1
MLEADERSTYLE
  2
AcDbMLeaderStyle
  3
ACDB_MLEADERSTYLE_CLASS
 90
     4095
 91
        4
280
     0
281
     0
  0
CLASS
  1
SUN
  2
AcDbSun
  3
SCENEOE
 90
     1153
 91
        4
280
     0
281
     0
  0
CLASS
  1
DICTIONARYVAR
  2
AcDbDictionaryVar
  3
ObjectDBX Classes
 90
        0
 91
        4
280
     0
281
     0
  0
CLASS
  1
CELLSTYLEMAP
  2
AcDbCellStyleMap
  3
ObjectDBX Classes
 90
     1152
 91
        4
280
     0
281
     0
  0
ENDSEC
  0
SECTION
  2
TABLES
  0
TABLE
  2
VPORT
  5
8
330
0
100
AcDbSymbolTable
 70
     1
  0
VPORT
  5
29
330
8
100
AcDbSymbolTableRecord
100
AcDbViewportTableRecord
  2
*Active
 70
     0
 10
0.0
 20
0.0
 11
1.0
 21
1.0
 12
-0.1842499999999987
 22
0.0
 13
0.0
 23
0.0
 14
0.5
 24
0.5
 15
0.5
 25
0.5
 16
0.0
 26
0.0
 36
1.0
 17
0.0
 27
0.0
 37
0.0
 40
3.1926
 41
0.6027156549520761
 42
50.0
 43
0.0
 44
0.0
 50
0.0
 51
0.0
 71
     0
 72
   100
 73
     1
 74
     3
 75
     0
 76
     0
 77
     0
 78
     0
281
     0
 65
     1
110
0.0
120
0.0
130
0.0
111
1.0
121
0.0
131
0.0
112
0.0
122
1.0
132
0.0
 79
     0
146
0.0
348
2F
 60
     3
 61
     5
292
     1
282
     1
141
0.0
142
0.0
 63
   250
361
6D
  0
ENDTAB
  0
TABLE
  2
LTYPE
  5
5
330
0
100
AcDbSymbolTable
 70
     3
  0
LTYPE
  5
14
330
5
100
AcDbSymbolTableRecord
100
AcDbLinetypeTableRecord
  2
ByBlock
 70
     0
  3

 72
    65
 73
     0
 40
0.0
  0
LTYPE
  5
15
330
5
100
AcDbSymbolTableRecord
100
AcDbLinetypeTableRecord
  2
ByLayer
 70
     0
  3

 72
    65
 73
     0
 40
0.0
  0
LTYPE
  5
16
330
5
100
AcDbSymbolTableRecord
100
AcDbLinetypeTableRecord
  2
Continuous
 70
     0
  3
Solid line
 72
    65
 73
     0
 40
0.0
  0
LTYPE
  5
9F
330
5
100
AcDbSymbolTableRecord
100
AcDbLinetypeTableRecord
  2
Dashed
 70
     0
  3

 72
    65
 73
     2
 40
2.0
 49
1.0
 74
     0
 49
-1.0
 74
     0
  0
LTYPE
  5
153
330
5
100
AcDbSymbolTableRecord
100
AcDbLinetypeTableRecord
  2
Center
 70
     0
  3

 72
    65
 73
     4
 40
1.5
 49
0.45
 74
     0
 49
-0.5
 74
     0
 49
0.05
 74
     0
 49
-0.5
 74
     0
  0
ENDTAB
  0
TABLE
  2
LAYER
  5
2
330
0
100
AcDbSymbolTable
 70
     7
  0
LAYER
  5
10
330
2
100
AcDbSymbolTableRecord
100
AcDbLayerTableRecord
  2
0
 70
     0
 62
     7
  6
Continuous
370
    -3
390
F
347
46
348
0
  0
LAYER
  5
72
330
2
100
AcDbSymbolTableRecord
100
AcDbLayerTableRecord
  2
AM_6
 70
     0
 62
    -2
  6
Continuous
370
    35
390
F
347
46
348
0
  0
LAYER
  5
A0
330
2
100
AcDbSymbolTableRecord
100
AcDbLayerTableRecord
  2
AM_9
 70
     0
 62
     6
  6
Dashed
370
    25
390
F
347
46
348
0
  0
LAYER
  5
109
330
2
100
AcDbSymbolTableRecord
100
AcDbLayerTableRecord
  2
AM_4
 70
     0
 62
     7
  6
Continuous
370
    50
390
F
347
46
348
0
  0
LAYER
  5
151
330
2
100
AcDbSymbolTableRecord
100
AcDbLayerTableRecord
  2
AM_5
 70
     0
 62
     3
  6
Continuous
370
    25
390
F
347
46
348
0
  0
LAYER
  5
154
330
2
100
AcDbSymbolTableRecord
100
AcDbLayerTableRecord
  2
AM_7
 70
     0
 62
     7
  6
Center
370
    25
390
F
347
46
348
0
  0
LAYER
  5
1D2
330
2
100
AcDbSymbolTableRecord
100
AcDbLayerTableRecord
  2
ConnectionPoints
 70
     0
 62
     7
  6
Continuous
370
    50
390
F
347
46
348
0
  0
ENDTAB
  0
TABLE
  2
STYLE
  5
3
330
0
100
AcDbSymbolTable
 70
     1
  0
STYLE
  5
11
330
3
100
AcDbSymbolTableRecord
100
AcDbTextStyleTableRecord
  2
Standard
 70
     0
 40
0.0
 41
1.0
 50
0.0
 71
     0
 42
0.2
  3
txt
  4

  0
ENDTAB
  0
TABLE
  2
VIEW
  5
6
330
0
100
AcDbSymbolTable
 70
     0
  0
ENDTAB
  0
TABLE
  2
UCS
  5
7
330
0
100
AcDbSymbolTable
 70
     0
  0
ENDTAB
  0
TABLE
  2
APPID
  5
9
330
0
100
AcDbSymbolTable
 70
     1
  0
APPID
  5
12
330
9
100
AcDbSymbolTableRecord
100
AcDbRegAppTableRecord
  2
ACAD
 70
     0
  0
ENDTAB
  0
TABLE
  2
DIMSTYLE
  5
A
330
0
100
AcDbSymbolTable
 70
     1
100
AcDbDimStyleTable
  0
DIMSTYLE
105
27
330
A
100
AcDbSymbolTableRecord
100
AcDbDimStyleTableRecord
  2
Standard
 70
     0
178
     0
340
11
  0
ENDTAB
  0
TABLE
  2
BLOCK_RECORD
  5
1
330
0
100
AcDbSymbolTable
 70
     5
  0
BLOCK_RECORD
  5
1F
330
1
100
AcDbSymbolTableRecord
100
AcDbBlockTableRecord
  2
*Model_Space
340
22
 70
     0
280
     1
281
     0
  0
BLOCK_RECORD
  5
1B
330
1
100
AcDbSymbolTableRecord
100
AcDbBlockTableRecord
  2
*Paper_Space
340
1E
 70
     0
280
     1
281
     0
  0
BLOCK_RECORD
  5
23
330
1
100
AcDbSymbolTableRecord
100
AcDbBlockTableRecord
  2
*Paper_Space0
340
26
 70
     0
280
     1
281
     0
  0
BLOCK_RECORD
  5
6E
330
1
100
AcDbSymbolTableRecord
100
AcDbBlockTableRecord
  2
1_131154_2
340
0
102
{BLKREFS
331
6F
102
}
 70
     0
280
     1
281
     0
  0
BLOCK_RECORD
  5
8E
330
1
100
AcDbSymbolTableRecord
100
AcDbBlockTableRecord
  2
2_405016_Inch_0_in_131154_2
340
0
102
{BLKREFS
331
8F
102
}
 70
     0
280
     1
281
     0
  0
BLOCK_RECORD
  5
10B
330
1
100
AcDbSymbolTableRecord
100
AcDbBlockTableRecord
  2
3_131904_0_in_131154_2
340
0
102
{BLKREFS
331
10C
102
}
 70
     0
280
     1
281
     0
  0
BLOCK_RECORD
  5
170
330
1
100
AcDbSymbolTableRecord
100
AcDbBlockTableRecord
  2
4_131154H_0_in_131154_2
340
0
102
{BLKREFS
331
171
102
}
 70
     0
280
     1
281
     0
  0
ENDTAB
  0
ENDSEC
  0
SECTION
  2
BLOCKS
  0
BLOCK
  5
20
330
1F
100
AcDbEntity
  8
0
100
AcDbBlockBegin
  2
*Model_Space
 70
     0
 10
0.0
 20
0.0
 30
0.0
  3
*Model_Space
  1

  0
ENDBLK
  5
21
330
1F
100
AcDbEntity
  8
0
100
AcDbBlockEnd
  0
BLOCK
  5
1C
330
1B
100
AcDbEntity
 67
     1
  8
0
100
AcDbBlockBegin
  2
*Paper_Space
 70
     0
 10
0.0
 20
0.0
 30
0.0
  3
*Paper_Space
  1

  0
ENDBLK
  5
1D
330
1B
100
AcDbEntity
 67
     1
  8
0
100
AcDbBlockEnd
  0
BLOCK
  5
24
330
23
100
AcDbEntity
  8
0
100
AcDbBlockBegin
  2
*Paper_Space0
 70
     0
 10
0.0
 20
0.0
 30
0.0
  3
*Paper_Space0
  1

  0
ENDBLK
  5
25
330
23
100
AcDbEntity
  8
0
100
AcDbBlockEnd
  0
BLOCK
  5
70
330
6E
100
AcDbEntity
  8
0
100
AcDbBlockBegin
  2
1_131154_2
 70
     2
 10
0.0
 20
0.0
 30
0.0
  3
1_131154_2
  1

  0
ATTDEF
  5
73
330
6E
100
AcDbEntity
  8
AM_6
100
AcDbText
 10
5.759
 20
1.565
 30
0.0
 40
0.5
  1
Eccentric Collar Narrow Slot Take Up Inch Bore
100
AcDbAttributeDefinition
  3

  2
NN
 70
     8
280
     0
  0
ATTDEF
  5
74
330
6E
100
AcDbEntity
  8
AM_6
100
AcDbText
 10
5.759
 20
1.065
 30
0.0
 40
0.5
  1
SXR Take-Up Bearings -Narrow Slot -(Normal Duty)
100
AcDbAttributeDefinition
  3

  2
NT
 70
     8
280
     0
  0
ATTDEF
  5
75
330
6E
100
AcDbEntity
  8
AM_6
100
AcDbText
 10
5.759
 20
0.5649999999999997
 30
0.0
 40
0.5
  1
131154
100
AcDbAttributeDefinition
  3

  2
NB
 70
     8
280
     0
  0
ATTDEF
  5
76
330
6E
100
AcDbEntity
  8
AM_6
100
AcDbText
 10
5.759
 20
0.0649999999999997
 30
0.0
 40
0.5
  1
$PN.
100
AcDbAttributeDefinition
  3

  2
NBSYN
 70
     8
280
     0
  0
ATTDEF
  5
77
330
6E
100
AcDbEntity
  8
AM_6
100
AcDbText
 10
5.759
 20
-0.4350000000000003
 30
0.0
 40
0.5
  1
131154
100
AcDbAttributeDefinition
  3

  2
LINA
 70
     8
280
     0
  0
ATTDEF
  5
78
330
6E
100
AcDbEntity
  8
AM_6
100
AcDbText
 10
5.759
 20
-0.9350000000000003
 30
0.0
 40
0.5
  1
204
100
AcDbAttributeDefinition
  3

  2
SERIES
 70
     8
280
     0
  0
ATTDEF
  5
79
330
6E
100
AcDbEntity
  8
AM_6
100
AcDbText
 10
5.759
 20
-1.435
 30
0.0
 40
0.5
  1
3/4
100
AcDbAttributeDefinition
  3

  2
SS
 70
     8
280
     0
  0
ATTDEF
  5
7A
330
6E
100
AcDbEntity
  8
AM_6
100
AcDbText
 10
5.759
 20
-1.935
 30
0.0
 40
0.5
  1
131154
100
AcDbAttributeDefinition
  3

  2
PN
 70
     8
280
     0
  0
ATTDEF
  5
7B
330
6E
100
AcDbEntity
  8
AM_6
100
AcDbText
 10
5.759
 20
-2.435
 30
0.0
 40
0.5
  1
NSTU-SXR-012
100
AcDbAttributeDefinition
  3

  2
DESCRIPTION
 70
     8
280
     0
  0
ATTDEF
  5
7C
330
6E
100
AcDbEntity
  8
AM_6
100
AcDbText
 10
5.759
 20
-2.935
 30
0.0
 40
0.5
  1
1.5
100
AcDbAttributeDefinition
  3

  2
W
 70
     8
280
     0
  0
ATTDEF
  5
7D
330
6E
100
AcDbEntity
  8
AM_6
100
AcDbText
 10
5.759
 20
-3.435
 30
0.0
 40
0.5
  1
NS210
100
AcDbAttributeDefinition
  3

  2
FS
 70
     8
280
     0
  0
ATTDEF
  5
7E
330
6E
100
AcDbEntity
  8
AM_6
100
AcDbText
 10
5.759
 20
-3.935
 30
0.0
 40
0.5
  1
1.55
100
AcDbAttributeDefinition
  3

  2
A
 70
     8
280
     0
  0
ATTDEF
  5
7F
330
6E
100
AcDbEntity
  8
AM_6
100
AcDbText
 10
5.759
 20
-4.435
 30
0.0
 40
0.5
  1
3.50
100
AcDbAttributeDefinition
  3

  2
B
 70
     8
280
     0
  0
ATTDEF
  5
80
330
6E
100
AcDbEntity
  8
AM_6
100
AcDbText
 10
5.759
 20
-4.935
 30
0.0
 40
0.5
  1
0.250
100
AcDbAttributeDefinition
  3

  2
C
 70
     8
280
     0
  0
ATTDEF
  5
81
330
6E
100
AcDbEntity
  8
AM_6
100
AcDbText
 10
5.759
 20
-5.435
 30
0.0
 40
0.5
  1
1.50
100
AcDbAttributeDefinition
  3

  2
D
 70
     8
280
     0
  0
ATTDEF
  5
82
330
6E
100
AcDbEntity
  8
AM_6
100
AcDbText
 10
5.759
 20
-5.935
 30
0.0
 40
0.5
  1
2.19
100
AcDbAttributeDefinition
  3

  2
E
 70
     8
280
     0
  0
ATTDEF
  5
83
330
6E
100
AcDbEntity
  8
AM_6
100
AcDbText
 10
5.759
 20
-6.435
 30
0.0
 40
0.5
  1
3/4
100
AcDbAttributeDefinition
  3

  2
F
 70
     8
280
     0
  0
ATTDEF
  5
84
330
6E
100
AcDbEntity
  8
AM_6
100
AcDbText
 10
5.759
 20
-6.935
 30
0.0
 40
0.5
  1
0.44
100
AcDbAttributeDefinition
  3

  2
G
 70
     8
280
     0
  0
ATTDEF
  5
85
330
6E
100
AcDbEntity
  8
AM_6
100
AcDbText
 10
5.759
 20
-7.435
 30
0.0
 40
0.5
  1
0.88
100
AcDbAttributeDefinition
  3

  2
H
 70
     8
280
     0
  0
ATTDEF
  5
86
330
6E
100
AcDbEntity
  8
AM_6
100
AcDbText
 10
5.759
 20
-7.935
 30
0.0
 40
0.5
  1
1.38
100
AcDbAttributeDefinition
  3

  2
J
 70
     8
280
     0
  0
ATTDEF
  5
87
330
6E
100
AcDbEntity
  8
AM_6
100
AcDbText
 10
5.759
 20
-8.435
 30
0.0
 40
0.5
  1
1.31
100
AcDbAttributeDefinition
  3

  2
L
 70
     8
280
     0
  0
ATTDEF
  5
88
330
6E
100
AcDbEntity
  8
AM_6
100
AcDbText
 10
5.759
 20
-8.935
 30
0.0
 40
0.5
  1
2.635 / 2.605
100
AcDbAttributeDefinition
  3

  2
M
 70
     8
280
     0
  0
ATTDEF
  5
89
330
6E
100
AcDbEntity
  8
AM_6
100
AcDbText
 10
5.759
 20
-9.435
 30
0.0
 40
0.5
  1
3.13
100
AcDbAttributeDefinition
  3

  2
N
 70
     8
280
     0
  0
ATTDEF
  5
8A
330
6E
100
AcDbEntity
  8
AM_6
100
AcDbText
 10
5.759
 20
-9.935
 30
0.0
 40
0.5
  1
0.32
100
AcDbAttributeDefinition
  3

  2
P
 70
     8
280
     0
  0
ATTDEF
  5
8B
330
6E
100
AcDbEntity
  8
AM_6
100
AcDbText
 10
5.759
 20
-10.435
 30
0.0
 40
0.5
  1
0.50
100
AcDbAttributeDefinition
  3

  2
R
 70
     8
280
     0
  0
ATTDEF
  5
8C
330
6E
100
AcDbEntity
  8
AM_6
100
AcDbText
 10
5.759
 20
-10.935
 30
0.0
 40
0.5
  1
1.05
100
AcDbAttributeDefinition
  3

  2
S
 70
     8
280
     0
  0
ATTDEF
  5
8D
330
6E
100
AcDbEntity
  8
AM_6
100
AcDbText
 10
5.759
 20
-11.435
 30
0.0
 40
0.5
  1
baldor
100
AcDbAttributeDefinition
  3

  2
COMPANY
 70
     8
280
     0
  0
INSERT
  5
8F
330
6E
100
AcDbEntity
  8
0
100
AcDbBlockReference
  2
2_405016_Inch_0_in_131154_2
 10
0.0
 20
0.0
 30
0.0
  0
INSERT
  5
10C
330
6E
100
AcDbEntity
  8
0
100
AcDbBlockReference
  2
3_131904_0_in_131154_2
 10
0.0
 20
0.0
 30
0.0
  0
INSERT
  5
171
330
6E
100
AcDbEntity
  8
0
100
AcDbBlockReference
  2
4_131154H_0_in_131154_2
 10
0.0
 20
0.0
 30
0.0
  0
ENDBLK
  5
71
330
6E
100
AcDbEntity
  8
0
100
AcDbBlockEnd
  0
BLOCK
  5
90
330
8E
100
AcDbEntity
  8
0
100
AcDbBlockBegin
  2
2_405016_Inch_0_in_131154_2
 70
     2
 10
0.0
 20
0.0
 30
0.0
  3
2_405016_Inch_0_in_131154_2
  1

  0
ATTDEF
  5
92
330
8E
100
AcDbEntity
  8
AM_6
100
AcDbText
 10
5.21875
 20
-0.3969256983551581
 30
0.0
 40
0.5
  1
405016 -Inch
100
AcDbAttributeDefinition
  3

  2
NN
 70
     8
280
     0
  0
ATTDEF
  5
93
330
8E
100
AcDbEntity
  8
AM_6
100
AcDbText
 10
5.21875
 20
-0.8969256983551581
 30
0.0
 40
0.5
  1
Grease Fitting
100
AcDbAttributeDefinition
  3

  2
NT
 70
     8
280
     0
  0
ATTDEF
  5
94
330
8E
100
AcDbEntity
  8
AM_6
100
AcDbText
 10
5.21875
 20
-1.396925698355158
 30
0.0
 40
0.5
  1
405016-Inch
100
AcDbAttributeDefinition
  3

  2
NB
 70
     8
280
     0
  0
ATTDEF
  5
95
330
8E
100
AcDbEntity
  8
AM_6
100
AcDbText
 10
5.21875
 20
-1.896925698355158
 30
0.0
 40
0.5
  1
$MN.-Inch
100
AcDbAttributeDefinition
  3

  2
NBSYN
 70
     8
280
     0
  0
ATTDEF
  5
96
330
8E
100
AcDbEntity
  8
AM_6
100
AcDbText
 10
5.21875
 20
-2.396925698355158
 30
0.0
 40
0.5
  1
405016
100
AcDbAttributeDefinition
  3

  2
LINA
 70
     8
280
     0
  0
ATTDEF
  5
97
330
8E
100
AcDbEntity
  8
AM_6
100
AcDbText
 10
5.21875
 20
-2.896925698355158
 30
0.0
 40
0.5
  1
405016
100
AcDbAttributeDefinition
  3

  2
MN
 70
     8
280
     0
  0
ATTDEF
  5
98
330
8E
100
AcDbEntity
  8
AM_6
100
AcDbText
 10
5.21875
 20
-3.396925698355158
 30
0.0
 40
0.5
  1
7/16 HEX
100
AcDbAttributeDefinition
  3

  2
H
 70
     8
280
     0
  0
ATTDEF
  5
99
330
8E
100
AcDbEntity
  8
AM_6
100
AcDbText
 10
5.21875
 20
-3.896925698355158
 30
0.0
 40
0.5
  1
0.383
100
AcDbAttributeDefinition
  3

  2
NDR
 70
     8
280
     0
  0
ATTDEF
  5
9A
330
8E
100
AcDbEntity
  8
AM_6
100
AcDbText
 10
5.21875
 20
-4.396925698355158
 30
0.0
 40
0.5
  1
0.337
100
AcDbAttributeDefinition
  3

  2
KDR
 70
     8
280
     0
  0
ATTDEF
  5
9B
330
8E
100
AcDbEntity
  8
AM_6
100
AcDbText
 10
5.21875
 20
-4.896925698355158
 30
0.0
 40
0.5
  1
0.1575
100
AcDbAttributeDefinition
  3

  2
BZE
 70
     8
280
     0
  0
ATTDEF
  5
9C
330
8E
100
AcDbEntity
  8
AM_6
100
AcDbText
 10
5.21875
 20
-5.396925698355158
 30
0.0
 40
0.5
  1
0.4375
100
AcDbAttributeDefinition
  3

  2
HEX
 70
     8
280
     0
  0
ATTDEF
  5
9D
330
8E
100
AcDbEntity
  8
AM_6
100
AcDbText
 10
5.21875
 20
-5.896925698355158
 30
0.0
 40
0.5
  1
0.281250
100
AcDbAttributeDefinition
  3

  2
HEX2
 70
     8
280
     0
  0
ATTDEF
  5
9E
330
8E
100
AcDbEntity
  8
AM_6
100
AcDbText
 10
5.21875
 20
-6.396925698355158
 30
0.0
 40
0.5
  1
baldor
100
AcDbAttributeDefinition
  3

  2
COMPANY
 70
     8
280
     0
  0
LINE
  5
A1
330
8E
100
AcDbEntity
  8
AM_9
100
AcDbLine
 10
-0.1802021104252372
 20
-0.8673446680451173
 30
0.0
 11
-0.1791093260592887
 21
-0.8611138090598257
 31
0.0
  0
LWPOLYLINE
  5
A2
330
8E
100
AcDbEntity
  8
AM_9
100
AcDbPolyline
 90
        5
 70
     0
 43
0.0
 10
-0.1791093260592887
 20
-1.001738809059826
 10
-0.1842540823997054
 20
-0.968670119967152
 10
-0.1862220679364951
 20
-0.9343124091789143
 10
-0.1844124966919382
 20
-0.898126446285356
 10
-0.1802021104252372
 20
-0.8673446680451173
  0
LINE
  5
A3
330
8E
100
AcDbEntity
  8
AM_9
100
AcDbLine
 10
-0.151074129835757
 20
-0.8545772957113703
 30
0.0
 11
-0.1791093260592887
 21
-0.8611138090598257
 31
0.0
  0
LWPOLYLINE
  5
A4
330
8E
100
AcDbEntity
  8
AM_9
100
AcDbPolyline
 90
        5
 70
     0
 43
0.0
 10
-0.1791093260592887
 20
-0.8611138090598257
 10
-0.1988355121406939
 20
-0.8296885177366109
 10
-0.2156330920108725
 20
-0.7969977243283276
 10
-0.2290462109660021
 20
-0.7625061536907938
 10
-0.2389369657326277
 20
-0.7271690924072833
  0
LINE
  5
A5
330
8E
100
AcDbEntity
  8
AM_9
100
AcDbLine
 10
-0.2099962668917054
 20
-0.7204214576563437
 30
0.0
 11
-0.2389369657326277
 21
-0.7271690924072833
 31
0.0
  0
LINE
  5
A6
330
8E
100
AcDbEntity
  8
AM_9
100
AcDbLine
 10
-0.2389369657326277
 20
-0.7271690924072833
 30
0.0
 11
-0.2711532636537957
 21
-0.7316181234374057
 31
0.0
  0
LWPOLYLINE
  5
A7
330
8E
100
AcDbEntity
  8
AM_9
100
AcDbPolyline
 90
        3
 70
     0
 43
0.0
 10
-0.2813919000363599
 20
-0.732753048956784
 10
-0.2911775952746243
 20
-0.7335555934942601
 10
-0.2987675689889718
 20
-0.7338500667254666
  0
LWPOLYLINE
  5
A8
330
8E
100
AcDbEntity
  8
AM_9
100
AcDbPolyline
 90
        5
 70
     0
 43
0.0
 10
-0.2389369657326277
 20
-1.008419092407283
 10
-0.2295338871417796
 20
-1.00799806213629
 10
-0.2166871171046321
 20
-1.006802555641742
 10
-0.1996402057054678
 20
-1.004676787031713
 10
-0.1791093260592887
 20
-1.001738809059826
  0
LINE
  5
A9
330
8E
100
AcDbEntity
  8
AM_9
100
AcDbLine
 10
-0.151074129835757
 20
-0.9952022957113703
 30
0.0
 11
-0.1791093260592887
 21
-1.001738809059826
 31
0.0
  0
LINE
  5
AA
330
8E
100
AcDbEntity
  8
AM_9
100
AcDbLine
 10
-0.4524158089341449
 20
-1.021254016496842
 30
0.0
 11
-0.3774664534000949
 21
-1.039780662014441
 31
0.0
  0
LINE
  5
AB
330
8E
100
AcDbEntity
  8
AM_9
100
AcDbLine
 10
-0.4395859245204075
 20
-0.7733493905826323
 30
0.0
 11
-0.4986131040655763
 21
-0.8231131782604875
 31
0.0
  0
ELLIPSE
  5
AC
330
8E
100
AcDbEntity
  8
AM_9
100
AcDbEllipse
 10
-0.4687499999999145
 20
-0.9206064384441255
 30
0.0
 11
-0.02349716402083795
 21
0.1007796617097069
 31
0.0
210
0.0
220
0.0
230
1.0
 40
0.3659981507708147
 41
1.778400841817467
 42
6.511962502476121
  0
LWPOLYLINE
  5
AD
330
8E
100
AcDbEntity
  8
AM_9
100
AcDbPolyline
 90
        3
 70
     0
 43
0.0
 10
-0.2689146070947222
 20
-0.7268897343505176
 10
-0.251275593729576
 20
-0.7242388430145476
 10
-0.2360765106845275
 20
-0.7221875924132665
  0
ELLIPSE
  5
AE
330
8E
100
AcDbEntity
  8
AM_9
100
AcDbEllipse
 10
-0.3994303217889763
 20
-0.9044442900387728
 30
0.0
 11
-0.03159560311146632
 21
0.1355139790604266
 31
0.0
210
0.0
220
0.0
230
1.0
 40
0.365998150770666
 41
0.1874468764783161
 42
4.145181672147546
  0
LWPOLYLINE
  5
AF
330
8E
100
AcDbEntity
  8
AM_9
100
AcDbPolyline
 90
       10
 70
     0
 43
0.0
 10
-0.384668239501798
 20
-0.7727924531775324
 10
-0.388719210358787
 20
-0.7702157766166914
 10
-0.3955696014645991
 20
-0.7668274057981515
 10
-0.4024040286884907
 20
-0.7646032862101977
 10
-0.4092410178152612
 20
-0.7634922350973602
 10
-0.4160418540420757
 20
-0.7634878483765795
 10
-0.423254362448973
 20
-0.7647349560075305
 10
-0.4299408494496456
 20
-0.7671653888594412
 10
-0.4360041462428699
 20
-0.7706232471609115
 10
-0.4398336235885391
 20
-0.7735597175439245
  0
LWPOLYLINE
  5
B0
330
8E
100
AcDbEntity
  8
AM_9
100
AcDbPolyline
 90
        3
 70
     0
 43
0.0
 10
-0.3779901463877353
 20
-0.7780239010683422
 10
-0.3818177293130617
 20
-0.7748721553140879
 10
-0.384668239501798
 20
-0.7727924531775324
  0
LWPOLYLINE
  5
B1
330
8E
100
AcDbEntity
  8
AM_9
100
AcDbPolyline
 90
        3
 70
     0
 43
0.0
 10
-0.3265826634604501
 20
-1.013377572268066
 10
-0.3247485688337851
 20
-1.009434400488645
 10
-0.3244927763530509
 20
-1.00883368264278
  0
LWPOLYLINE
  5
B2
330
8E
100
AcDbEntity
  8
AM_9
100
AcDbPolyline
 90
       11
 70
     0
 43
0.0
 10
-0.3776513579871712
 20
-1.039734549027945
 10
-0.3761708295536577
 20
-1.040080993895145
 10
-0.3693355653249936
 20
-1.04100866302792
 10
-0.36254835670277
 20
-1.04082880140708
 10
-0.3554103539763799
 20
-1.039394003560105
 10
-0.3488114915075433
 20
-1.03679792447397
 10
-0.3428448957662062
 20
-1.033196406348833
 10
-0.3375016871714241
 20
-1.028687503320763
 10
-0.3327348849308664
 20
-1.023287091208857
 10
-0.3284917938431808
 20
-1.016918847181206
 10
-0.3270994802408279
 20
-1.014387081422578
  0
LWPOLYLINE
  5
B3
330
8E
100
AcDbEntity
  8
AM_9
100
AcDbPolyline
 90
        3
 70
     0
 43
0.0
 10
-0.109375
 20
-0.5799999999999998
 10
-0.0546875
 20
-0.5514595596074825
 10
-0.0000000000000001
 20
-0.5207787001516927
  0
LWPOLYLINE
  5
B4
330
8E
100
AcDbEntity
  8
AM_9
100
AcDbPolyline
 90
        3
 70
     0
 43
0.0
 10
-0.0000000000000001
 20
-0.5207787001516927
 10
0.0544416102741495
 20
-0.5513260426622647
 10
0.1093749999999999
 20
-0.5799999999999998
  0
LWPOLYLINE
  5
B5
330
8E
100
AcDbEntity
  8
AM_9
100
AcDbPolyline
 90
        6
 70
     0
 43
0.0
 10
-0.151074129835757
 20
-0.9952022957113703
 10
-0.1564222384464443
 20
-0.9951462587983992
 10
-0.1639940363880805
 20
-0.9955851219175661
 10
-0.1744063212866123
 20
-0.9966462891099576
 10
-0.1876759562813858
 20
-0.998363121169831
 10
-0.2099962668917054
 20
-1.001671457656344
  0
LINE
  5
B6
330
8E
100
AcDbEntity
  8
AM_9
100
AcDbLine
 10
-0.1423675708134558
 20
-0.9084758644256783
 30
0.0
 11
-0.141958509815605
 21
-0.922769408754154
 31
0.0
  0
LWPOLYLINE
  5
B7
330
8E
100
AcDbEntity
  8
AM_9
100
AcDbPolyline
 90
        3
 70
     0
 43
0.0
 10
-0.151074129835757
 20
-0.8545772957113703
 10
-0.145877822676052
 20
-0.8785106225989138
 10
-0.1428362259466562
 20
-0.9018582903735062
  0
LINE
  5
B8
330
8E
100
AcDbEntity
  8
AM_9
100
AcDbLine
 10
-0.1779904405914094
 20
-0.7713838493313158
 30
0.0
 11
-0.1765789831125443
 21
-0.7742058555423605
 31
0.0
  0
LWPOLYLINE
  5
B9
330
8E
100
AcDbEntity
  8
AM_9
100
AcDbPolyline
 90
        3
 70
     0
 43
0.0
 10
-0.2099962668917054
 20
-0.7204214576563437
 10
-0.1943573015029059
 20
-0.7429928542882338
 10
-0.185222335180083
 20
-0.7579958777347563
  0
LWPOLYLINE
  5
BA
330
8E
100
AcDbEntity
  8
AM_9
100
AcDbPolyline
 90
        4
 70
     0
 43
0.0
 10
-0.2258378743019627
 20
-0.7210526668938882
 10
-0.2189176876709015
 20
-0.7205103698475837
 10
-0.2138633349839128
 20
-0.7203309118621996
 10
-0.2099962668917054
 20
-0.7204214576563437
  0
LWPOLYLINE
  5
BB
330
8E
100
AcDbEntity
  8
AM_9
100
AcDbPolyline
 90
        3
 70
     0
 43
0.0
 10
-0.1429424089406951
 20
-0.9453549800726189
 10
-0.1441228263802215
 20
-0.9565953244229137
 10
-0.151074129835757
 20
-0.9952022957113703
  0
LINE
  5
BC
330
8E
100
AcDbEntity
  8
AM_9
100
AcDbLine
 10
-0.141958509815605
 20
-0.922769408754154
 30
0.0
 11
-0.1419724231121118
 21
-0.925416117268251
 31
0.0
  0
LWPOLYLINE
  5
BD
330
8E
100
AcDbEntity
  8
AM_9
100
AcDbPolyline
 90
        4
 70
     0
 43
0.0
 10
-0.1686743429350669
 20
-0.7917608507083047
 10
-0.1598729403210871
 20
-0.8167686897126437
 10
-0.1549033058439656
 20
-0.8356071719614787
 10
-0.151074129835757
 20
-0.8545772957113703
  0
LINE
  5
BE
330
8E
100
AcDbEntity
  8
AM_9
100
AcDbLine
 10
-0.1765789831125443
 20
-0.7742058555423605
 30
0.0
 11
-0.1689398960399683
 21
-0.7911125043682347
 31
0.0
  0
ELLIPSE
  5
BF
330
8E
100
AcDbEntity
  8
AM_9
100
AcDbEllipse
 10
-0.2013892028241875
 20
-0.8582702448373406
 30
0.0
 11
-0.03193085011438246
 21
0.1369518580960936
 31
0.0
210
0.0
220
0.0
230
1.0
 40
0.3659981507706644
 41
2.150416404658192
 42
6.139946939636901
  0
LWPOLYLINE
  5
C0
330
8E
100
AcDbEntity
  8
AM_9
100
AcDbPolyline
 90
        3
 70
     0
 43
0.0
 10
-0.3055458577949631
 20
-0.8228524949620338
 10
-0.3030753670497808
 20
-0.848922855181632
 10
-0.2987675689889718
 20
-0.8744750667254666
  0
LWPOLYLINE
  5
C1
330
8E
100
AcDbEntity
  8
AM_9
100
AcDbPolyline
 90
        4
 70
     0
 43
0.0
 10
-0.2602304684431209
 20
-0.7780679499247961
 10
-0.2616913382589203
 20
-0.7634112730526001
 10
-0.2647402074337707
 20
-0.7449547701127597
 10
-0.2689146070947222
 20
-0.7268897343505176
  0
LINE
  5
C2
330
8E
100
AcDbEntity
  8
AM_9
100
AcDbLine
 10
-0.2689146070947222
 20
-0.7268897343505176
 30
0.0
 11
-0.2987675689889718
 21
-0.7338500667254666
 31
0.0
  0
LWPOLYLINE
  5
C3
330
8E
100
AcDbEntity
  8
AM_9
100
AcDbPolyline
 90
        3
 70
     0
 43
0.0
 10
-0.2987675689889718
 20
-0.7338500667254666
 10
-0.3030606061861223
 20
-0.7612941224080118
 10
-0.3055458577949631
 20
-0.7886334064683195
  0
LINE
  5
C4
330
8E
100
AcDbEntity
  8
AM_9
100
AcDbLine
 10
-0.2711532636537957
 20
-0.7316181234374057
 30
0.0
 11
-0.2813919000363599
 21
-0.732753048956784
 31
0.0
  0
ELLIPSE
  5
C5
330
8E
100
AcDbEntity
  8
AM_9
100
AcDbEllipse
 10
-0.2467045921760208
 20
-0.8688357013808582
 30
0.0
 11
-0.03193085011438258
 21
0.1369518580960944
 31
0.0
210
0.0
220
0.0
230
1.0
 40
0.3659981507706653
 41
2.150416404658199
 42
6.139946939636895
  0
ELLIPSE
  5
C6
330
8E
100
AcDbEntity
  8
AM_9
100
AcDbEllipse
 10
-0.2467045921760188
 20
-0.8688357013808583
 30
0.0
 11
-0.03193085011438345
 21
0.136951858096097
 31
0.0
210
0.0
220
0.0
230
1.0
 40
0.3659981507706725
 41
1.173103475459664
 42
1.951156734850491
  0
LWPOLYLINE
  5
C7
330
8E
100
AcDbEntity
  8
AM_9
100
AcDbPolyline
 90
        3
 70
     0
 43
0.0
 10
-0.3055458577949631
 20
-0.7886334064683195
 10
-0.3064767622622302
 20
-0.8058698068452317
 10
-0.3055458577949631
 20
-0.8228524949620338
  0
ELLIPSE
  5
C8
330
8E
100
AcDbEntity
  8
AM_9
100
AcDbEllipse
 10
-0.2467045921760298
 20
-0.8688357013808524
 30
0.0
 11
-0.03193085011437593
 21
0.1369518580960858
 31
0.0
210
0.0
220
0.0
230
1.0
 40
0.3659981507706417
 41
0.0560213022649529
 42
0.8626327579757936
  0
LWPOLYLINE
  5
C9
330
8E
100
AcDbEntity
  8
AM_9
100
AcDbPolyline
 90
        3
 70
     0
 43
0.0
 10
-0.2467309133400622
 20
-0.9908239735120217
 10
-0.2465990683175645
 20
-0.9909154144149889
 10
-0.2457857934225071
 20
-0.9915215415965996
  0
LWPOLYLINE
  5
CA
330
8E
100
AcDbEntity
  8
AM_9
100
AcDbPolyline
 90
        4
 70
     0
 43
0.0
 10
-0.2518948508011383
 20
-0.9879623945819226
 10
-0.251493102326112
 20
-0.9881479758435369
 10
-0.2484555756846835
 20
-0.9897347332918962
 10
-0.2467309133400622
 20
-0.9908239735120217
  0
LWPOLYLINE
  5
CB
330
8E
100
AcDbEntity
  8
AM_9
100
AcDbPolyline
 90
       15
 70
     0
 43
0.0
 10
-0.3250087747067769
 20
-1.01003176096708
 10
-0.3247677973821188
 20
-1.009535857134567
 10
-0.3238092646178609
 20
-1.007864756188025
 10
-0.3219570277311473
 20
-1.005199660311214
 10
-0.3190193223200293
 20
-1.001739294149477
 10
-0.314810871220035
 20
-0.9977375650179663
 10
-0.3092033058093066
 20
-0.9935364394311207
 10
-0.3022193880735001
 20
-0.9895775796856924
 10
-0.2941281699320707
 20
-0.9863412545755768
 10
-0.28543473869798
 20
-0.9842038446109699
 10
-0.2767390171144971
 20
-0.9833162420546018
 10
-0.2686442297925203
 20
-0.9835873734882435
 10
-0.2615899600186098
 20
-0.9847341742393404
 10
-0.2558471711517064
 20
-0.9863795121213712
 10
-0.2518948508011383
 20
-0.9879623945819226
  0
LWPOLYLINE
  5
CC
330
8E
100
AcDbEntity
  8
AM_9
100
AcDbPolyline
 90
        4
 70
     0
 43
0.0
 10
-0.245724988250897
 20
-0.9915719609161051
 10
-0.2458978216544203
 20
-0.9914150719791145
 10
-0.2468312556035338
 20
-0.9904799913003015
 10
-0.2472616950672751
 20
-0.9900178126865483
  0
LWPOLYLINE
  5
CD
330
8E
100
AcDbEntity
  8
AM_9
100
AcDbPolyline
 90
        4
 70
     0
 43
0.0
 10
-0.3007304569720973
 20
-0.7601632035592516
 10
-0.3005022727171166
 20
-0.7594279571625477
 10
-0.3001326849042298
 20
-0.7583824306677936
 10
-0.3001080482840255
 20
-0.7583222637170428
  0
LWPOLYLINE
  5
CE
330
8E
100
AcDbEntity
  8
AM_9
100
AcDbPolyline
 90
       18
 70
     0
 43
0.0
 10
-0.3002457729762593
 20
-0.7586162317612571
 10
-0.3010207823869792
 20
-0.7600280198499559
 10
-0.3026455825933246
 20
-0.7624755400546177
 10
-0.3053102291033163
 20
-0.765768893831627
 10
-0.3092045152529829
 20
-0.7696701525042362
 10
-0.3144771840946873
 20
-0.7738606700591937
 10
-0.321151077800316
 20
-0.7779202967820209
 10
-0.3290198876304841
 20
-0.781367150268115
 10
-0.3376248121584901
 20
-0.7837863220089802
 10
-0.34637317845822
 20
-0.7849685737578219
 10
-0.3546550671680408
 20
-0.784950711857295
 10
-0.3619862218670315
 20
-0.7839784865106989
 10
-0.368052494220499
 20
-0.7824153509010707
 10
-0.3727318863930086
 20
-0.7806452588174455
 10
-0.3760688648636328
 20
-0.7789927098922212
 10
-0.3781910927292515
 20
-0.7776994370689267
 10
-0.3792390523893332
 20
-0.7769444945388976
 10
-0.3793773247848909
 20
-0.7768331452469792
  0
LINE
  5
CF
330
8E
100
AcDbEntity
  8
AM_9
100
AcDbLine
 10
-0.1771207715546619
 20
-0.739661692407327
 30
0.0
 11
-0.2263662233581052
 21
-0.7511434580599512
 31
0.0
  0
LINE
  5
D0
330
8E
100
AcDbEntity
  8
AM_9
100
AcDbLine
 10
-0.1764121822902709
 20
-0.9653970316147301
 30
0.0
 11
-0.1343592486638226
 21
-0.9555922291157818
 31
0.0
  0
LWPOLYLINE
  5
D1
330
8E
100
AcDbEntity
  8
AM_9
100
AcDbPolyline
 90
       12
 70
     0
 43
0.0
 10
-0.1198898850785794
 20
-0.8521665685343573
 10
-0.1208367673933812
 20
-0.846607393511457
 10
-0.1245107513506023
 20
-0.8287474551200027
 10
-0.1291842652280562
 20
-0.8109224816066245
 10
-0.1344729790611519
 20
-0.7945960564441001
 10
-0.1405186270901959
 20
-0.7793288727646307
 10
-0.1468270783017121
 20
-0.7663704784891934
 10
-0.1535654953592165
 20
-0.7553813720298788
 10
-0.1601799433259583
 20
-0.7472689428626642
 10
-0.1668493358980661
 20
-0.7418204774364151
 10
-0.1731116383367606
 20
-0.7394809397560724
 10
-0.1771125901748263
 20
-0.7396597853441619
  0
LWPOLYLINE
  5
D2
330
8E
100
AcDbEntity
  8
AM_9
100
AcDbPolyline
 90
       10
 70
     0
 43
0.0
 10
-0.1343659249938088
 20
-0.9555937854036101
 10
-0.1293028157827817
 20
-0.9529909671686273
 10
-0.1247141396218192
 20
-0.947417196040507
 10
-0.1208880884981781
 20
-0.938797239076489
 10
-0.1181545989145989
 20
-0.9278809914909218
 10
-0.1164278875396128
 20
-0.9143362126550239
 10
-0.1158549073091554
 20
-0.8993302713177412
 10
-0.1164156227038168
 20
-0.8824082867497737
 10
-0.1180609686233502
 20
-0.8650047030275384
 10
-0.1198898850785794
 20
-0.8521665685343573
  0
LINE
  5
D3
330
8E
100
AcDbEntity
  8
AM_9
100
AcDbLine
 10
-0.1771125901748263
 20
-0.7396597853441619
 30
0.0
 11
-0.1790373738502115
 21
-0.7403040540337612
 31
0.0
  0
LWPOLYLINE
  5
D4
330
8E
100
AcDbEntity
  8
AM_9
100
AcDbPolyline
 90
        3
 70
     0
 43
0.0
 10
-0.2689146070947222
 20
-0.8675147343505176
 10
-0.2634308483997528
 20
-0.8398909589556474
 10
-0.2602304684431305
 20
-0.8122870384185167
  0
LWPOLYLINE
  5
D5
330
8E
100
AcDbEntity
  8
AM_9
100
AcDbPolyline
 90
        5
 70
     0
 43
0.0
 10
-0.179037373850178
 20
-0.894695945966246
 10
-0.1733931390117467
 20
-0.9102099760063109
 10
-0.1670729780242511
 20
-0.9243579756306697
 10
-0.1606047421316796
 20
-0.935955943415793
 10
-0.1545846192101025
 20
-0.944399900517757
  0
ARC
  5
D6
330
8E
100
AcDbEntity
  8
AM_9
100
AcDbCircle
 10
0.0000000000000001
 20
-0.8174999999999998
 30
0.0
 40
0.1999999999999998
100
AcDbArc
 50
219.3508119930657
 51
0.0
  0
LWPOLYLINE
  5
D7
330
8E
100
AcDbEntity
  8
AM_9
100
AcDbPolyline
 90
        6
 70
     0
 43
0.0
 10
-0.1545846192101025
 20
-0.944399900517757
 10
-0.1538031670974777
 20
-0.9453348025402609
 10
-0.1472336073736393
 20
-0.9517120119604842
 10
-0.1407130262602576
 20
-0.9552617096381805
 10
-0.1347930597680667
 20
-0.9556842561041039
 10
-0.1343659249938088
 20
-0.9555937854036101
  0
LINE
  5
D8
330
8E
100
AcDbEntity
  8
AM_9
100
AcDbLine
 10
-0.2360765106845275
 20
-0.7221875924132665
 30
0.0
 11
-0.2258378743019627
 21
-0.7210526668938882
 31
0.0
  0
ELLIPSE
  5
D9
330
8E
100
AcDbEntity
  8
AM_9
100
AcDbEllipse
 10
-0.2013892028241865
 20
-0.8582702448373428
 30
0.0
 11
-0.03193085011438509
 21
0.1369518580960963
 31
0.0
210
0.0
220
0.0
230
1.0
 40
0.3659981507705724
 41
0.0560213022650045
 42
0.8626327579757245
  0
LINE
  5
DA
330
8E
100
AcDbEntity
  8
AM_9
100
AcDbLine
 10
-0.2602304684431305
 20
-0.8122870384185167
 30
0.0
 11
-0.2602304684431209
 21
-0.7780679499247961
 31
0.0
  0
ELLIPSE
  5
DB
330
8E
100
AcDbEntity
  8
AM_9
100
AcDbEllipse
 10
-0.2013892028241883
 20
-0.8582702448373405
 30
0.0
 11
-0.03193085011438246
 21
0.136951858096094
 31
0.0
210
0.0
220
0.0
230
1.0
 40
0.3659981507706676
 41
1.144545279139741
 42
1.951156734850499
  0
LWPOLYLINE
  5
DC
330
8E
100
AcDbEntity
  8
AM_9
100
AcDbPolyline
 90
        3
 70
     0
 43
0.0
 10
-0.2099962668917054
 20
-1.001671457656344
 10
-0.2163479371246913
 20
-0.9723391899756659
 10
-0.2258378743019629
 20
-0.9430574775994406
  0
LINE
  5
DD
330
8E
100
AcDbEntity
  8
AM_9
100
AcDbLine
 10
-0.2258378743019629
 20
-0.9430574775994406
 30
0.0
 11
-0.2360765106845277
 21
-0.919965725501071
 31
0.0
  0
LWPOLYLINE
  5
DE
330
8E
100
AcDbEntity
  8
AM_9
100
AcDbPolyline
 90
        4
 70
     0
 43
0.0
 10
-0.2360765106845277
 20
-0.919965725501071
 10
-0.2462091938631851
 20
-0.9014216112135014
 10
-0.2570505402207574
 20
-0.8842846905716821
 10
-0.2689146070947222
 20
-0.8675147343505176
  0
LINE
  5
DF
330
8E
100
AcDbEntity
  8
AM_9
100
AcDbLine
 10
-0.2689146070947222
 20
-0.8675147343505176
 30
0.0
 11
-0.2987675689889718
 21
-0.8744750667254666
 31
0.0
  0
LWPOLYLINE
  5
E0
330
8E
100
AcDbEntity
  8
AM_9
100
AcDbPolyline
 90
        3
 70
     0
 43
0.0
 10
-0.2987675689889718
 20
-0.8744750667254666
 10
-0.2912216284034025
 20
-0.9025761834951972
 10
-0.2813919000363599
 20
-0.9305311820445894
  0
LINE
  5
E1
330
8E
100
AcDbEntity
  8
AM_9
100
AcDbLine
 10
-0.2813919000363599
 20
-0.9305311820445894
 30
0.0
 11
-0.2711532636537957
 21
-0.9536229341429577
 31
0.0
  0
LWPOLYLINE
  5
E2
330
8E
100
AcDbEntity
  8
AM_9
100
AcDbPolyline
 90
        3
 70
     0
 43
0.0
 10
-0.2711532636537957
 20
-0.9536229341429577
 10
-0.2561815527589921
 20
-0.9813279367353348
 10
-0.2389369657326277
 20
-1.008419092407283
  0
LINE
  5
E3
330
8E
100
AcDbEntity
  8
AM_9
100
AcDbLine
 10
-0.2099962668917054
 20
-1.001671457656344
 30
0.0
 11
-0.2389369657326277
 21
-1.008419092407283
 31
0.0
  0
LWPOLYLINE
  5
E4
330
8E
100
AcDbEntity
  8
AM_9
100
AcDbPolyline
 90
        3
 70
     0
 43
0.0
 10
-0.0000000000000001
 20
-0.4798462998483071
 10
-0.0544416102741497
 20
-0.5037405676118846
 10
-0.109375
 20
-0.5299999999999998
  0
LWPOLYLINE
  5
E5
330
8E
100
AcDbEntity
  8
AM_9
100
AcDbPolyline
 90
        3
 70
     0
 43
0.0
 10
0.1093749999999999
 20
-0.5299999999999998
 10
0.0546874999999999
 20
-0.5038529403925172
 10
-0.0000000000000001
 20
-0.4798462998483071
  0
LWPOLYLINE
  5
E6
330
8E
100
AcDbEntity
  8
AM_9
100
AcDbPolyline
 90
        3
 70
     0
 43
0.0
 10
0.1093749999999999
 20
-0.5799999999999998
 10
0.1640624999999999
 20
-0.6061470596074825
 10
0.2187499999999999
 20
-0.6301537001516926
  0
LWPOLYLINE
  5
E7
330
8E
100
AcDbEntity
  8
AM_9
100
AcDbPolyline
 90
        3
 70
     0
 43
0.0
 10
-0.2187500000000001
 20
-0.6301537001516926
 10
-0.1643083897258504
 20
-0.6062594323881151
 10
-0.109375
 20
-0.5799999999999998
  0
LINE
  5
E8
330
8E
100
AcDbEntity
  8
AM_9
100
AcDbLine
 10
-0.0000000000000001
 20
-0.5207787001516927
 30
0.0
 11
-0.0000000000000001
 21
-0.4798462998483071
 31
0.0
  0
LWPOLYLINE
  5
E9
330
8E
100
AcDbEntity
  8
AM_9
100
AcDbPolyline
 90
        3
 70
     0
 43
0.0
 10
0.2187499999999999
 20
-0.5892212998483071
 10
0.1643083897258503
 20
-0.558673957337735
 10
0.1093749999999999
 20
-0.5299999999999998
  0
LWPOLYLINE
  5
EA
330
8E
100
AcDbEntity
  8
AM_9
100
AcDbPolyline
 90
        3
 70
     0
 43
0.0
 10
-0.109375
 20
-0.5299999999999998
 10
-0.1640625
 20
-0.5585404403925172
 10
-0.2187500000000001
 20
-0.5892212998483071
  0
ELLIPSE
  5
EB
330
8E
100
AcDbEntity
  8
AM_9
100
AcDbEllipse
 10
-0.0000000000000001
 20
-0.8174999999999999
 30
0.0
 11
-0.2
 21
2.449293598294706E-17
 31
0.0
210
0.0
220
0.0
230
1.0
 40
0.8660254037844392
 41
0.4619460205669661
 42
5.821239286612619
  0
LWPOLYLINE
  5
EC
330
8E
100
AcDbEntity
  8
AM_9
100
AcDbPolyline
 90
        7
 70
     0
 43
0.0
 10
-0.1790373738501784
 20
-0.8946959459662461
 10
-0.1842628795203941
 20
-0.8787012162956049
 10
-0.1891729979031393
 20
-0.862644458256412
 10
-0.1936098952159724
 20
-0.8458778251052953
 10
-0.1971856748420371
 20
-0.8284298087252536
 10
-0.1994144431868155
 20
-0.8109576332075926
 10
-0.1999999999699529
 20
-0.7972575590009698
  0
LINE
  5
ED
330
8E
100
AcDbEntity
  8
AM_9
100
AcDbLine
 10
-0.2
 20
-0.7440624999999997
 30
0.0
 11
-0.2
 21
-0.7973468854091476
 31
0.0
  0
LINE
  5
EE
330
8E
100
AcDbEntity
  8
AM_9
100
AcDbLine
 10
0.1999999999999999
 20
-0.8174999999999998
 30
0.0
 11
0.1999999999999999
 21
-0.7440624999999997
 31
0.0
  0
LWPOLYLINE
  5
EF
330
8E
100
AcDbEntity
  8
AM_9
100
AcDbPolyline
 90
        8
 70
     0
 43
0.0
 10
-0.1999999999699529
 20
-0.7972575590009698
 10
-0.1999786710855128
 20
-0.7947474927945716
 10
-0.1988321115509053
 20
-0.7794770462991153
 10
-0.1961649429984259
 20
-0.7665478285833821
 10
-0.1920694300574958
 20
-0.7554958498463313
 10
-0.1870948030566195
 20
-0.7472268040530576
 10
-0.181500594761393
 20
-0.7417034871441514
 10
-0.1790373738501785
 20
-0.7403040540337537
  0
LINE
  5
F0
330
8E
100
AcDbEntity
  8
AM_9
100
AcDbLine
 10
-0.2187500000000001
 20
-0.8489037001516927
 30
0.0
 11
-0.2187500000000001
 21
-0.5892212998483071
 31
0.0
  0
LWPOLYLINE
  5
F1
330
8E
100
AcDbEntity
  8
AM_9
100
AcDbPolyline
 90
        3
 70
     0
 43
0.0
 10
-0.109375
 20
-0.9081249999999997
 10
-0.1640625
 20
-0.8795845596074827
 10
-0.2187500000000001
 20
-0.8489037001516927
  0
LWPOLYLINE
  5
F2
330
8E
100
AcDbEntity
  8
AM_9
100
AcDbPolyline
 90
        3
 70
     0
 43
0.0
 10
-0.0000000000000001
 20
-0.9582787001516926
 10
-0.0544416102741496
 20
-0.9343844323881151
 10
-0.109375
 20
-0.9081249999999997
  0
LWPOLYLINE
  5
F3
330
8E
100
AcDbEntity
  8
AM_9
100
AcDbPolyline
 90
        3
 70
     0
 43
0.0
 10
-0.2187500000000001
 20
-0.8079712998483072
 10
-0.1643083897258505
 20
-0.8318655676118847
 10
-0.109375
 20
-0.8581249999999999
  0
LINE
  5
F4
330
8E
100
AcDbEntity
  8
AM_9
100
AcDbLine
 10
-0.0000000000000001
 20
-0.9582787001516926
 30
0.0
 11
-0.0000000000000001
 21
-0.917346299848307
 31
0.0
  0
LWPOLYLINE
  5
F5
330
8E
100
AcDbEntity
  8
AM_9
100
AcDbPolyline
 90
        3
 70
     0
 43
0.0
 10
0.1093749999999999
 20
-0.9081249999999997
 10
0.0546874999999999
 20
-0.9342720596074825
 10
-0.0000000000000001
 20
-0.9582787001516926
  0
LWPOLYLINE
  5
F6
330
8E
100
AcDbEntity
  8
AM_9
100
AcDbPolyline
 90
        3
 70
     0
 43
0.0
 10
0.2187499999999999
 20
-0.8489037001516927
 10
0.1643083897258503
 20
-0.8794510426622646
 10
0.1093749999999999
 20
-0.9081249999999997
  0
LINE
  5
F7
330
8E
100
AcDbEntity
  8
AM_9
100
AcDbLine
 10
0.2187499999999999
 20
-0.8489037001516927
 30
0.0
 11
0.2187499999999999
 21
-0.5892212998483071
 31
0.0
  0
LWPOLYLINE
  5
F8
330
8E
100
AcDbEntity
  8
AM_9
100
AcDbPolyline
 90
        3
 70
     0
 43
0.0
 10
0.1093749999999999
 20
-0.8581249999999999
 10
0.1640624999999999
 20
-0.8319779403925172
 10
0.2187499999999999
 20
-0.8079712998483072
  0
LWPOLYLINE
  5
F9
330
8E
100
AcDbEntity
  8
AM_9
100
AcDbPolyline
 90
        3
 70
     0
 43
0.0
 10
-0.109375
 20
-0.8581249999999999
 10
-0.0546875000000001
 20
-0.8866654403925172
 10
-0.0000000000000001
 20
-0.917346299848307
  0
LWPOLYLINE
  5
FA
330
8E
100
AcDbEntity
  8
AM_9
100
AcDbPolyline
 90
        3
 70
     0
 43
0.0
 10
-0.0000000000000001
 20
-0.917346299848307
 10
0.0544416102741495
 20
-0.8867989573377351
 10
0.1093749999999999
 20
-0.8581249999999999
  0
LINE
  5
FB
330
8E
100
AcDbEntity
  8
AM_9
100
AcDbLine
 10
-0.2
 20
-0.6549999999999998
 30
0.0
 11
-0.2
 21
-0.6940624999999998
 31
0.0
  0
LINE
  5
FC
330
8E
100
AcDbEntity
  8
AM_9
100
AcDbLine
 10
0.1999999999999999
 20
-0.6940624999999999
 30
0.0
 11
0.1999999999999999
 21
-0.6549999999999998
 31
0.0
  0
LINE
  5
FD
330
8E
100
AcDbEntity
  8
AM_9
100
AcDbLine
 10
-0.1851454569549801
 20
-0.5488099125707269
 30
0.0
 11
-0.1912304659644924
 21
-0.646022462287446
 31
0.0
  0
LINE
  5
FE
330
8E
100
AcDbEntity
  8
AM_9
100
AcDbLine
 10
0.1912304659644923
 20
-0.646022462287446
 30
0.0
 11
0.18514545695498
 21
-0.5488099125707269
 31
0.0
  0
ELLIPSE
  5
FF
330
8E
100
AcDbEntity
  8
AM_9
100
AcDbEllipse
 10
-0.3729962569746642
 20
-0.8982810866092337
 30
0.0
 11
-0.03024351534849239
 21
0.1297148559307579
 31
0.0
210
0.0
220
0.0
230
1.0
 40
0.3659981507706673
 41
0.0
 42
6.283185307179586
  0
ELLIPSE
  5
100
330
8E
100
AcDbEntity
  8
AM_9
100
AcDbEllipse
 10
-0.2013892028241881
 20
-0.8582702448373406
 30
0.0
 11
-0.02497702053391707
 21
0.1071267867773893
 31
0.0
210
0.0
220
0.0
230
1.0
 40
0.3659981507706673
 41
0.0
 42
6.283185307179586
  0
ELLIPSE
  5
101
330
8E
100
AcDbEntity
  8
AM_9
100
AcDbEllipse
 10
-0.0000000000000002
 20
-0.7440624999999997
 30
0.0
 11
-0.1999999999999998
 21
2.980232263262465E-9
 31
0.0
210
0.0
220
0.0
230
1.0
 40
0.8660254037844395
 41
0.0
 42
6.283185307179586
  0
ELLIPSE
  5
102
330
8E
100
AcDbEntity
  8
AM_9
100
AcDbEllipse
 10
0.0
 20
-0.7440625000000006
 30
0.0
 11
-0.2187499999999992
 21
2.678914873134825E-17
 31
0.0
210
0.0
220
0.0
230
1.0
 40
0.8660254037844382
 41
0.0
 42
6.283185307179586
  0
ELLIPSE
  5
103
330
8E
100
AcDbEntity
  8
AM_9
100
AcDbEllipse
 10
-0.0000000000000001
 20
-0.6940625000000004
 30
0.0
 11
-0.2187499999999997
 21
3.259629037943318E-9
 31
0.0
210
0.0
220
0.0
230
1.0
 40
0.8660254037844377
 41
0.0
 42
6.283185307179586
  0
ELLIPSE
  5
104
330
8E
100
AcDbEntity
  8
AM_9
100
AcDbEllipse
 10
-0.0000000000000001
 20
-0.6940624999999998
 30
0.0
 11
-0.1999999999999999
 21
2.449293598294705E-17
 31
0.0
210
0.0
220
0.0
230
1.0
 40
0.8660254037844384
 41
0.0
 42
6.283185307179586
  0
ELLIPSE
  5
105
330
8E
100
AcDbEntity
  8
AM_9
100
AcDbEllipse
 10
-0.0000000000000001
 20
-0.6549999999999998
 30
0.0
 11
-0.2
 21
2.449293598294707E-17
 31
0.0
210
0.0
220
0.0
230
1.0
 40
0.8660254037844384
 41
0.0
 42
6.283185307179586
  0
ELLIPSE
  5
106
330
8E
100
AcDbEntity
  8
AM_9
100
AcDbEllipse
 10
-0.0000000000000001
 20
-0.655
 30
0.0
 11
-0.1915112338502294
 21
2.345336195354436E-17
 31
0.0
210
0.0
220
0.0
230
1.0
 40
0.8660254037844384
 41
0.0
 42
6.283185307179586
  0
ELLIPSE
  5
107
330
8E
100
AcDbEntity
  8
AM_9
100
AcDbEllipse
 10
0.0000000000000001
 20
-0.5575017824238808
 30
0.0
 11
-0.185417290724986
 21
2.270706915929284E-17
 31
0.0
210
0.0
220
0.0
230
1.0
 40
0.8660254037844388
 41
0.0
 42
6.283185307179586
  0
ELLIPSE
  5
108
330
8E
100
AcDbEntity
  8
AM_9
100
AcDbEllipse
 10
-0.0000000000000001
 20
-0.5456249999999999
 30
0.0
 11
-0.1616637258772238
 21
1.979809644337772E-17
 31
0.0
210
0.0
220
0.0
230
1.0
 40
0.8660254037844389
 41
0.0
 42
6.283185307179586
  0
ELLIPSE
  5
10A
330
8E
100
AcDbEntity
  8
AM_4
100
AcDbEllipse
 10
-0.4687500000000001
 20
-0.920606438444094
 30
0.0
 11
-0.02349716402074603
 21
0.100779661709676
 31
0.0
210
0.0
220
0.0
230
1.0
 40
0.3659981507706662
 41
0.2287771952968587
 42
1.778400841818647
  0
ENDBLK
  5
91
330
8E
100
AcDbEntity
  8
0
100
AcDbBlockEnd
  0
BLOCK
  5
10D
330
10B
100
AcDbEntity
  8
0
100
AcDbBlockBegin
  2
3_131904_0_in_131154_2
 70
     2
 10
0.0
 20
0.0
 30
0.0
  3
3_131904_0_in_131154_2
  1

  0
ATTDEF
  5
10F
330
10B
100
AcDbEntity
  8
AM_6
100
AcDbText
 10
5.5
 20
0.9243813370252331
 30
0.0
 40
0.5
  1
Eccentric Collar Insert Inch Bore
100
AcDbAttributeDefinition
  3

  2
NN
 70
     8
280
     0
  0
ATTDEF
  5
110
330
10B
100
AcDbEntity
  8
AM_6
100
AcDbText
 10
5.5
 20
0.4243813370252331
 30
0.0
 40
0.5
  1
SXR Normal Duty Bearing Inserts
100
AcDbAttributeDefinition
  3

  2
NT
 70
     8
280
     0
  0
ATTDEF
  5
111
330
10B
100
AcDbEntity
  8
AM_6
100
AcDbText
 10
5.5
 20
-0.0756186629747669
 30
0.0
 40
0.5
  1
131904
100
AcDbAttributeDefinition
  3

  2
NB
 70
     8
280
     0
  0
ATTDEF
  5
112
330
10B
100
AcDbEntity
  8
AM_6
100
AcDbText
 10
5.5
 20
-0.5756186629747669
 30
0.0
 40
0.5
  1
$PN.
100
AcDbAttributeDefinition
  3

  2
NBSYN
 70
     8
280
     0
  0
ATTDEF
  5
113
330
10B
100
AcDbEntity
  8
AM_6
100
AcDbText
 10
5.5
 20
-1.075618662974767
 30
0.0
 40
0.5
  1
131904
100
AcDbAttributeDefinition
  3

  2
LINA
 70
     8
280
     0
  0
ATTDEF
  5
114
330
10B
100
AcDbEntity
  8
AM_6
100
AcDbText
 10
5.5
 20
-1.575618662974767
 30
0.0
 40
0.5
  1
204
100
AcDbAttributeDefinition
  3

  2
SERIES
 70
     8
280
     0
  0
ATTDEF
  5
115
330
10B
100
AcDbEntity
  8
AM_6
100
AcDbText
 10
5.5
 20
-2.075618662974767
 30
0.0
 40
0.5
  1
3/4
100
AcDbAttributeDefinition
  3

  2
SS
 70
     8
280
     0
  0
ATTDEF
  5
116
330
10B
100
AcDbEntity
  8
AM_6
100
AcDbText
 10
5.5
 20
-2.575618662974767
 30
0.0
 40
0.5
  1
131904
100
AcDbAttributeDefinition
  3

  2
PN
 70
     8
280
     0
  0
ATTDEF
  5
117
330
10B
100
AcDbEntity
  8
AM_6
100
AcDbText
 10
5.5
 20
-3.075618662974767
 30
0.0
 40
0.5
  1
INS-SXR-012
100
AcDbAttributeDefinition
  3

  2
DESCRIPTION
 70
     8
280
     0
  0
ATTDEF
  5
118
330
10B
100
AcDbEntity
  8
AM_6
100
AcDbText
 10
5.5
 20
-3.575618662974767
 30
0.0
 40
0.5
  1
0.5
100
AcDbAttributeDefinition
  3

  2
WEIGHT
 70
     8
280
     0
  0
ATTDEF
  5
119
330
10B
100
AcDbEntity
  8
AM_6
100
AcDbText
 10
5.5
 20
-4.075618662974767
 30
0.0
 40
0.5
  1
1.55
100
AcDbAttributeDefinition
  3

  2
A
 70
     8
280
     0
  0
ATTDEF
  5
11A
330
10B
100
AcDbEntity
  8
AM_6
100
AcDbText
 10
5.5
 20
-4.575618662974767
 30
0.0
 40
0.5
  1
0.58
100
AcDbAttributeDefinition
  3

  2
C
 70
     8
280
     0
  0
ATTDEF
  5
11B
330
10B
100
AcDbEntity
  8
AM_6
100
AcDbText
 10
5.5
 20
-5.075618662974767
 30
0.0
 40
0.5
  1
1.8504
100
AcDbAttributeDefinition
  3

  2
D
 70
     8
280
     0
  0
ATTDEF
  5
11C
330
10B
100
AcDbEntity
  8
AM_6
100
AcDbText
 10
5.5
 20
-5.575618662974767
 30
0.0
 40
0.5
  1
0.15
100
AcDbAttributeDefinition
  3

  2
J
 70
     8
280
     0
  0
ATTDEF
  5
11D
330
10B
100
AcDbEntity
  8
AM_6
100
AcDbText
 10
5.5
 20
-6.075618662974767
 30
0.0
 40
0.5
  1
1.31
100
AcDbAttributeDefinition
  3

  2
L
 70
     8
280
     0
  0
ATTDEF
  5
11E
330
10B
100
AcDbEntity
  8
AM_6
100
AcDbText
 10
5.5
 20
-6.575618662974767
 30
0.0
 40
0.5
  1
1/4 - 28
100
AcDbAttributeDefinition
  3

  2
N
 70
     8
280
     0
  0
ATTDEF
  5
11F
330
10B
100
AcDbEntity
  8
AM_6
100
AcDbText
 10
5.5
 20
-7.075618662974767
 30
0.0
 40
0.5
  1
0.50
100
AcDbAttributeDefinition
  3

  2
W
 70
     8
280
     0
  0
ATTDEF
  5
120
330
10B
100
AcDbEntity
  8
AM_6
100
AcDbText
 10
5.5
 20
-7.575618662974767
 30
0.0
 40
0.5
  1
1.05
100
AcDbAttributeDefinition
  3

  2
Y
 70
     8
280
     0
  0
ATTDEF
  5
121
330
10B
100
AcDbEntity
  8
AM_6
100
AcDbText
 10
5.5
 20
-8.075618662974767
 30
0.0
 40
0.5
  1
1.12
100
AcDbAttributeDefinition
  3

  2
Z
 70
     8
280
     0
  0
ATTDEF
  5
122
330
10B
100
AcDbEntity
  8
AM_6
100
AcDbText
 10
5.5
 20
-8.575618662974767
 30
0.0
 40
0.5
  1
baldor
100
AcDbAttributeDefinition
  3

  2
COMPANY
 70
     8
280
     0
  0
ARC
  5
123
330
10B
100
AcDbEntity
  8
AM_9
100
AcDbCircle
 10
0.15
 20
-0.8793666666666657
 30
0.0
 40
0.0833333333333342
100
AcDbArc
 50
210.6733455448023
 51
348.6870355633705
  0
LINE
  5
124
330
10B
100
AcDbEntity
  8
AM_9
100
AcDbLine
 10
-1.0384
 20
-0.3750000000000001
 30
0.0
 11
-0.6832024386617641
 21
-0.3750000000000001
 31
0.0
  0
LINE
  5
125
330
10B
100
AcDbEntity
  8
AM_9
100
AcDbLine
 10
-0.6832024386617641
 20
0.3750000000000001
 30
0.0
 11
-1.0384
 21
0.3750000000000001
 31
0.0
  0
LINE
  5
126
330
10B
100
AcDbEntity
  8
AM_9
100
AcDbLine
 10
-0.6667975613382362
 20
-0.3749999999999999
 30
0.0
 11
0.4883999999999999
 21
-0.3749999999999999
 31
0.0
  0
LINE
  5
127
330
10B
100
AcDbEntity
  8
AM_9
100
AcDbLine
 10
0.4883999999999999
 20
0.3749999999999999
 30
0.0
 11
-0.6667975613382362
 21
0.3749999999999999
 31
0.0
  0
LINE
  5
128
330
10B
100
AcDbEntity
  8
AM_9
100
AcDbLine
 10
-0.6832024386617641
 20
0.3750000000000001
 30
0.0
 11
-0.6832024386617641
 21
-0.3750000000000001
 31
0.0
  0
LINE
  5
129
330
10B
100
AcDbEntity
  8
AM_9
100
AcDbLine
 10
-0.6832024386617641
 20
-0.3750000000000001
 30
0.0
 11
-0.675
 21
-0.3832024386617639
 31
0.0
  0
LINE
  5
12A
330
10B
100
AcDbEntity
  8
AM_9
100
AcDbLine
 10
-0.675
 20
0.3832024386617639
 30
0.0
 11
-0.6832024386617641
 21
0.3750000000000001
 31
0.0
  0
LINE
  5
12B
330
10B
100
AcDbEntity
  8
AM_9
100
AcDbLine
 10
-0.6667975613382362
 20
0.3750000000000001
 30
0.0
 11
-0.6667975613382362
 21
-0.3750000000000001
 31
0.0
  0
LINE
  5
12C
330
10B
100
AcDbEntity
  8
AM_9
100
AcDbLine
 10
-0.675
 20
0.3832024386617639
 30
0.0
 11
-0.675
 21
-0.3832024386617639
 31
0.0
  0
LINE
  5
12D
330
10B
100
AcDbEntity
  8
AM_9
100
AcDbLine
 10
-0.6667975613382362
 20
0.3750000000000001
 30
0.0
 11
-0.675
 21
0.3832024386617639
 31
0.0
  0
LINE
  5
12E
330
10B
100
AcDbEntity
  8
AM_9
100
AcDbLine
 10
-0.675
 20
-0.3832024386617639
 30
0.0
 11
-0.6667975613382362
 21
-0.3750000000000001
 31
0.0
  0
LINE
  5
12F
330
10B
100
AcDbEntity
  8
AM_9
100
AcDbLine
 10
0.4883999999999999
 20
-0.3749999999999999
 30
0.0
 11
0.5
 21
-0.3866
 31
0.0
  0
LINE
  5
130
330
10B
100
AcDbEntity
  8
AM_9
100
AcDbLine
 10
0.5
 20
0.3866
 30
0.0
 11
0.4883999999999999
 21
0.3749999999999999
 31
0.0
  0
LINE
  5
131
330
10B
100
AcDbEntity
  8
AM_9
100
AcDbLine
 10
-1.0384
 20
0.3750000000000001
 30
0.0
 11
-1.0384
 21
-0.3750000000000001
 31
0.0
  0
LINE
  5
132
330
10B
100
AcDbEntity
  8
AM_9
100
AcDbLine
 10
-1.0384
 20
0.3750000000000001
 30
0.0
 11
-1.05
 21
0.3866000000000001
 31
0.0
  0
LINE
  5
133
330
10B
100
AcDbEntity
  8
AM_9
100
AcDbLine
 10
-1.05
 20
-0.3866000000000001
 30
0.0
 11
-1.0384
 21
-0.3750000000000001
 31
0.0
  0
LINE
  5
134
330
10B
100
AcDbEntity
  8
AM_9
100
AcDbLine
 10
0.29
 20
-0.5599999999999999
 30
0.0
 11
0.4883999999999999
 21
-0.5599999999999999
 31
0.0
  0
LINE
  5
135
330
10B
100
AcDbEntity
  8
AM_9
100
AcDbLine
 10
0.4883999999999999
 20
0.5599999999999999
 30
0.0
 11
0.29
 21
0.5599999999999999
 31
0.0
  0
LINE
  5
136
330
10B
100
AcDbEntity
  8
AM_9
100
AcDbLine
 10
0.4883999999999999
 20
0.56
 30
0.0
 11
0.4883999999999999
 21
-0.56
 31
0.0
  0
LINE
  5
137
330
10B
100
AcDbEntity
  8
AM_9
100
AcDbLine
 10
0.5
 20
0.5484
 30
0.0
 11
0.4883999999999999
 21
0.56
 31
0.0
  0
LINE
  5
138
330
10B
100
AcDbEntity
  8
AM_9
100
AcDbLine
 10
0.4883999999999999
 20
-0.56
 30
0.0
 11
0.5
 21
-0.5484
 31
0.0
  0
LINE
  5
139
330
10B
100
AcDbEntity
  8
AM_9
100
AcDbLine
 10
-0.5
 20
-0.5599999999999999
 30
0.0
 11
-0.29
 21
-0.5599999999999999
 31
0.0
  0
LINE
  5
13A
330
10B
100
AcDbEntity
  8
AM_9
100
AcDbLine
 10
-0.29
 20
0.5599999999999999
 30
0.0
 11
-0.5
 21
0.5599999999999999
 31
0.0
  0
LINE
  5
13B
330
10B
100
AcDbEntity
  8
AM_9
100
AcDbLine
 10
-0.6
 20
0.3407345007480095
 30
0.0
 11
-0.6
 21
-0.3407345007479962
 31
0.0
  0
LINE
  5
13C
330
10B
100
AcDbEntity
  8
AM_9
100
AcDbLine
 10
-0.5884
 20
0.3603962263953321
 30
0.0
 11
-0.5884
 21
-0.3603962263953189
 31
0.0
  0
LINE
  5
13D
330
10B
100
AcDbEntity
  8
AM_9
100
AcDbLine
 10
-0.65625
 20
0.2131570723668196
 30
0.0
 11
-0.65625
 21
-0.2131570723668064
 31
0.0
  0
LINE
  5
13E
330
10B
100
AcDbEntity
  8
AM_9
100
AcDbLine
 10
-0.625
 20
0.2923610781208651
 30
0.0
 11
-0.625
 21
-0.2923610781208519
 31
0.0
  0
LINE
  5
13F
330
10B
100
AcDbEntity
  8
AM_9
100
AcDbLine
 10
-0.18
 20
-0.8811428571428565
 30
0.0
 11
-0.12
 21
-0.8811428571428565
 31
0.0
  0
LINE
  5
140
330
10B
100
AcDbEntity
  8
AM_9
100
AcDbLine
 10
-0.12
 20
0.8811428571428565
 30
0.0
 11
-0.18
 21
0.8811428571428565
 31
0.0
  0
LINE
  5
141
330
10B
100
AcDbEntity
  8
AM_9
100
AcDbLine
 10
-0.29
 20
0.8616389963319904
 30
0.0
 11
-0.29
 21
-0.8616389963290076
 31
0.0
  0
ARC
  5
142
330
10B
100
AcDbEntity
  8
AM_9
100
AcDbCircle
 10
-0.2667999999999997
 20
-0.8616389963319903
 30
0.0
 40
0.0232000000000003
100
AcDbArc
 50
180.0
 51
252.7952562926708
  0
ARC
  5
143
330
10B
100
AcDbEntity
  8
AM_9
100
AcDbCircle
 10
-0.2667999999999997
 20
0.8616389963319903
 30
0.0
 40
0.0232000000000003
100
AcDbArc
 50
107.2047437073293
 51
180.0
  0
LINE
  5
144
330
10B
100
AcDbEntity
  8
AM_9
100
AcDbLine
 10
0.29
 20
0.8616389963319906
 30
0.0
 11
0.29
 21
-0.8616389963290079
 31
0.0
  0
ARC
  5
145
330
10B
100
AcDbEntity
  8
AM_9
100
AcDbCircle
 10
0.2668000000000005
 20
-0.861638996331991
 30
0.0
 40
0.0231999999999994
100
AcDbArc
 50
287.2047437073271
 51
0.0
  0
ARC
  5
146
330
10B
100
AcDbEntity
  8
AM_9
100
AcDbCircle
 10
0.2668000000000005
 20
0.861638996331991
 30
0.0
 40
0.0231999999999995
100
AcDbArc
 50
0.0
 51
72.79525629267287
  0
LINE
  5
147
330
10B
100
AcDbEntity
  8
AM_9
100
AcDbLine
 10
-0.2736622616407985
 20
0.88380088625982
 30
0.0
 11
-0.2736622616407985
 21
-0.883800886259784
 31
0.0
  0
LINE
  5
148
330
10B
100
AcDbEntity
  8
AM_9
100
AcDbLine
 10
-0.18
 20
0.9075213716491751
 30
0.0
 11
-0.18
 21
-0.907521371649139
 31
0.0
  0
ARC
  5
149
330
10B
100
AcDbEntity
  8
AM_9
100
AcDbCircle
 10
0.0000000000062894
 20
0.0000000000248737
 30
0.0
 40
0.9252000000255867
100
AcDbArc
 50
252.795256292755
 51
258.7814152154068
  0
ARC
  5
14A
330
10B
100
AcDbEntity
  8
AM_9
100
AcDbCircle
 10
0.0000000000062919
 20
-0.0000000000248827
 30
0.0
 40
0.9252000000255961
100
AcDbArc
 50
101.2185847845933
 51
107.204743707245
  0
LINE
  5
14B
330
10B
100
AcDbEntity
  8
AM_9
100
AcDbLine
 10
-0.1200000000000001
 20
0.917384891961929
 30
0.0
 11
-0.1200000000000001
 21
-0.9173848919619296
 31
0.0
  0
LINE
  5
14C
330
10B
100
AcDbEntity
  8
AM_9
100
AcDbLine
 10
0.2317141913581029
 20
-0.8957140020806101
 30
0.0
 11
0.0783258594003398
 21
-0.9218785710434977
 31
0.0
  0
LINE
  5
14D
330
10B
100
AcDbEntity
  8
AM_9
100
AcDbLine
 10
0.2736622616407982
 20
0.88380088625982
 30
0.0
 11
0.2736622616407982
 21
-0.883800886259821
 31
0.0
  0
ARC
  5
14E
330
10B
100
AcDbEntity
  8
AM_9
100
AcDbCircle
 10
0.0000000000000024
 20
-0.0000000000000814
 30
0.0
 40
0.9251999999999203
100
AcDbArc
 50
262.5476457552997
 51
274.8563760927485
  0
ARC
  5
14F
330
10B
100
AcDbEntity
  8
AM_9
100
AcDbCircle
 10
0.000000000000377
 20
-0.0000000000013732
 30
0.0
 40
0.9251999999985777
100
AcDbArc
 50
284.5040050154231
 51
287.2047437073307
  0
ARC
  5
150
330
10B
100
AcDbEntity
  8
AM_9
100
AcDbCircle
 10
0.0000000000000035
 20
0.0000000000000345
 30
0.0
 40
0.9251999999999669
100
AcDbArc
 50
72.79525629267167
 51
97.45235424470003
  0
ARC
  5
152
330
10B
100
AcDbEntity
  8
AM_5
100
AcDbCircle
 10
-0.8625
 20
-0.0000000000000002
 30
0.0
 40
0.1250000000000001
100
AcDbArc
 50
75.00000000000006
 51
15.00000000000002
  0
LINE
  5
155
330
10B
100
AcDbEntity
  8
AM_7
100
AcDbLine
 10
-0.8625
 20
-0.113505
 30
0.0
 11
-0.8625
 21
0.113505
 31
0.0
  0
LINE
  5
156
330
10B
100
AcDbEntity
  8
AM_7
100
AcDbLine
 10
0.15
 20
-0.539865
 30
0.0
 11
0.15
 21
-0.982835
 31
0.0
  0
LINE
  5
157
330
10B
100
AcDbEntity
  8
AM_4
100
AcDbLine
 10
-0.625
 20
-0.5333333333333333
 30
0.0
 11
-0.6
 21
-0.5333333333333333
 31
0.0
  0
LINE
  5
158
330
10B
100
AcDbEntity
  8
AM_4
100
AcDbLine
 10
-0.6
 20
0.5333333333333333
 30
0.0
 11
-0.625
 21
0.5333333333333333
 31
0.0
  0
LINE
  5
159
330
10B
100
AcDbEntity
  8
AM_4
100
AcDbLine
 10
-0.5884
 20
-0.5599999999999999
 30
0.0
 11
-0.5
 21
-0.5599999999999999
 31
0.0
  0
LINE
  5
15A
330
10B
100
AcDbEntity
  8
AM_4
100
AcDbLine
 10
-0.5
 20
0.5599999999999999
 30
0.0
 11
-0.5884
 21
0.5599999999999999
 31
0.0
  0
LINE
  5
15B
330
10B
100
AcDbEntity
  8
AM_4
100
AcDbLine
 10
-0.6
 20
-0.3407345007479962
 30
0.0
 11
-0.6
 21
-0.5484
 31
0.0
  0
LINE
  5
15C
330
10B
100
AcDbEntity
  8
AM_4
100
AcDbLine
 10
-0.6
 20
0.5484
 30
0.0
 11
-0.6
 21
0.3407345007480095
 31
0.0
  0
LINE
  5
15D
330
10B
100
AcDbEntity
  8
AM_4
100
AcDbLine
 10
-0.5884
 20
-0.3603962263953189
 30
0.0
 11
-0.5884
 21
-0.56
 31
0.0
  0
LINE
  5
15E
330
10B
100
AcDbEntity
  8
AM_4
100
AcDbLine
 10
-0.5884
 20
0.56
 30
0.0
 11
-0.5884
 21
0.3603962263953321
 31
0.0
  0
LINE
  5
15F
330
10B
100
AcDbEntity
  8
AM_4
100
AcDbLine
 10
-0.6
 20
-0.5484
 30
0.0
 11
-0.5884
 21
-0.56
 31
0.0
  0
LINE
  5
160
330
10B
100
AcDbEntity
  8
AM_4
100
AcDbLine
 10
-0.5884
 20
0.56
 30
0.0
 11
-0.6
 21
0.5484
 31
0.0
  0
CIRCLE
  5
161
330
10B
100
AcDbEntity
  8
AM_4
100
AcDbCircle
 10
-0.8625
 20
0.0
 30
0.0
 40
0.1081
  0
LWPOLYLINE
  5
162
330
10B
100
AcDbEntity
  8
AM_4
100
AcDbPolyline
 90
       39
 70
     0
 43
0.0
 10
-0.7814406891747032
 20
0.0784719454576382
 10
-0.7697552305019654
 20
0.0665354562081564
 10
-0.7599899468344251
 20
0.0529808526607478
 10
-0.7517285103002617
 20
0.0361575648819722
 10
-0.7466192990603648
 20
0.0181122142246951
 10
-0.7449793031914965
 20
0.0008565636846506
 10
-0.7463232150224217
 20
-0.0164250826640727
 10
-0.7504082737360341
 20
-0.032539366364042
 10
-0.7570236077548482
 20
-0.0477785866994178
 10
-0.7662528994951787
 20
-0.0621581266240563
 10
-0.7775974330822847
 20
-0.0749295354316913
 10
-0.791796576125447
 20
-0.0865809207927604
 10
-0.8076428061810931
 20
-0.0958983143802409
 10
-0.8260939413885509
 20
-0.1031215617815211
 10
-0.8454759235730298
 20
-0.1073411263033789
 10
-0.8662181145675343
 20
-0.1084256841114138
 10
-0.8868577886310921
 20
-0.1061242667148035
 10
-0.9070662400554861
 20
-0.1003417526165644
 10
-0.9259834182528485
 20
-0.0912396838016757
 10
-0.9427206285415284
 20
-0.079185334295827
 10
-0.9570412874742986
 20
-0.0643591803757438
 10
-0.9677739121357367
 20
-0.0481225568444685
 10
-0.9753734633550614
 20
-0.0301927221075011
 10
-0.9791998754257165
 20
-0.0127863421525357
 10
-0.9799112187570267
 20
0.0050275359897565
 10
-0.9776609713916592
 20
0.0216067864626192
 10
-0.9727272398464742
 20
0.0375849056297264
 10
-0.9652154125861462
 20
0.0526254364708853
 10
-0.9554510013657775
 20
0.0663007581497703
 10
-0.9429020660974202
 20
0.0790360465406116
 10
-0.9285292629942669
 20
0.0896840634940819
 10
-0.9113636542534687
 20
0.0986200270856102
 10
-0.8929875840074626
 20
0.1047600781560235
 10
-0.8727282647769719
 20
0.1080670893566099
 10
-0.8521930197281221
 20
0.1080707175616952
 10
-0.8314716155874415
 20
0.1046126623020784
 10
-0.8116355302323709
 20
0.0977607737421991
 10
-0.7958025902161526
 20
0.0892530424191967
 10
-0.7814406891747033
 20
0.0784719454576383
  0
LINE
  5
163
330
10B
100
AcDbEntity
  8
AM_4
100
AcDbLine
 10
-1.01875
 20
-0.655
 30
0.0
 11
-0.65625
 21
-0.655
 31
0.0
  0
LINE
  5
164
330
10B
100
AcDbEntity
  8
AM_4
100
AcDbLine
 10
-0.65625
 20
0.655
 30
0.0
 11
-1.01875
 21
0.655
 31
0.0
  0
LINE
  5
165
330
10B
100
AcDbEntity
  8
AM_4
100
AcDbLine
 10
-0.65625
 20
-0.2131570723668064
 30
0.0
 11
-0.65625
 21
-0.655
 31
0.0
  0
LINE
  5
166
330
10B
100
AcDbEntity
  8
AM_4
100
AcDbLine
 10
-0.65625
 20
0.655
 30
0.0
 11
-0.65625
 21
0.2131570723668196
 31
0.0
  0
LINE
  5
167
330
10B
100
AcDbEntity
  8
AM_4
100
AcDbLine
 10
-0.625
 20
-0.2923610781208519
 30
0.0
 11
-0.625
 21
-0.6237499999863739
 31
0.0
  0
LINE
  5
168
330
10B
100
AcDbEntity
  8
AM_4
100
AcDbLine
 10
-0.625
 20
0.62375
 30
0.0
 11
-0.625
 21
0.2923610781208651
 31
0.0
  0
ARC
  5
169
330
10B
100
AcDbEntity
  8
AM_4
100
AcDbCircle
 10
-0.6562500000000003
 20
-0.6237499999999996
 30
0.0
 40
0.0312500000000004
100
AcDbArc
 50
270.0
 51
0.0
  0
ARC
  5
16A
330
10B
100
AcDbEntity
  8
AM_4
100
AcDbCircle
 10
-0.6562500000000003
 20
0.6237499999999996
 30
0.0
 40
0.0312500000000003
100
AcDbArc
 50
0.0
 51
90.0
  0
LINE
  5
16B
330
10B
100
AcDbEntity
  8
AM_4
100
AcDbLine
 10
-1.05
 20
0.62375
 30
0.0
 11
-1.05
 21
-0.6237499999863739
 31
0.0
  0
LINE
  5
16C
330
10B
100
AcDbEntity
  8
AM_4
100
AcDbLine
 10
-1.01875
 20
0.655
 30
0.0
 11
-1.01875
 21
-0.655
 31
0.0
  0
ARC
  5
16D
330
10B
100
AcDbEntity
  8
AM_4
100
AcDbCircle
 10
-1.018749999999999
 20
-0.6237499999999995
 30
0.0
 40
0.0312500000000007
100
AcDbArc
 50
180.0
 51
270.0
  0
ARC
  5
16E
330
10B
100
AcDbEntity
  8
AM_4
100
AcDbCircle
 10
-1.01875
 20
0.6237499999999999
 30
0.0
 40
0.0312500000000001
100
AcDbArc
 50
90.0
 51
180.0
  0
ARC
  5
16F
330
10B
100
AcDbEntity
  8
AM_5
100
AcDbCircle
 10
-0.8625000000000002
 20
-0.0000000000000001
 30
0.0
 40
0.1250000000000001
100
AcDbArc
 50
345.0
 51
285.0
  0
ENDBLK
  5
10E
330
10B
100
AcDbEntity
  8
0
100
AcDbBlockEnd
  0
BLOCK
  5
172
330
170
100
AcDbEntity
  8
0
100
AcDbBlockBegin
  2
4_131154H_0_in_131154_2
 70
     2
 10
0.0
 20
0.0
 30
0.0
  3
4_131154H_0_in_131154_2
  1

  0
ATTDEF
  5
174
330
170
100
AcDbEntity
  8
AM_6
100
AcDbText
 10
5.759
 20
1.565
 30
0.0
 40
0.5
  1
NSTU-SXR -I-Housing
100
AcDbAttributeDefinition
  3

  2
NN
 70
     8
280
     0
  0
ATTDEF
  5
175
330
170
100
AcDbEntity
  8
AM_6
100
AcDbText
 10
5.759
 20
1.065
 30
0.0
 40
0.5
  1
SXR Take-Up Bearings -Narrow Slot -(Normal Duty)
100
AcDbAttributeDefinition
  3

  2
NT
 70
     8
280
     0
  0
ATTDEF
  5
176
330
170
100
AcDbEntity
  8
AM_6
100
AcDbText
 10
5.759
 20
0.5649999999999997
 30
0.0
 40
0.5
  1
131154H
100
AcDbAttributeDefinition
  3

  2
NB
 70
     8
280
     0
  0
ATTDEF
  5
177
330
170
100
AcDbEntity
  8
AM_6
100
AcDbText
 10
5.759
 20
0.0649999999999997
 30
0.0
 40
0.5
  1
$PN.H
100
AcDbAttributeDefinition
  3

  2
NBSYN
 70
     8
280
     0
  0
ATTDEF
  5
178
330
170
100
AcDbEntity
  8
AM_6
100
AcDbText
 10
5.759
 20
-0.4350000000000003
 30
0.0
 40
0.5
  1
131154
100
AcDbAttributeDefinition
  3

  2
LINA
 70
     8
280
     0
  0
ATTDEF
  5
179
330
170
100
AcDbEntity
  8
AM_6
100
AcDbText
 10
5.759
 20
-0.9350000000000003
 30
0.0
 40
0.5
  1
204
100
AcDbAttributeDefinition
  3

  2
SERIES
 70
     8
280
     0
  0
ATTDEF
  5
17A
330
170
100
AcDbEntity
  8
AM_6
100
AcDbText
 10
5.759
 20
-1.435
 30
0.0
 40
0.5
  1
3/4
100
AcDbAttributeDefinition
  3

  2
SS
 70
     8
280
     0
  0
ATTDEF
  5
17B
330
170
100
AcDbEntity
  8
AM_6
100
AcDbText
 10
5.759
 20
-1.935
 30
0.0
 40
0.5
  1
131154
100
AcDbAttributeDefinition
  3

  2
PN
 70
     8
280
     0
  0
ATTDEF
  5
17C
330
170
100
AcDbEntity
  8
AM_6
100
AcDbText
 10
5.759
 20
-2.435
 30
0.0
 40
0.5
  1
NSTU-SXR-012
100
AcDbAttributeDefinition
  3

  2
DESCRIPTION
 70
     8
280
     0
  0
ATTDEF
  5
17D
330
170
100
AcDbEntity
  8
AM_6
100
AcDbText
 10
5.759
 20
-2.935
 30
0.0
 40
0.5
  1
1.5
100
AcDbAttributeDefinition
  3

  2
W
 70
     8
280
     0
  0
ATTDEF
  5
17E
330
170
100
AcDbEntity
  8
AM_6
100
AcDbText
 10
5.759
 20
-3.435
 30
0.0
 40
0.5
  1
NS210
100
AcDbAttributeDefinition
  3

  2
FS
 70
     8
280
     0
  0
ATTDEF
  5
17F
330
170
100
AcDbEntity
  8
AM_6
100
AcDbText
 10
5.759
 20
-3.935
 30
0.0
 40
0.5
  1
1.55
100
AcDbAttributeDefinition
  3

  2
A
 70
     8
280
     0
  0
ATTDEF
  5
180
330
170
100
AcDbEntity
  8
AM_6
100
AcDbText
 10
5.759
 20
-4.435
 30
0.0
 40
0.5
  1
3.50
100
AcDbAttributeDefinition
  3

  2
B
 70
     8
280
     0
  0
ATTDEF
  5
181
330
170
100
AcDbEntity
  8
AM_6
100
AcDbText
 10
5.759
 20
-4.935
 30
0.0
 40
0.5
  1
0.250
100
AcDbAttributeDefinition
  3

  2
C
 70
     8
280
     0
  0
ATTDEF
  5
182
330
170
100
AcDbEntity
  8
AM_6
100
AcDbText
 10
5.759
 20
-5.435
 30
0.0
 40
0.5
  1
1.50
100
AcDbAttributeDefinition
  3

  2
D
 70
     8
280
     0
  0
ATTDEF
  5
183
330
170
100
AcDbEntity
  8
AM_6
100
AcDbText
 10
5.759
 20
-5.935
 30
0.0
 40
0.5
  1
2.19
100
AcDbAttributeDefinition
  3

  2
E
 70
     8
280
     0
  0
ATTDEF
  5
184
330
170
100
AcDbEntity
  8
AM_6
100
AcDbText
 10
5.759
 20
-6.435
 30
0.0
 40
0.5
  1
3/4
100
AcDbAttributeDefinition
  3

  2
F
 70
     8
280
     0
  0
ATTDEF
  5
185
330
170
100
AcDbEntity
  8
AM_6
100
AcDbText
 10
5.759
 20
-6.935
 30
0.0
 40
0.5
  1
0.44
100
AcDbAttributeDefinition
  3

  2
G
 70
     8
280
     0
  0
ATTDEF
  5
186
330
170
100
AcDbEntity
  8
AM_6
100
AcDbText
 10
5.759
 20
-7.435
 30
0.0
 40
0.5
  1
0.88
100
AcDbAttributeDefinition
  3

  2
H
 70
     8
280
     0
  0
ATTDEF
  5
187
330
170
100
AcDbEntity
  8
AM_6
100
AcDbText
 10
5.759
 20
-7.935
 30
0.0
 40
0.5
  1
1.38
100
AcDbAttributeDefinition
  3

  2
J
 70
     8
280
     0
  0
ATTDEF
  5
188
330
170
100
AcDbEntity
  8
AM_6
100
AcDbText
 10
5.759
 20
-8.435
 30
0.0
 40
0.5
  1
1.31
100
AcDbAttributeDefinition
  3

  2
L
 70
     8
280
     0
  0
ATTDEF
  5
189
330
170
100
AcDbEntity
  8
AM_6
100
AcDbText
 10
5.759
 20
-8.935
 30
0.0
 40
0.5
  1
2.635 / 2.605
100
AcDbAttributeDefinition
  3

  2
M
 70
     8
280
     0
  0
ATTDEF
  5
18A
330
170
100
AcDbEntity
  8
AM_6
100
AcDbText
 10
5.759
 20
-9.435
 30
0.0
 40
0.5
  1
3.13
100
AcDbAttributeDefinition
  3

  2
N
 70
     8
280
     0
  0
ATTDEF
  5
18B
330
170
100
AcDbEntity
  8
AM_6
100
AcDbText
 10
5.759
 20
-9.935
 30
0.0
 40
0.5
  1
0.32
100
AcDbAttributeDefinition
  3

  2
P
 70
     8
280
     0
  0
ATTDEF
  5
18C
330
170
100
AcDbEntity
  8
AM_6
100
AcDbText
 10
5.759
 20
-10.435
 30
0.0
 40
0.5
  1
0.50
100
AcDbAttributeDefinition
  3

  2
R
 70
     8
280
     0
  0
ATTDEF
  5
18D
330
170
100
AcDbEntity
  8
AM_6
100
AcDbText
 10
5.759
 20
-10.935
 30
0.0
 40
0.5
  1
1.05
100
AcDbAttributeDefinition
  3

  2
S
 70
     8
280
     0
  0
ATTDEF
  5
18E
330
170
100
AcDbEntity
  8
AM_6
100
AcDbText
 10
5.759
 20
-11.435
 30
0.0
 40
0.5
  1
1390
100
AcDbAttributeDefinition
  3

  2
CAPS
 70
     8
280
     0
  0
ATTDEF
  5
18F
330
170
100
AcDbEntity
  8
AM_6
100
AcDbText
 10
5.759
 20
-11.935
 30
0.0
 40
0.5
  1
2899
100
AcDbAttributeDefinition
  3

  2
CAPD
 70
     8
280
     0
  0
ATTDEF
  5
190
330
170
100
AcDbEntity
  8
AM_6
100
AcDbText
 10
5.759
 20
-12.435
 30
0.0
 40
0.5
  1
baldor
100
AcDbAttributeDefinition
  3

  2
COMPANY
 70
     8
280
     0
  0
LINE
  5
191
330
170
100
AcDbEntity
  8
AM_9
100
AcDbLine
 10
-0.15
 20
0.8907833855657614
 30
0.0
 11
-0.15
 21
0.9627
 31
0.0
  0
LINE
  5
192
330
170
100
AcDbEntity
  8
AM_9
100
AcDbLine
 10
-0.15
 20
0.9296726789574922
 30
0.0
 11
0.5
 21
0.9296726789574922
 31
0.0
  0
LINE
  5
193
330
170
100
AcDbEntity
  8
AM_9
100
AcDbLine
 10
0.5
 20
0.9627
 30
0.0
 11
-0.15
 21
0.9627
 31
0.0
  0
LINE
  5
194
330
170
100
AcDbEntity
  8
AM_9
100
AcDbLine
 10
-0.15
 20
-0.9296726789574918
 30
0.0
 11
0.5
 21
-0.9296726789574918
 31
0.0
  0
LINE
  5
195
330
170
100
AcDbEntity
  8
AM_9
100
AcDbLine
 10
-0.15
 20
-0.9627
 30
0.0
 11
0.5
 21
-0.9627
 31
0.0
  0
LINE
  5
196
330
170
100
AcDbEntity
  8
AM_9
100
AcDbLine
 10
-0.15
 20
-0.9627
 30
0.0
 11
-0.15
 21
-0.8907833855657614
 31
0.0
  0
LINE
  5
197
330
170
100
AcDbEntity
  8
AM_9
100
AcDbLine
 10
-0.15
 20
0.8907833855657614
 30
0.0
 11
0.5
 21
0.8907833855657614
 31
0.0
  0
LINE
  5
198
330
170
100
AcDbEntity
  8
AM_9
100
AcDbLine
 10
0.5
 20
-0.8907833855657614
 30
0.0
 11
-0.15
 21
-0.8907833855657614
 31
0.0
  0
LINE
  5
199
330
170
100
AcDbEntity
  8
AM_9
100
AcDbLine
 10
-0.5
 20
-0.9252
 30
0.0
 11
-0.15
 21
-0.9252
 31
0.0
  0
LINE
  5
19A
330
170
100
AcDbEntity
  8
AM_9
100
AcDbLine
 10
-0.15
 20
0.9252
 30
0.0
 11
-0.5
 21
0.9252
 31
0.0
  0
LINE
  5
19B
330
170
100
AcDbEntity
  8
AM_9
100
AcDbLine
 10
0.5000000000000001
 20
0.4754997371187448
 30
0.0
 11
0.5000000000000001
 21
-0.4754997371187483
 31
0.0
  0
LINE
  5
19C
330
170
100
AcDbEntity
  8
AM_9
100
AcDbLine
 10
-0.4999999999999999
 20
-0.4754997371187438
 30
0.0
 11
-0.4999999999999999
 21
0.4754997371187492
 31
0.0
  0
LINE
  5
19D
330
170
100
AcDbEntity
  8
AM_9
100
AcDbLine
 10
0.313397459621556
 20
-0.6147211012343314
 30
0.0
 11
0.313397459621556
 21
0.614721101234333
 31
0.0
  0
LINE
  5
19E
330
170
100
AcDbEntity
  8
AM_9
100
AcDbLine
 10
-0.3133974596215561
 20
-0.6147211012343314
 30
0.0
 11
-0.3133974596215561
 21
0.6147211012343329
 31
0.0
  0
LINE
  5
19F
330
170
100
AcDbEntity
  8
AM_9
100
AcDbLine
 10
0.3393323807048855
 20
-0.16
 30
0.0
 11
0.6712730744512513
 21
-0.16
 31
0.0
  0
LINE
  5
1A0
330
170
100
AcDbEntity
  8
AM_9
100
AcDbLine
 10
0.6713246106433554
 20
0.16
 30
0.0
 11
0.3394250865993074
 21
0.16
 31
0.0
  0
LINE
  5
1A1
330
170
100
AcDbEntity
  8
AM_9
100
AcDbLine
 10
-0.671324610643353
 20
-0.16
 30
0.0
 11
-0.3394250865993071
 21
-0.16
 31
0.0
  0
LINE
  5
1A2
330
170
100
AcDbEntity
  8
AM_9
100
AcDbLine
 10
-0.3393323807048853
 20
0.16
 30
0.0
 11
-0.6712730744512531
 21
0.16
 31
0.0
  0
LINE
  5
1A3
330
170
100
AcDbEntity
  8
AM_7
100
AcDbLine
 10
0.759
 20
0.0
 30
0.0
 11
-1.1275
 21
0.0
 31
0.0
  0
LINE
  5
1A4
330
170
100
AcDbEntity
  8
AM_7
100
AcDbLine
 10
0.0000000000000002
 20
-0.7244999999999864
 30
0.0
 11
0.0000000000000002
 21
0.7244999999999995
 31
0.0
  0
LINE
  5
1A5
330
170
100
AcDbEntity
  8
AM_4
100
AcDbLine
 10
-0.1249999999999999
 20
-1.3175
 30
0.0
 11
-0.125
 21
-1.565
 31
0.0
  0
LWPOLYLINE
  5
1A6
330
170
100
AcDbEntity
  8
AM_4
100
AcDbPolyline
 90
       19
 70
     0
 43
0.0
 10
-0.3249999999999997
 20
-1.565
 10
-0.3293577871373827
 20
-1.564809734904587
 10
-0.3336824088833462
 20
-1.56424038765061
 10
-0.3379409522551258
 20
-1.563296291314453
 10
-0.3421010071662832
 20
-1.561984631039296
 10
-0.3461309130870346
 20
-1.560315389351832
 10
-0.3499999999999997
 20
-1.558301270189222
 10
-0.353678821817552
 20
-1.55595760221445
 10
-0.3571393804843266
 20
-1.553302222155949
 10
-0.360355339059327
 20
-1.550355339059328
 10
-0.3633022221559485
 20
-1.547139380484327
 10
-0.3659576022144493
 20
-1.543678821817552
 10
-0.3683012701892216
 20
-1.54
 10
-0.3703153893518322
 20
-1.536130913087035
 10
-0.3719846310392951
 20
-1.532101007166284
 10
-0.3732962913144531
 20
-1.527940952255126
 10
-0.3742403876506101
 20
-1.523682408883347
 10
-0.374809734904587
 20
-1.519357787137383
 10
-0.3749999999999997
 20
-1.515
  0
LINE
  5
1A7
330
170
100
AcDbEntity
  8
AM_4
100
AcDbLine
 10
-0.3249999999999998
 20
-1.565
 30
0.0
 11
-0.125
 21
-1.565
 31
0.0
  0
LINE
  5
1A8
330
170
100
AcDbEntity
  8
AM_4
100
AcDbLine
 10
0.1250000000000001
 20
-1.565
 30
0.0
 11
0.1250000000000001
 21
-1.3175
 31
0.0
  0
LWPOLYLINE
  5
1A9
330
170
100
AcDbEntity
  8
AM_4
100
AcDbPolyline
 90
       19
 70
     0
 43
0.0
 10
0.3749999999999998
 20
-1.515
 10
0.374809734904587
 20
-1.519357787137383
 10
0.3742403876506101
 20
-1.523682408883346
 10
0.3732962913144532
 20
-1.527940952255126
 10
0.3719846310392952
 20
-1.532101007166283
 10
0.3703153893518323
 20
-1.536130913087035
 10
0.3683012701892218
 20
-1.54
 10
0.3659576022144494
 20
-1.543678821817552
 10
0.3633022221559488
 20
-1.547139380484327
 10
0.3603553390593273
 20
-1.550355339059327
 10
0.3571393804843269
 20
-1.553302222155949
 10
0.3536788218175522
 20
-1.555957602214449
 10
0.35
 20
-1.558301270189222
 10
0.3461309130870349
 20
-1.560315389351832
 10
0.3421010071662834
 20
-1.561984631039295
 10
0.337940952255126
 20
-1.563296291314453
 10
0.3336824088833465
 20
-1.56424038765061
 10
0.329357787137383
 20
-1.564809734904587
 10
0.3250000000000001
 20
-1.565
  0
LINE
  5
1AA
330
170
100
AcDbEntity
  8
AM_4
100
AcDbLine
 10
0.1250000000000001
 20
-1.565
 30
0.0
 11
0.325
 21
-1.565
 31
0.0
  0
LINE
  5
1AB
330
170
100
AcDbEntity
  8
AM_4
100
AcDbLine
 10
-0.3749999999999999
 20
-1.053862334530819
 30
0.0
 11
-0.3749999999999999
 21
-1.515
 31
0.0
  0
LINE
  5
1AC
330
170
100
AcDbEntity
  8
AM_4
100
AcDbLine
 10
-0.1249999999999999
 20
-1.3175
 30
0.0
 11
0.1250000000000001
 21
-1.3175
 31
0.0
  0
LINE
  5
1AD
330
170
100
AcDbEntity
  8
AM_4
100
AcDbLine
 10
0.3749999999999998
 20
-1.515
 30
0.0
 11
0.3750000000000001
 21
-1.053862334530819
 31
0.0
  0
LINE
  5
1AE
330
170
100
AcDbEntity
  8
AM_4
100
AcDbLine
 10
-0.125
 20
-1.515
 30
0.0
 11
-0.3749999999999999
 21
-1.515
 31
0.0
  0
LINE
  5
1AF
330
170
100
AcDbEntity
  8
AM_4
100
AcDbLine
 10
0.3749999999999998
 20
-1.515
 30
0.0
 11
0.1250000000000001
 21
-1.515
 31
0.0
  0
LINE
  5
1B0
330
170
100
AcDbEntity
  8
AM_4
100
AcDbLine
 10
0.125
 20
1.3175
 30
0.0
 11
0.1250000000000001
 21
1.565
 31
0.0
  0
LWPOLYLINE
  5
1B1
330
170
100
AcDbEntity
  8
AM_4
100
AcDbPolyline
 90
       19
 70
     0
 43
0.0
 10
0.3250000000000002
 20
1.565
 10
0.3293577871373831
 20
1.564809734904587
 10
0.3336824088833467
 20
1.56424038765061
 10
0.3379409522551261
 20
1.563296291314453
 10
0.3421010071662835
 20
1.561984631039295
 10
0.346130913087035
 20
1.560315389351832
 10
0.35
 20
1.558301270189222
 10
0.3536788218175523
 20
1.55595760221445
 10
0.357139380484327
 20
1.553302222155949
 10
0.3603553390593274
 20
1.550355339059327
 10
0.3633022221559489
 20
1.547139380484327
 10
0.3659576022144496
 20
1.543678821817552
 10
0.3683012701892219
 20
1.54
 10
0.3703153893518324
 20
1.536130913087035
 10
0.3719846310392954
 20
1.532101007166284
 10
0.3732962913144534
 20
1.527940952255126
 10
0.3742403876506104
 20
1.523682408883346
 10
0.3748097349045872
 20
1.519357787137383
 10
0.3749999999999999
 20
1.515
  0
LINE
  5
1B2
330
170
100
AcDbEntity
  8
AM_4
100
AcDbLine
 10
0.1250000000000001
 20
1.565
 30
0.0
 11
0.3250000000000002
 21
1.565
 31
0.0
  0
LINE
  5
1B3
330
170
100
AcDbEntity
  8
AM_4
100
AcDbLine
 10
0.3750000000000001
 20
1.053862334530819
 30
0.0
 11
0.3750000000000001
 21
1.515
 31
0.0
  0
LINE
  5
1B4
330
170
100
AcDbEntity
  8
AM_4
100
AcDbLine
 10
0.125
 20
1.3175
 30
0.0
 11
-0.1249999999999999
 21
1.3175
 31
0.0
  0
LINE
  5
1B5
330
170
100
AcDbEntity
  8
AM_4
100
AcDbLine
 10
-0.1249999999999999
 20
1.3175
 30
0.0
 11
-0.125
 21
1.565
 31
0.0
  0
LINE
  5
1B6
330
170
100
AcDbEntity
  8
AM_4
100
AcDbLine
 10
-0.3749999999999999
 20
1.515
 30
0.0
 11
-0.3749999999999999
 21
1.053862334530819
 31
0.0
  0
LINE
  5
1B7
330
170
100
AcDbEntity
  8
AM_4
100
AcDbLine
 10
0.3750000000000001
 20
1.515
 30
0.0
 11
0.125
 21
1.515
 31
0.0
  0
LINE
  5
1B8
330
170
100
AcDbEntity
  8
AM_4
100
AcDbLine
 10
-0.3250000000000001
 20
1.565
 30
0.0
 11
-0.125
 21
1.565
 31
0.0
  0
LWPOLYLINE
  5
1B9
330
170
100
AcDbEntity
  8
AM_4
100
AcDbPolyline
 90
       19
 70
     0
 43
0.0
 10
-0.3749999999999998
 20
1.515
 10
-0.374809734904587
 20
1.519357787137383
 10
-0.3742403876506101
 20
1.523682408883346
 10
-0.3732962913144532
 20
1.527940952255126
 10
-0.3719846310392952
 20
1.532101007166283
 10
-0.3703153893518323
 20
1.536130913087035
 10
-0.3683012701892218
 20
1.54
 10
-0.3659576022144494
 20
1.543678821817552
 10
-0.3633022221559488
 20
1.547139380484327
 10
-0.3603553390593272
 20
1.550355339059327
 10
-0.3571393804843268
 20
1.553302222155949
 10
-0.3536788218175522
 20
1.555957602214449
 10
-0.3499999999999999
 20
1.558301270189222
 10
-0.3461309130870349
 20
1.560315389351832
 10
-0.3421010071662833
 20
1.561984631039295
 10
-0.337940952255126
 20
1.563296291314453
 10
-0.3336824088833465
 20
1.56424038765061
 10
-0.329357787137383
 20
1.564809734904587
 10
-0.325
 20
1.565
  0
LINE
  5
1BA
330
170
100
AcDbEntity
  8
AM_4
100
AcDbLine
 10
-0.1249999999999999
 20
1.515
 30
0.0
 11
-0.3749999999999999
 21
1.515
 31
0.0
  0
LINE
  5
1BB
330
170
100
AcDbEntity
  8
AM_4
100
AcDbLine
 10
-0.3060804975238817
 20
0.6183969025112667
 30
0.0
 11
-0.313397459621556
 21
0.6147211012343329
 31
0.0
  0
LINE
  5
1BC
330
170
100
AcDbEntity
  8
AM_4
100
AcDbLine
 10
0.3133974596215561
 20
0.614721101234333
 30
0.0
 11
0.3038286324897245
 21
0.6195063858261834
 31
0.0
  0
LINE
  5
1BD
330
170
100
AcDbEntity
  8
AM_4
100
AcDbLine
 10
-0.3133974596215559
 20
1.074057726567804
 30
0.0
 11
0.3133974596215562
 21
1.074057726567804
 31
0.0
  0
LINE
  5
1BE
330
170
100
AcDbEntity
  8
AM_4
100
AcDbLine
 10
0.3133974596215562
 20
-1.074057726567804
 30
0.0
 11
-0.3133974596215559
 21
-1.074057726567804
 31
0.0
  0
LINE
  5
1BF
330
170
100
AcDbEntity
  8
AM_4
100
AcDbLine
 10
0.5000000000000001
 20
-0.4754997371187434
 30
0.0
 11
0.5
 21
-1.26
 31
0.0
  0
LINE
  5
1C0
330
170
100
AcDbEntity
  8
AM_4
100
AcDbLine
 10
0.3133974596215561
 20
-0.6147211012343314
 30
0.0
 11
0.3133974596215562
 21
-1.074057726567804
 31
0.0
  0
LINE
  5
1C1
330
170
100
AcDbEntity
  8
AM_4
100
AcDbLine
 10
0.3750000000000001
 20
-1.053862334530819
 30
0.0
 11
0.3133974596215562
 21
-1.074057726567804
 31
0.0
  0
LINE
  5
1C2
330
170
100
AcDbEntity
  8
AM_4
100
AcDbLine
 10
0.3133974596215562
 20
1.074057726567804
 30
0.0
 11
0.3750000000000001
 21
1.053862334530819
 31
0.0
  0
LINE
  5
1C3
330
170
100
AcDbEntity
  8
AM_4
100
AcDbLine
 10
0.3133974596215562
 20
1.074057726567804
 30
0.0
 11
0.3133974596215561
 21
0.614721101234333
 31
0.0
  0
LINE
  5
1C4
330
170
100
AcDbEntity
  8
AM_4
100
AcDbLine
 10
0.5
 20
1.26
 30
0.0
 11
0.3749999999999999
 21
1.29349364905389
 31
0.0
  0
LINE
  5
1C5
330
170
100
AcDbEntity
  8
AM_4
100
AcDbLine
 10
0.3749999999999999
 20
-1.29349364905389
 30
0.0
 11
0.5
 21
-1.26
 31
0.0
  0
LINE
  5
1C6
330
170
100
AcDbEntity
  8
AM_4
100
AcDbLine
 10
0.5
 20
1.26
 30
0.0
 11
0.5000000000000001
 21
0.4754997371187451
 31
0.0
  0
LINE
  5
1C7
330
170
100
AcDbEntity
  8
AM_4
100
AcDbLine
 10
-0.3133974596215559
 20
1.074057726567804
 30
0.0
 11
-0.313397459621556
 21
0.6147211012343329
 31
0.0
  0
LINE
  5
1C8
330
170
100
AcDbEntity
  8
AM_4
100
AcDbLine
 10
-0.3749999999999999
 20
1.053862334530819
 30
0.0
 11
-0.3133974596215559
 21
1.074057726567804
 31
0.0
  0
LINE
  5
1C9
330
170
100
AcDbEntity
  8
AM_4
100
AcDbLine
 10
-0.3133974596215559
 20
-1.074057726567804
 30
0.0
 11
-0.3749999999999999
 21
-1.053862334530819
 31
0.0
  0
LINE
  5
1CA
330
170
100
AcDbEntity
  8
AM_4
100
AcDbLine
 10
-0.313397459621556
 20
-0.6147211012343314
 30
0.0
 11
-0.3133974596215559
 21
-1.074057726567804
 31
0.0
  0
LINE
  5
1CB
330
170
100
AcDbEntity
  8
AM_4
100
AcDbLine
 10
-0.4999999999999999
 20
-0.4754997371187434
 30
0.0
 11
-0.5
 21
-1.26
 31
0.0
  0
LINE
  5
1CC
330
170
100
AcDbEntity
  8
AM_4
100
AcDbLine
 10
-0.5
 20
-1.26
 30
0.0
 11
-0.3749999999999999
 21
-1.29349364905389
 31
0.0
  0
LINE
  5
1CD
330
170
100
AcDbEntity
  8
AM_4
100
AcDbLine
 10
-0.3749999999999999
 20
1.29349364905389
 30
0.0
 11
-0.5
 21
1.26
 31
0.0
  0
LINE
  5
1CE
330
170
100
AcDbEntity
  8
AM_4
100
AcDbLine
 10
-0.5
 20
1.26
 30
0.0
 11
-0.4999999999999999
 21
0.4754997371187451
 31
0.0
  0
CIRCLE
  5
1CF
330
170
100
AcDbEntity
  8
AM_4
100
AcDbCircle
 10
0.0000000000000001
 20
0.0
 30
0.0
 40
0.3749999999999999
  0
CIRCLE
  5
1D0
330
170
100
AcDbEntity
  8
AM_4
100
AcDbCircle
 10
0.0000000000000001
 20
0.0000000000000071
 30
0.0
 40
0.6066666679084237
  0
CIRCLE
  5
1D1
330
170
100
AcDbEntity
  8
AM_4
100
AcDbCircle
 10
0.0000000000000002
 20
0.0000000000000066
 30
0.0
 40
0.6899999999999933
  0
ENDBLK
  5
173
330
170
100
AcDbEntity
  8
0
100
AcDbBlockEnd
  0
ENDSEC
  0
SECTION
  2
ENTITIES
  0
INSERT
  5
6F
330
1F
100
AcDbEntity
  8
0
100
AcDbBlockReference
  2
1_131154_2
 10
0.0
 20
0.0
 30
0.0
  0
POINT
  5
1D3
330
1F
100
AcDbEntity
  8
ConnectionPoints
100
AcDbPoint
 10
0.0
 20
0.0
 30
0.0
  0
POINT
  5
1D4
330
1F
100
AcDbEntity
  8
ConnectionPoints
100
AcDbPoint
 10
-1.05
 20
0.0
 30
0.0000000000000001
  0
POINT
  5
1D5
330
1F
100
AcDbEntity
  8
ConnectionPoints
100
AcDbPoint
 10
-0.0000000000000001
 20
-0.6549999999999999
 30
-1.134493278957615
  0
POINT
  5
1D6
330
1F
100
AcDbEntity
  8
ConnectionPoints
100
AcDbPoint
 10
-1.05
 20
0.0
 30
0.0000000000000001
  0
ENDSEC
  0
SECTION
  2
OBJECTS
  0
DICTIONARY
  5
C
330
0
100
AcDbDictionary
281
     1
  3
ACAD_DETAILVIEWSTYLE
350
1DE
  3
ACAD_GROUP
350
D
  3
ACAD_LAYOUT
350
1A
  3
ACAD_MATERIAL
350
43
  3
ACAD_MLEADERSTYLE
350
6B
  3
ACAD_MLINESTYLE
350
17
  3
ACAD_PLOTSETTINGS
350
19
  3
ACAD_PLOTSTYLENAME
350
E
  3
ACAD_SCALELIST
350
47
  3
ACAD_SECTIONVIEWSTYLE
350
1DF
  3
ACAD_TABLESTYLE
350
69
  3
ACAD_VISUALSTYLE
350
2A
  3
ACDB_RECOMPOSE_DATA
350
1DB
  3
AcDbVariableDictionary
350
1D7
  0
SUN
  5
6D
330
29
100
AcDbSun
 90
        1
290
     0
 63
     7
421
 16777215
 40
1.0
291
     1
 91
  2455826
 92
 54000000
292
     0
 70
     2
 71
   256
280
     1
  0
DICTIONARY
  5
1DE
102
{ACAD_REACTORS
330
C
102
}
330
C
100
AcDbDictionary
281
     1
  0
DICTIONARY
  5
D
102
{ACAD_REACTORS
330
C
102
}
330
C
100
AcDbDictionary
281
     1
  0
DICTIONARY
  5
1A
102
{ACAD_REACTORS
330
C
102
}
330
C
100
AcDbDictionary
281
     1
  3
Layout1
350
1E
  3
Layout2
350
26
  3
Model
350
22
  0
DICTIONARY
  5
43
102
{ACAD_REACTORS
330
C
102
}
330
C
100
AcDbDictionary
281
     1
  3
ByBlock
350
45
  3
ByLayer
350
44
  3
Global
350
46
  0
DICTIONARY
  5
6B
102
{ACAD_REACTORS
330
C
102
}
330
C
100
AcDbDictionary
281
     1
  3
Standard
350
6C
  0
DICTIONARY
  5
17
102
{ACAD_REACTORS
330
C
102
}
330
C
100
AcDbDictionary
281
     1
  3
Standard
350
18
  0
DICTIONARY
  5
19
102
{ACAD_REACTORS
330
C
102
}
330
C
100
AcDbDictionary
281
     1
  0
ACDBDICTIONARYWDFLT
  5
E
102
{ACAD_REACTORS
330
C
102
}
330
C
100
AcDbDictionary
281
     1
  3
Normal
350
F
100
AcDbDictionaryWithDefault
340
F
  0
DICTIONARY
  5
47
102
{ACAD_REACTORS
330
C
102
}
330
C
100
AcDbDictionary
281
     1
  3
A0
350
48
  3
A1
350
49
  3
A2
350
4A
  3
A3
350
4B
  3
A4
350
4C
  3
A5
350
4D
  3
A6
350
4E
  3
A7
350
4F
  3
A8
350
50
  3
A9
350
51
  3
B0
350
52
  3
B1
350
53
  3
B2
350
54
  3
B3
350
55
  3
B4
350
56
  3
B5
350
57
  3
B6
350
58
  3
B7
350
59
  3
B8
350
5A
  3
B9
350
5B
  3
C0
350
5C
  3
C1
350
5D
  3
C2
350
5E
  3
C3
350
5F
  3
C4
350
60
  3
C5
350
61
  3
C6
350
62
  3
C7
350
63
  3
C8
350
64
  3
C9
350
65
  3
D0
350
66
  3
D1
350
67
  3
D2
350
68
  0
DICTIONARY
  5
1DF
102
{ACAD_REACTORS
330
C
102
}
330
C
100
AcDbDictionary
281
     1
  0
DICTIONARY
  5
69
102
{ACAD_REACTORS
330
C
102
}
330
C
100
AcDbDictionary
281
     1
  3
Standard
350
6A
  0
DICTIONARY
  5
2A
102
{ACAD_REACTORS
330
C
102
}
330
C
100
AcDbDictionary
281
     1
  3
2dWireframe
350
2F
  3
Basic
350
32
  3
Brighten
350
36
  3
ColorChange
350
3A
  3
Conceptual
350
34
  3
Dim
350
35
  3
EdgeColorOff
350
3D
  3
Facepattern
350
39
  3
Flat
350
2B
  3
FlatWithEdges
350
2C
  3
Gouraud
350
2D
  3
GouraudWithEdges
350
2E
  3
Hidden
350
31
  3
JitterOff
350
3B
  3
Linepattern
350
38
  3
OverhangOff
350
3C
  3
Realistic
350
33
  3
Shaded
350
42
  3
Shaded with edges
350
41
  3
Shades of Gray
350
3E
  3
Sketchy
350
3F
  3
Thicken
350
37
  3
Wireframe
350
30
  3
X-Ray
350
40
  0
XRECORD
  5
1DB
102
{ACAD_REACTORS
330
C
102
}
330
C
100
AcDbXrecord
280
     1
 90
        1
330
6A
  0
DICTIONARY
  5
1D7
102
{ACAD_REACTORS
330
C
102
}
330
C
100
AcDbDictionary
281
     1
  3
CANNOSCALE
350
1D8
  3
CMLEADERSTYLE
350
1DD
  3
CTABLESTYLE
350
1DC
  0
LAYOUT
  5
1E
102
{ACAD_REACTORS
330
1A
102
}
330
1A
100
AcDbPlotSettings
  1

  2
none_device
  4

  6

 40
0.0
 41
0.0
 42
0.0
 43
0.0
 44
0.0
 45
0.0
 46
0.0
 47
0.0
 48
0.0
 49
0.0
140
0.0
141
0.0
142
1.0
143
1.0
 70
   688
 72
     0
 73
     0
 74
     5
  7

 75
    16
 76
     0
 77
     2
 78
   300
147
1.0
148
0.0
149
0.0
100
AcDbLayout
  1
Layout1
 70
     1
 71
     1
 10
0.0
 20
0.0
 11
12.0
 21
9.0
 12
0.0
 22
0.0
 32
0.0
 14
1.000000000000000E+20
 24
1.000000000000000E+20
 34
1.000000000000000E+20
 15
-1.000000000000000E+20
 25
-1.000000000000000E+20
 35
-1.000000000000000E+20
146
0.0
 13
0.0
 23
0.0
 33
0.0
 16
1.0
 26
0.0
 36
0.0
 17
0.0
 27
1.0
 37
0.0
 76
     0
330
1B
  0
LAYOUT
  5
26
102
{ACAD_REACTORS
330
1A
102
}
330
1A
100
AcDbPlotSettings
  1

  2
none_device
  4

  6

 40
0.0
 41
0.0
 42
0.0
 43
0.0
 44
0.0
 45
0.0
 46
0.0
 47
0.0
 48
0.0
 49
0.0
140
0.0
141
0.0
142
1.0
143
1.0
 70
   688
 72
     0
 73
     0
 74
     5
  7

 75
    16
 76
     0
 77
     2
 78
   300
147
1.0
148
0.0
149
0.0
100
AcDbLayout
  1
Layout2
 70
     1
 71
     2
 10
0.0
 20
0.0
 11
0.0
 21
0.0
 12
0.0
 22
0.0
 32
0.0
 14
0.0
 24
0.0
 34
0.0
 15
0.0
 25
0.0
 35
0.0
146
0.0
 13
0.0
 23
0.0
 33
0.0
 16
1.0
 26
0.0
 36
0.0
 17
0.0
 27
1.0
 37
0.0
 76
     0
330
23
  0
LAYOUT
  5
22
102
{ACAD_REACTORS
330
1A
102
}
330
1A
100
AcDbPlotSettings
  1

  2
none_device
  4
Letter_(8.50_x_11.00_Inches)
  6

 40
6.35
 41
6.35
 42
6.35000508
 43
6.35000508
 44
215.9
 45
279.4
 46
0.0
 47
0.0
 48
0.0
 49
0.0
140
0.0
141
0.0
142
1.0
143
1.0
 70
  1712
 72
     0
 73
     0
 74
     0
  7

 75
     0
 76
     0
 77
     2
 78
   300
147
1.0
148
0.0
149
0.0
100
AcDbLayout
  1
Model
 70
     1
 71
     0
 10
0.0
 20
0.0
 11
12.0
 21
9.0
 12
0.0
 22
0.0
 32
0.0
 14
1.000000000000000E+20
 24
1.000000000000000E+20
 34
1.000000000000000E+20
 15
-1.000000000000000E+20
 25
-1.000000000000000E+20
 35
-1.000000000000000E+20
146
0.0
 13
0.0
 23
0.0
 33
0.0
 16
1.0
 26
0.0
 36
0.0
 17
0.0
 27
1.0
 37
0.0
 76
     0
330
1F
331
29
  0
MATERIAL
  5
45
102
{ACAD_REACTORS
330
43
102
}
330
43
100
AcDbMaterial
  1
ByBlock
 72
     1
 94
      127
  0
MATERIAL
  5
44
102
{ACAD_REACTORS
330
43
102
}
330
43
100
AcDbMaterial
  1
ByLayer
 72
     1
 94
      127
  0
MATERIAL
  5
46
102
{ACAD_REACTORS
330
43
102
}
330
43
100
AcDbMaterial
  1
Global
 72
     1
 94
      127
  0
MLEADERSTYLE
  5
6C
102
{ACAD_REACTORS
330
6B
102
}
330
6B
100
AcDbMLeaderStyle
179
     2
170
     2
171
     1
172
     0
 90
        2
 40
0.0
 41
0.0
173
     1
 91
-1056964608
340
14
 92
       -2
290
     1
 42
0.09
291
     1
 43
0.36
  3
Standard
341
0
 44
0.18
300

342
11
174
     1
178
     6
175
     1
176
     0
 93
-1056964608
 45
0.18
292
     0
297
     0
 46
0.18
343
0
 94
-1056964608
 47
1.0
 49
1.0
140
1.0
293
     1
141
0.0
294
     1
177
     0
142
1.0
295
     0
296
     0
143
0.125
271
     0
272
     9
273
     9
298
     0
  0
MLINESTYLE
  5
18
102
{ACAD_REACTORS
330
17
102
}
330
17
100
AcDbMlineStyle
  2
Standard
 70
     0
  3

 62
   256
 51
90.0
 52
90.0
 71
     2
 49
0.5
 62
   256
  6
BYLAYER
 49
-0.5
 62
   256
  6
BYLAYER
  0
ACDBPLACEHOLDER
  5
F
102
{ACAD_REACTORS
330
E
102
}
330
E
  0
SCALE
  5
48
102
{ACAD_REACTORS
330
47
102
}
330
47
100
AcDbScale
 70
     0
300
1:1
140
1.0
141
1.0
290
     1
  0
SCALE
  5
49
102
{ACAD_REACTORS
330
47
102
}
330
47
100
AcDbScale
 70
     0
300
1:2
140
1.0
141
2.0
290
     0
  0
SCALE
  5
4A
102
{ACAD_REACTORS
330
47
102
}
330
47
100
AcDbScale
 70
     0
300
1:4
140
1.0
141
4.0
290
     0
  0
SCALE
  5
4B
102
{ACAD_REACTORS
330
47
102
}
330
47
100
AcDbScale
 70
     0
300
1:5
140
1.0
141
5.0
290
     0
  0
SCALE
  5
4C
102
{ACAD_REACTORS
330
47
102
}
330
47
100
AcDbScale
 70
     0
300
1:8
140
1.0
141
8.0
290
     0
  0
SCALE
  5
4D
102
{ACAD_REACTORS
330
47
102
}
330
47
100
AcDbScale
 70
     0
300
1:10
140
1.0
141
10.0
290
     0
  0
SCALE
  5
4E
102
{ACAD_REACTORS
330
47
102
}
330
47
100
AcDbScale
 70
     0
300
1:16
140
1.0
141
16.0
290
     0
  0
SCALE
  5
4F
102
{ACAD_REACTORS
330
47
102
}
330
47
100
AcDbScale
 70
     0
300
1:20
140
1.0
141
20.0
290
     0
  0
SCALE
  5
50
102
{ACAD_REACTORS
330
47
102
}
330
47
100
AcDbScale
 70
     0
300
1:30
140
1.0
141
30.0
290
     0
  0
SCALE
  5
51
102
{ACAD_REACTORS
330
47
102
}
330
47
100
AcDbScale
 70
     0
300
1:40
140
1.0
141
40.0
290
     0
  0
SCALE
  5
52
102
{ACAD_REACTORS
330
47
102
}
330
47
100
AcDbScale
 70
     0
300
1:50
140
1.0
141
50.0
290
     0
  0
SCALE
  5
53
102
{ACAD_REACTORS
330
47
102
}
330
47
100
AcDbScale
 70
     0
300
1:100
140
1.0
141
100.0
290
     0
  0
SCALE
  5
54
102
{ACAD_REACTORS
330
47
102
}
330
47
100
AcDbScale
 70
     0
300
2:1
140
2.0
141
1.0
290
     0
  0
SCALE
  5
55
102
{ACAD_REACTORS
330
47
102
}
330
47
100
AcDbScale
 70
     0
300
4:1
140
4.0
141
1.0
290
     0
  0
SCALE
  5
56
102
{ACAD_REACTORS
330
47
102
}
330
47
100
AcDbScale
 70
     0
300
8:1
140
8.0
141
1.0
290
     0
  0
SCALE
  5
57
102
{ACAD_REACTORS
330
47
102
}
330
47
100
AcDbScale
 70
     0
300
10:1
140
10.0
141
1.0
290
     0
  0
SCALE
  5
58
102
{ACAD_REACTORS
330
47
102
}
330
47
100
AcDbScale
 70
     0
300
100:1
140
100.0
141
1.0
290
     0
  0
SCALE
  5
59
102
{ACAD_REACTORS
330
47
102
}
330
47
100
AcDbScale
 70
     0
300
1/128" = 1'-0"
140
0.0078125
141
12.0
290
     0
  0
SCALE
  5
5A
102
{ACAD_REACTORS
330
47
102
}
330
47
100
AcDbScale
 70
     0
300
1/64" = 1'-0"
140
0.015625
141
12.0
290
     0
  0
SCALE
  5
5B
102
{ACAD_REACTORS
330
47
102
}
330
47
100
AcDbScale
 70
     0
300
1/32" = 1'-0"
140
0.03125
141
12.0
290
     0
  0
SCALE
  5
5C
102
{ACAD_REACTORS
330
47
102
}
330
47
100
AcDbScale
 70
     0
300
1/16" = 1'-0"
140
0.0625
141
12.0
290
     0
  0
SCALE
  5
5D
102
{ACAD_REACTORS
330
47
102
}
330
47
100
AcDbScale
 70
     0
300
3/32" = 1'-0"
140
0.09375
141
12.0
290
     0
  0
SCALE
  5
5E
102
{ACAD_REACTORS
330
47
102
}
330
47
100
AcDbScale
 70
     0
300
1/8" = 1'-0"
140
0.125
141
12.0
290
     0
  0
SCALE
  5
5F
102
{ACAD_REACTORS
330
47
102
}
330
47
100
AcDbScale
 70
     0
300
3/16" = 1'-0"
140
0.1875
141
12.0
290
     0
  0
SCALE
  5
60
102
{ACAD_REACTORS
330
47
102
}
330
47
100
AcDbScale
 70
     0
300
1/4" = 1'-0"
140
0.25
141
12.0
290
     0
  0
SCALE
  5
61
102
{ACAD_REACTORS
330
47
102
}
330
47
100
AcDbScale
 70
     0
300
3/8" = 1'-0"
140
0.375
141
12.0
290
     0
  0
SCALE
  5
62
102
{ACAD_REACTORS
330
47
102
}
330
47
100
AcDbScale
 70
     0
300
1/2" = 1'-0"
140
0.5
141
12.0
290
     0
  0
SCALE
  5
63
102
{ACAD_REACTORS
330
47
102
}
330
47
100
AcDbScale
 70
     0
300
3/4" = 1'-0"
140
0.75
141
12.0
290
     0
  0
SCALE
  5
64
102
{ACAD_REACTORS
330
47
102
}
330
47
100
AcDbScale
 70
     0
300
1" = 1'-0"
140
1.0
141
12.0
290
     0
  0
SCALE
  5
65
102
{ACAD_REACTORS
330
47
102
}
330
47
100
AcDbScale
 70
     0
300
1-1/2" = 1'-0"
140
1.5
141
12.0
290
     0
  0
SCALE
  5
66
102
{ACAD_REACTORS
330
47
102
}
330
47
100
AcDbScale
 70
     0
300
3" = 1'-0"
140
3.0
141
12.0
290
     0
  0
SCALE
  5
67
102
{ACAD_REACTORS
330
47
102
}
330
47
100
AcDbScale
 70
     0
300
6" = 1'-0"
140
6.0
141
12.0
290
     0
  0
SCALE
  5
68
102
{ACAD_REACTORS
330
47
102
}
330
47
100
AcDbScale
 70
     0
300
1'-0" = 1'-0"
140
12.0
141
12.0
290
     0
  0
TABLESTYLE
  5
6A
102
{ACAD_REACTORS
330
69
102
}
102
{ACAD_XDICTIONARY
360
1D9
102
}
330
69
100
AcDbTableStyle
  3
Standard
 70
     0
 71
     0
 40
0.06
 41
0.06
280
     0
281
     0
  7
Standard
140
0.18
170
     2
 62
     0
 63
   257
283
     0
 90
        4
 91
        0
  1

274
    -2
284
     1
 64
     0
275
    -2
285
     1
 65
     0
276
    -2
286
     1
 66
     0
277
    -2
287
     1
 67
     0
278
    -2
288
     1
 68
     0
279
    -2
289
     1
 69
     0
  7
Standard
140
0.25
170
     5
 62
     0
 63
   257
283
     0
 90
        4
 91
        0
  1

274
    -2
284
     1
 64
     0
275
    -2
285
     1
 65
     0
276
    -2
286
     1
 66
     0
277
    -2
287
     1
 67
     0
278
    -2
288
     1
 68
     0
279
    -2
289
     1
 69
     0
  7
Standard
140
0.18
170
     5
 62
     0
 63
   257
283
     0
 90
        4
 91
        0
  1

274
    -2
284
     1
 64
     0
275
    -2
285
     1
 65
     0
276
    -2
286
     1
 66
     0
277
    -2
287
     1
 67
     0
278
    -2
288
     1
 68
     0
279
    -2
289
     1
 69
     0
  0
VISUALSTYLE
  5
2F
102
{ACAD_REACTORS
330
2A
102
}
330
2A
100
AcDbVisualStyle
  2
2dWireframe
 70
     4
177
     3
291
     0
 70
    58
 90
        0
176
     1
 90
        2
176
     1
 90
        0
176
     1
 90
        0
176
     1
 40
0.6
176
     1
 40
30.0
176
     1
 62
     7
420
 16777215
176
     1
 90
        1
176
     1
 90
        4
176
     1
 62
     7
176
     1
 62
   257
176
     1
 90
        1
176
     1
 90
        1
176
     1
 40
1.0
176
     1
 90
        0
176
     1
 62
   257
176
     1
 40
1.0
176
     1
 90
        1
176
     1
 90
        6
176
     1
 90
        2
176
     1
 62
     7
176
     1
 90
        5
176
     1
 90
        0
176
     1
 90
        0
176
     1
290
     0
176
     1
 90
        1
176
     1
 40
0.0
176
     1
 90
        0
176
     1
290
     1
176
     1
290
     1
176
     1
290
     0
176
     1
290
     0
176
     1
290
     0
176
     1
290
     0
176
     1
290
     0
176
     1
290
     0
176
     1
290
     0
176
     1
 90
       50
176
     1
 40
0.0
176
     1
 40
1.0
176
     1
 90
        0
176
     1
 62
    18
420
        0
176
     1
 90
       50
176
     1
 90
        3
176
     1
 62
     5
420
      255
176
     1
290
     0
176
     1
 90
       50
176
     1
 90
       50
176
     1
 90
       50
176
     1
290
     0
176
     1
 90
       50
176
     1
 62
   256
176
     0
 40
1.0
176
     0
 90
        2
176
     1
  1
strokes_ogs.tif
176
     1
290
     0
176
     1
 40
1.0
176
     1
 40
1.0
176
     1
  0
VISUALSTYLE
  5
32
102
{ACAD_REACTORS
330
2A
102
}
330
2A
100
AcDbVisualStyle
  2
Basic
 70
     7
177
     3
291
     1
 70
    58
 90
        1
176
     1
 90
        0
176
     1
 90
        1
176
     1
 90
        0
176
     1
 40
0.6
176
     1
 40
30.0
176
     1
 62
     7
420
 16777215
176
     1
 90
        0
176
     1
 90
        4
176
     1
 62
     7
176
     1
 62
   257
176
     1
 90
        1
176
     1
 90
        1
176
     1
 40
1.0
176
     1
 90
        8
176
     1
 62
     7
176
     1
 40
1.0
176
     1
 90
        1
176
     1
 90
        6
176
     1
 90
        2
176
     1
 62
     7
176
     1
 90
        5
176
     1
 90
        0
176
     1
 90
        0
176
     1
290
     0
176
     1
 90
        1
176
     1
 40
0.0
176
     1
 90
        0
176
     1
290
     0
176
     1
290
     1
176
     1
290
     1
176
     1
290
     0
176
     1
290
     0
176
     1
290
     0
176
     1
290
     0
176
     1
290
     0
176
     1
290
     0
176
     1
 90
       50
176
     1
 40
0.0
176
     1
 40
1.0
176
     1
 90
        0
176
     1
 62
    18
420
        0
176
     1
 90
       50
176
     1
 90
        3
176
     1
 62
     5
420
      255
176
     1
290
     0
176
     1
 90
       50
176
     1
 90
       50
176
     1
 90
       50
176
     1
290
     0
176
     1
 90
       50
176
     1
 62
   256
176
     0
 40
1.0
176
     0
 90
        2
176
     1
  1
strokes_ogs.tif
176
     1
290
     0
176
     1
 40
1.0
176
     1
 40
1.0
176
     1
  0
VISUALSTYLE
  5
36
102
{ACAD_REACTORS
330
2A
102
}
330
2A
100
AcDbVisualStyle
  2
Brighten
 70
    12
177
     3
291
     1
 70
    58
 90
        2
176
     1
 90
        2
176
     1
 90
        0
176
     1
 90
        0
176
     1
 40
0.6
176
     1
 40
30.0
176
     1
 62
     7
420
 16777215
176
     1
 90
        1
176
     1
 90
        4
176
     1
 62
     7
176
     1
 62
   257
176
     1
 90
        1
176
     1
 90
        1
176
     1
 40
1.0
176
     1
 90
        8
176
     1
 62
     7
176
     1
 40
1.0
176
     1
 90
        1
176
     1
 90
        6
176
     1
 90
        2
176
     1
 62
     7
176
     1
 90
        5
176
     1
 90
        0
176
     1
 90
        0
176
     1
290
     0
176
     1
 90
        1
176
     1
 40
50.0
176
     1
 90
        0
176
     1
290
     0
176
     1
290
     1
176
     1
290
     1
176
     1
290
     0
176
     1
290
     0
176
     1
290
     0
176
     1
290
     0
176
     1
290
     0
176
     1
290
     0
176
     1
 90
       50
176
     1
 40
0.0
176
     1
 40
1.0
176
     1
 90
        0
176
     1
 62
    18
420
        0
176
     1
 90
       50
176
     1
 90
        3
176
     1
 62
     5
420
      255
176
     1
290
     0
176
     1
 90
       50
176
     1
 90
       50
176
     1
 90
       50
176
     1
290
     0
176
     1
 90
       50
176
     1
 62
   256
176
     0
 40
1.0
176
     0
 90
        2
176
     1
  1
strokes_ogs.tif
176
     1
290
     0
176
     1
 40
1.0
176
     1
 40
1.0
176
     1
  0
VISUALSTYLE
  5
3A
102
{ACAD_REACTORS
330
2A
102
}
330
2A
100
AcDbVisualStyle
  2
ColorChange
 70
    16
177
     3
291
     1
 70
    58
 90
        2
176
     1
 90
        2
176
     1
 90
        3
176
     1
 90
        0
176
     1
 40
0.6
176
     1
 40
30.0
176
     1
 62
     8
420
  8421504
176
     1
 90
        1
176
     1
 90
        4
176
     1
 62
     7
176
     1
 62
   257
176
     1
 90
        1
176
     1
 90
        1
176
     1
 40
1.0
176
     1
 90
        8
176
     1
 62
     8
420
  8421504
176
     1
 40
1.0
176
     1
 90
        1
176
     1
 90
        6
176
     1
 90
        2
176
     1
 62
     7
176
     1
 90
        5
176
     1
 90
        0
176
     1
 90
        0
176
     1
290
     0
176
     1
 90
        1
176
     1
 40
0.0
176
     1
 90
        0
176
     1
290
     0
176
     1
290
     1
176
     1
290
     1
176
     1
290
     0
176
     1
290
     0
176
     1
290
     0
176
     1
290
     0
176
     1
290
     0
176
     1
290
     0
176
     1
 90
       50
176
     1
 40
0.0
176
     1
 40
1.0
176
     1
 90
        0
176
     1
 62
    18
420
        0
176
     1
 90
       50
176
     1
 90
        3
176
     1
 62
     5
420
      255
176
     1
290
     0
176
     1
 90
       50
176
     1
 90
       50
176
     1
 90
       50
176
     1
290
     0
176
     1
 90
       50
176
     1
 62
   256
176
     0
 40
1.0
176
     0
 90
        2
176
     1
  1
strokes_ogs.tif
176
     1
290
     0
176
     1
 40
1.0
176
     1
 40
1.0
176
     1
  0
VISUALSTYLE
  5
34
102
{ACAD_REACTORS
330
2A
102
}
330
2A
100
AcDbVisualStyle
  2
Conceptual
 70
     9
177
     3
291
     0
 70
    58
 90
        3
176
     1
 90
        2
176
     1
 90
        0
176
     1
 90
        0
176
     1
 40
0.6
176
     1
 40
30.0
176
     1
 62
     7
420
 16777215
176
     1
 90
        2
176
     1
 90
        2
176
     1
 62
     7
176
     1
 62
   257
176
     1
 90
        1
176
     1
 90
        1
176
     1
 40
179.0
176
     1
 90
        8
176
     1
 62
     7
176
     1
 40
1.0
176
     1
 90
        1
176
     1
 90
        6
176
     1
 90
        2
176
     1
 62
     7
176
     1
 90
        3
176
     1
 90
        0
176
     1
 90
        0
176
     1
290
     0
176
     1
 90
        1
176
     1
 40
0.0
176
     1
 90
        0
176
     1
290
     0
176
     1
290
     1
176
     1
290
     1
176
     1
290
     0
176
     1
290
     0
176
     1
290
     0
176
     1
290
     0
176
     1
290
     0
176
     1
290
     0
176
     1
 90
       50
176
     1
 40
0.0
176
     1
 40
1.0
176
     1
 90
        0
176
     1
 62
    18
420
        0
176
     1
 90
       50
176
     1
 90
        3
176
     1
 62
     5
420
      255
176
     1
290
     0
176
     1
 90
       50
176
     1
 90
       50
176
     1
 90
       50
176
     1
290
     0
176
     1
 90
       50
176
     1
 62
   256
176
     0
 40
1.0
176
     0
 90
        2
176
     1
  1
strokes_ogs.tif
176
     1
290
     0
176
     1
 40
1.0
176
     1
 40
1.0
176
     1
  0
VISUALSTYLE
  5
35
102
{ACAD_REACTORS
330
2A
102
}
330
2A
100
AcDbVisualStyle
  2
Dim
 70
    11
177
     3
291
     1
 70
    58
 90
        2
176
     1
 90
        2
176
     1
 90
        0
176
     1
 90
        0
176
     1
 40
0.6
176
     1
 40
30.0
176
     1
 62
     7
420
 16777215
176
     1
 90
        1
176
     1
 90
        4
176
     1
 62
     7
176
     1
 62
   257
176
     1
 90
        1
176
     1
 90
        1
176
     1
 40
1.0
176
     1
 90
        8
176
     1
 62
     7
176
     1
 40
1.0
176
     1
 90
        1
176
     1
 90
        6
176
     1
 90
        2
176
     1
 62
     7
176
     1
 90
        5
176
     1
 90
        0
176
     1
 90
        0
176
     1
290
     0
176
     1
 90
        1
176
     1
 40
-50.0
176
     1
 90
        0
176
     1
290
     0
176
     1
290
     1
176
     1
290
     1
176
     1
290
     0
176
     1
290
     0
176
     1
290
     0
176
     1
290
     0
176
     1
290
     0
176
     1
290
     0
176
     1
 90
       50
176
     1
 40
0.0
176
     1
 40
1.0
176
     1
 90
        0
176
     1
 62
    18
420
        0
176
     1
 90
       50
176
     1
 90
        3
176
     1
 62
     5
420
      255
176
     1
290
     0
176
     1
 90
       50
176
     1
 90
       50
176
     1
 90
       50
176
     1
290
     0
176
     1
 90
       50
176
     1
 62
   256
176
     0
 40
1.0
176
     0
 90
        2
176
     1
  1
strokes_ogs.tif
176
     1
290
     0
176
     1
 40
1.0
176
     1
 40
1.0
176
     1
  0
VISUALSTYLE
  5
3D
102
{ACAD_REACTORS
330
2A
102
}
330
2A
100
AcDbVisualStyle
  2
EdgeColorOff
 70
    22
177
     3
291
     1
 70
    58
 90
        2
176
     0
 90
        2
176
     0
 90
        0
176
     0
 90
        0
176
     0
 40
0.6
176
     0
 40
30.0
176
     0
 62
     7
420
 16777215
176
     0
 90
        1
176
     0
 90
        4
176
     0
 62
     7
176
     0
 62
   257
176
     0
 90
        1
176
     0
 90
        1
176
     0
 40
1.0
176
     0
 90
        8
176
     2
 62
     7
176
     0
 40
1.0
176
     0
 90
        1
176
     0
 90
        6
176
     0
 90
        2
176
     0
 62
     7
176
     0
 90
        5
176
     0
 90
        0
176
     0
 90
        0
176
     0
290
     0
176
     0
 90
        1
176
     0
 40
0.0
176
     0
 90
        0
176
     0
290
     0
176
     0
290
     1
176
     0
290
     1
176
     0
290
     0
176
     0
290
     0
176
     0
290
     0
176
     0
290
     0
176
     0
290
     0
176
     0
290
     0
176
     0
 90
       50
176
     0
 40
0.0
176
     0
 40
1.0
176
     0
 90
        0
176
     0
 62
    18
420
        0
176
     0
 90
       50
176
     0
 90
        3
176
     0
 62
     5
420
      255
176
     0
290
     0
176
     0
 90
       50
176
     0
 90
       50
176
     0
 90
       50
176
     0
290
     0
176
     0
 90
       50
176
     0
 62
   256
176
     0
 40
1.0
176
     0
 90
        2
176
     0
  1
strokes_ogs.tif
176
     0
290
     0
176
     0
 40
1.0
176
     0
 40
1.0
176
     0
  0
VISUALSTYLE
  5
39
102
{ACAD_REACTORS
330
2A
102
}
330
2A
100
AcDbVisualStyle
  2
Facepattern
 70
    15
177
     3
291
     1
 70
    58
 90
        2
176
     1
 90
        2
176
     1
 90
        0
176
     1
 90
        0
176
     1
 40
0.6
176
     1
 40
30.0
176
     1
 62
     7
420
 16777215
176
     1
 90
        1
176
     1
 90
        4
176
     1
 62
     7
176
     1
 62
   257
176
     1
 90
        1
176
     1
 90
        1
176
     1
 40
1.0
176
     1
 90
        8
176
     1
 62
     7
176
     1
 40
1.0
176
     1
 90
        1
176
     1
 90
        6
176
     1
 90
        2
176
     1
 62
     7
176
     1
 90
        5
176
     1
 90
        0
176
     1
 90
        0
176
     1
290
     0
176
     1
 90
        1
176
     1
 40
0.0
176
     1
 90
        0
176
     1
290
     0
176
     1
290
     1
176
     1
290
     1
176
     1
290
     0
176
     1
290
     0
176
     1
290
     0
176
     1
290
     0
176
     1
290
     0
176
     1
290
     0
176
     1
 90
       50
176
     1
 40
0.0
176
     1
 40
1.0
176
     1
 90
        0
176
     1
 62
    18
420
        0
176
     1
 90
       50
176
     1
 90
        3
176
     1
 62
     5
420
      255
176
     1
290
     0
176
     1
 90
       50
176
     1
 90
       50
176
     1
 90
       50
176
     1
290
     0
176
     1
 90
       50
176
     1
 62
   256
176
     0
 40
1.0
176
     0
 90
        2
176
     1
  1
strokes_ogs.tif
176
     1
290
     0
176
     1
 40
1.0
176
     1
 40
1.0
176
     1
  0
VISUALSTYLE
  5
2B
102
{ACAD_REACTORS
330
2A
102
}
330
2A
100
AcDbVisualStyle
  2
Flat
 70
     0
177
     3
291
     1
 70
    58
 90
        2
176
     1
 90
        1
176
     1
 90
        1
176
     1
 90
        2
176
     1
 40
0.6
176
     1
 40
30.0
176
     1
 62
     7
420
 16777215
176
     1
 90
        0
176
     1
 90
        0
176
     1
 62
     7
176
     1
 62
   257
176
     1
 90
        1
176
     1
 90
        1
176
     1
 40
1.0
176
     1
 90
        8
176
     1
 62
     7
176
     1
 40
1.0
176
     1
 90
        1
176
     1
 90
        6
176
     1
 90
        2
176
     1
 62
     7
176
     1
 90
        5
176
     1
 90
        0
176
     1
 90
        0
176
     1
290
     0
176
     1
 90
       13
176
     1
 40
0.0
176
     1
 90
        0
176
     1
290
     0
176
     1
290
     1
176
     1
290
     1
176
     1
290
     0
176
     1
290
     0
176
     1
290
     0
176
     1
290
     0
176
     1
290
     0
176
     1
290
     0
176
     1
 90
       50
176
     1
 40
0.0
176
     1
 40
1.0
176
     1
 90
        0
176
     1
 62
    18
420
        0
176
     1
 90
       50
176
     1
 90
        3
176
     1
 62
     5
420
      255
176
     1
290
     0
176
     1
 90
       50
176
     1
 90
       50
176
     1
 90
       50
176
     1
290
     0
176
     1
 90
       50
176
     1
 62
   256
176
     0
 40
1.0
176
     0
 90
        2
176
     1
  1
strokes_ogs.tif
176
     1
290
     0
176
     1
 40
1.0
176
     1
 40
1.0
176
     1
  0
VISUALSTYLE
  5
2C
102
{ACAD_REACTORS
330
2A
102
}
330
2A
100
AcDbVisualStyle
  2
FlatWithEdges
 70
     1
177
     3
291
     1
 70
    58
 90
        2
176
     1
 90
        1
176
     1
 90
        1
176
     1
 90
        2
176
     1
 40
0.6
176
     1
 40
30.0
176
     1
 62
     7
420
 16777215
176
     1
 90
        1
176
     1
 90
        0
176
     1
 62
     7
176
     1
 62
   257
176
     1
 90
        1
176
     1
 90
        1
176
     1
 40
1.0
176
     1
 90
        0
176
     1
 62
   257
176
     1
 40
1.0
176
     1
 90
        1
176
     1
 90
        6
176
     1
 90
        2
176
     1
 62
     7
176
     1
 90
        5
176
     1
 90
        0
176
     1
 90
        0
176
     1
290
     0
176
     1
 90
       13
176
     1
 40
0.0
176
     1
 90
        0
176
     1
290
     0
176
     1
290
     1
176
     1
290
     1
176
     1
290
     0
176
     1
290
     0
176
     1
290
     0
176
     1
290
     0
176
     1
290
     0
176
     1
290
     0
176
     1
 90
       50
176
     1
 40
0.0
176
     1
 40
1.0
176
     1
 90
        0
176
     1
 62
    18
420
        0
176
     1
 90
       50
176
     1
 90
        3
176
     1
 62
     5
420
      255
176
     1
290
     0
176
     1
 90
       50
176
     1
 90
       50
176
     1
 90
       50
176
     1
290
     0
176
     1
 90
       50
176
     1
 62
   256
176
     0
 40
1.0
176
     0
 90
        2
176
     1
  1
strokes_ogs.tif
176
     1
290
     0
176
     1
 40
1.0
176
     1
 40
1.0
176
     1
  0
VISUALSTYLE
  5
2D
102
{ACAD_REACTORS
330
2A
102
}
330
2A
100
AcDbVisualStyle
  2
Gouraud
 70
     2
177
     3
291
     1
 70
    58
 90
        2
176
     1
 90
        2
176
     1
 90
        1
176
     1
 90
        2
176
     1
 40
0.6
176
     1
 40
30.0
176
     1
 62
     7
420
 16777215
176
     1
 90
        0
176
     1
 90
        0
176
     1
 62
     7
176
     1
 62
   257
176
     1
 90
        1
176
     1
 90
        1
176
     1
 40
1.0
176
     1
 90
        0
176
     1
 62
     7
176
     1
 40
1.0
176
     1
 90
        1
176
     1
 90
        6
176
     1
 90
        2
176
     1
 62
     7
176
     1
 90
        5
176
     1
 90
        0
176
     1
 90
        0
176
     1
290
     0
176
     1
 90
       13
176
     1
 40
0.0
176
     1
 90
        0
176
     1
290
     0
176
     1
290
     1
176
     1
290
     1
176
     1
290
     0
176
     1
290
     0
176
     1
290
     0
176
     1
290
     0
176
     1
290
     0
176
     1
290
     0
176
     1
 90
       50
176
     1
 40
0.0
176
     1
 40
1.0
176
     1
 90
        0
176
     1
 62
    18
420
        0
176
     1
 90
       50
176
     1
 90
        3
176
     1
 62
     5
420
      255
176
     1
290
     0
176
     1
 90
       50
176
     1
 90
       50
176
     1
 90
       50
176
     1
290
     0
176
     1
 90
       50
176
     1
 62
   256
176
     0
 40
1.0
176
     0
 90
        2
176
     1
  1
strokes_ogs.tif
176
     1
290
     0
176
     1
 40
1.0
176
     1
 40
1.0
176
     1
  0
VISUALSTYLE
  5
2E
102
{ACAD_REACTORS
330
2A
102
}
330
2A
100
AcDbVisualStyle
  2
GouraudWithEdges
 70
     3
177
     3
291
     1
 70
    58
 90
        2
176
     1
 90
        2
176
     1
 90
        1
176
     1
 90
        2
176
     1
 40
0.6
176
     1
 40
30.0
176
     1
 62
     7
420
 16777215
176
     1
 90
        1
176
     1
 90
        0
176
     1
 62
     7
176
     1
 62
   257
176
     1
 90
        1
176
     1
 90
        1
176
     1
 40
1.0
176
     1
 90
        0
176
     1
 62
   257
176
     1
 40
1.0
176
     1
 90
        1
176
     1
 90
        6
176
     1
 90
        2
176
     1
 62
     7
176
     1
 90
        5
176
     1
 90
        0
176
     1
 90
        0
176
     1
290
     0
176
     1
 90
       13
176
     1
 40
0.0
176
     1
 90
        0
176
     1
290
     0
176
     1
290
     1
176
     1
290
     1
176
     1
290
     0
176
     1
290
     0
176
     1
290
     0
176
     1
290
     0
176
     1
290
     0
176
     1
290
     0
176
     1
 90
       50
176
     1
 40
0.0
176
     1
 40
1.0
176
     1
 90
        0
176
     1
 62
    18
420
        0
176
     1
 90
       50
176
     1
 90
        3
176
     1
 62
     5
420
      255
176
     1
290
     0
176
     1
 90
       50
176
     1
 90
       50
176
     1
 90
       50
176
     1
290
     0
176
     1
 90
       50
176
     1
 62
   256
176
     0
 40
1.0
176
     0
 90
        2
176
     1
  1
strokes_ogs.tif
176
     1
290
     0
176
     1
 40
1.0
176
     1
 40
1.0
176
     1
  0
VISUALSTYLE
  5
31
102
{ACAD_REACTORS
330
2A
102
}
330
2A
100
AcDbVisualStyle
  2
Hidden
 70
     6
177
     3
291
     0
 70
    58
 90
        1
176
     1
 90
        2
176
     1
 90
        2
176
     1
 90
        0
176
     1
 40
0.6
176
     1
 40
30.0
176
     1
 62
     7
420
 16777215
176
     1
 90
        2
176
     1
 90
        2
176
     1
 62
     7
176
     1
 62
   257
176
     1
 90
        2
176
     1
 90
        1
176
     1
 40
40.0
176
     1
 90
        0
176
     1
 62
   257
176
     1
 40
1.0
176
     1
 90
        1
176
     1
 90
        6
176
     1
 90
        2
176
     1
 62
     7
176
     1
 90
        3
176
     1
 90
        0
176
     1
 90
        0
176
     1
290
     0
176
     1
 90
        1
176
     1
 40
0.0
176
     1
 90
        0
176
     1
290
     0
176
     1
290
     1
176
     1
290
     1
176
     1
290
     0
176
     1
290
     0
176
     1
290
     0
176
     1
290
     0
176
     1
290
     0
176
     1
290
     0
176
     1
 90
       50
176
     1
 40
0.0
176
     1
 40
1.0
176
     1
 90
        0
176
     1
 62
    18
420
        0
176
     1
 90
       50
176
     1
 90
        3
176
     1
 62
     5
420
      255
176
     1
290
     0
176
     1
 90
       50
176
     1
 90
       50
176
     1
 90
       50
176
     1
290
     0
176
     1
 90
       50
176
     1
 62
   256
176
     0
 40
1.0
176
     0
 90
        2
176
     1
  1
strokes_ogs.tif
176
     1
290
     0
176
     1
 40
1.0
176
     1
 40
1.0
176
     1
  0
VISUALSTYLE
  5
3B
102
{ACAD_REACTORS
330
2A
102
}
330
2A
100
AcDbVisualStyle
  2
JitterOff
 70
    20
177
     3
291
     1
 70
    58
 90
        2
176
     0
 90
        2
176
     0
 90
        0
176
     0
 90
        0
176
     0
 40
0.6
176
     0
 40
30.0
176
     0
 62
     7
420
 16777215
176
     0
 90
        1
176
     0
 90
        4
176
     0
 62
     7
176
     0
 62
   257
176
     0
 90
        1
176
     0
 90
        1
176
     0
 40
1.0
176
     0
 90
       10
176
     2
 62
     7
176
     0
 40
1.0
176
     0
 90
        1
176
     0
 90
        6
176
     0
 90
        2
176
     0
 62
     7
176
     0
 90
        5
176
     0
 90
        0
176
     0
 90
        0
176
     0
290
     0
176
     0
 90
        1
176
     0
 40
0.0
176
     0
 90
        0
176
     0
290
     0
176
     0
290
     1
176
     0
290
     1
176
     0
290
     0
176
     0
290
     0
176
     0
290
     0
176
     0
290
     0
176
     0
290
     0
176
     0
290
     0
176
     0
 90
       50
176
     0
 40
0.0
176
     0
 40
1.0
176
     0
 90
        0
176
     0
 62
    18
420
        0
176
     0
 90
       50
176
     0
 90
        3
176
     0
 62
     5
420
      255
176
     0
290
     0
176
     0
 90
       50
176
     0
 90
       50
176
     0
 90
       50
176
     0
290
     0
176
     0
 90
       50
176
     0
 62
   256
176
     0
 40
1.0
176
     0
 90
        2
176
     0
  1
strokes_ogs.tif
176
     0
290
     0
176
     0
 40
1.0
176
     0
 40
1.0
176
     0
  0
VISUALSTYLE
  5
38
102
{ACAD_REACTORS
330
2A
102
}
330
2A
100
AcDbVisualStyle
  2
Linepattern
 70
    14
177
     3
291
     1
 70
    58
 90
        2
176
     1
 90
        2
176
     1
 90
        0
176
     1
 90
        0
176
     1
 40
0.6
176
     1
 40
30.0
176
     1
 62
     7
420
 16777215
176
     1
 90
        1
176
     1
 90
        4
176
     1
 62
     7
176
     1
 62
   257
176
     1
 90
        7
176
     1
 90
        7
176
     1
 40
1.0
176
     1
 90
        8
176
     1
 62
     7
176
     1
 40
1.0
176
     1
 90
        1
176
     1
 90
        6
176
     1
 90
        2
176
     1
 62
     7
176
     1
 90
        5
176
     1
 90
        0
176
     1
 90
        0
176
     1
290
     0
176
     1
 90
        1
176
     1
 40
0.0
176
     1
 90
        0
176
     1
290
     0
176
     1
290
     1
176
     1
290
     1
176
     1
290
     0
176
     1
290
     0
176
     1
290
     0
176
     1
290
     0
176
     1
290
     0
176
     1
290
     0
176
     1
 90
       50
176
     1
 40
0.0
176
     1
 40
1.0
176
     1
 90
        0
176
     1
 62
    18
420
        0
176
     1
 90
       50
176
     1
 90
        3
176
     1
 62
     5
420
      255
176
     1
290
     0
176
     1
 90
       50
176
     1
 90
       50
176
     1
 90
       50
176
     1
290
     0
176
     1
 90
       50
176
     1
 62
   256
176
     0
 40
1.0
176
     0
 90
        2
176
     1
  1
strokes_ogs.tif
176
     1
290
     0
176
     1
 40
1.0
176
     1
 40
1.0
176
     1
  0
VISUALSTYLE
  5
3C
102
{ACAD_REACTORS
330
2A
102
}
330
2A
100
AcDbVisualStyle
  2
OverhangOff
 70
    21
177
     3
291
     1
 70
    58
 90
        2
176
     0
 90
        2
176
     0
 90
        0
176
     0
 90
        0
176
     0
 40
0.6
176
     0
 40
30.0
176
     0
 62
     7
420
 16777215
176
     0
 90
        1
176
     0
 90
        4
176
     0
 62
     7
176
     0
 62
   257
176
     0
 90
        1
176
     0
 90
        1
176
     0
 40
1.0
176
     0
 90
        9
176
     2
 62
     7
176
     0
 40
1.0
176
     0
 90
        1
176
     0
 90
        6
176
     0
 90
        2
176
     0
 62
     7
176
     0
 90
        5
176
     0
 90
        0
176
     0
 90
        0
176
     0
290
     0
176
     0
 90
        1
176
     0
 40
0.0
176
     0
 90
        0
176
     0
290
     0
176
     0
290
     1
176
     0
290
     1
176
     0
290
     0
176
     0
290
     0
176
     0
290
     0
176
     0
290
     0
176
     0
290
     0
176
     0
290
     0
176
     0
 90
       50
176
     0
 40
0.0
176
     0
 40
1.0
176
     0
 90
        0
176
     0
 62
    18
420
        0
176
     0
 90
       50
176
     0
 90
        3
176
     0
 62
     5
420
      255
176
     0
290
     0
176
     0
 90
       50
176
     0
 90
       50
176
     0
 90
       50
176
     0
290
     0
176
     0
 90
       50
176
     0
 62
   256
176
     0
 40
1.0
176
     0
 90
        2
176
     0
  1
strokes_ogs.tif
176
     0
290
     0
176
     0
 40
1.0
176
     0
 40
1.0
176
     0
  0
VISUALSTYLE
  5
33
102
{ACAD_REACTORS
330
2A
102
}
330
2A
100
AcDbVisualStyle
  2
Realistic
 70
     8
177
     3
291
     0
 70
    58
 90
        2
176
     1
 90
        3
176
     1
 90
        0
176
     1
 90
        2
176
     1
 40
0.6
176
     1
 40
30.0
176
     1
 62
     7
420
 16777215
176
     1
 90
        0
176
     1
 90
        0
176
     1
 62
     7
176
     1
 62
   257
176
     1
 90
        1
176
     1
 90
        1
176
     1
 40
1.0
176
     1
 90
        8
176
     1
 62
   257
176
     1
 40
1.0
176
     1
 90
        1
176
     1
 90
        6
176
     1
 90
        2
176
     1
 62
     7
176
     1
 90
        3
176
     1
 90
        0
176
     1
 90
        0
176
     1
290
     0
176
     1
 90
       13
176
     1
 40
0.0
176
     1
 90
        0
176
     1
290
     0
176
     1
290
     1
176
     1
290
     1
176
     1
290
     0
176
     1
290
     0
176
     1
290
     0
176
     1
290
     0
176
     1
290
     0
176
     1
290
     0
176
     1
 90
       50
176
     1
 40
0.0
176
     1
 40
1.0
176
     1
 90
        0
176
     1
 62
    18
420
        0
176
     1
 90
       50
176
     1
 90
        3
176
     1
 62
     5
420
      255
176
     1
290
     0
176
     1
 90
       50
176
     1
 90
       50
176
     1
 90
       50
176
     1
290
     0
176
     1
 90
       50
176
     1
 62
   256
176
     0
 40
1.0
176
     0
 90
        2
176
     1
  1
strokes_ogs.tif
176
     1
290
     0
176
     1
 40
1.0
176
     1
 40
1.0
176
     1
  0
VISUALSTYLE
  5
42
102
{ACAD_REACTORS
330
2A
102
}
330
2A
100
AcDbVisualStyle
  2
Shaded
 70
    27
177
     3
291
     0
 70
    58
 90
        2
176
     1
 90
        2
176
     1
 90
        1
176
     1
 90
        2
176
     1
 40
0.6
176
     1
 40
30.0
176
     1
 62
     7
420
 16777215
176
     1
 90
        0
176
     1
 90
        4
176
     1
 62
     7
176
     1
 62
   257
176
     1
 90
        1
176
     1
 90
        1
176
     1
 40
1.0
176
     1
 90
        8
176
     1
 62
   257
176
     1
 40
1.0
176
     1
 90
        1
176
     1
 90
        6
176
     1
 90
        2
176
     1
 62
     8
420
  7895160
176
     1
 90
        3
176
     1
 90
        0
176
     1
 90
        0
176
     1
290
     0
176
     1
 90
        5
176
     1
 40
0.0
176
     1
 90
        0
176
     1
290
     0
176
     1
290
     1
176
     1
290
     1
176
     1
290
     0
176
     1
290
     0
176
     1
290
     0
176
     1
290
     0
176
     1
290
     0
176
     1
290
     0
176
     1
 90
       50
176
     1
 40
0.0
176
     1
 40
1.0
176
     1
 90
        0
176
     1
 62
    18
420
        0
176
     1
 90
       50
176
     1
 90
        3
176
     1
 62
     5
420
      255
176
     1
290
     0
176
     1
 90
       50
176
     1
 90
       50
176
     1
 90
       50
176
     1
290
     0
176
     1
 90
       50
176
     1
 62
   256
176
     0
 40
1.0
176
     0
 90
        2
176
     1
  1
strokes_ogs.tif
176
     1
290
     0
176
     1
 40
1.0
176
     1
 40
1.0
176
     1
  0
VISUALSTYLE
  5
41
102
{ACAD_REACTORS
330
2A
102
}
330
2A
100
AcDbVisualStyle
  2
Shaded with edges
 70
    26
177
     3
291
     0
 70
    58
 90
        2
176
     1
 90
        2
176
     1
 90
        1
176
     1
 90
        2
176
     1
 40
0.6
176
     1
 40
30.0
176
     1
 62
     7
420
 16777215
176
     1
 90
        1
176
     1
 90
       10
176
     1
 62
     7
176
     1
 62
   257
176
     1
 90
        2
176
     1
 90
        1
176
     1
 40
1.0
176
     1
 90
        8
176
     1
 62
   257
176
     1
 40
1.0
176
     1
 90
        1
176
     1
 90
        6
176
     1
 90
        2
176
     1
 62
     7
176
     1
 90
        3
176
     1
 90
        0
176
     1
 90
        0
176
     1
290
     0
176
     1
 90
        5
176
     1
 40
0.0
176
     1
 90
        0
176
     1
290
     0
176
     1
290
     1
176
     1
290
     1
176
     1
290
     0
176
     1
290
     0
176
     1
290
     0
176
     1
290
     0
176
     1
290
     0
176
     1
290
     0
176
     1
 90
       50
176
     1
 40
0.0
176
     1
 40
1.0
176
     1
 90
        0
176
     1
 62
    18
420
        0
176
     1
 90
       50
176
     1
 90
        3
176
     1
 62
     5
420
      255
176
     1
290
     0
176
     1
 90
       50
176
     1
 90
       50
176
     1
 90
       50
176
     1
290
     0
176
     1
 90
       50
176
     1
 62
   256
176
     0
 40
1.0
176
     0
 90
        2
176
     1
  1
strokes_ogs.tif
176
     1
290
     0
176
     1
 40
1.0
176
     1
 40
1.0
176
     1
  0
VISUALSTYLE
  5
3E
102
{ACAD_REACTORS
330
2A
102
}
330
2A
100
AcDbVisualStyle
  2
Shades of Gray
 70
    23
177
     3
291
     0
 70
    58
 90
        2
176
     1
 90
        2
176
     1
 90
        3
176
     1
 90
        0
176
     1
 40
0.6
176
     1
 40
30.0
176
     1
 62
     7
420
 16777215
176
     1
 90
        2
176
     1
 90
        2
176
     1
 62
     7
176
     1
 62
     7
176
     1
 90
        1
176
     1
 90
        1
176
     1
 40
40.0
176
     1
 90
        8
176
     1
 62
     7
176
     1
 40
1.0
176
     1
 90
        1
176
     1
 90
        6
176
     1
 90
        2
176
     1
 62
     7
176
     1
 90
        3
176
     1
 90
        0
176
     1
 90
        0
176
     1
290
     0
176
     1
 90
        1
176
     1
 40
0.0
176
     1
 90
        0
176
     1
290
     0
176
     1
290
     1
176
     1
290
     1
176
     1
290
     0
176
     1
290
     0
176
     1
290
     0
176
     1
290
     0
176
     1
290
     0
176
     1
290
     0
176
     1
 90
       50
176
     1
 40
0.0
176
     1
 40
1.0
176
     1
 90
        0
176
     1
 62
    18
420
        0
176
     1
 90
       50
176
     1
 90
        3
176
     1
 62
     5
420
      255
176
     1
290
     0
176
     1
 90
       50
176
     1
 90
       50
176
     1
 90
       50
176
     1
290
     0
176
     1
 90
       50
176
     1
 62
   256
176
     0
 40
1.0
176
     0
 90
        2
176
     1
  1
strokes_ogs.tif
176
     1
290
     0
176
     1
 40
1.0
176
     1
 40
1.0
176
     1
  0
VISUALSTYLE
  5
3F
102
{ACAD_REACTORS
330
2A
102
}
330
2A
100
AcDbVisualStyle
  2
Sketchy
 70
    24
177
     3
291
     0
 70
    58
 90
        1
176
     1
 90
        2
176
     1
 90
        2
176
     1
 90
        0
176
     1
 40
0.6
176
     1
 40
30.0
176
     1
 62
     7
420
 16777215
176
     1
 90
        2
176
     1
 90
        2
176
     1
 62
     7
176
     1
 62
     7
176
     1
 90
        1
176
     1
 90
        1
176
     1
 40
40.0
176
     1
 90
       11
176
     1
 62
     7
176
     1
 40
1.0
176
     1
 90
        1
176
     1
 90
        6
176
     1
 90
        2
176
     1
 62
     7
176
     1
 90
        6
176
     1
 90
        0
176
     1
 90
        0
176
     1
290
     0
176
     1
 90
        1
176
     1
 40
0.0
176
     1
 90
        0
176
     1
290
     0
176
     1
290
     1
176
     1
290
     1
176
     1
290
     0
176
     1
290
     0
176
     1
290
     0
176
     1
290
     0
176
     1
290
     0
176
     1
290
     0
176
     1
 90
       50
176
     1
 40
0.0
176
     1
 40
1.0
176
     1
 90
        0
176
     1
 62
    18
420
        0
176
     1
 90
       50
176
     1
 90
        3
176
     1
 62
     5
420
      255
176
     1
290
     0
176
     1
 90
       50
176
     1
 90
       50
176
     1
 90
       50
176
     1
290
     0
176
     1
 90
       50
176
     1
 62
   256
176
     0
 40
1.0
176
     0
 90
        2
176
     1
  1
strokes_ogs.tif
176
     1
290
     0
176
     1
 40
1.0
176
     1
 40
1.0
176
     1
  0
VISUALSTYLE
  5
37
102
{ACAD_REACTORS
330
2A
102
}
330
2A
100
AcDbVisualStyle
  2
Thicken
 70
    13
177
     3
291
     1
 70
    58
 90
        2
176
     1
 90
        2
176
     1
 90
        0
176
     1
 90
        0
176
     1
 40
0.6
176
     1
 40
30.0
176
     1
 62
     7
420
 16777215
176
     1
 90
        1
176
     1
 90
        4
176
     1
 62
     7
176
     1
 62
   257
176
     1
 90
        1
176
     1
 90
        1
176
     1
 40
1.0
176
     1
 90
       12
176
     1
 62
     7
176
     1
 40
1.0
176
     1
 90
        1
176
     1
 90
        6
176
     1
 90
        2
176
     1
 62
     7
176
     1
 90
        5
176
     1
 90
        0
176
     1
 90
        0
176
     1
290
     0
176
     1
 90
        1
176
     1
 40
0.0
176
     1
 90
        0
176
     1
290
     0
176
     1
290
     1
176
     1
290
     1
176
     1
290
     0
176
     1
290
     0
176
     1
290
     0
176
     1
290
     0
176
     1
290
     0
176
     1
290
     0
176
     1
 90
       50
176
     1
 40
0.0
176
     1
 40
1.0
176
     1
 90
        0
176
     1
 62
    18
420
        0
176
     1
 90
       50
176
     1
 90
        3
176
     1
 62
     5
420
      255
176
     1
290
     0
176
     1
 90
       50
176
     1
 90
       50
176
     1
 90
       50
176
     1
290
     0
176
     1
 90
       50
176
     1
 62
   256
176
     0
 40
1.0
176
     0
 90
        2
176
     1
  1
strokes_ogs.tif
176
     1
290
     0
176
     1
 40
1.0
176
     1
 40
1.0
176
     1
  0
VISUALSTYLE
  5
30
102
{ACAD_REACTORS
330
2A
102
}
330
2A
100
AcDbVisualStyle
  2
Wireframe
 70
     5
177
     3
291
     0
 70
    58
 90
        0
176
     1
 90
        2
176
     1
 90
        0
176
     1
 90
        0
176
     1
 40
0.6
176
     1
 40
30.0
176
     1
 62
     7
420
 16777215
176
     1
 90
        1
176
     1
 90
        4
176
     1
 62
     7
176
     1
 62
   257
176
     1
 90
        1
176
     1
 90
        1
176
     1
 40
1.0
176
     1
 90
        0
176
     1
 62
   257
176
     1
 40
1.0
176
     1
 90
        1
176
     1
 90
        6
176
     1
 90
        2
176
     1
 62
     7
176
     1
 90
        3
176
     1
 90
        0
176
     1
 90
        0
176
     1
290
     0
176
     1
 90
        1
176
     1
 40
0.0
176
     1
 90
        0
176
     1
290
     0
176
     1
290
     1
176
     1
290
     1
176
     1
290
     0
176
     1
290
     0
176
     1
290
     0
176
     1
290
     0
176
     1
290
     0
176
     1
290
     0
176
     1
 90
       50
176
     1
 40
0.0
176
     1
 40
1.0
176
     1
 90
        0
176
     1
 62
    18
420
        0
176
     1
 90
       50
176
     1
 90
        3
176
     1
 62
     5
420
      255
176
     1
290
     0
176
     1
 90
       50
176
     1
 90
       50
176
     1
 90
       50
176
     1
290
     0
176
     1
 90
       50
176
     1
 62
   256
176
     0
 40
1.0
176
     0
 90
        2
176
     1
  1
strokes_ogs.tif
176
     1
290
     0
176
     1
 40
1.0
176
     1
 40
1.0
176
     1
  0
VISUALSTYLE
  5
40
102
{ACAD_REACTORS
330
2A
102
}
330
2A
100
AcDbVisualStyle
  2
X-Ray
 70
    25
177
     3
291
     0
 70
    58
 90
        2
176
     1
 90
        2
176
     1
 90
        1
176
     1
 90
        1
176
     1
 40
0.5
176
     1
 40
30.0
176
     1
 62
     7
420
 16777215
176
     1
 90
        1
176
     1
 90
        0
176
     1
 62
     7
176
     1
 62
   257
176
     1
 90
        1
176
     1
 90
        1
176
     1
 40
1.0
176
     1
 90
        8
176
     1
 62
     7
176
     1
 40
1.0
176
     1
 90
        1
176
     1
 90
        6
176
     1
 90
        2
176
     1
 62
     7
176
     1
 90
        3
176
     1
 90
        0
176
     1
 90
        0
176
     1
290
     0
176
     1
 90
       13
176
     1
 40
0.0
176
     1
 90
        0
176
     1
290
     0
176
     1
290
     1
176
     1
290
     1
176
     1
290
     0
176
     1
290
     0
176
     1
290
     0
176
     1
290
     0
176
     1
290
     0
176
     1
290
     0
176
     1
 90
       50
176
     1
 40
0.0
176
     1
 40
1.0
176
     1
 90
        0
176
     1
 62
    18
420
        0
176
     1
 90
       50
176
     1
 90
        3
176
     1
 62
     5
420
      255
176
     1
290
     0
176
     1
 90
       50
176
     1
 90
       50
176
     1
 90
       50
176
     1
290
     0
176
     1
 90
       50
176
     1
 62
   256
176
     0
 40
1.0
176
     0
 90
        2
176
     1
  1
strokes_ogs.tif
176
     1
290
     0
176
     1
 40
1.0
176
     1
 40
1.0
176
     1
  0
DICTIONARYVAR
  5
1D8
102
{ACAD_REACTORS
330
1D7
102
}
330
1D7
100
DictionaryVariables
280
     0
  1
1:1
  0
DICTIONARYVAR
  5
1DD
102
{ACAD_REACTORS
330
1D7
102
}
330
1D7
100
DictionaryVariables
280
     0
  1
Standard
  0
DICTIONARYVAR
  5
1DC
102
{ACAD_REACTORS
330
1D7
102
}
330
1D7
100
DictionaryVariables
280
     0
  1
Standard
  0
DICTIONARY
  5
1D9
330
6A
100
AcDbDictionary
280
     1
281
     1
  3
ACAD_ROUNDTRIP_2008_TABLESTYLE_CELLSTYLEMAP
360
1DA
  0
CELLSTYLEMAP
  5
1DA
102
{ACAD_REACTORS
330
1D9
102
}
330
1D9
100
AcDbCellStyleMap
 90
        3
300
CELLSTYLE
  1
TABLEFORMAT_BEGIN
 90
        5
170
     1
 91
        0
 92
    32768
 62
   257
 93
        1
300
CONTENTFORMAT
  1
CONTENTFORMAT_BEGIN
 90
        0
 91
        0
 92
        4
 93
        0
300

 40
0.0
140
1.0
 94
        5
 62
     0
340
11
144
0.25
309
CONTENTFORMAT_END
171
     1
301
MARGIN
  1
CELLMARGIN_BEGIN
 40
0.06
 40
0.06
 40
0.06
 40
0.06
 40
0.06
 40
0.06
309
CELLMARGIN_END
 94
        6
 95
        1
302
GRIDFORMAT
  1
GRIDFORMAT_BEGIN
 90
        0
 91
        1
 62
     0
 92
       -2
340
14
 93
        0
 40
0.045
309
GRIDFORMAT_END
 95
        2
302
GRIDFORMAT
  1
GRIDFORMAT_BEGIN
 90
        0
 91
        1
 62
     0
 92
       -2
340
14
 93
        0
 40
0.045
309
GRIDFORMAT_END
 95
        4
302
GRIDFORMAT
  1
GRIDFORMAT_BEGIN
 90
        0
 91
        1
 62
     0
 92
       -2
340
14
 93
        0
 40
0.045
309
GRIDFORMAT_END
 95
        8
302
GRIDFORMAT
  1
GRIDFORMAT_BEGIN
 90
        0
 91
        1
 62
     0
 92
       -2
340
14
 93
        0
 40
0.045
309
GRIDFORMAT_END
 95
       16
302
GRIDFORMAT
  1
GRIDFORMAT_BEGIN
 90
        0
 91
        1
 62
     0
 92
       -2
340
14
 93
        0
 40
0.045
309
GRIDFORMAT_END
 95
       32
302
GRIDFORMAT
  1
GRIDFORMAT_BEGIN
 90
        0
 91
        1
 62
     0
 92
       -2
340
14
 93
        0
 40
0.045
309
GRIDFORMAT_END
309
TABLEFORMAT_END
  1
CELLSTYLE_BEGIN
 90
        1
 91
        1
300
_TITLE
309
CELLSTYLE_END
300
CELLSTYLE
  1
TABLEFORMAT_BEGIN
 90
        5
170
     1
 91
        0
 92
        0
 62
   257
 93
        1
300
CONTENTFORMAT
  1
CONTENTFORMAT_BEGIN
 90
        0
 91
        0
 92
        4
 93
        0
300

 40
0.0
140
1.0
 94
        5
 62
     0
340
11
144
0.18
309
CONTENTFORMAT_END
171
     1
301
MARGIN
  1
CELLMARGIN_BEGIN
 40
0.06
 40
0.06
 40
0.06
 40
0.06
 40
0.06
 40
0.06
309
CELLMARGIN_END
 94
        6
 95
        1
302
GRIDFORMAT
  1
GRIDFORMAT_BEGIN
 90
        0
 91
        1
 62
     0
 92
       -2
340
14
 93
        0
 40
0.045
309
GRIDFORMAT_END
 95
        2
302
GRIDFORMAT
  1
GRIDFORMAT_BEGIN
 90
        0
 91
        1
 62
     0
 92
       -2
340
14
 93
        0
 40
0.045
309
GRIDFORMAT_END
 95
        4
302
GRIDFORMAT
  1
GRIDFORMAT_BEGIN
 90
        0
 91
        1
 62
     0
 92
       -2
340
14
 93
        0
 40
0.045
309
GRIDFORMAT_END
 95
        8
302
GRIDFORMAT
  1
GRIDFORMAT_BEGIN
 90
        0
 91
        1
 62
     0
 92
       -2
340
14
 93
        0
 40
0.045
309
GRIDFORMAT_END
 95
       16
302
GRIDFORMAT
  1
GRIDFORMAT_BEGIN
 90
        0
 91
        1
 62
     0
 92
       -2
340
14
 93
        0
 40
0.045
309
GRIDFORMAT_END
 95
       32
302
GRIDFORMAT
  1
GRIDFORMAT_BEGIN
 90
        0
 91
        1
 62
     0
 92
       -2
340
14
 93
        0
 40
0.045
309
GRIDFORMAT_END
309
TABLEFORMAT_END
  1
CELLSTYLE_BEGIN
 90
        2
 91
        1
300
_HEADER
309
CELLSTYLE_END
300
CELLSTYLE
  1
TABLEFORMAT_BEGIN
 90
        5
170
     1
 91
        0
 92
        0
 62
   257
 93
        1
300
CONTENTFORMAT
  1
CONTENTFORMAT_BEGIN
 90
        0
 91
        0
 92
        4
 93
        0
300

 40
0.0
140
1.0
 94
        2
 62
     0
340
11
144
0.18
309
CONTENTFORMAT_END
171
     1
301
MARGIN
  1
CELLMARGIN_BEGIN
 40
0.06
 40
0.06
 40
0.06
 40
0.06
 40
0.06
 40
0.06
309
CELLMARGIN_END
 94
        6
 95
        1
302
GRIDFORMAT
  1
GRIDFORMAT_BEGIN
 90
        0
 91
        1
 62
     0
 92
       -2
340
14
 93
        0
 40
0.045
309
GRIDFORMAT_END
 95
        2
302
GRIDFORMAT
  1
GRIDFORMAT_BEGIN
 90
        0
 91
        1
 62
     0
 92
       -2
340
14
 93
        0
 40
0.045
309
GRIDFORMAT_END
 95
        4
302
GRIDFORMAT
  1
GRIDFORMAT_BEGIN
 90
        0
 91
        1
 62
     0
 92
       -2
340
14
 93
        0
 40
0.045
309
GRIDFORMAT_END
 95
        8
302
GRIDFORMAT
  1
GRIDFORMAT_BEGIN
 90
        0
 91
        1
 62
     0
 92
       -2
340
14
 93
        0
 40
0.045
309
GRIDFORMAT_END
 95
       16
302
GRIDFORMAT
  1
GRIDFORMAT_BEGIN
 90
        0
 91
        1
 62
     0
 92
       -2
340
14
 93
        0
 40
0.045
309
GRIDFORMAT_END
 95
       32
302
GRIDFORMAT
  1
GRIDFORMAT_BEGIN
 90
        0
 91
        1
 62
     0
 92
       -2
340
14
 93
        0
 40
0.045
309
GRIDFORMAT_END
309
TABLEFORMAT_END
  1
CELLSTYLE_BEGIN
 90
        3
 91
        2
300
_DATA
309
CELLSTYLE_END
  0
ENDSEC
  0
EOF