0
SECTION
  2
HEADER
  9
$ACADVER
  1
AC1027
  9
$ACADMAINTVER
 70
     8
  9
$DWGCODEPAGE
  3
ANSI_1252
  9
$REQUIREDVERSIONS
160
                 0
  9
$COMMENTS
  1
File was created by Cadenas
  9
$CUSTOMPROPERTYTAG
  1
NN
  9
$CUSTOMPROPERTY
  1
Eccentric Collar Two-Bolt Flange Inch Bore
  9
$CUSTOMPROPERTYTAG
  1
NT
  9
$CUSTOMPROPERTY
  1
Eccentric Collar 2 Bolt Flange Bearings -(Normal Duty)
  9
$CUSTOMPROPERTYTAG
  1
NB
  9
$CUSTOMPROPERTY
  1
131072
  9
$CUSTOMPROPERTYTAG
  1
NBSYN
  9
$CUSTOMPROPERTY
  1
$PN.
  9
$CUSTOMPROPERTYTAG
  1
LINA
  9
$CUSTOMPROPERTY
  1
131072
  9
$CUSTOMPROPERTYTAG
  1
SERIES
  9
$CUSTOMPROPERTY
  1
209
  9
$CUSTOMPROPERTYTAG
  1
SS
  9
$CUSTOMPROPERTY
  1
1-3/4
  9
$CUSTOMPROPERTYTAG
  1
PN
  9
$CUSTOMPROPERTY
  1
131072
  9
$CUSTOMPROPERTYTAG
  1
DESCRIPTION
  9
$CUSTOMPROPERTY
  1
F2B-SXR-112
  9
$CUSTOMPROPERTYTAG
  1
LF
  9
$CUSTOMPROPERTY
  1
RE-LUBE
  9
$CUSTOMPROPERTYTAG
  1
W
  9
$CUSTOMPROPERTY
  1
4.9
  9
$CUSTOMPROPERTYTAG
  1
A
  9
$CUSTOMPROPERTY
  1
2.13
  9
$CUSTOMPROPERTYTAG
  1
B
  9
$CUSTOMPROPERTY
  1
7.06
  9
$CUSTOMPROPERTYTAG
  1
C
  9
$CUSTOMPROPERTY
  1
2.18
  9
$CUSTOMPROPERTYTAG
  1
D
  9
$CUSTOMPROPERTY
  1
5.84
  9
$CUSTOMPROPERTYTAG
  1
F
  9
$CUSTOMPROPERTY
  1
1/2
  9
$CUSTOMPROPERTYTAG
  1
H
  9
$CUSTOMPROPERTY
  1
0.63
  9
$CUSTOMPROPERTYTAG
  1
J
  9
$CUSTOMPROPERTY
  1
0.77
  9
$CUSTOMPROPERTYTAG
  1
L
  9
$CUSTOMPROPERTY
  1
2.50
  9
$CUSTOMPROPERTYTAG
  1
M
  9
$CUSTOMPROPERTY
  1
4.38
  9
$CUSTOMPROPERTYTAG
  1
N
  9
$CUSTOMPROPERTY
  1
1.91
  9
$CUSTOMPROPERTYTAG
  1
COMPANY
  9
$CUSTOMPROPERTY
  1
baldor
  9
$INSBASE
 10
0.0
 20
0.0
 30
0.0
  9
$EXTMIN
 10
1.000000000000000E+20
 20
1.000000000000000E+20
 30
1.000000000000000E+20
  9
$EXTMAX
 10
-1.000000000000000E+20
 20
-1.000000000000000E+20
 30
-1.000000000000000E+20
  9
$LIMMIN
 10
0.0
 20
0.0
  9
$LIMMAX
 10
12.0
 20
9.0
  9
$ORTHOMODE
 70
     0
  9
$REGENMODE
 70
     1
  9
$FILLMODE
 70
     1
  9
$QTEXTMODE
 70
     0
  9
$MIRRTEXT
 70
     1
  9
$LTSCALE
 40
1.0
  9
$ATTMODE
 70
     1
  9
$TEXTSIZE
 40
0.2
  9
$TRACEWID
 40
0.05
  9
$TEXTSTYLE
  7
Standard
  9
$CLAYER
  8
0
  9
$CELTYPE
  6
ByLayer
  9
$CECOLOR
 62
   256
  9
$CELTSCALE
 40
1.0
  9
$DISPSILH
 70
     0
  9
$DIMSCALE
 40
1.0
  9
$DIMASZ
 40
0.18
  9
$DIMEXO
 40
0.0625
  9
$DIMDLI
 40
0.38
  9
$DIMRND
 40
0.0
  9
$DIMDLE
 40
0.0
  9
$DIMEXE
 40
0.18
  9
$DIMTP
 40
0.0
  9
$DIMTM
 40
0.0
  9
$DIMTXT
 40
0.18
  9
$DIMCEN
 40
0.09
  9
$DIMTSZ
 40
0.0
  9
$DIMTOL
 70
     0
  9
$DIMLIM
 70
     0
  9
$DIMTIH
 70
     1
  9
$DIMTOH
 70
     1
  9
$DIMSE1
 70
     0
  9
$DIMSE2
 70
     0
  9
$DIMTAD
 70
     0
  9
$DIMZIN
 70
     0
  9
$DIMBLK
  1

  9
$DIMASO
 70
     1
  9
$DIMSHO
 70
     1
  9
$DIMPOST
  1

  9
$DIMAPOST
  1

  9
$DIMALT
 70
     0
  9
$DIMALTD
 70
     2
  9
$DIMALTF
 40
25.4
  9
$DIMLFAC
 40
1.0
  9
$DIMTOFL
 70
     0
  9
$DIMTVP
 40
0.0
  9
$DIMTIX
 70
     0
  9
$DIMSOXD
 70
     0
  9
$DIMSAH
 70
     0
  9
$DIMBLK1
  1

  9
$DIMBLK2
  1

  9
$DIMSTYLE
  2
Standard
  9
$DIMCLRD
 70
     0
  9
$DIMCLRE
 70
     0
  9
$DIMCLRT
 70
     0
  9
$DIMTFAC
 40
1.0
  9
$DIMGAP
 40
0.09
  9
$DIMJUST
 70
     0
  9
$DIMSD1
 70
     0
  9
$DIMSD2
 70
     0
  9
$DIMTOLJ
 70
     1
  9
$DIMTZIN
 70
     0
  9
$DIMALTZ
 70
     0
  9
$DIMALTTZ
 70
     0
  9
$DIMUPT
 70
     0
  9
$DIMDEC
 70
     4
  9
$DIMTDEC
 70
     4
  9
$DIMALTU
 70
     2
  9
$DIMALTTD
 70
     2
  9
$DIMTXSTY
  7
Standard
  9
$DIMAUNIT
 70
     0
  9
$DIMADEC
 70
     0
  9
$DIMALTRND
 40
0.0
  9
$DIMAZIN
 70
     0
  9
$DIMDSEP
 70
    46
  9
$DIMATFIT
 70
     3
  9
$DIMFRAC
 70
     0
  9
$DIMLDRBLK
  1

  9
$DIMLUNIT
 70
     2
  9
$DIMLWD
 70
    -2
  9
$DIMLWE
 70
    -2
  9
$DIMTMOVE
 70
     0
  9
$DIMFXL
 40
1.0
  9
$DIMFXLON
 70
     0
  9
$DIMJOGANG
 40
0.7853981633974483
  9
$DIMTFILL
 70
     0
  9
$DIMTFILLCLR
 70
     0
  9
$DIMARCSYM
 70
     0
  9
$DIMLTYPE
  6

  9
$DIMLTEX1
  6

  9
$DIMLTEX2
  6

  9
$DIMTXTDIRECTION
 70
     0
  9
$LUNITS
 70
     2
  9
$LUPREC
 70
     4
  9
$SKETCHINC
 40
0.1
  9
$FILLETRAD
 40
0.5
  9
$AUNITS
 70
     0
  9
$AUPREC
 70
     0
  9
$MENU
  1
.
  9
$ELEVATION
 40
0.0
  9
$PELEVATION
 40
0.0
  9
$THICKNESS
 40
0.0
  9
$LIMCHECK
 70
     0
  9
$CHAMFERA
 40
0.0
  9
$CHAMFERB
 40
0.0
  9
$CHAMFERC
 40
0.0
  9
$CHAMFERD
 40
0.0
  9
$SKPOLY
 70
     0
  9
$TDCREATE
 40
2458168.980551239
  9
$TDUCREATE
 40
2458168.938884572
  9
$TDUPDATE
 40
2458168.980551239
  9
$TDUUPDATE
 40
2458168.938884572
  9
$TDINDWG
 40
0.0000000116
  9
$TDUSRTIMER
 40
0.0000000116
  9
$USRTIMER
 70
     1
  9
$ANGBASE
 50
0.0
  9
$ANGDIR
 70
     0
  9
$PDMODE
 70
     0
  9
$PDSIZE
 40
0.0
  9
$PLINEWID
 40
0.0
  9
$SPLFRAME
 70
     0
  9
$SPLINETYPE
 70
     6
  9
$SPLINESEGS
 70
     8
  9
$HANDSEED
  5
1B9
  9
$SURFTAB1
 70
     6
  9
$SURFTAB2
 70
     6
  9
$SURFTYPE
 70
     6
  9
$SURFU
 70
     6
  9
$SURFV
 70
     6
  9
$UCSBASE
  2

  9
$UCSNAME
  2

  9
$UCSORG
 10
0.0
 20
0.0
 30
0.0
  9
$UCSXDIR
 10
1.0
 20
0.0
 30
0.0
  9
$UCSYDIR
 10
0.0
 20
1.0
 30
0.0
  9
$UCSORTHOREF
  2

  9
$UCSORTHOVIEW
 70
     0
  9
$UCSORGTOP
 10
0.0
 20
0.0
 30
0.0
  9
$UCSORGBOTTOM
 10
0.0
 20
0.0
 30
0.0
  9
$UCSORGLEFT
 10
0.0
 20
0.0
 30
0.0
  9
$UCSORGRIGHT
 10
0.0
 20
0.0
 30
0.0
  9
$UCSORGFRONT
 10
0.0
 20
0.0
 30
0.0
  9
$UCSORGBACK
 10
0.0
 20
0.0
 30
0.0
  9
$PUCSBASE
  2

  9
$PUCSNAME
  2

  9
$PUCSORG
 10
0.0
 20
0.0
 30
0.0
  9
$PUCSXDIR
 10
1.0
 20
0.0
 30
0.0
  9
$PUCSYDIR
 10
0.0
 20
1.0
 30
0.0
  9
$PUCSORTHOREF
  2

  9
$PUCSORTHOVIEW
 70
     0
  9
$PUCSORGTOP
 10
0.0
 20
0.0
 30
0.0
  9
$PUCSORGBOTTOM
 10
0.0
 20
0.0
 30
0.0
  9
$PUCSORGLEFT
 10
0.0
 20
0.0
 30
0.0
  9
$PUCSORGRIGHT
 10
0.0
 20
0.0
 30
0.0
  9
$PUCSORGFRONT
 10
0.0
 20
0.0
 30
0.0
  9
$PUCSORGBACK
 10
0.0
 20
0.0
 30
0.0
  9
$USERI1
 70
     0
  9
$USERI2
 70
     0
  9
$USERI3
 70
     0
  9
$USERI4
 70
     0
  9
$USERI5
 70
     0
  9
$USERR1
 40
0.0
  9
$USERR2
 40
0.0
  9
$USERR3
 40
0.0
  9
$USERR4
 40
0.0
  9
$USERR5
 40
0.0
  9
$WORLDVIEW
 70
     1
  9
$SHADEDGE
 70
     3
  9
$SHADEDIF
 70
    70
  9
$TILEMODE
 70
     1
  9
$MAXACTVP
 70
    64
  9
$PINSBASE
 10
0.0
 20
0.0
 30
0.0
  9
$PLIMCHECK
 70
     0
  9
$PEXTMIN
 10
1.000000000000000E+20
 20
1.000000000000000E+20
 30
1.000000000000000E+20
  9
$PEXTMAX
 10
-1.000000000000000E+20
 20
-1.000000000000000E+20
 30
-1.000000000000000E+20
  9
$PLIMMIN
 10
0.0
 20
0.0
  9
$PLIMMAX
 10
12.0
 20
9.0
  9
$UNITMODE
 70
     0
  9
$VISRETAIN
 70
     1
  9
$PLINEGEN
 70
     0
  9
$PSLTSCALE
 70
     1
  9
$TREEDEPTH
 70
  3020
  9
$CMLSTYLE
  2
Standard
  9
$CMLJUST
 70
     0
  9
$CMLSCALE
 40
1.0
  9
$PROXYGRAPHICS
 70
     1
  9
$MEASUREMENT
 70
     0
  9
$CELWEIGHT
370
    -1
  9
$ENDCAPS
280
     0
  9
$JOINSTYLE
280
     0
  9
$LWDISPLAY
290
     0
  9
$INSUNITS
 70
     1
  9
$HYPERLINKBASE
  1

  9
$STYLESHEET
  1

  9
$XEDIT
290
     1
  9
$CEPSNTYPE
380
     0
  9
$PSTYLEMODE
290
     1
  9
$FINGERPRINTGUID
  2
{E4FC91F8-7EFB-4A81-8D9C-1E73C248CB1E}
  9
$VERSIONGUID
  2
{FAEB1C32-E019-11D5-929B-00C0DF256EC4}
  9
$EXTNAMES
290
     1
  9
$PSVPSCALE
 40
0.0
  9
$OLESTARTUP
290
     0
  9
$SORTENTS
280
   127
  9
$INDEXCTL
280
     0
  9
$HIDETEXT
280
     1
  9
$XCLIPFRAME
280
     2
  9
$HALOGAP
280
     0
  9
$OBSCOLOR
 70
   257
  9
$OBSLTYPE
280
     0
  9
$INTERSECTIONDISPLAY
280
     0
  9
$INTERSECTIONCOLOR
 70
   257
  9
$DIMASSOC
280
     2
  9
$PROJECTNAME
  1

  9
$CAMERADISPLAY
290
     0
  9
$LENSLENGTH
 40
50.0
  9
$CAMERAHEIGHT
 40
0.0
  9
$STEPSPERSEC
 40
2.0
  9
$STEPSIZE
 40
6.0
  9
$3DDWFPREC
 40
2.0
  9
$PSOLWIDTH
 40
0.25
  9
$PSOLHEIGHT
 40
4.0
  9
$LOFTANG1
 40
1.570796326794897
  9
$LOFTANG2
 40
1.570796326794897
  9
$LOFTMAG1
 40
0.0
  9
$LOFTMAG2
 40
0.0
  9
$LOFTPARAM
 70
     7
  9
$LOFTNORMALS
280
     1
  9
$LATITUDE
 40
37.795
  9
$LONGITUDE
 40
-122.394
  9
$NORTHDIRECTION
 40
0.0
  9
$TIMEZONE
 70
 -8000
  9
$LIGHTGLYPHDISPLAY
280
     1
  9
$TILEMODELIGHTSYNCH
280
     1
  9
$CMATERIAL
347
44
  9
$SOLIDHIST
280
     0
  9
$SHOWHIST
280
     1
  9
$DWFFRAME
280
     2
  9
$DGNFRAME
280
     2
  9
$REALWORLDSCALE
290
     1
  9
$INTERFERECOLOR
 62
   256
  9
$CSHADOW
280
     0
  9
$SHADOWPLANELOCATION
 40
0.0
  0
ENDSEC
  0
SECTION
  2
CLASSES
  0
CLASS
  1
ACDBDICTIONARYWDFLT
  2
AcDbDictionaryWithDefault
  3
ObjectDBX Classes
 90
        0
 91
        4
280
     0
281
     0
  0
CLASS
  1
VISUALSTYLE
  2
AcDbVisualStyle
  3
ObjectDBX Classes
 90
     4095
 91
        4
280
     0
281
     0
  0
CLASS
  1
MATERIAL
  2
AcDbMaterial
  3
ObjectDBX Classes
 90
     1153
 91
        4
280
     0
281
     0
  0
CLASS
  1
SCALE
  2
AcDbScale
  3
ObjectDBX Classes
 90
     1153
 91
        4
280
     0
281
     0
  0
CLASS
  1
TABLESTYLE
  2
AcDbTableStyle
  3
ObjectDBX Classes
 90
     4095
 91
        4
280
     0
281
     0
  0
CLASS
  1
MLEADERSTYLE
  2
AcDbMLeaderStyle
  3
ACDB_MLEADERSTYLE_CLASS
 90
     4095
 91
        4
280
     0
281
     0
  0
CLASS
  1
SUN
  2
AcDbSun
  3
SCENEOE
 90
     1153
 91
        4
280
     0
281
     0
  0
CLASS
  1
DICTIONARYVAR
  2
AcDbDictionaryVar
  3
ObjectDBX Classes
 90
        0
 91
        4
280
     0
281
     0
  0
CLASS
  1
CELLSTYLEMAP
  2
AcDbCellStyleMap
  3
ObjectDBX Classes
 90
     1152
 91
        4
280
     0
281
     0
  0
ENDSEC
  0
SECTION
  2
TABLES
  0
TABLE
  2
VPORT
  5
8
330
0
100
AcDbSymbolTable
 70
     1
  0
VPORT
  5
29
330
8
100
AcDbSymbolTableRecord
100
AcDbViewportTableRecord
  2
*Active
 70
     0
 10
0.0
 20
0.0
 11
1.0
 21
1.0
 12
-1.105274999999999
 22
-0.0000000000000009
 13
0.0
 23
0.0
 14
0.5
 24
0.5
 15
0.5
 25
0.5
 16
0.0
 26
0.0
 36
1.0
 17
0.0
 27
0.0
 37
0.0
 40
7.201200000000004
 41
0.3346246458923514
 42
50.0
 43
0.0
 44
0.0
 50
0.0
 51
0.0
 71
     0
 72
   100
 73
     1
 74
     3
 75
     0
 76
     0
 77
     0
 78
     0
281
     0
 65
     1
110
0.0
120
0.0
130
0.0
111
1.0
121
0.0
131
0.0
112
0.0
122
1.0
132
0.0
 79
     0
146
0.0
348
2F
 60
     3
 61
     5
292
     1
282
     1
141
0.0
142
0.0
 63
   250
361
6D
  0
ENDTAB
  0
TABLE
  2
LTYPE
  5
5
330
0
100
AcDbSymbolTable
 70
     3
  0
LTYPE
  5
14
330
5
100
AcDbSymbolTableRecord
100
AcDbLinetypeTableRecord
  2
ByBlock
 70
     0
  3

 72
    65
 73
     0
 40
0.0
  0
LTYPE
  5
15
330
5
100
AcDbSymbolTableRecord
100
AcDbLinetypeTableRecord
  2
ByLayer
 70
     0
  3

 72
    65
 73
     0
 40
0.0
  0
LTYPE
  5
16
330
5
100
AcDbSymbolTableRecord
100
AcDbLinetypeTableRecord
  2
Continuous
 70
     0
  3
Solid line
 72
    65
 73
     0
 40
0.0
  0
LTYPE
  5
95
330
5
100
AcDbSymbolTableRecord
100
AcDbLinetypeTableRecord
  2
Dashed
 70
     0
  3

 72
    65
 73
     2
 40
2.0
 49
1.0
 74
     0
 49
-1.0
 74
     0
  0
LTYPE
  5
189
330
5
100
AcDbSymbolTableRecord
100
AcDbLinetypeTableRecord
  2
Center
 70
     0
  3

 72
    65
 73
     4
 40
1.5
 49
0.45
 74
     0
 49
-0.5
 74
     0
 49
0.05
 74
     0
 49
-0.5
 74
     0
  0
ENDTAB
  0
TABLE
  2
LAYER
  5
2
330
0
100
AcDbSymbolTable
 70
     6
  0
LAYER
  5
10
330
2
100
AcDbSymbolTableRecord
100
AcDbLayerTableRecord
  2
0
 70
     0
 62
     7
  6
Continuous
370
    -3
390
F
347
46
348
0
  0
LAYER
  5
72
330
2
100
AcDbSymbolTableRecord
100
AcDbLayerTableRecord
  2
AM_6
 70
     0
 62
    -2
  6
Continuous
370
    35
390
F
347
46
348
0
  0
LAYER
  5
96
330
2
100
AcDbSymbolTableRecord
100
AcDbLayerTableRecord
  2
AM_9
 70
     0
 62
     6
  6
Dashed
370
    25
390
F
347
46
348
0
  0
LAYER
  5
C0
330
2
100
AcDbSymbolTableRecord
100
AcDbLayerTableRecord
  2
AM_4
 70
     0
 62
     7
  6
Continuous
370
    50
390
F
347
46
348
0
  0
LAYER
  5
18A
330
2
100
AcDbSymbolTableRecord
100
AcDbLayerTableRecord
  2
AM_7
 70
     0
 62
     7
  6
Center
370
    25
390
F
347
46
348
0
  0
LAYER
  5
1AA
330
2
100
AcDbSymbolTableRecord
100
AcDbLayerTableRecord
  2
ConnectionPoints
 70
     0
 62
     7
  6
Continuous
370
    50
390
F
347
46
348
0
  0
ENDTAB
  0
TABLE
  2
STYLE
  5
3
330
0
100
AcDbSymbolTable
 70
     1
  0
STYLE
  5
11
330
3
100
AcDbSymbolTableRecord
100
AcDbTextStyleTableRecord
  2
Standard
 70
     0
 40
0.0
 41
1.0
 50
0.0
 71
     0
 42
0.2
  3
txt
  4

  0
ENDTAB
  0
TABLE
  2
VIEW
  5
6
330
0
100
AcDbSymbolTable
 70
     0
  0
ENDTAB
  0
TABLE
  2
UCS
  5
7
330
0
100
AcDbSymbolTable
 70
     0
  0
ENDTAB
  0
TABLE
  2
APPID
  5
9
330
0
100
AcDbSymbolTable
 70
     1
  0
APPID
  5
12
330
9
100
AcDbSymbolTableRecord
100
AcDbRegAppTableRecord
  2
ACAD
 70
     0
  0
ENDTAB
  0
TABLE
  2
DIMSTYLE
  5
A
330
0
100
AcDbSymbolTable
 70
     1
100
AcDbDimStyleTable
  0
DIMSTYLE
105
27
330
A
100
AcDbSymbolTableRecord
100
AcDbDimStyleTableRecord
  2
Standard
 70
     0
178
     0
340
11
  0
ENDTAB
  0
TABLE
  2
BLOCK_RECORD
  5
1
330
0
100
AcDbSymbolTable
 70
     5
  0
BLOCK_RECORD
  5
1F
330
1
100
AcDbSymbolTableRecord
100
AcDbBlockTableRecord
  2
*Model_Space
340
22
 70
     0
280
     1
281
     0
  0
BLOCK_RECORD
  5
1B
330
1
100
AcDbSymbolTableRecord
100
AcDbBlockTableRecord
  2
*Paper_Space
340
1E
 70
     0
280
     1
281
     0
  0
BLOCK_RECORD
  5
23
330
1
100
AcDbSymbolTableRecord
100
AcDbBlockTableRecord
  2
*Paper_Space0
340
26
 70
     0
280
     1
281
     0
  0
BLOCK_RECORD
  5
6E
330
1
100
AcDbSymbolTableRecord
100
AcDbBlockTableRecord
  2
1_131072_2
340
0
102
{BLKREFS
331
6F
102
}
 70
     0
280
     1
281
     0
  0
BLOCK_RECORD
  5
89
330
1
100
AcDbSymbolTableRecord
100
AcDbBlockTableRecord
  2
2_405015E_Inch_0_in_131072_2
340
0
102
{BLKREFS
331
8A
102
}
 70
     0
280
     1
281
     0
  0
BLOCK_RECORD
  5
E6
330
1
100
AcDbSymbolTableRecord
100
AcDbBlockTableRecord
  2
3_131920_0_in_131072_2
340
0
102
{BLKREFS
331
E7
102
}
 70
     0
280
     1
281
     0
  0
BLOCK_RECORD
  5
14E
330
1
100
AcDbSymbolTableRecord
100
AcDbBlockTableRecord
  2
4_131072H_0_in_131072_2
340
0
102
{BLKREFS
331
14F
102
}
 70
     0
280
     1
281
     0
  0
ENDTAB
  0
ENDSEC
  0
SECTION
  2
BLOCKS
  0
BLOCK
  5
20
330
1F
100
AcDbEntity
  8
0
100
AcDbBlockBegin
  2
*Model_Space
 70
     0
 10
0.0
 20
0.0
 30
0.0
  3
*Model_Space
  1

  0
ENDBLK
  5
21
330
1F
100
AcDbEntity
  8
0
100
AcDbBlockEnd
  0
BLOCK
  5
1C
330
1B
100
AcDbEntity
 67
     1
  8
0
100
AcDbBlockBegin
  2
*Paper_Space
 70
     0
 10
0.0
 20
0.0
 30
0.0
  3
*Paper_Space
  1

  0
ENDBLK
  5
1D
330
1B
100
AcDbEntity
 67
     1
  8
0
100
AcDbBlockEnd
  0
BLOCK
  5
24
330
23
100
AcDbEntity
  8
0
100
AcDbBlockBegin
  2
*Paper_Space0
 70
     0
 10
0.0
 20
0.0
 30
0.0
  3
*Paper_Space0
  1

  0
ENDBLK
  5
25
330
23
100
AcDbEntity
  8
0
100
AcDbBlockEnd
  0
BLOCK
  5
70
330
6E
100
AcDbEntity
  8
0
100
AcDbBlockBegin
  2
1_131072_2
 70
     2
 10
0.0
 20
0.0
 30
0.0
  3
1_131072_2
  1

  0
ATTDEF
  5
73
330
6E
100
AcDbEntity
  8
AM_6
100
AcDbText
 10
5.07595
 20
3.530000000000001
 30
0.0
 40
0.5
  1
Eccentric Collar Two-Bolt Flange Inch Bore
100
AcDbAttributeDefinition
  3

  2
NN
 70
     8
280
     0
  0
ATTDEF
  5
74
330
6E
100
AcDbEntity
  8
AM_6
100
AcDbText
 10
5.07595
 20
3.030000000000001
 30
0.0
 40
0.5
  1
Eccentric Collar 2 Bolt Flange Bearings -(Normal Duty)
100
AcDbAttributeDefinition
  3

  2
NT
 70
     8
280
     0
  0
ATTDEF
  5
75
330
6E
100
AcDbEntity
  8
AM_6
100
AcDbText
 10
5.07595
 20
2.530000000000001
 30
0.0
 40
0.5
  1
131072
100
AcDbAttributeDefinition
  3

  2
NB
 70
     8
280
     0
  0
ATTDEF
  5
76
330
6E
100
AcDbEntity
  8
AM_6
100
AcDbText
 10
5.07595
 20
2.030000000000001
 30
0.0
 40
0.5
  1
$PN.
100
AcDbAttributeDefinition
  3

  2
NBSYN
 70
     8
280
     0
  0
ATTDEF
  5
77
330
6E
100
AcDbEntity
  8
AM_6
100
AcDbText
 10
5.07595
 20
1.530000000000001
 30
0.0
 40
0.5
  1
131072
100
AcDbAttributeDefinition
  3

  2
LINA
 70
     8
280
     0
  0
ATTDEF
  5
78
330
6E
100
AcDbEntity
  8
AM_6
100
AcDbText
 10
5.07595
 20
1.030000000000001
 30
0.0
 40
0.5
  1
209
100
AcDbAttributeDefinition
  3

  2
SERIES
 70
     8
280
     0
  0
ATTDEF
  5
79
330
6E
100
AcDbEntity
  8
AM_6
100
AcDbText
 10
5.07595
 20
0.5300000000000007
 30
0.0
 40
0.5
  1
1-3/4
100
AcDbAttributeDefinition
  3

  2
SS
 70
     8
280
     0
  0
ATTDEF
  5
7A
330
6E
100
AcDbEntity
  8
AM_6
100
AcDbText
 10
5.07595
 20
0.0300000000000007
 30
0.0
 40
0.5
  1
131072
100
AcDbAttributeDefinition
  3

  2
PN
 70
     8
280
     0
  0
ATTDEF
  5
7B
330
6E
100
AcDbEntity
  8
AM_6
100
AcDbText
 10
5.07595
 20
-0.4699999999999993
 30
0.0
 40
0.5
  1
F2B-SXR-112
100
AcDbAttributeDefinition
  3

  2
DESCRIPTION
 70
     8
280
     0
  0
ATTDEF
  5
7C
330
6E
100
AcDbEntity
  8
AM_6
100
AcDbText
 10
5.07595
 20
-0.9699999999999993
 30
0.0
 40
0.5
  1
RE-LUBE
100
AcDbAttributeDefinition
  3

  2
LF
 70
     8
280
     0
  0
ATTDEF
  5
7D
330
6E
100
AcDbEntity
  8
AM_6
100
AcDbText
 10
5.07595
 20
-1.469999999999999
 30
0.0
 40
0.5
  1
4.9
100
AcDbAttributeDefinition
  3

  2
W
 70
     8
280
     0
  0
ATTDEF
  5
7E
330
6E
100
AcDbEntity
  8
AM_6
100
AcDbText
 10
5.07595
 20
-1.969999999999999
 30
0.0
 40
0.5
  1
2.13
100
AcDbAttributeDefinition
  3

  2
A
 70
     8
280
     0
  0
ATTDEF
  5
7F
330
6E
100
AcDbEntity
  8
AM_6
100
AcDbText
 10
5.07595
 20
-2.469999999999999
 30
0.0
 40
0.5
  1
7.06
100
AcDbAttributeDefinition
  3

  2
B
 70
     8
280
     0
  0
ATTDEF
  5
80
330
6E
100
AcDbEntity
  8
AM_6
100
AcDbText
 10
5.07595
 20
-2.969999999999999
 30
0.0
 40
0.5
  1
2.18
100
AcDbAttributeDefinition
  3

  2
C
 70
     8
280
     0
  0
ATTDEF
  5
81
330
6E
100
AcDbEntity
  8
AM_6
100
AcDbText
 10
5.07595
 20
-3.469999999999999
 30
0.0
 40
0.5
  1
5.84
100
AcDbAttributeDefinition
  3

  2
D
 70
     8
280
     0
  0
ATTDEF
  5
82
330
6E
100
AcDbEntity
  8
AM_6
100
AcDbText
 10
5.07595
 20
-3.969999999999999
 30
0.0
 40
0.5
  1
1/2
100
AcDbAttributeDefinition
  3

  2
F
 70
     8
280
     0
  0
ATTDEF
  5
83
330
6E
100
AcDbEntity
  8
AM_6
100
AcDbText
 10
5.07595
 20
-4.469999999999999
 30
0.0
 40
0.5
  1
0.63
100
AcDbAttributeDefinition
  3

  2
H
 70
     8
280
     0
  0
ATTDEF
  5
84
330
6E
100
AcDbEntity
  8
AM_6
100
AcDbText
 10
5.07595
 20
-4.969999999999999
 30
0.0
 40
0.5
  1
0.77
100
AcDbAttributeDefinition
  3

  2
J
 70
     8
280
     0
  0
ATTDEF
  5
85
330
6E
100
AcDbEntity
  8
AM_6
100
AcDbText
 10
5.07595
 20
-5.469999999999999
 30
0.0
 40
0.5
  1
2.50
100
AcDbAttributeDefinition
  3

  2
L
 70
     8
280
     0
  0
ATTDEF
  5
86
330
6E
100
AcDbEntity
  8
AM_6
100
AcDbText
 10
5.07595
 20
-5.969999999999999
 30
0.0
 40
0.5
  1
4.38
100
AcDbAttributeDefinition
  3

  2
M
 70
     8
280
     0
  0
ATTDEF
  5
87
330
6E
100
AcDbEntity
  8
AM_6
100
AcDbText
 10
5.07595
 20
-6.469999999999999
 30
0.0
 40
0.5
  1
1.91
100
AcDbAttributeDefinition
  3

  2
N
 70
     8
280
     0
  0
ATTDEF
  5
88
330
6E
100
AcDbEntity
  8
AM_6
100
AcDbText
 10
5.07595
 20
-6.969999999999999
 30
0.0
 40
0.5
  1
baldor
100
AcDbAttributeDefinition
  3

  2
COMPANY
 70
     8
280
     0
  0
INSERT
  5
8A
330
6E
100
AcDbEntity
  8
0
100
AcDbBlockReference
  2
2_405015E_Inch_0_in_131072_2
 10
0.0
 20
0.0
 30
0.0
  0
INSERT
  5
E7
330
6E
100
AcDbEntity
  8
0
100
AcDbBlockReference
  2
3_131920_0_in_131072_2
 10
0.0
 20
0.0
 30
0.0
  0
INSERT
  5
14F
330
6E
100
AcDbEntity
  8
0
100
AcDbBlockReference
  2
4_131072H_0_in_131072_2
 10
0.0
 20
0.0
 30
0.0
  0
ENDBLK
  5
71
330
6E
100
AcDbEntity
  8
0
100
AcDbBlockEnd
  0
BLOCK
  5
8B
330
89
100
AcDbEntity
  8
0
100
AcDbBlockBegin
  2
2_405015E_Inch_0_in_131072_2
 70
     2
 10
0.0
 20
0.0
 30
0.0
  3
2_405015E_Inch_0_in_131072_2
  1

  0
ATTDEF
  5
8D
330
89
100
AcDbEntity
  8
AM_6
100
AcDbText
 10
4.232590742770461
 20
1.982604240734964
 30
0.0
 40
0.5
  1
405015E -Inch
100
AcDbAttributeDefinition
  3

  2
NN
 70
     8
280
     0
  0
ATTDEF
  5
8E
330
89
100
AcDbEntity
  8
AM_6
100
AcDbText
 10
4.232590742770461
 20
1.482604240734964
 30
0.0
 40
0.5
  1
Grease Fitting
100
AcDbAttributeDefinition
  3

  2
NT
 70
     8
280
     0
  0
ATTDEF
  5
8F
330
89
100
AcDbEntity
  8
AM_6
100
AcDbText
 10
4.232590742770461
 20
0.9826042407349638
 30
0.0
 40
0.5
  1
405015E-Inch
100
AcDbAttributeDefinition
  3

  2
NB
 70
     8
280
     0
  0
ATTDEF
  5
90
330
89
100
AcDbEntity
  8
AM_6
100
AcDbText
 10
4.232590742770461
 20
0.4826042407349638
 30
0.0
 40
0.5
  1
$MN.-Inch
100
AcDbAttributeDefinition
  3

  2
NBSYN
 70
     8
280
     0
  0
ATTDEF
  5
91
330
89
100
AcDbEntity
  8
AM_6
100
AcDbText
 10
4.232590742770461
 20
-0.0173957592650362
 30
0.0
 40
0.5
  1
405015E
100
AcDbAttributeDefinition
  3

  2
LINA
 70
     8
280
     0
  0
ATTDEF
  5
92
330
89
100
AcDbEntity
  8
AM_6
100
AcDbText
 10
4.232590742770461
 20
-0.5173957592650362
 30
0.0
 40
0.5
  1
405015E
100
AcDbAttributeDefinition
  3

  2
MN
 70
     8
280
     0
  0
ATTDEF
  5
93
330
89
100
AcDbEntity
  8
AM_6
100
AcDbText
 10
4.232590742770461
 20
-1.017395759265036
 30
0.0
 40
0.5
  1
1/8 x 27PTF
100
AcDbAttributeDefinition
  3

  2
T
 70
     8
280
     0
  0
ATTDEF
  5
94
330
89
100
AcDbEntity
  8
AM_6
100
AcDbText
 10
4.232590742770461
 20
-1.517395759265036
 30
0.0
 40
0.5
  1
baldor
100
AcDbAttributeDefinition
  3

  2
COMPANY
 70
     8
280
     0
  0
LINE
  5
97
330
89
100
AcDbEntity
  8
AM_9
100
AcDbLine
 10
-0.8937046286147693
 20
1.863813482323695
 30
0.0
 11
-0.8937046286147693
 21
1.805926326674163
 31
0.0
  0
LINE
  5
98
330
89
100
AcDbEntity
  8
AM_9
100
AcDbLine
 10
-1.146295371385231
 20
1.863813482323695
 30
0.0
 11
-1.146295371385231
 21
1.805926326674163
 31
0.0
  0
LWPOLYLINE
  5
99
330
89
100
AcDbEntity
  8
AM_9
100
AcDbPolyline
 90
        3
 70
     0
 43
0.0
 10
-1.02
 20
1.799514565439602
 10
-0.9568523143073847
 20
1.801206941222662
 10
-0.8937046286147693
 20
1.805926326674163
  0
LWPOLYLINE
  5
9A
330
89
100
AcDbEntity
  8
AM_9
100
AcDbPolyline
 90
        4
 70
     0
 43
0.0
 10
-1.146295371385231
 20
1.805926326674163
 10
-1.116799632111798
 20
1.803391216508231
 10
-1.068542441247754
 20
1.800522778259085
 10
-1.02
 20
1.799514565439602
  0
ELLIPSE
  5
9B
330
89
100
AcDbEntity
  8
AM_9
100
AcDbEllipse
 10
-1.02
 20
1.45745166004061
 30
0.0
 11
-0.1619028724722691
 21
1.982738345459265E-17
 31
0.0
210
0.0
220
0.0
230
1.0
 40
0.7071067811865474
 41
0.0
 42
6.283185307179586
  0
ELLIPSE
  5
9C
330
89
100
AcDbEntity
  8
AM_9
100
AcDbEllipse
 10
-1.02
 20
1.644834957055044
 30
0.0
 11
0.2187500000000009
 21
3.259629011154188E-9
 31
0.0
210
0.0
220
0.0
230
1.0
 40
0.7071067811865493
 41
1.570796316258187
 42
2.617993859552243
  0
LWPOLYLINE
  5
9D
330
89
100
AcDbEntity
  8
AM_9
100
AcDbPolyline
 90
        3
 70
     0
 43
0.0
 10
-1.209443057077846
 20
1.722174761247323
 10
-1.177869214231538
 20
1.762537039126522
 10
-1.146295371385231
 20
1.805926326674163
  0
ELLIPSE
  5
9E
330
89
100
AcDbEntity
  8
AM_9
100
AcDbEllipse
 10
-1.02
 20
1.644834957055043
 30
0.0
 11
0.2187500000000013
 21
0.0
 31
0.0
210
0.0
220
0.0
230
1.0
 40
0.7071067811865489
 41
5.759586531581296
 42
7.853981633974483
  0
LWPOLYLINE
  5
9F
330
89
100
AcDbEntity
  8
AM_9
100
AcDbPolyline
 90
        3
 70
     0
 43
0.0
 10
-0.8937046286147693
 20
1.805926326674163
 10
-0.8622727502678723
 20
1.762725860601256
 10
-0.8305569429221539
 20
1.722174761247323
  0
LINE
  5
A0
330
89
100
AcDbEntity
  8
AM_9
100
AcDbLine
 10
-1.146295371385231
 20
1.863813482323695
 30
0.0
 11
-1.154267150755579
 21
1.855486714976103
 31
0.0
  0
LWPOLYLINE
  5
A1
330
89
100
AcDbEntity
  8
AM_9
100
AcDbPolyline
 90
        4
 70
     0
 43
0.0
 10
-1.02
 20
1.870225243558256
 10
-1.068399816055899
 20
1.869222876762425
 10
-1.116799632111798
 20
1.866348592489627
 10
-1.146295371385231
 20
1.863813482323695
  0
LINE
  5
A2
330
89
100
AcDbEntity
  8
AM_9
100
AcDbLine
 10
-0.8852211855040251
 20
1.854947061493468
 30
0.0
 11
-0.8937046286147693
 21
1.863813482323695
 31
0.0
  0
LWPOLYLINE
  5
A3
330
89
100
AcDbEntity
  8
AM_9
100
AcDbPolyline
 90
        3
 70
     0
 43
0.0
 10
-0.8937046286147693
 20
1.863813482323695
 10
-0.9565683853085631
 20
1.868517916593036
 10
-1.02
 20
1.870225243558256
  0
LWPOLYLINE
  5
A4
330
89
100
AcDbEntity
  8
AM_9
100
AcDbPolyline
 90
        3
 70
     0
 43
0.0
 10
-1.272590742770461
 20
1.651246718289606
 10
-1.241158864423564
 20
1.685038315823831
 10
-1.209443057077846
 20
1.722174761247323
  0
LWPOLYLINE
  5
A5
330
89
100
AcDbEntity
  8
AM_9
100
AcDbPolyline
 90
        3
 70
     0
 43
0.0
 10
-0.8305569429221539
 20
1.722174761247323
 10
-0.7989831000758463
 20
1.685197234934244
 10
-0.7674092572295388
 20
1.651246718289606
  0
ELLIPSE
  5
A6
330
89
100
AcDbEntity
  8
AM_9
100
AcDbEllipse
 10
-1.02
 20
1.644834957055045
 30
0.0
 11
0.2187499999999996
 21
0.0
 31
0.0
210
0.0
220
0.0
230
1.0
 40
0.7071067811865486
 41
2.617993877991494
 42
4.71238898038469
  0
LINE
  5
A7
330
89
100
AcDbEntity
  8
AM_9
100
AcDbLine
 10
-0.821479387868661
 20
1.479023821489037
 30
0.0
 11
-0.8143486021565374
 21
1.640288212289695
 31
0.0
  0
LINE
  5
A8
330
89
100
AcDbEntity
  8
AM_9
100
AcDbLine
 10
-1.225651397843462
 20
1.640288212289695
 30
0.0
 11
-1.218520612131339
 21
1.479023821489037
 31
0.0
  0
ELLIPSE
  5
A9
330
89
100
AcDbEntity
  8
AM_9
100
AcDbEllipse
 10
-1.020000000000001
 20
1.644834957055046
 30
0.0
 11
0.218750000000002
 21
0.0
 31
0.0
210
0.0
220
0.0
230
1.0
 40
0.7071067811865458
 41
4.71238898038469
 42
5.759586531581282
  0
ELLIPSE
  5
AA
330
89
100
AcDbEntity
  8
AM_9
100
AcDbEllipse
 10
-1.02
 20
1.715545635173699
 30
0.0
 11
0.2187499999999993
 21
0.0
 31
0.0
210
0.0
220
0.0
230
1.0
 40
0.7071067811865523
 41
0.9156936017147705
 42
2.225899051874962
  0
LINE
  5
AB
330
89
100
AcDbEntity
  8
AM_9
100
AcDbLine
 10
-1.114868329805051
 20
1.821611652351681
 30
0.0
 11
-1.127354891002899
 21
1.802997785922616
 31
0.0
  0
LINE
  5
AC
330
89
100
AcDbEntity
  8
AM_9
100
AcDbLine
 10
-0.9126451089971009
 20
1.802997785922616
 30
0.0
 11
-0.9251316701949486
 21
1.821611652351681
 31
0.0
  0
ELLIPSE
  5
AD
330
89
100
AcDbEntity
  8
AM_9
100
AcDbEllipse
 10
-1.02
 20
1.789791847198287
 30
0.0
 11
0.1049999999999999
 21
0.0
 31
0.0
210
0.0
220
0.0
230
1.0
 40
0.7071067811865482
 41
0.4429110440736359
 42
3.141592653589793
  0
ELLIPSE
  5
AE
330
89
100
AcDbEntity
  8
AM_9
100
AcDbEllipse
 10
-1.02
 20
1.766989860822681
 30
0.0
 11
0.1188200907348972
 21
0.0
 31
0.0
210
0.0
220
0.0
230
1.0
 40
0.707106781186554
 41
0.4429110440736457
 42
1.733730595722528
  0
ELLIPSE
  5
AF
330
89
100
AcDbEntity
  8
AM_9
100
AcDbEllipse
 10
-1.020000000000196
 20
1.766989860822841
 30
0.0
 11
0.1188200907346844
 21
0.0
 31
0.0
210
0.0
220
0.0
230
1.0
 40
0.7071067811862266
 41
-3.584503697662601
 42
-3.517813279689709
  0
ELLIPSE
  5
B0
330
89
100
AcDbEntity
  8
AM_9
100
AcDbEllipse
 10
-1.02
 20
1.7155456351737
 30
0.0
 11
0.213749999999999
 21
0.0
 31
0.0
210
0.0
220
0.0
230
1.0
 40
0.7071067811865488
 41
0.9036552188402904
 42
2.237937434749545
  0
ELLIPSE
  5
B1
330
89
100
AcDbEntity
  8
AM_9
100
AcDbEllipse
 10
-1.019999999999995
 20
1.789791847198285
 30
0.0
 11
0.1049999999999954
 21
1.564621925353936E-9
 31
0.0
210
0.0
220
0.0
230
1.0
 40
0.7071067811865507
 41
0.0000017304280906
 42
0.4429110249355621
  0
LINE
  5
B2
330
89
100
AcDbEntity
  8
AM_9
100
AcDbLine
 10
-0.9149999999999999
 20
1.791110838080825
 30
0.0
 11
-0.9149999999999999
 21
1.811005050633883
 31
0.0
  0
LINE
  5
B3
330
89
100
AcDbEntity
  8
AM_9
100
AcDbLine
 10
-1.125
 20
1.811005050633883
 30
0.0
 11
-1.125
 21
1.791110838080825
 31
0.0
  0
ELLIPSE
  5
B4
330
89
100
AcDbEntity
  8
AM_9
100
AcDbEllipse
 10
-1.020000000000004
 20
1.81100505063388
 30
0.0
 11
0.1049999999999962
 21
0.0
 31
0.0
210
0.0
220
0.0
230
1.0
 40
0.7071067811865347
 41
3.141592653589793
 42
3.665191429188072
  0
ELLIPSE
  5
B5
330
89
100
AcDbEntity
  8
AM_9
100
AcDbEllipse
 10
-1.019999999999972
 20
1.76698986082279
 30
0.0
 11
0.1188200907348672
 21
1.770557325107861E-9
 31
0.0
210
0.0
220
0.0
230
1.0
 40
0.7071067811862242
 41
0.3762206064488787
 42
0.4429110249346461
  0
ELLIPSE
  5
B6
330
89
100
AcDbEntity
  8
AM_9
100
AcDbEllipse
 10
-1.019999999999999
 20
1.728498557581081
 30
0.0
 11
0.1725340532830134
 21
0.0
 31
0.0
210
0.0
220
0.0
230
1.0
 40
0.7071067811865428
 41
0.777291343141898
 42
1.407862057867272
  0
LINE
  5
B7
330
89
100
AcDbEntity
  8
AM_9
100
AcDbLine
 10
-1.039274318669152
 20
1.84989557414236
 30
0.0
 11
-1.047987491876916
 21
1.848882733951368
 31
0.0
  0
LINE
  5
B8
330
89
100
AcDbEntity
  8
AM_9
100
AcDbLine
 10
-0.9920125081230841
 20
1.848882733951368
 30
0.0
 11
-1.000725681330848
 21
1.84989557414236
 31
0.0
  0
ELLIPSE
  5
B9
330
89
100
AcDbEntity
  8
AM_9
100
AcDbEllipse
 10
-1.02
 20
1.766989860822681
 30
0.0
 11
0.1188200907348972
 21
0.0
 31
0.0
210
0.0
220
0.0
230
1.0
 40
0.707106781186554
 41
1.733730595722524
 42
2.698681609516148
  0
ELLIPSE
  5
BA
330
89
100
AcDbEntity
  8
AM_9
100
AcDbEllipse
 10
-1.02
 20
1.728498557581098
 30
0.0
 11
0.1725340532830002
 21
0.0
 31
0.0
210
0.0
220
0.0
230
1.0
 40
0.7071067811864992
 41
1.407862057867252
 42
2.364301310448087
  0
ELLIPSE
  5
BB
330
89
100
AcDbEntity
  8
AM_9
100
AcDbEllipse
 10
-1.02
 20
1.811005050633883
 30
0.0
 11
0.1049999999999999
 21
0.0
 31
0.0
210
0.0
220
0.0
230
1.0
 40
0.7071067811865482
 41
0.0
 42
3.141592653589793
  0
ELLIPSE
  5
BC
330
89
100
AcDbEntity
  8
AM_9
100
AcDbEllipse
 10
-1.020000000000002
 20
1.811005050633884
 30
0.0
 11
0.1050000000000019
 21
0.0
 31
0.0
210
0.0
220
0.0
230
1.0
 40
0.7071067811865475
 41
5.759586531581293
 42
6.283185307179586
  0
ELLIPSE
  5
BD
330
89
100
AcDbEntity
  8
AM_9
100
AcDbEllipse
 10
-1.02
 20
1.853431457505077
 30
0.0
 11
0.1349999999999998
 21
0.0
 31
0.0
210
0.0
220
0.0
230
1.0
 40
0.7071067811865476
 41
0.4159140521025444
 42
2.725678601487248
  0
ELLIPSE
  5
BE
330
89
100
AcDbEntity
  8
AM_9
100
AcDbEllipse
 10
-1.02
 20
1.483412911782064
 30
0.0
 11
0.1986176267812156
 21
2.959633272606368E-9
 31
0.0
210
0.0
220
0.0
230
1.0
 40
0.7071067811865245
 41
0.0
 42
6.283185307179586
  0
ELLIPSE
  5
BF
330
89
100
AcDbEntity
  8
AM_9
100
AcDbEllipse
 10
-1.019999999999476
 20
1.644834957054583
 30
0.0
 11
0.2057518972225456
 21
0.0
 31
0.0
210
0.0
220
0.0
230
1.0
 40
0.7071067811864963
 41
0.0
 42
6.283185307179586
  0
LWPOLYLINE
  5
C1
330
89
100
AcDbEntity
  8
AM_4
100
AcDbPolyline
 90
        3
 70
     0
 43
0.0
 10
-1.154267150755579
 20
1.855486714976103
 10
-1.177727249732127
 20
1.83002188478947
 10
-1.209443057077846
 20
1.792885439365978
  0
LWPOLYLINE
  5
C2
330
89
100
AcDbEntity
  8
AM_4
100
AcDbPolyline
 90
        3
 70
     0
 43
0.0
 10
-0.8305569429221539
 20
1.792885439365978
 10
-0.8621307857684616
 20
1.829862965679058
 10
-0.8844169416041099
 20
1.854097509186014
  0
LWPOLYLINE
  5
C3
330
89
100
AcDbEntity
  8
AM_4
100
AcDbPolyline
 90
        3
 70
     0
 43
0.0
 10
-0.7674092572295388
 20
1.709133873939138
 10
-0.7988411355764355
 20
1.752334340012045
 10
-0.8305569429221539
 20
1.792885439365978
  0
LWPOLYLINE
  5
C4
330
89
100
AcDbEntity
  8
AM_4
100
AcDbPolyline
 90
        3
 70
     0
 43
0.0
 10
-1.209443057077846
 20
1.792885439365978
 10
-1.241016899924153
 20
1.752523161486779
 10
-1.272590742770461
 20
1.709133873939138
  0
LINE
  5
C5
330
89
100
AcDbEntity
  8
AM_4
100
AcDbLine
 10
-0.7674092572295388
 20
1.709133873939138
 30
0.0
 11
-0.7674092572295388
 21
1.651246718289606
 31
0.0
  0
LWPOLYLINE
  5
C6
330
89
100
AcDbEntity
  8
AM_4
100
AcDbPolyline
 90
        3
 70
     0
 43
0.0
 10
-0.8305569429221539
 20
1.638205830981421
 10
-0.7989831000758463
 20
1.675183357294501
 10
-0.7674092572295388
 20
1.709133873939138
  0
LWPOLYLINE
  5
C7
330
89
100
AcDbEntity
  8
AM_4
100
AcDbPolyline
 90
        3
 70
     0
 43
0.0
 10
-0.8305569429221539
 20
1.567495152862766
 10
-0.8621307857684616
 20
1.530517626549686
 10
-0.8937046286147693
 20
1.496567109905049
  0
LWPOLYLINE
  5
C8
330
89
100
AcDbEntity
  8
AM_4
100
AcDbPolyline
 90
        3
 70
     0
 43
0.0
 10
-0.7674092572295388
 20
1.651246718289606
 10
-0.7988411355764357
 20
1.608046252216699
 10
-0.8305569429221539
 20
1.567495152862766
  0
LINE
  5
C9
330
89
100
AcDbEntity
  8
AM_4
100
AcDbLine
 10
-0.8937046286147693
 20
1.554454265554581
 30
0.0
 11
-0.8937046286147693
 21
1.496567109905049
 31
0.0
  0
LWPOLYLINE
  5
CA
330
89
100
AcDbEntity
  8
AM_4
100
AcDbPolyline
 90
        4
 70
     0
 43
0.0
 10
-1.02
 20
1.490155348670487
 10
-1.068399816055899
 20
1.491157715466319
 10
-1.116799632111798
 20
1.494031999739117
 10
-1.146295371385231
 20
1.496567109905049
  0
LWPOLYLINE
  5
CB
330
89
100
AcDbEntity
  8
AM_4
100
AcDbPolyline
 90
        3
 70
     0
 43
0.0
 10
-0.8937046286147693
 20
1.496567109905049
 10
-0.9565683853085631
 20
1.491862675635708
 10
-1.02
 20
1.490155348670487
  0
ELLIPSE
  5
CC
330
89
100
AcDbEntity
  8
AM_4
100
AcDbEllipse
 10
-1.02
 20
1.715545635173698
 30
0.0
 11
0.2187500000000003
 21
3.259629011154180E-9
 31
0.0
210
0.0
220
0.0
230
1.0
 40
0.7071067811865482
 41
4.712388969847977
 42
6.806784064338644
  0
ELLIPSE
  5
CD
330
89
100
AcDbEntity
  8
AM_4
100
AcDbEllipse
 10
-1.02
 20
1.715545635173702
 30
0.0
 11
0.2187500000000003
 21
3.259629011154180E-9
 31
0.0
210
0.0
220
0.0
230
1.0
 40
0.7071067811865379
 41
0.5235987571590437
 42
0.9156935872670973
  0
ELLIPSE
  5
CE
330
89
100
AcDbEntity
  8
AM_4
100
AcDbEllipse
 10
-1.019999999999999
 20
1.7155456351737
 30
0.0
 11
0.2187500000000007
 21
0.0
 31
0.0
210
0.0
220
0.0
230
1.0
 40
0.707106781186547
 41
2.225899051874962
 42
4.71238898038469
  0
LWPOLYLINE
  5
CF
330
89
100
AcDbEntity
  8
AM_4
100
AcDbPolyline
 90
        4
 70
     0
 43
0.0
 10
-1.146295371385231
 20
1.554454265554581
 10
-1.116799632111798
 20
1.556989375720513
 10
-1.068542441247754
 20
1.559857813969659
 10
-1.02
 20
1.560866026789142
  0
LWPOLYLINE
  5
D0
330
89
100
AcDbEntity
  8
AM_4
100
AcDbPolyline
 90
        3
 70
     0
 43
0.0
 10
-1.02
 20
1.560866026789142
 10
-0.9568523143073845
 20
1.559173651006083
 10
-0.8937046286147693
 20
1.554454265554581
  0
LWPOLYLINE
  5
D1
330
89
100
AcDbEntity
  8
AM_4
100
AcDbPolyline
 90
        3
 70
     0
 43
0.0
 10
-0.8937046286147693
 20
1.554454265554581
 10
-0.8622727502678723
 20
1.597654731627488
 10
-0.8305569429221539
 20
1.638205830981421
  0
LINE
  5
D2
330
89
100
AcDbEntity
  8
AM_4
100
AcDbLine
 10
-1.146295371385231
 20
1.554454265554581
 30
0.0
 11
-1.146295371385231
 21
1.496567109905049
 31
0.0
  0
LWPOLYLINE
  5
D3
330
89
100
AcDbEntity
  8
AM_4
100
AcDbPolyline
 90
        3
 70
     0
 43
0.0
 10
-1.209443057077846
 20
1.638205830981421
 10
-1.177869214231538
 20
1.597843553102222
 10
-1.146295371385231
 20
1.554454265554581
  0
LWPOLYLINE
  5
D4
330
89
100
AcDbEntity
  8
AM_4
100
AcDbPolyline
 90
        3
 70
     0
 43
0.0
 10
-1.272590742770461
 20
1.709133873939138
 10
-1.241158864423564
 20
1.675342276404913
 10
-1.209443057077846
 20
1.638205830981421
  0
LINE
  5
D5
330
89
100
AcDbEntity
  8
AM_4
100
AcDbLine
 10
-1.272590742770461
 20
1.709133873939138
 30
0.0
 11
-1.272590742770461
 21
1.651246718289606
 31
0.0
  0
LWPOLYLINE
  5
D6
330
89
100
AcDbEntity
  8
AM_4
100
AcDbPolyline
 90
        3
 70
     0
 43
0.0
 10
-1.209443057077846
 20
1.567495152862766
 10
-1.241016899924153
 20
1.607857430741965
 10
-1.272590742770461
 20
1.651246718289606
  0
LWPOLYLINE
  5
D7
330
89
100
AcDbEntity
  8
AM_4
100
AcDbPolyline
 90
        3
 70
     0
 43
0.0
 10
-1.146295371385231
 20
1.496567109905049
 10
-1.177727249732127
 20
1.530358707439274
 10
-1.209443057077846
 20
1.567495152862766
  0
ELLIPSE
  5
D8
330
89
100
AcDbEntity
  8
AM_4
100
AcDbEllipse
 10
-1.02
 20
1.766989860822682
 30
0.0
 11
0.1188200907348975
 21
0.0
 31
0.0
210
0.0
220
0.0
230
1.0
 40
0.7071067811865483
 41
2.765372027488876
 42
6.659405933280503
  0
ELLIPSE
  5
D9
330
89
100
AcDbEntity
  8
AM_4
100
AcDbEllipse
 10
-1.02
 20
1.715545635173699
 30
0.0
 11
0.2137499999999999
 21
0.0
 31
0.0
210
0.0
220
0.0
230
1.0
 40
0.7071067811865469
 41
2.237937434749539
 42
6.283185307179586
  0
ELLIPSE
  5
DA
330
89
100
AcDbEntity
  8
AM_4
100
AcDbEllipse
 10
-1.02
 20
1.715545635173699
 30
0.0
 11
0.2137500000000001
 21
0.0
 31
0.0
210
0.0
220
0.0
230
1.0
 40
0.7071067811865482
 41
0.0
 42
0.903655218840294
  0
LINE
  5
DB
330
89
100
AcDbEntity
  8
AM_4
100
AcDbLine
 10
-0.9149999999999999
 20
1.789791847198287
 30
0.0
 11
-0.9149999999999999
 21
1.791110838080825
 31
0.0
  0
LINE
  5
DC
330
89
100
AcDbEntity
  8
AM_4
100
AcDbLine
 10
-1.125
 20
1.791110838080825
 30
0.0
 11
-1.125
 21
1.789791847198287
 31
0.0
  0
ELLIPSE
  5
DD
330
89
100
AcDbEntity
  8
AM_4
100
AcDbEllipse
 10
-1.02
 20
1.789791847198287
 30
0.0
 11
0.1049999999999999
 21
0.0
 31
0.0
210
0.0
220
0.0
230
1.0
 40
0.7071067811865482
 41
3.141592653589793
 42
6.283185307179586
  0
ELLIPSE
  5
DE
330
89
100
AcDbEntity
  8
AM_4
100
AcDbEllipse
 10
-1.019999999999999
 20
1.728498557581078
 30
0.0
 11
0.1725340532830144
 21
0.0
 31
0.0
210
0.0
220
0.0
230
1.0
 40
0.7071067811865516
 41
2.364301310448008
 42
7.060476650321498
  0
LINE
  5
DF
330
89
100
AcDbEntity
  8
AM_4
100
AcDbLine
 10
-0.9290673326026339
 20
1.773881944621589
 30
0.0
 11
-0.9030865704891007
 21
1.805701749774984
 31
0.0
  0
LINE
  5
E0
330
89
100
AcDbEntity
  8
AM_4
100
AcDbLine
 10
-1.136913429510899
 20
1.805701749774984
 30
0.0
 11
-1.110932667397366
 21
1.77388194462159
 31
0.0
  0
ELLIPSE
  5
E1
330
89
100
AcDbEntity
  8
AM_4
100
AcDbEllipse
 10
-1.02
 20
1.811005050633883
 30
0.0
 11
0.105
 21
0.0
 31
0.0
210
0.0
220
0.0
230
1.0
 40
0.7071067811865454
 41
3.66519142918809
 42
5.759586531581284
  0
ELLIPSE
  5
E2
330
89
100
AcDbEntity
  8
AM_4
100
AcDbEllipse
 10
-1.02
 20
1.853431457505077
 30
0.0
 11
0.1349999999999999
 21
0.0
 31
0.0
210
0.0
220
0.0
230
1.0
 40
0.707106781186547
 41
2.725678601487248
 42
6.69909935928213
  0
LINE
  5
E3
330
89
100
AcDbEntity
  8
AM_4
100
AcDbLine
 10
-1.113924344000929
 20
1.939334017363775
 30
0.0
 11
-1.143490899223633
 21
1.891999564853885
 31
0.0
  0
LINE
  5
E4
330
89
100
AcDbEntity
  8
AM_4
100
AcDbLine
 10
-0.8965091007763664
 20
1.891999564853885
 30
0.0
 11
-0.9260756559990712
 21
1.939334017363775
 31
0.0
  0
ELLIPSE
  5
E5
330
89
100
AcDbEntity
  8
AM_4
100
AcDbEllipse
 10
-1.020000000000008
 20
1.909999999999993
 30
0.0
 11
0.1026779019331955
 21
0.0
 31
0.0
210
0.0
220
0.0
230
1.0
 40
0.7071067811865519
 41
0.0
 42
6.283185307179586
  0
ENDBLK
  5
8C
330
89
100
AcDbEntity
  8
0
100
AcDbBlockEnd
  0
BLOCK
  5
E8
330
E6
100
AcDbEntity
  8
0
100
AcDbBlockBegin
  2
3_131920_0_in_131072_2
 70
     2
 10
0.0
 20
0.0
 30
0.0
  3
3_131920_0_in_131072_2
  1

  0
ATTDEF
  5
EA
330
E6
100
AcDbEntity
  8
AM_6
100
AcDbText
 10
4.949999999999999
 20
1.67264859827606
 30
0.0
 40
0.5
  1
Eccentric Collar Insert Inch Bore
100
AcDbAttributeDefinition
  3

  2
NN
 70
     8
280
     0
  0
ATTDEF
  5
EB
330
E6
100
AcDbEntity
  8
AM_6
100
AcDbText
 10
4.949999999999999
 20
1.17264859827606
 30
0.0
 40
0.5
  1
SXR Normal Duty Bearing Inserts
100
AcDbAttributeDefinition
  3

  2
NT
 70
     8
280
     0
  0
ATTDEF
  5
EC
330
E6
100
AcDbEntity
  8
AM_6
100
AcDbText
 10
4.949999999999999
 20
0.6726485982760602
 30
0.0
 40
0.5
  1
131920
100
AcDbAttributeDefinition
  3

  2
NB
 70
     8
280
     0
  0
ATTDEF
  5
ED
330
E6
100
AcDbEntity
  8
AM_6
100
AcDbText
 10
4.949999999999999
 20
0.1726485982760602
 30
0.0
 40
0.5
  1
$PN.
100
AcDbAttributeDefinition
  3

  2
NBSYN
 70
     8
280
     0
  0
ATTDEF
  5
EE
330
E6
100
AcDbEntity
  8
AM_6
100
AcDbText
 10
4.949999999999999
 20
-0.3273514017239398
 30
0.0
 40
0.5
  1
131920
100
AcDbAttributeDefinition
  3

  2
LINA
 70
     8
280
     0
  0
ATTDEF
  5
EF
330
E6
100
AcDbEntity
  8
AM_6
100
AcDbText
 10
4.949999999999999
 20
-0.8273514017239398
 30
0.0
 40
0.5
  1
209
100
AcDbAttributeDefinition
  3

  2
SERIES
 70
     8
280
     0
  0
ATTDEF
  5
F0
330
E6
100
AcDbEntity
  8
AM_6
100
AcDbText
 10
4.949999999999999
 20
-1.32735140172394
 30
0.0
 40
0.5
  1
1-3/4
100
AcDbAttributeDefinition
  3

  2
SS
 70
     8
280
     0
  0
ATTDEF
  5
F1
330
E6
100
AcDbEntity
  8
AM_6
100
AcDbText
 10
4.949999999999999
 20
-1.82735140172394
 30
0.0
 40
0.5
  1
131920
100
AcDbAttributeDefinition
  3

  2
PN
 70
     8
280
     0
  0
ATTDEF
  5
F2
330
E6
100
AcDbEntity
  8
AM_6
100
AcDbText
 10
4.949999999999999
 20
-2.32735140172394
 30
0.0
 40
0.5
  1
INS-SXR-112
100
AcDbAttributeDefinition
  3

  2
DESCRIPTION
 70
     8
280
     0
  0
ATTDEF
  5
F3
330
E6
100
AcDbEntity
  8
AM_6
100
AcDbText
 10
4.949999999999999
 20
-2.82735140172394
 30
0.0
 40
0.5
  1
1.8
100
AcDbAttributeDefinition
  3

  2
WEIGHT
 70
     8
280
     0
  0
ATTDEF
  5
F4
330
E6
100
AcDbEntity
  8
AM_6
100
AcDbText
 10
4.949999999999999
 20
-3.32735140172394
 30
0.0
 40
0.5
  1
2.13
100
AcDbAttributeDefinition
  3

  2
A
 70
     8
280
     0
  0
ATTDEF
  5
F5
330
E6
100
AcDbEntity
  8
AM_6
100
AcDbText
 10
4.949999999999999
 20
-3.82735140172394
 30
0.0
 40
0.5
  1
0.87
100
AcDbAttributeDefinition
  3

  2
C
 70
     8
280
     0
  0
ATTDEF
  5
F6
330
E6
100
AcDbEntity
  8
AM_6
100
AcDbText
 10
4.949999999999999
 20
-4.32735140172394
 30
0.0
 40
0.5
  1
3.3465
100
AcDbAttributeDefinition
  3

  2
D
 70
     8
280
     0
  0
ATTDEF
  5
F7
330
E6
100
AcDbEntity
  8
AM_6
100
AcDbText
 10
4.949999999999999
 20
-4.82735140172394
 30
0.0
 40
0.5
  1
0.25
100
AcDbAttributeDefinition
  3

  2
J
 70
     8
280
     0
  0
ATTDEF
  5
F8
330
E6
100
AcDbEntity
  8
AM_6
100
AcDbText
 10
4.949999999999999
 20
-5.32735140172394
 30
0.0
 40
0.5
  1
2.50
100
AcDbAttributeDefinition
  3

  2
L
 70
     8
280
     0
  0
ATTDEF
  5
F9
330
E6
100
AcDbEntity
  8
AM_6
100
AcDbText
 10
4.949999999999999
 20
-5.82735140172394
 30
0.0
 40
0.5
  1
5/16 - 24
100
AcDbAttributeDefinition
  3

  2
N
 70
     8
280
     0
  0
ATTDEF
  5
FA
330
E6
100
AcDbEntity
  8
AM_6
100
AcDbText
 10
4.949999999999999
 20
-6.32735140172394
 30
0.0
 40
0.5
  1
0.75
100
AcDbAttributeDefinition
  3

  2
W
 70
     8
280
     0
  0
ATTDEF
  5
FB
330
E6
100
AcDbEntity
  8
AM_6
100
AcDbText
 10
4.949999999999999
 20
-6.82735140172394
 30
0.0
 40
0.5
  1
1.38
100
AcDbAttributeDefinition
  3

  2
Y
 70
     8
280
     0
  0
ATTDEF
  5
FC
330
E6
100
AcDbEntity
  8
AM_6
100
AcDbText
 10
4.949999999999999
 20
-7.32735140172394
 30
0.0
 40
0.5
  1
2.22
100
AcDbAttributeDefinition
  3

  2
Z
 70
     8
280
     0
  0
ATTDEF
  5
FD
330
E6
100
AcDbEntity
  8
AM_6
100
AcDbText
 10
4.949999999999999
 20
-7.82735140172394
 30
0.0
 40
0.5
  1
baldor
100
AcDbAttributeDefinition
  3

  2
COMPANY
 70
     8
280
     0
  0
LINE
  5
FE
330
E6
100
AcDbEntity
  8
AM_9
100
AcDbLine
 10
-0.4458333333333335
 20
-1.600136625066699
 30
0.0
 11
-0.4458333333333335
 21
-1.579663290702004
 31
0.0
  0
LWPOLYLINE
  5
FF
330
E6
100
AcDbEntity
  8
AM_9
100
AcDbPolyline
 90
       13
 70
     0
 43
0.0
 10
-0.4458333338474554
 20
-1.579612873106033
 10
-0.4465447860937762
 20
-1.582866221342573
 10
-0.4499272734930176
 20
-1.587704016599175
 10
-0.4562133761838699
 20
-1.592879710868284
 10
-0.4648935656750678
 20
-1.597973071612484
 10
-0.476189642093824
 20
-1.603115796287377
 10
-0.4892810493050065
 20
-1.607924665713708
 10
-0.5044368708936964
 20
-1.612490086048423
 10
-0.5205906329851969
 20
-1.616479747816574
 10
-0.5380322331128371
 20
-1.619953677700383
 10
-0.5554716246736522
 20
-1.622646209752518
 10
-0.5732543483040149
 20
-1.624600292226075
 10
-0.5857069444445026
 20
-1.625463504939573
  0
ARC
  5
100
330
E6
100
AcDbEntity
  8
AM_9
100
AcDbCircle
 10
-0.5499999999999998
 20
-1.600136625066699
 30
0.0
 40
0.1041666666666663
100
AcDbArc
 50
185.8467518237555
 51
0.0000008537736463
  0
ELLIPSE
  5
101
330
E6
100
AcDbEntity
  8
AM_9
100
AcDbEllipse
 10
-0.5507951080236111
 20
-1.595047499188819
 30
0.0
 11
-0.1027833985966709
 21
-0.01605853478173943
 31
0.0
210
0.0
220
0.0
230
1.0
 40
0.2559211824406087
 41
5.018697479948159
 42
7.467747168984365
  0
ELLIPSE
  5
102
330
E6
100
AcDbEntity
  8
AM_9
100
AcDbEllipse
 10
-0.5500000000000143
 20
-1.600136625066629
 30
0.0
 11
-0.1041666666665981
 21
1.275673749110987E-17
 31
0.0
210
0.0
220
0.0
230
1.0
 40
0.2588190451020315
 41
1.220914638077122
 42
5.062270669104167
  0
LINE
  5
103
330
E6
100
AcDbEntity
  8
AM_9
100
AcDbLine
 10
-1.698946342007354
 20
-0.8750000000000001
 30
0.0
 11
-0.0674000000000001
 21
-0.8750000000000001
 31
0.0
  0
LINE
  5
104
330
E6
100
AcDbEntity
  8
AM_9
100
AcDbLine
 10
-0.0674000000000001
 20
0.8750000000000001
 30
0.0
 11
-1.698946342007354
 21
0.8750000000000001
 31
0.0
  0
LINE
  5
105
330
E6
100
AcDbEntity
  8
AM_9
100
AcDbLine
 10
-2.1626
 20
-0.8750000000000001
 30
0.0
 11
-1.723553657992646
 21
-0.8750000000000001
 31
0.0
  0
LINE
  5
106
330
E6
100
AcDbEntity
  8
AM_9
100
AcDbLine
 10
-1.723553657992646
 20
0.8750000000000001
 30
0.0
 11
-2.1626
 21
0.8750000000000001
 31
0.0
  0
LINE
  5
107
330
E6
100
AcDbEntity
  8
AM_9
100
AcDbLine
 10
-1.698946342007354
 20
0.8750000000000001
 30
0.0
 11
-1.71125
 21
0.8873036579926464
 31
0.0
  0
LINE
  5
108
330
E6
100
AcDbEntity
  8
AM_9
100
AcDbLine
 10
-1.71125
 20
-0.8873036579926464
 30
0.0
 11
-1.698946342007354
 21
-0.8750000000000001
 31
0.0
  0
LINE
  5
109
330
E6
100
AcDbEntity
  8
AM_9
100
AcDbLine
 10
-1.698946342007354
 20
0.8750000000000001
 30
0.0
 11
-1.698946342007354
 21
-0.8750000000000001
 31
0.0
  0
LINE
  5
10A
330
E6
100
AcDbEntity
  8
AM_9
100
AcDbLine
 10
-1.723553657992646
 20
-0.8750000000000001
 30
0.0
 11
-1.71125
 21
-0.8873036579926464
 31
0.0
  0
LINE
  5
10B
330
E6
100
AcDbEntity
  8
AM_9
100
AcDbLine
 10
-1.71125
 20
0.8873036579926464
 30
0.0
 11
-1.723553657992646
 21
0.8750000000000001
 31
0.0
  0
LINE
  5
10C
330
E6
100
AcDbEntity
  8
AM_9
100
AcDbLine
 10
-1.71125
 20
0.8873036579926464
 30
0.0
 11
-1.71125
 21
-0.8873036579926464
 31
0.0
  0
LINE
  5
10D
330
E6
100
AcDbEntity
  8
AM_9
100
AcDbLine
 10
-1.723553657992646
 20
0.8750000000000001
 30
0.0
 11
-1.723553657992646
 21
-0.8750000000000001
 31
0.0
  0
LINE
  5
10E
330
E6
100
AcDbEntity
  8
AM_9
100
AcDbLine
 10
-0.0674000000000001
 20
-0.8750000000000001
 30
0.0
 11
-0.0500000000000003
 21
-0.8924000000000002
 31
0.0
  0
LINE
  5
10F
330
E6
100
AcDbEntity
  8
AM_9
100
AcDbLine
 10
-0.0500000000000003
 20
0.8924000000000002
 30
0.0
 11
-0.0674000000000001
 21
0.8750000000000001
 31
0.0
  0
LINE
  5
110
330
E6
100
AcDbEntity
  8
AM_9
100
AcDbLine
 10
-2.1626
 20
0.8750000000000002
 30
0.0
 11
-2.18
 21
0.8924000000000002
 31
0.0
  0
LINE
  5
111
330
E6
100
AcDbEntity
  8
AM_9
100
AcDbLine
 10
-2.18
 20
-0.8924000000000002
 30
0.0
 11
-2.1626
 21
-0.8750000000000002
 31
0.0
  0
LINE
  5
112
330
E6
100
AcDbEntity
  8
AM_9
100
AcDbLine
 10
-2.1626
 20
0.8750000000000002
 30
0.0
 11
-2.1626
 21
-0.8750000000000002
 31
0.0
  0
LWPOLYLINE
  5
113
330
E6
100
AcDbEntity
  8
AM_9
100
AcDbPolyline
 90
       20
 70
     0
 43
0.0
 10
-2.084975
 20
0.2264666644647056
 10
-2.083080702830072
 20
0.2042706176310366
 10
-2.077234321334152
 20
0.1819192847949809
 10
-2.067938448829172
 20
0.1613143569885794
 10
-2.054935551991895
 20
0.1418771564996586
 10
-2.039168787646004
 20
0.125116829157277
 10
-2.020271466096777
 20
0.1107485992428732
 10
-1.99969040333639
 20
0.0999558219790087
 10
-1.976913694001346
 20
0.0925580097995331
 10
-1.954079409472613
 20
0.0892332003185644
 10
-1.930327096358388
 20
0.0898231452430124
 10
-1.907888443680797
 20
0.0942172366275999
 10
-1.885888290749139
 20
0.1025034966599032
 10
-1.866058554808689
 20
0.1140197675016721
 10
-1.847926466988047
 20
0.1290223838564817
 10
-1.832819512686984
 20
0.1464494113425414
 10
-1.820523597076876
 20
0.166615783184658
 10
-1.812071789111861
 20
0.1878139486348946
 10
-1.807237842083511
 20
0.2106314317897412
 10
-1.806275000671488
 20
0.2264798783410818
  0
LINE
  5
114
330
E6
100
AcDbEntity
  8
AM_9
100
AcDbLine
 10
-1.806275
 20
0.2264506648469808
 30
0.0
 11
-1.806275
 21
0.3225004169959494
 31
0.0
  0
LINE
  5
115
330
E6
100
AcDbEntity
  8
AM_9
100
AcDbLine
 10
-2.084975
 20
0.3225004169959494
 30
0.0
 11
-2.084975
 21
0.2264666644647057
 31
0.0
  0
LWPOLYLINE
  5
116
330
E6
100
AcDbEntity
  8
AM_9
100
AcDbPolyline
 90
        4
 70
     0
 43
0.0
 10
-2.075599666846208
 20
0.2746301694494357
 10
-2.081057275806023
 20
0.2579997900296788
 10
-2.083977484195168
 20
0.2425022673601912
 10
-2.084975
 20
0.2264666644647056
  0
LWPOLYLINE
  5
117
330
E6
100
AcDbEntity
  8
AM_9
100
AcDbPolyline
 90
        4
 70
     0
 43
0.0
 10
-1.806275000671488
 20
0.2264798783410818
 10
-1.806432481598769
 20
0.2328575905190588
 10
-1.809559211449363
 20
0.2553833582151092
 10
-1.815611786837168
 20
0.2745352378733072
  0
LINE
  5
118
330
E6
100
AcDbEntity
  8
AM_9
100
AcDbLine
 10
-1.41
 20
-1.11
 30
0.0
 11
-1.235
 21
-1.11
 31
0.0
  0
LINE
  5
119
330
E6
100
AcDbEntity
  8
AM_9
100
AcDbLine
 10
-1.235
 20
1.11
 30
0.0
 11
-1.41
 21
1.11
 31
0.0
  0
LINE
  5
11A
330
E6
100
AcDbEntity
  8
AM_9
100
AcDbLine
 10
-0.0500000000000003
 20
1.0926
 30
0.0
 11
-0.0674000000000002
 21
1.11
 31
0.0
  0
LINE
  5
11B
330
E6
100
AcDbEntity
  8
AM_9
100
AcDbLine
 10
-0.0674000000000002
 20
-1.11
 30
0.0
 11
-0.0500000000000003
 21
-1.0926
 31
0.0
  0
LINE
  5
11C
330
E6
100
AcDbEntity
  8
AM_9
100
AcDbLine
 10
-0.0500000000000003
 20
1.0926
 30
0.0
 11
-0.0500000000000003
 21
-1.0926
 31
0.0
  0
LINE
  5
11D
330
E6
100
AcDbEntity
  8
AM_9
100
AcDbLine
 10
-0.3650000000000002
 20
-1.11
 30
0.0
 11
-0.0674000000000002
 21
-1.11
 31
0.0
  0
LINE
  5
11E
330
E6
100
AcDbEntity
  8
AM_9
100
AcDbLine
 10
-0.0674000000000002
 20
1.11
 30
0.0
 11
-0.3650000000000002
 21
1.11
 31
0.0
  0
LINE
  5
11F
330
E6
100
AcDbEntity
  8
AM_9
100
AcDbLine
 10
-0.0674000000000002
 20
1.11
 30
0.0
 11
-0.0674000000000002
 21
-1.11
 31
0.0
  0
LINE
  5
120
330
E6
100
AcDbEntity
  8
AM_9
100
AcDbLine
 10
-1.1
 20
-1.593571428571428
 30
0.0
 11
-1.0
 21
-1.593571428571428
 31
0.0
  0
LINE
  5
121
330
E6
100
AcDbEntity
  8
AM_9
100
AcDbLine
 10
-1.0
 20
1.593571428571428
 30
0.0
 11
-1.1
 21
1.593571428571428
 31
0.0
  0
LINE
  5
122
330
E6
100
AcDbEntity
  8
AM_9
100
AcDbLine
 10
-1.235
 20
1.58882294927654
 30
0.0
 11
-1.235
 21
-1.58882294927654
 31
0.0
  0
ARC
  5
123
330
E6
100
AcDbEntity
  8
AM_9
100
AcDbCircle
 10
-1.2002
 20
-1.588822948757979
 30
0.0
 40
0.0347999999999999
100
AcDbArc
 50
180.0
 51
255.8621749168506
  0
ARC
  5
124
330
E6
100
AcDbEntity
  8
AM_9
100
AcDbCircle
 10
-1.2002
 20
1.588822948757978
 30
0.0
 40
0.0348000000000007
100
AcDbArc
 50
104.1378250831502
 51
180.0
  0
LINE
  5
125
330
E6
100
AcDbEntity
  8
AM_9
100
AcDbLine
 10
-0.3650000000000002
 20
1.588822948757979
 30
0.0
 11
-0.3650000000000002
 21
-1.588822948757979
 31
0.0
  0
ARC
  5
126
330
E6
100
AcDbEntity
  8
AM_9
100
AcDbCircle
 10
-0.3997999999999989
 20
-1.58882294875798
 30
0.0
 40
0.0347999999999985
100
AcDbArc
 50
284.1378250831482
 51
0.0000008537736463
  0
ARC
  5
127
330
E6
100
AcDbEntity
  8
AM_9
100
AcDbCircle
 10
-0.3997999999999988
 20
1.58882294875798
 30
0.0
 40
0.0347999999999986
100
AcDbArc
 50
0.0
 51
75.86217491685186
  0
ARC
  5
128
330
E6
100
AcDbEntity
  8
AM_9
100
AcDbCircle
 10
-0.7999999999402543
 20
-0.0000000002757183
 30
0.0
 40
1.673250000281806
100
AcDbArc
 50
100.3285117340114
 51
104.137825082829
  0
ARC
  5
129
330
E6
100
AcDbEntity
  8
AM_9
100
AcDbCircle
 10
-0.7999999998983429
 20
0.0000000004691514
 30
0.0
 40
1.673250000479509
100
AcDbArc
 50
255.8621749173963
 51
259.6714882657636
  0
LINE
  5
12A
330
E6
100
AcDbEntity
  8
AM_9
100
AcDbLine
 10
-1.208700082394947
 20
1.622568890725397
 30
0.0
 11
-1.208700082394947
 21
-1.622568890725286
 31
0.0
  0
LINE
  5
12B
330
E6
100
AcDbEntity
  8
AM_9
100
AcDbLine
 10
-1.1
 20
1.646136556455592
 30
0.0
 11
-1.1
 21
-1.646136556455481
 31
0.0
  0
LWPOLYLINE
  5
12C
330
E6
100
AcDbEntity
  8
AM_9
100
AcDbPolyline
 90
       12
 70
     0
 43
0.0
 10
-0.5670230036584473
 20
-1.570812855628877
 10
-0.550978472355069
 20
-1.568107067139607
 10
-0.5335487707945158
 20
-1.565893371508883
 10
-0.5160915655655423
 20
-1.564464433695237
 10
-0.5000733960911993
 20
-1.563942860819687
 10
-0.4850389306123493
 20
-1.564318767065854
 10
-0.4723547037284874
 20
-1.56555460077189
 10
-0.4615566482246858
 20
-1.567692418667983
 10
-0.4536577156635345
 20
-1.570518995874129
 10
-0.4483065269021669
 20
-1.574140731611874
 10
-0.4459803996309582
 20
-1.578205149808954
 10
-0.4458333338474554
 20
-1.579612873106033
  0
LWPOLYLINE
  5
12D
330
E6
100
AcDbEntity
  8
AM_9
100
AcDbPolyline
 90
        3
 70
     0
 43
0.0
 10
-0.5857069444444959
 20
-1.574809745193824
 10
-0.5688551211177061
 20
-1.57116326226114
 10
-0.5670230036584473
 20
-1.570812855628877
  0
ARC
  5
12E
330
E6
100
AcDbEntity
  8
AM_9
100
AcDbCircle
 10
-0.8000000000000125
 20
0.0000000000002269
 30
0.0
 40
1.673250000000218
100
AcDbArc
 50
263.1351448840012
 51
284.1378250831484
  0
ARC
  5
12F
330
E6
100
AcDbEntity
  8
AM_9
100
AcDbCircle
 10
-0.8000000000000074
 20
-0.0000000000001168
 30
0.0
 40
1.673250000000112
100
AcDbArc
 50
75.86217491685089
 51
96.86485511599948
  0
LINE
  5
130
330
E6
100
AcDbEntity
  8
AM_9
100
AcDbLine
 10
-1.0
 20
1.340215369543855
 30
0.0
 11
-1.0
 21
-1.661254213689157
 31
0.0
  0
LINE
  5
131
330
E6
100
AcDbEntity
  8
AM_9
100
AcDbLine
 10
-1.0
 20
1.66125421368916
 30
0.0
 11
-1.0
 21
1.343682883391237
 31
0.0
  0
LINE
  5
132
330
E6
100
AcDbEntity
  8
AM_9
100
AcDbLine
 10
-0.3912999176050537
 20
1.622568890725554
 30
0.0
 11
-0.3912999176050537
 21
-1.622568890725552
 31
0.0
  0
ELLIPSE
  5
133
330
E6
100
AcDbEntity
  8
AM_4
100
AcDbEllipse
 10
-1.945624999999999
 20
0.3225004169959489
 30
0.0
 11
0.1393500000000012
 21
0.0
 31
0.0
210
0.0
220
0.0
230
1.0
 40
0.9659258262890698
 41
2.347937192682531
 42
3.141592653589793
  0
ELLIPSE
  5
134
330
E6
100
AcDbEntity
  8
AM_4
100
AcDbEllipse
 10
-1.945625000000045
 20
0.3225004169959579
 30
0.0
 11
0.1393500000000447
 21
0.0
 31
0.0
210
0.0
220
0.0
230
1.0
 40
0.9659258262890696
 41
5.489529846272464
 42
6.283185307179586
  0
ELLIPSE
  5
135
330
E6
100
AcDbEntity
  8
AM_4
100
AcDbEllipse
 10
-1.945624999999999
 20
0.3225004169959497
 30
0.0
 11
0.1393500000000014
 21
0.0
 31
0.0
210
0.0
220
0.0
230
1.0
 40
0.9659258262890685
 41
3.141592653589793
 42
3.935248114497053
  0
ELLIPSE
  5
136
330
E6
100
AcDbEntity
  8
AM_4
100
AcDbEllipse
 10
-1.945625000000004
 20
0.3225004169959477
 30
0.0
 11
0.1393500000000041
 21
0.0
 31
0.0
210
0.0
220
0.0
230
1.0
 40
0.965925826289068
 41
0.0
 42
0.7936554609072571
  0
LWPOLYLINE
  5
137
330
E6
100
AcDbEntity
  8
AM_4
100
AcDbPolyline
 90
       17
 70
     0
 43
0.0
 10
-1.815611786837168
 20
0.2745352378733072
 10
-1.816303617229066
 20
0.2762067444712858
 10
-1.826853873125949
 20
0.2960786709029042
 10
-1.840456907167167
 20
0.3135346046061068
 10
-1.857425891840489
 20
0.3289483066310757
 10
-1.876552818297228
 20
0.3411926857693445
 10
-1.898255055795945
 20
0.3504982906486124
 10
-1.920609502063372
 20
0.3560852034972726
 10
-1.944360544008058
 20
0.3581727631646199
 10
-1.967213400505135
 20
0.356622783996812
 10
-1.990102803610601
 20
0.3514337435836526
 10
-2.011098303896137
 20
0.3430369299893702
 10
-2.030829852726696
 20
0.3311698821259214
 10
-2.047859620830568
 20
0.3166017343696491
 10
-2.062450848016161
 20
0.2989848039815172
 10
-2.073444795852789
 20
0.279621859264082
 10
-2.075599666846208
 20
0.2746301694494357
  0
LINE
  5
138
330
E6
100
AcDbEntity
  8
AM_4
100
AcDbLine
 10
-1.64875
 20
-1.057142857142857
 30
0.0
 11
-1.6175
 21
-1.057142857142857
 31
0.0
  0
LINE
  5
139
330
E6
100
AcDbEntity
  8
AM_4
100
AcDbLine
 10
-1.6175
 20
1.057142857142857
 30
0.0
 11
-1.64875
 21
1.057142857142857
 31
0.0
  0
LINE
  5
13A
330
E6
100
AcDbEntity
  8
AM_4
100
AcDbLine
 10
-1.6001
 20
-1.11
 30
0.0
 11
-1.41
 21
-1.11
 31
0.0
  0
LINE
  5
13B
330
E6
100
AcDbEntity
  8
AM_4
100
AcDbLine
 10
-1.41
 20
1.11
 30
0.0
 11
-1.6001
 21
1.11
 31
0.0
  0
LINE
  5
13C
330
E6
100
AcDbEntity
  8
AM_4
100
AcDbLine
 10
-1.6175
 20
-1.0926
 30
0.0
 11
-1.6001
 21
-1.11
 31
0.0
  0
LINE
  5
13D
330
E6
100
AcDbEntity
  8
AM_4
100
AcDbLine
 10
-1.6001
 20
1.11
 30
0.0
 11
-1.6175
 21
1.0926
 31
0.0
  0
LINE
  5
13E
330
E6
100
AcDbEntity
  8
AM_4
100
AcDbLine
 10
-1.6175
 20
1.0926
 30
0.0
 11
-1.6175
 21
-1.0926
 31
0.0
  0
LINE
  5
13F
330
E6
100
AcDbEntity
  8
AM_4
100
AcDbLine
 10
-1.6001
 20
1.11
 30
0.0
 11
-1.6001
 21
-1.11
 31
0.0
  0
LWPOLYLINE
  5
140
330
E6
100
AcDbEntity
  8
AM_4
100
AcDbPolyline
 90
       10
 70
     0
 43
0.0
 10
-2.043343344473383
 20
0.4184608949154313
 10
-2.025289615488853
 20
0.4325887281318069
 10
-2.004988089463264
 20
0.4436514243290423
 10
-1.982975648100037
 20
0.4513155237702951
 10
-1.95990049575148
 20
0.4554220087162387
 10
-1.936507793346194
 20
0.4558162963204416
 10
-1.913373131104994
 20
0.4525625766889443
 10
-1.891216286196101
 20
0.4457194957797034
 10
-1.870582934286416
 20
0.4355108863438911
 10
-1.847906655526617
 20
0.4184608949154314
  0
LWPOLYLINE
  5
141
330
E6
100
AcDbEntity
  8
AM_4
100
AcDbPolyline
 90
       12
 70
     0
 43
0.0
 10
-1.847906655526617
 20
0.4184608949154313
 10
-1.836120455844346
 20
0.4073418778687769
 10
-1.82569051185469
 20
0.3947357166303186
 10
-1.814256992595872
 20
0.3756146621518439
 10
-1.806298356293433
 20
0.3540964863164617
 10
-1.802716141669166
 20
0.3332439028978318
 10
-1.802938480239138
 20
0.3113485305407707
 10
-1.806764863668867
 20
0.2910075458304746
 10
-1.814208572478297
 20
0.2709264190429887
 10
-1.824736831261181
 20
0.2525423827119526
 10
-1.838496814718307
 20
0.2355527708960489
 10
-1.847906655526616
 20
0.2265399390764591
  0
LWPOLYLINE
  5
142
330
E6
100
AcDbEntity
  8
AM_4
100
AcDbPolyline
 90
       10
 70
     0
 43
0.0
 10
-1.847906655526617
 20
0.2265399390764676
 10
-1.865960384511147
 20
0.2117473789713524
 10
-1.886261910536735
 20
0.2000967478427175
 10
-1.908274351899963
 20
0.1919908902034832
 10
-1.93134950424852
 20
0.1876348066999136
 10
-1.954742206653806
 20
0.1872169922960427
 10
-1.977876868895007
 20
0.1906684694787225
 10
-2.000033713803899
 20
0.1979125658962256
 10
-2.020667065713583
 20
0.2086757077025335
 10
-2.043343344473383
 20
0.2265399390764677
  0
LWPOLYLINE
  5
143
330
E6
100
AcDbEntity
  8
AM_4
100
AcDbPolyline
 90
       12
 70
     0
 43
0.0
 10
-2.043343344473383
 20
0.2265399390764676
 10
-2.055129544155654
 20
0.238114948709406
 10
-2.06555948814531
 20
0.2511673307926682
 10
-2.076993007404128
 20
0.2708234232176398
 10
-2.084951643706567
 20
0.2927422459185449
 10
-2.088533858330833
 20
0.3137826969960483
 10
-2.088311519760861
 20
0.3356662729741045
 10
-2.084485136331133
 20
0.3558070645056936
 10
-2.077041427521703
 20
0.3755140339304724
 10
-2.066513168738819
 20
0.3934034609276537
 10
-2.052753185281693
 20
0.4098079908153522
 10
-2.043343344473383
 20
0.4184608949154313
  0
LINE
  5
144
330
E6
100
AcDbEntity
  8
AM_4
100
AcDbLine
 10
-2.1409375
 20
-1.25
 30
0.0
 11
-1.6878125
 21
-1.25
 31
0.0
  0
LINE
  5
145
330
E6
100
AcDbEntity
  8
AM_4
100
AcDbLine
 10
-1.6878125
 20
1.25
 30
0.0
 11
-2.1409375
 21
1.25
 31
0.0
  0
LINE
  5
146
330
E6
100
AcDbEntity
  8
AM_4
100
AcDbLine
 10
-1.64875
 20
1.2109375
 30
0.0
 11
-1.64875
 21
-1.2109375
 31
0.0
  0
ARC
  5
147
330
E6
100
AcDbEntity
  8
AM_4
100
AcDbCircle
 10
-1.6878125
 20
-1.2109375
 30
0.0
 40
0.0390624999999996
100
AcDbArc
 50
270.0
 51
0.0
  0
ARC
  5
148
330
E6
100
AcDbEntity
  8
AM_4
100
AcDbCircle
 10
-1.6878125
 20
1.2109375
 30
0.0
 40
0.0390624999999996
100
AcDbArc
 50
0.0
 51
90.0
  0
LINE
  5
149
330
E6
100
AcDbEntity
  8
AM_4
100
AcDbLine
 10
-1.6878125
 20
1.25
 30
0.0
 11
-1.6878125
 21
-1.25
 31
0.0
  0
LINE
  5
14A
330
E6
100
AcDbEntity
  8
AM_4
100
AcDbLine
 10
-2.18
 20
1.2109375
 30
0.0
 11
-2.18
 21
-1.2109375
 31
0.0
  0
ARC
  5
14B
330
E6
100
AcDbEntity
  8
AM_4
100
AcDbCircle
 10
-2.140937500000001
 20
-1.210937500000001
 30
0.0
 40
0.0390624999999991
100
AcDbArc
 50
179.9999991462263
 51
270.0
  0
ARC
  5
14C
330
E6
100
AcDbEntity
  8
AM_4
100
AcDbCircle
 10
-2.140937500000001
 20
1.210937500000001
 30
0.0
 40
0.0390624999999993
100
AcDbArc
 50
90.0
 51
179.9999991462263
  0
LINE
  5
14D
330
E6
100
AcDbEntity
  8
AM_4
100
AcDbLine
 10
-2.1409375
 20
1.25
 30
0.0
 11
-2.1409375
 21
-1.25
 31
0.0
  0
ENDBLK
  5
E9
330
E6
100
AcDbEntity
  8
0
100
AcDbBlockEnd
  0
BLOCK
  5
150
330
14E
100
AcDbEntity
  8
0
100
AcDbBlockBegin
  2
4_131072H_0_in_131072_2
 70
     2
 10
0.0
 20
0.0
 30
0.0
  3
4_131072H_0_in_131072_2
  1

  0
ATTDEF
  5
152
330
14E
100
AcDbEntity
  8
AM_6
100
AcDbText
 10
5.07595
 20
3.530000000000001
 30
0.0
 40
0.5
  1
F2B-SXR -Inch - housing
100
AcDbAttributeDefinition
  3

  2
NN
 70
     8
280
     0
  0
ATTDEF
  5
153
330
14E
100
AcDbEntity
  8
AM_6
100
AcDbText
 10
5.07595
 20
3.030000000000001
 30
0.0
 40
0.5
  1
Eccentric Collar 2 Bolt Flange Bearings -(Normal Duty)
100
AcDbAttributeDefinition
  3

  2
NT
 70
     8
280
     0
  0
ATTDEF
  5
154
330
14E
100
AcDbEntity
  8
AM_6
100
AcDbText
 10
5.07595
 20
2.530000000000001
 30
0.0
 40
0.5
  1
131072H
100
AcDbAttributeDefinition
  3

  2
NB
 70
     8
280
     0
  0
ATTDEF
  5
155
330
14E
100
AcDbEntity
  8
AM_6
100
AcDbText
 10
5.07595
 20
2.030000000000001
 30
0.0
 40
0.5
  1
$PN.H
100
AcDbAttributeDefinition
  3

  2
NBSYN
 70
     8
280
     0
  0
ATTDEF
  5
156
330
14E
100
AcDbEntity
  8
AM_6
100
AcDbText
 10
5.07595
 20
1.530000000000001
 30
0.0
 40
0.5
  1
131072
100
AcDbAttributeDefinition
  3

  2
LINA
 70
     8
280
     0
  0
ATTDEF
  5
157
330
14E
100
AcDbEntity
  8
AM_6
100
AcDbText
 10
5.07595
 20
1.030000000000001
 30
0.0
 40
0.5
  1
209
100
AcDbAttributeDefinition
  3

  2
SERIES
 70
     8
280
     0
  0
ATTDEF
  5
158
330
14E
100
AcDbEntity
  8
AM_6
100
AcDbText
 10
5.07595
 20
0.5300000000000007
 30
0.0
 40
0.5
  1
1-3/4
100
AcDbAttributeDefinition
  3

  2
SS
 70
     8
280
     0
  0
ATTDEF
  5
159
330
14E
100
AcDbEntity
  8
AM_6
100
AcDbText
 10
5.07595
 20
0.0300000000000007
 30
0.0
 40
0.5
  1
131072
100
AcDbAttributeDefinition
  3

  2
PN
 70
     8
280
     0
  0
ATTDEF
  5
15A
330
14E
100
AcDbEntity
  8
AM_6
100
AcDbText
 10
5.07595
 20
-0.4699999999999993
 30
0.0
 40
0.5
  1
F2B-SXR-112
100
AcDbAttributeDefinition
  3

  2
DESCRIPTION
 70
     8
280
     0
  0
ATTDEF
  5
15B
330
14E
100
AcDbEntity
  8
AM_6
100
AcDbText
 10
5.07595
 20
-0.9699999999999993
 30
0.0
 40
0.5
  1
RE-LUBE
100
AcDbAttributeDefinition
  3

  2
LF
 70
     8
280
     0
  0
ATTDEF
  5
15C
330
14E
100
AcDbEntity
  8
AM_6
100
AcDbText
 10
5.07595
 20
-1.469999999999999
 30
0.0
 40
0.5
  1
4.9
100
AcDbAttributeDefinition
  3

  2
W
 70
     8
280
     0
  0
ATTDEF
  5
15D
330
14E
100
AcDbEntity
  8
AM_6
100
AcDbText
 10
5.07595
 20
-1.969999999999999
 30
0.0
 40
0.5
  1
2.13
100
AcDbAttributeDefinition
  3

  2
A
 70
     8
280
     0
  0
ATTDEF
  5
15E
330
14E
100
AcDbEntity
  8
AM_6
100
AcDbText
 10
5.07595
 20
-2.469999999999999
 30
0.0
 40
0.5
  1
7.06
100
AcDbAttributeDefinition
  3

  2
B
 70
     8
280
     0
  0
ATTDEF
  5
15F
330
14E
100
AcDbEntity
  8
AM_6
100
AcDbText
 10
5.07595
 20
-2.969999999999999
 30
0.0
 40
0.5
  1
2.18
100
AcDbAttributeDefinition
  3

  2
C
 70
     8
280
     0
  0
ATTDEF
  5
160
330
14E
100
AcDbEntity
  8
AM_6
100
AcDbText
 10
5.07595
 20
-3.469999999999999
 30
0.0
 40
0.5
  1
5.84
100
AcDbAttributeDefinition
  3

  2
D
 70
     8
280
     0
  0
ATTDEF
  5
161
330
14E
100
AcDbEntity
  8
AM_6
100
AcDbText
 10
5.07595
 20
-3.969999999999999
 30
0.0
 40
0.5
  1
1/2
100
AcDbAttributeDefinition
  3

  2
F
 70
     8
280
     0
  0
ATTDEF
  5
162
330
14E
100
AcDbEntity
  8
AM_6
100
AcDbText
 10
5.07595
 20
-4.469999999999999
 30
0.0
 40
0.5
  1
0.63
100
AcDbAttributeDefinition
  3

  2
H
 70
     8
280
     0
  0
ATTDEF
  5
163
330
14E
100
AcDbEntity
  8
AM_6
100
AcDbText
 10
5.07595
 20
-4.969999999999999
 30
0.0
 40
0.5
  1
0.77
100
AcDbAttributeDefinition
  3

  2
J
 70
     8
280
     0
  0
ATTDEF
  5
164
330
14E
100
AcDbEntity
  8
AM_6
100
AcDbText
 10
5.07595
 20
-5.469999999999999
 30
0.0
 40
0.5
  1
2.50
100
AcDbAttributeDefinition
  3

  2
L
 70
     8
280
     0
  0
ATTDEF
  5
165
330
14E
100
AcDbEntity
  8
AM_6
100
AcDbText
 10
5.07595
 20
-5.969999999999999
 30
0.0
 40
0.5
  1
4.38
100
AcDbAttributeDefinition
  3

  2
M
 70
     8
280
     0
  0
ATTDEF
  5
166
330
14E
100
AcDbEntity
  8
AM_6
100
AcDbText
 10
5.07595
 20
-6.469999999999999
 30
0.0
 40
0.5
  1
1.91
100
AcDbAttributeDefinition
  3

  2
N
 70
     8
280
     0
  0
ATTDEF
  5
167
330
14E
100
AcDbEntity
  8
AM_6
100
AcDbText
 10
5.07595
 20
-6.969999999999999
 30
0.0
 40
0.5
  1
4450
100
AcDbAttributeDefinition
  3

  2
CAPS
 70
     8
280
     0
  0
ATTDEF
  5
168
330
14E
100
AcDbEntity
  8
AM_6
100
AcDbText
 10
5.07595
 20
-7.469999999999999
 30
0.0
 40
0.5
  1
7891
100
AcDbAttributeDefinition
  3

  2
CAPD
 70
     8
280
     0
  0
ATTDEF
  5
169
330
14E
100
AcDbEntity
  8
AM_6
100
AcDbText
 10
5.07595
 20
-7.969999999999999
 30
0.0
 40
0.5
  1
baldor
100
AcDbAttributeDefinition
  3

  2
COMPANY
 70
     8
280
     0
  0
LINE
  5
16A
330
14E
100
AcDbEntity
  8
AM_9
100
AcDbLine
 10
-0.9165000000000001
 20
1.755683461130436
 30
0.0
 11
0.0
 21
1.755683461130436
 31
0.0
  0
LINE
  5
16B
330
14E
100
AcDbEntity
  8
AM_9
100
AcDbLine
 10
-0.9165000000000001
 20
1.453727908510828
 30
0.0
 11
-0.0000000000000001
 21
1.453727908510828
 31
0.0
  0
LINE
  5
16C
330
14E
100
AcDbEntity
  8
AM_9
100
AcDbLine
 10
0.0
 20
1.76075
 30
0.0
 11
-0.9165000000000001
 21
1.76075
 31
0.0
  0
LINE
  5
16D
330
14E
100
AcDbEntity
  8
AM_9
100
AcDbLine
 10
-0.63
 20
2.67
 30
0.0
 11
0.0
 21
2.67
 31
0.0
  0
LINE
  5
16E
330
14E
100
AcDbEntity
  8
AM_9
100
AcDbLine
 10
0.0
 20
3.17
 30
0.0
 11
-0.63
 21
3.17
 31
0.0
  0
LINE
  5
16F
330
14E
100
AcDbEntity
  8
AM_9
100
AcDbLine
 10
-0.63
 20
-3.17
 30
0.0
 11
0.0
 21
-3.17
 31
0.0
  0
LINE
  5
170
330
14E
100
AcDbEntity
  8
AM_9
100
AcDbLine
 10
0.0
 20
-2.67
 30
0.0
 11
-0.63
 21
-2.67
 31
0.0
  0
LINE
  5
171
330
14E
100
AcDbEntity
  8
AM_9
100
AcDbLine
 10
-0.9165000000000001
 20
-1.453727908510827
 30
0.0
 11
0.0000000000000001
 21
-1.453727908510827
 31
0.0
  0
LINE
  5
172
330
14E
100
AcDbEntity
  8
AM_9
100
AcDbLine
 10
-0.9165000000000001
 20
-1.755683461130436
 30
0.0
 11
0.0
 21
-1.755683461130436
 31
0.0
  0
LINE
  5
173
330
14E
100
AcDbEntity
  8
AM_9
100
AcDbLine
 10
-0.9165000000000001
 20
-1.76075
 30
0.0
 11
0.0
 21
-1.76075
 31
0.0
  0
LINE
  5
174
330
14E
100
AcDbEntity
  8
AM_9
100
AcDbLine
 10
-0.9165000000000001
 20
-1.76075
 30
0.0
 11
-0.9165000000000001
 21
-1.363859952060661
 31
0.0
  0
LINE
  5
175
330
14E
100
AcDbEntity
  8
AM_9
100
AcDbLine
 10
-1.41
 20
1.835190116374439
 30
0.0
 11
-0.567
 21
1.835190116374439
 31
0.0
  0
LINE
  5
176
330
14E
100
AcDbEntity
  8
AM_9
100
AcDbLine
 10
-1.41
 20
1.805900794493093
 30
0.0
 11
-0.567
 21
1.805900794493093
 31
0.0
  0
LINE
  5
177
330
14E
100
AcDbEntity
  8
AM_9
100
AcDbLine
 10
-0.880380835557046
 20
1.849486760670654
 30
0.0
 11
-1.159621636047686
 21
1.849486760670654
 31
0.0
  0
LINE
  5
178
330
14E
100
AcDbEntity
  8
AM_9
100
AcDbLine
 10
-0.0000000000000001
 20
1.363859952060661
 30
0.0
 11
-0.9157736054931018
 21
1.363859952060661
 31
0.0
  0
LINE
  5
179
330
14E
100
AcDbEntity
  8
AM_9
100
AcDbLine
 10
-0.9165000000000001
 20
1.665815504680269
 30
0.0
 11
0.0
 21
1.665815504680269
 31
0.0
  0
LINE
  5
17A
330
14E
100
AcDbEntity
  8
AM_9
100
AcDbLine
 10
0.0000000000000001
 20
-1.363859952060661
 30
0.0
 11
-0.9165000000000001
 21
-1.363859952060661
 31
0.0
  0
LINE
  5
17B
330
14E
100
AcDbEntity
  8
AM_9
100
AcDbLine
 10
-0.9165000000000001
 20
-1.665815504680268
 30
0.0
 11
0.0
 21
-1.665815504680268
 31
0.0
  0
LINE
  5
17C
330
14E
100
AcDbEntity
  8
AM_9
100
AcDbLine
 10
-1.41
 20
-1.67325
 30
0.0
 11
-0.9165000000000001
 21
-1.67325
 31
0.0
  0
LINE
  5
17D
330
14E
100
AcDbEntity
  8
AM_9
100
AcDbLine
 10
-0.9165000000000001
 20
1.67325
 30
0.0
 11
-1.41
 21
1.67325
 31
0.0
  0
LINE
  5
17E
330
14E
100
AcDbEntity
  8
AM_9
100
AcDbLine
 10
-0.9165000000000001
 20
1.76075
 30
0.0
 11
-0.9165000000000001
 21
1.363859952060661
 31
0.0
  0
ELLIPSE
  5
17F
330
14E
100
AcDbEntity
  8
AM_9
100
AcDbEllipse
 10
-1.019999999999999
 20
1.644834957055044
 30
0.0
 11
0.2000000000000007
 21
2.980232238769543E-9
 31
0.0
210
0.0
220
0.0
230
1.0
 40
0.7071067811865481
 41
1.570796316258188
 42
3.141592632516369
  0
LINE
  5
180
330
14E
100
AcDbEntity
  8
AM_9
100
AcDbLine
 10
-0.8199999999999998
 20
1.643420743492672
 30
0.0
 11
-0.8199999999999998
 21
1.644834957055045
 31
0.0
  0
LINE
  5
181
330
14E
100
AcDbEntity
  8
AM_9
100
AcDbLine
 10
-1.22
 20
1.644834957055045
 30
0.0
 11
-1.22
 21
1.643420743492672
 31
0.0
  0
ELLIPSE
  5
182
330
14E
100
AcDbEntity
  8
AM_9
100
AcDbEllipse
 10
-1.02
 20
1.644834957055044
 30
0.0
 11
0.2
 21
0.0
 31
0.0
210
0.0
220
0.0
230
1.0
 40
0.7071067811865474
 41
3.141592653589793
 42
7.853981633974483
  0
ELLIPSE
  5
183
330
14E
100
AcDbEntity
  8
AM_9
100
AcDbEllipse
 10
-1.02
 20
1.643420743492672
 30
0.0
 11
0.2000000000000002
 21
0.0
 31
0.0
210
0.0
220
0.0
230
1.0
 40
0.7071067811865477
 41
0.0
 42
3.141592653589793
  0
ELLIPSE
  5
184
330
14E
100
AcDbEntity
  8
AM_9
100
AcDbEllipse
 10
-1.019999999999999
 20
1.643420743492672
 30
0.0
 11
0.2000000000000006
 21
0.0
 31
0.0
210
0.0
220
0.0
230
1.0
 40
0.7071067811865472
 41
3.141592653589793
 42
6.283185307179586
  0
LINE
  5
185
330
14E
100
AcDbEntity
  8
AM_9
100
AcDbLine
 10
-1.186117666021739
 20
1.820197438789308
 30
0.0
 11
-0.8538777235041056
 21
1.820197438789308
 31
0.0
  0
LINE
  5
186
330
14E
100
AcDbEntity
  8
AM_9
100
AcDbLine
 10
-1.41
 20
1.325222691958725
 30
0.0
 11
0.0000000000000001
 21
1.325222691958725
 31
0.0
  0
LINE
  5
187
330
14E
100
AcDbEntity
  8
AM_9
100
AcDbLine
 10
-1.41
 20
1.822673685563264
 30
0.0
 11
-0.567
 21
1.822673685563264
 31
0.0
  0
LINE
  5
188
330
14E
100
AcDbEntity
  8
AM_9
100
AcDbLine
 10
-0.567
 20
1.22193085931418
 30
0.0
 11
-0.567
 21
1.847576580872491
 31
0.0
  0
LINE
  5
18B
330
14E
100
AcDbEntity
  8
AM_7
100
AcDbLine
 10
0.0315
 20
2.92
 30
0.0
 11
-0.6615
 21
2.92
 31
0.0
  0
LINE
  5
18C
330
14E
100
AcDbEntity
  8
AM_7
100
AcDbLine
 10
0.0315
 20
-2.92
 30
0.0
 11
-0.6615
 21
-2.92
 31
0.0
  0
LINE
  5
18D
330
14E
100
AcDbEntity
  8
AM_7
100
AcDbLine
 10
0.07595
 20
0.0
 30
0.0
 11
-2.2865
 21
0.0
 31
0.0
  0
LINE
  5
18E
330
14E
100
AcDbEntity
  8
AM_4
100
AcDbLine
 10
-0.63
 20
1.986639763197646
 30
0.0
 11
-0.63
 21
3.530000000000001
 31
0.0
  0
LINE
  5
18F
330
14E
100
AcDbEntity
  8
AM_4
100
AcDbLine
 10
0.0
 20
3.530000000000001
 30
0.0
 11
-0.63
 21
3.530000000000001
 31
0.0
  0
LINE
  5
190
330
14E
100
AcDbEntity
  8
AM_4
100
AcDbLine
 10
-0.63
 20
-3.530000000000002
 30
0.0
 11
0.0
 21
-3.530000000000002
 31
0.0
  0
LINE
  5
191
330
14E
100
AcDbEntity
  8
AM_4
100
AcDbLine
 10
-0.63
 20
-3.530000000000002
 30
0.0
 11
-0.63
 21
-1.986639763197647
 31
0.0
  0
LINE
  5
192
330
14E
100
AcDbEntity
  8
AM_4
100
AcDbLine
 10
0.0
 20
-3.530000000000002
 30
0.0
 11
0.0
 21
3.530000000000001
 31
0.0
  0
LINE
  5
193
330
14E
100
AcDbEntity
  8
AM_4
100
AcDbLine
 10
-0.567
 20
3.097568493150685
 30
0.0
 11
-0.63
 21
3.097568493150685
 31
0.0
  0
LINE
  5
194
330
14E
100
AcDbEntity
  8
AM_4
100
AcDbLine
 10
-0.567
 20
-3.097568493150685
 30
0.0
 11
-0.63
 21
-3.097568493150685
 31
0.0
  0
LINE
  5
195
330
14E
100
AcDbEntity
  8
AM_4
100
AcDbLine
 10
-0.567
 20
3.250068493150686
 30
0.0
 11
0.0
 21
3.250068493150686
 31
0.0
  0
LINE
  5
196
330
14E
100
AcDbEntity
  8
AM_4
100
AcDbLine
 10
-0.567
 20
1.847576580872491
 30
0.0
 11
-0.567
 21
3.250068493150686
 31
0.0
  0
LINE
  5
197
330
14E
100
AcDbEntity
  8
AM_4
100
AcDbLine
 10
0.0000000000000001
 20
1.847576580872491
 30
0.0
 11
-0.567
 21
1.847576580872491
 31
0.0
  0
LINE
  5
198
330
14E
100
AcDbEntity
  8
AM_4
100
AcDbLine
 10
-1.159621636047686
 20
1.849486760670654
 30
0.0
 11
-1.41
 21
1.849486760670654
 31
0.0
  0
LINE
  5
199
330
14E
100
AcDbEntity
  8
AM_4
100
AcDbLine
 10
-0.567
 20
1.849486760670654
 30
0.0
 11
-0.880380835557046
 21
1.849486760670654
 31
0.0
  0
LINE
  5
19A
330
14E
100
AcDbEntity
  8
AM_4
100
AcDbLine
 10
-0.8538777235041056
 20
1.820197438789308
 30
0.0
 11
0.0000000000000001
 21
1.820197438789308
 31
0.0
  0
LINE
  5
19B
330
14E
100
AcDbEntity
  8
AM_4
100
AcDbLine
 10
-1.41
 20
1.820197438789308
 30
0.0
 11
-1.186117666021739
 21
1.820197438789308
 31
0.0
  0
LINE
  5
19C
330
14E
100
AcDbEntity
  8
AM_4
100
AcDbLine
 10
-1.41
 20
1.340215369543855
 30
0.0
 11
0.0000000000000001
 21
1.340215369543855
 31
0.0
  0
LINE
  5
19D
330
14E
100
AcDbEntity
  8
AM_4
100
AcDbLine
 10
0.0000000000000001
 20
1.22193085931418
 30
0.0
 11
-0.5669999999999998
 21
1.22193085931418
 31
0.0
  0
LINE
  5
19E
330
14E
100
AcDbEntity
  8
AM_4
100
AcDbLine
 10
-0.5669999999999998
 20
1.185000000000001
 30
0.0
 11
-0.5669999999999998
 21
1.22193085931418
 31
0.0
  0
LINE
  5
19F
330
14E
100
AcDbEntity
  8
AM_4
100
AcDbLine
 10
-0.567
 20
-3.250068493150697
 30
0.0
 11
-0.5669999999999998
 21
-1.185
 31
0.0
  0
LINE
  5
1A0
330
14E
100
AcDbEntity
  8
AM_4
100
AcDbLine
 10
-0.567
 20
-3.250068493150697
 30
0.0
 11
0.0
 21
-3.250068493150684
 31
0.0
  0
LINE
  5
1A1
330
14E
100
AcDbEntity
  8
AM_4
100
AcDbLine
 10
-1.41
 20
1.466644048196035
 30
0.0
 11
0.0000000000000001
 21
1.466644048196035
 31
0.0
  0
LINE
  5
1A2
330
14E
100
AcDbEntity
  8
AM_4
100
AcDbLine
 10
-0.5669999999999998
 20
1.185000000000001
 30
0.0
 11
0.0000000000000001
 21
1.185
 31
0.0
  0
LINE
  5
1A3
330
14E
100
AcDbEntity
  8
AM_4
100
AcDbLine
 10
-1.41
 20
1.214067805336766
 30
0.0
 11
-0.5669999999999998
 21
1.214067805336766
 31
0.0
  0
LINE
  5
1A4
330
14E
100
AcDbEntity
  8
AM_4
100
AcDbLine
 10
-0.63
 20
1.986639763197646
 30
0.0
 11
-0.567
 21
1.986639763197646
 31
0.0
  0
LINE
  5
1A5
330
14E
100
AcDbEntity
  8
AM_4
100
AcDbLine
 10
-0.567
 20
-1.986639763197647
 30
0.0
 11
-0.63
 21
-1.986639763197647
 31
0.0
  0
LINE
  5
1A6
330
14E
100
AcDbEntity
  8
AM_4
100
AcDbLine
 10
-0.5669999999999998
 20
-1.185
 30
0.0
 11
0.0000000000000001
 21
-1.185
 31
0.0
  0
LINE
  5
1A7
330
14E
100
AcDbEntity
  8
AM_4
100
AcDbLine
 10
-1.41
 20
-2.189999999999999
 30
0.0
 11
-0.63
 21
-2.189999999999999
 31
0.0
  0
LINE
  5
1A8
330
14E
100
AcDbEntity
  8
AM_4
100
AcDbLine
 10
-0.63
 20
2.189999999999999
 30
0.0
 11
-1.41
 21
2.189999999999999
 31
0.0
  0
LINE
  5
1A9
330
14E
100
AcDbEntity
  8
AM_4
100
AcDbLine
 10
-1.41
 20
-2.189999999999999
 30
0.0
 11
-1.41
 21
2.189999999999999
 31
0.0
  0
ENDBLK
  5
151
330
14E
100
AcDbEntity
  8
0
100
AcDbBlockEnd
  0
ENDSEC
  0
SECTION
  2
ENTITIES
  0
INSERT
  5
6F
330
1F
100
AcDbEntity
  8
0
100
AcDbBlockReference
  2
1_131072_2
 10
0.0
 20
0.0
 30
0.0
  0
POINT
  5
1AB
330
1F
100
AcDbEntity
  8
ConnectionPoints
100
AcDbPoint
 10
-0.8000000000000003
 20
0.0
 30
0.0
  0
POINT
  5
1AC
330
1F
100
AcDbEntity
  8
ConnectionPoints
100
AcDbPoint
 10
-2.18
 20
0.0
 30
0.0000000000000001
  0
POINT
  5
1AD
330
1F
100
AcDbEntity
  8
ConnectionPoints
100
AcDbPoint
 10
-1.02
 20
1.350573952066306
 30
1.350573952066306
  0
POINT
  5
1AE
330
1F
100
AcDbEntity
  8
ConnectionPoints
100
AcDbPoint
 10
-1.02
 20
1.644834957055045
 30
1.644834957055045
  0
POINT
  5
1AF
330
1F
100
AcDbEntity
  8
ConnectionPoints
100
AcDbPoint
 10
-2.18
 20
0.0
 30
0.0000000000000001
  0
ENDSEC
  0
SECTION
  2
OBJECTS
  0
DICTIONARY
  5
C
330
0
100
AcDbDictionary
281
     1
  3
ACAD_DETAILVIEWSTYLE
350
1B7
  3
ACAD_GROUP
350
D
  3
ACAD_LAYOUT
350
1A
  3
ACAD_MATERIAL
350
43
  3
ACAD_MLEADERSTYLE
350
6B
  3
ACAD_MLINESTYLE
350
17
  3
ACAD_PLOTSETTINGS
350
19
  3
ACAD_PLOTSTYLENAME
350
E
  3
ACAD_SCALELIST
350
47
  3
ACAD_SECTIONVIEWSTYLE
350
1B8
  3
ACAD_TABLESTYLE
350
69
  3
ACAD_VISUALSTYLE
350
2A
  3
ACDB_RECOMPOSE_DATA
350
1B4
  3
AcDbVariableDictionary
350
1B0
  0
SUN
  5
6D
330
29
100
AcDbSun
 90
        1
290
     0
 63
     7
421
 16777215
 40
1.0
291
     1
 91
  2455826
 92
 54000000
292
     0
 70
     2
 71
   256
280
     1
  0
DICTIONARY
  5
1B7
102
{ACAD_REACTORS
330
C
102
}
330
C
100
AcDbDictionary
281
     1
  0
DICTIONARY
  5
D
102
{ACAD_REACTORS
330
C
102
}
330
C
100
AcDbDictionary
281
     1
  0
DICTIONARY
  5
1A
102
{ACAD_REACTORS
330
C
102
}
330
C
100
AcDbDictionary
281
     1
  3
Layout1
350
1E
  3
Layout2
350
26
  3
Model
350
22
  0
DICTIONARY
  5
43
102
{ACAD_REACTORS
330
C
102
}
330
C
100
AcDbDictionary
281
     1
  3
ByBlock
350
45
  3
ByLayer
350
44
  3
Global
350
46
  0
DICTIONARY
  5
6B
102
{ACAD_REACTORS
330
C
102
}
330
C
100
AcDbDictionary
281
     1
  3
Standard
350
6C
  0
DICTIONARY
  5
17
102
{ACAD_REACTORS
330
C
102
}
330
C
100
AcDbDictionary
281
     1
  3
Standard
350
18
  0
DICTIONARY
  5
19
102
{ACAD_REACTORS
330
C
102
}
330
C
100
AcDbDictionary
281
     1
  0
ACDBDICTIONARYWDFLT
  5
E
102
{ACAD_REACTORS
330
C
102
}
330
C
100
AcDbDictionary
281
     1
  3
Normal
350
F
100
AcDbDictionaryWithDefault
340
F
  0
DICTIONARY
  5
47
102
{ACAD_REACTORS
330
C
102
}
330
C
100
AcDbDictionary
281
     1
  3
A0
350
48
  3
A1
350
49
  3
A2
350
4A
  3
A3
350
4B
  3
A4
350
4C
  3
A5
350
4D
  3
A6
350
4E
  3
A7
350
4F
  3
A8
350
50
  3
A9
350
51
  3
B0
350
52
  3
B1
350
53
  3
B2
350
54
  3
B3
350
55
  3
B4
350
56
  3
B5
350
57
  3
B6
350
58
  3
B7
350
59
  3
B8
350
5A
  3
B9
350
5B
  3
C0
350
5C
  3
C1
350
5D
  3
C2
350
5E
  3
C3
350
5F
  3
C4
350
60
  3
C5
350
61
  3
C6
350
62
  3
C7
350
63
  3
C8
350
64
  3
C9
350
65
  3
D0
350
66
  3
D1
350
67
  3
D2
350
68
  0
DICTIONARY
  5
1B8
102
{ACAD_REACTORS
330
C
102
}
330
C
100
AcDbDictionary
281
     1
  0
DICTIONARY
  5
69
102
{ACAD_REACTORS
330
C
102
}
330
C
100
AcDbDictionary
281
     1
  3
Standard
350
6A
  0
DICTIONARY
  5
2A
102
{ACAD_REACTORS
330
C
102
}
330
C
100
AcDbDictionary
281
     1
  3
2dWireframe
350
2F
  3
Basic
350
32
  3
Brighten
350
36
  3
ColorChange
350
3A
  3
Conceptual
350
34
  3
Dim
350
35
  3
EdgeColorOff
350
3D
  3
Facepattern
350
39
  3
Flat
350
2B
  3
FlatWithEdges
350
2C
  3
Gouraud
350
2D
  3
GouraudWithEdges
350
2E
  3
Hidden
350
31
  3
JitterOff
350
3B
  3
Linepattern
350
38
  3
OverhangOff
350
3C
  3
Realistic
350
33
  3
Shaded
350
42
  3
Shaded with edges
350
41
  3
Shades of Gray
350
3E
  3
Sketchy
350
3F
  3
Thicken
350
37
  3
Wireframe
350
30
  3
X-Ray
350
40
  0
XRECORD
  5
1B4
102
{ACAD_REACTORS
330
C
102
}
330
C
100
AcDbXrecord
280
     1
 90
        1
330
6A
  0
DICTIONARY
  5
1B0
102
{ACAD_REACTORS
330
C
102
}
330
C
100
AcDbDictionary
281
     1
  3
CANNOSCALE
350
1B1
  3
CMLEADERSTYLE
350
1B6
  3
CTABLESTYLE
350
1B5
  0
LAYOUT
  5
1E
102
{ACAD_REACTORS
330
1A
102
}
330
1A
100
AcDbPlotSettings
  1

  2
none_device
  4

  6

 40
0.0
 41
0.0
 42
0.0
 43
0.0
 44
0.0
 45
0.0
 46
0.0
 47
0.0
 48
0.0
 49
0.0
140
0.0
141
0.0
142
1.0
143
1.0
 70
   688
 72
     0
 73
     0
 74
     5
  7

 75
    16
 76
     0
 77
     2
 78
   300
147
1.0
148
0.0
149
0.0
100
AcDbLayout
  1
Layout1
 70
     1
 71
     1
 10
0.0
 20
0.0
 11
12.0
 21
9.0
 12
0.0
 22
0.0
 32
0.0
 14
1.000000000000000E+20
 24
1.000000000000000E+20
 34
1.000000000000000E+20
 15
-1.000000000000000E+20
 25
-1.000000000000000E+20
 35
-1.000000000000000E+20
146
0.0
 13
0.0
 23
0.0
 33
0.0
 16
1.0
 26
0.0
 36
0.0
 17
0.0
 27
1.0
 37
0.0
 76
     0
330
1B
  0
LAYOUT
  5
26
102
{ACAD_REACTORS
330
1A
102
}
330
1A
100
AcDbPlotSettings
  1

  2
none_device
  4

  6

 40
0.0
 41
0.0
 42
0.0
 43
0.0
 44
0.0
 45
0.0
 46
0.0
 47
0.0
 48
0.0
 49
0.0
140
0.0
141
0.0
142
1.0
143
1.0
 70
   688
 72
     0
 73
     0
 74
     5
  7

 75
    16
 76
     0
 77
     2
 78
   300
147
1.0
148
0.0
149
0.0
100
AcDbLayout
  1
Layout2
 70
     1
 71
     2
 10
0.0
 20
0.0
 11
0.0
 21
0.0
 12
0.0
 22
0.0
 32
0.0
 14
0.0
 24
0.0
 34
0.0
 15
0.0
 25
0.0
 35
0.0
146
0.0
 13
0.0
 23
0.0
 33
0.0
 16
1.0
 26
0.0
 36
0.0
 17
0.0
 27
1.0
 37
0.0
 76
     0
330
23
  0
LAYOUT
  5
22
102
{ACAD_REACTORS
330
1A
102
}
330
1A
100
AcDbPlotSettings
  1

  2
none_device
  4
Letter_(8.50_x_11.00_Inches)
  6

 40
6.35
 41
6.35
 42
6.35000508
 43
6.35000508
 44
215.9
 45
279.4
 46
0.0
 47
0.0
 48
0.0
 49
0.0
140
0.0
141
0.0
142
1.0
143
1.0
 70
  1712
 72
     0
 73
     0
 74
     0
  7

 75
     0
 76
     0
 77
     2
 78
   300
147
1.0
148
0.0
149
0.0
100
AcDbLayout
  1
Model
 70
     1
 71
     0
 10
0.0
 20
0.0
 11
12.0
 21
9.0
 12
0.0
 22
0.0
 32
0.0
 14
1.000000000000000E+20
 24
1.000000000000000E+20
 34
1.000000000000000E+20
 15
-1.000000000000000E+20
 25
-1.000000000000000E+20
 35
-1.000000000000000E+20
146
0.0
 13
0.0
 23
0.0
 33
0.0
 16
1.0
 26
0.0
 36
0.0
 17
0.0
 27
1.0
 37
0.0
 76
     0
330
1F
331
29
  0
MATERIAL
  5
45
102
{ACAD_REACTORS
330
43
102
}
330
43
100
AcDbMaterial
  1
ByBlock
 72
     1
 94
      127
  0
MATERIAL
  5
44
102
{ACAD_REACTORS
330
43
102
}
330
43
100
AcDbMaterial
  1
ByLayer
 72
     1
 94
      127
  0
MATERIAL
  5
46
102
{ACAD_REACTORS
330
43
102
}
330
43
100
AcDbMaterial
  1
Global
 72
     1
 94
      127
  0
MLEADERSTYLE
  5
6C
102
{ACAD_REACTORS
330
6B
102
}
330
6B
100
AcDbMLeaderStyle
179
     2
170
     2
171
     1
172
     0
 90
        2
 40
0.0
 41
0.0
173
     1
 91
-1056964608
340
14
 92
       -2
290
     1
 42
0.09
291
     1
 43
0.36
  3
Standard
341
0
 44
0.18
300

342
11
174
     1
178
     6
175
     1
176
     0
 93
-1056964608
 45
0.18
292
     0
297
     0
 46
0.18
343
0
 94
-1056964608
 47
1.0
 49
1.0
140
1.0
293
     1
141
0.0
294
     1
177
     0
142
1.0
295
     0
296
     0
143
0.125
271
     0
272
     9
273
     9
298
     0
  0
MLINESTYLE
  5
18
102
{ACAD_REACTORS
330
17
102
}
330
17
100
AcDbMlineStyle
  2
Standard
 70
     0
  3

 62
   256
 51
90.0
 52
90.0
 71
     2
 49
0.5
 62
   256
  6
BYLAYER
 49
-0.5
 62
   256
  6
BYLAYER
  0
ACDBPLACEHOLDER
  5
F
102
{ACAD_REACTORS
330
E
102
}
330
E
  0
SCALE
  5
48
102
{ACAD_REACTORS
330
47
102
}
330
47
100
AcDbScale
 70
     0
300
1:1
140
1.0
141
1.0
290
     1
  0
SCALE
  5
49
102
{ACAD_REACTORS
330
47
102
}
330
47
100
AcDbScale
 70
     0
300
1:2
140
1.0
141
2.0
290
     0
  0
SCALE
  5
4A
102
{ACAD_REACTORS
330
47
102
}
330
47
100
AcDbScale
 70
     0
300
1:4
140
1.0
141
4.0
290
     0
  0
SCALE
  5
4B
102
{ACAD_REACTORS
330
47
102
}
330
47
100
AcDbScale
 70
     0
300
1:5
140
1.0
141
5.0
290
     0
  0
SCALE
  5
4C
102
{ACAD_REACTORS
330
47
102
}
330
47
100
AcDbScale
 70
     0
300
1:8
140
1.0
141
8.0
290
     0
  0
SCALE
  5
4D
102
{ACAD_REACTORS
330
47
102
}
330
47
100
AcDbScale
 70
     0
300
1:10
140
1.0
141
10.0
290
     0
  0
SCALE
  5
4E
102
{ACAD_REACTORS
330
47
102
}
330
47
100
AcDbScale
 70
     0
300
1:16
140
1.0
141
16.0
290
     0
  0
SCALE
  5
4F
102
{ACAD_REACTORS
330
47
102
}
330
47
100
AcDbScale
 70
     0
300
1:20
140
1.0
141
20.0
290
     0
  0
SCALE
  5
50
102
{ACAD_REACTORS
330
47
102
}
330
47
100
AcDbScale
 70
     0
300
1:30
140
1.0
141
30.0
290
     0
  0
SCALE
  5
51
102
{ACAD_REACTORS
330
47
102
}
330
47
100
AcDbScale
 70
     0
300
1:40
140
1.0
141
40.0
290
     0
  0
SCALE
  5
52
102
{ACAD_REACTORS
330
47
102
}
330
47
100
AcDbScale
 70
     0
300
1:50
140
1.0
141
50.0
290
     0
  0
SCALE
  5
53
102
{ACAD_REACTORS
330
47
102
}
330
47
100
AcDbScale
 70
     0
300
1:100
140
1.0
141
100.0
290
     0
  0
SCALE
  5
54
102
{ACAD_REACTORS
330
47
102
}
330
47
100
AcDbScale
 70
     0
300
2:1
140
2.0
141
1.0
290
     0
  0
SCALE
  5
55
102
{ACAD_REACTORS
330
47
102
}
330
47
100
AcDbScale
 70
     0
300
4:1
140
4.0
141
1.0
290
     0
  0
SCALE
  5
56
102
{ACAD_REACTORS
330
47
102
}
330
47
100
AcDbScale
 70
     0
300
8:1
140
8.0
141
1.0
290
     0
  0
SCALE
  5
57
102
{ACAD_REACTORS
330
47
102
}
330
47
100
AcDbScale
 70
     0
300
10:1
140
10.0
141
1.0
290
     0
  0
SCALE
  5
58
102
{ACAD_REACTORS
330
47
102
}
330
47
100
AcDbScale
 70
     0
300
100:1
140
100.0
141
1.0
290
     0
  0
SCALE
  5
59
102
{ACAD_REACTORS
330
47
102
}
330
47
100
AcDbScale
 70
     0
300
1/128" = 1'-0"
140
0.0078125
141
12.0
290
     0
  0
SCALE
  5
5A
102
{ACAD_REACTORS
330
47
102
}
330
47
100
AcDbScale
 70
     0
300
1/64" = 1'-0"
140
0.015625
141
12.0
290
     0
  0
SCALE
  5
5B
102
{ACAD_REACTORS
330
47
102
}
330
47
100
AcDbScale
 70
     0
300
1/32" = 1'-0"
140
0.03125
141
12.0
290
     0
  0
SCALE
  5
5C
102
{ACAD_REACTORS
330
47
102
}
330
47
100
AcDbScale
 70
     0
300
1/16" = 1'-0"
140
0.0625
141
12.0
290
     0
  0
SCALE
  5
5D
102
{ACAD_REACTORS
330
47
102
}
330
47
100
AcDbScale
 70
     0
300
3/32" = 1'-0"
140
0.09375
141
12.0
290
     0
  0
SCALE
  5
5E
102
{ACAD_REACTORS
330
47
102
}
330
47
100
AcDbScale
 70
     0
300
1/8" = 1'-0"
140
0.125
141
12.0
290
     0
  0
SCALE
  5
5F
102
{ACAD_REACTORS
330
47
102
}
330
47
100
AcDbScale
 70
     0
300
3/16" = 1'-0"
140
0.1875
141
12.0
290
     0
  0
SCALE
  5
60
102
{ACAD_REACTORS
330
47
102
}
330
47
100
AcDbScale
 70
     0
300
1/4" = 1'-0"
140
0.25
141
12.0
290
     0
  0
SCALE
  5
61
102
{ACAD_REACTORS
330
47
102
}
330
47
100
AcDbScale
 70
     0
300
3/8" = 1'-0"
140
0.375
141
12.0
290
     0
  0
SCALE
  5
62
102
{ACAD_REACTORS
330
47
102
}
330
47
100
AcDbScale
 70
     0
300
1/2" = 1'-0"
140
0.5
141
12.0
290
     0
  0
SCALE
  5
63
102
{ACAD_REACTORS
330
47
102
}
330
47
100
AcDbScale
 70
     0
300
3/4" = 1'-0"
140
0.75
141
12.0
290
     0
  0
SCALE
  5
64
102
{ACAD_REACTORS
330
47
102
}
330
47
100
AcDbScale
 70
     0
300
1" = 1'-0"
140
1.0
141
12.0
290
     0
  0
SCALE
  5
65
102
{ACAD_REACTORS
330
47
102
}
330
47
100
AcDbScale
 70
     0
300
1-1/2" = 1'-0"
140
1.5
141
12.0
290
     0
  0
SCALE
  5
66
102
{ACAD_REACTORS
330
47
102
}
330
47
100
AcDbScale
 70
     0
300
3" = 1'-0"
140
3.0
141
12.0
290
     0
  0
SCALE
  5
67
102
{ACAD_REACTORS
330
47
102
}
330
47
100
AcDbScale
 70
     0
300
6" = 1'-0"
140
6.0
141
12.0
290
     0
  0
SCALE
  5
68
102
{ACAD_REACTORS
330
47
102
}
330
47
100
AcDbScale
 70
     0
300
1'-0" = 1'-0"
140
12.0
141
12.0
290
     0
  0
TABLESTYLE
  5
6A
102
{ACAD_REACTORS
330
69
102
}
102
{ACAD_XDICTIONARY
360
1B2
102
}
330
69
100
AcDbTableStyle
  3
Standard
 70
     0
 71
     0
 40
0.06
 41
0.06
280
     0
281
     0
  7
Standard
140
0.18
170
     2
 62
     0
 63
   257
283
     0
 90
        4
 91
        0
  1

274
    -2
284
     1
 64
     0
275
    -2
285
     1
 65
     0
276
    -2
286
     1
 66
     0
277
    -2
287
     1
 67
     0
278
    -2
288
     1
 68
     0
279
    -2
289
     1
 69
     0
  7
Standard
140
0.25
170
     5
 62
     0
 63
   257
283
     0
 90
        4
 91
        0
  1

274
    -2
284
     1
 64
     0
275
    -2
285
     1
 65
     0
276
    -2
286
     1
 66
     0
277
    -2
287
     1
 67
     0
278
    -2
288
     1
 68
     0
279
    -2
289
     1
 69
     0
  7
Standard
140
0.18
170
     5
 62
     0
 63
   257
283
     0
 90
        4
 91
        0
  1

274
    -2
284
     1
 64
     0
275
    -2
285
     1
 65
     0
276
    -2
286
     1
 66
     0
277
    -2
287
     1
 67
     0
278
    -2
288
     1
 68
     0
279
    -2
289
     1
 69
     0
  0
VISUALSTYLE
  5
2F
102
{ACAD_REACTORS
330
2A
102
}
330
2A
100
AcDbVisualStyle
  2
2dWireframe
 70
     4
177
     3
291
     0
 70
    58
 90
        0
176
     1
 90
        2
176
     1
 90
        0
176
     1
 90
        0
176
     1
 40
0.6
176
     1
 40
30.0
176
     1
 62
     7
420
 16777215
176
     1
 90
        1
176
     1
 90
        4
176
     1
 62
     7
176
     1
 62
   257
176
     1
 90
        1
176
     1
 90
        1
176
     1
 40
1.0
176
     1
 90
        0
176
     1
 62
   257
176
     1
 40
1.0
176
     1
 90
        1
176
     1
 90
        6
176
     1
 90
        2
176
     1
 62
     7
176
     1
 90
        5
176
     1
 90
        0
176
     1
 90
        0
176
     1
290
     0
176
     1
 90
        1
176
     1
 40
0.0
176
     1
 90
        0
176
     1
290
     1
176
     1
290
     1
176
     1
290
     0
176
     1
290
     0
176
     1
290
     0
176
     1
290
     0
176
     1
290
     0
176
     1
290
     0
176
     1
290
     0
176
     1
 90
       50
176
     1
 40
0.0
176
     1
 40
1.0
176
     1
 90
        0
176
     1
 62
    18
420
        0
176
     1
 90
       50
176
     1
 90
        3
176
     1
 62
     5
420
      255
176
     1
290
     0
176
     1
 90
       50
176
     1
 90
       50
176
     1
 90
       50
176
     1
290
     0
176
     1
 90
       50
176
     1
 62
   256
176
     0
 40
1.0
176
     0
 90
        2
176
     1
  1
strokes_ogs.tif
176
     1
290
     0
176
     1
 40
1.0
176
     1
 40
1.0
176
     1
  0
VISUALSTYLE
  5
32
102
{ACAD_REACTORS
330
2A
102
}
330
2A
100
AcDbVisualStyle
  2
Basic
 70
     7
177
     3
291
     1
 70
    58
 90
        1
176
     1
 90
        0
176
     1
 90
        1
176
     1
 90
        0
176
     1
 40
0.6
176
     1
 40
30.0
176
     1
 62
     7
420
 16777215
176
     1
 90
        0
176
     1
 90
        4
176
     1
 62
     7
176
     1
 62
   257
176
     1
 90
        1
176
     1
 90
        1
176
     1
 40
1.0
176
     1
 90
        8
176
     1
 62
     7
176
     1
 40
1.0
176
     1
 90
        1
176
     1
 90
        6
176
     1
 90
        2
176
     1
 62
     7
176
     1
 90
        5
176
     1
 90
        0
176
     1
 90
        0
176
     1
290
     0
176
     1
 90
        1
176
     1
 40
0.0
176
     1
 90
        0
176
     1
290
     0
176
     1
290
     1
176
     1
290
     1
176
     1
290
     0
176
     1
290
     0
176
     1
290
     0
176
     1
290
     0
176
     1
290
     0
176
     1
290
     0
176
     1
 90
       50
176
     1
 40
0.0
176
     1
 40
1.0
176
     1
 90
        0
176
     1
 62
    18
420
        0
176
     1
 90
       50
176
     1
 90
        3
176
     1
 62
     5
420
      255
176
     1
290
     0
176
     1
 90
       50
176
     1
 90
       50
176
     1
 90
       50
176
     1
290
     0
176
     1
 90
       50
176
     1
 62
   256
176
     0
 40
1.0
176
     0
 90
        2
176
     1
  1
strokes_ogs.tif
176
     1
290
     0
176
     1
 40
1.0
176
     1
 40
1.0
176
     1
  0
VISUALSTYLE
  5
36
102
{ACAD_REACTORS
330
2A
102
}
330
2A
100
AcDbVisualStyle
  2
Brighten
 70
    12
177
     3
291
     1
 70
    58
 90
        2
176
     1
 90
        2
176
     1
 90
        0
176
     1
 90
        0
176
     1
 40
0.6
176
     1
 40
30.0
176
     1
 62
     7
420
 16777215
176
     1
 90
        1
176
     1
 90
        4
176
     1
 62
     7
176
     1
 62
   257
176
     1
 90
        1
176
     1
 90
        1
176
     1
 40
1.0
176
     1
 90
        8
176
     1
 62
     7
176
     1
 40
1.0
176
     1
 90
        1
176
     1
 90
        6
176
     1
 90
        2
176
     1
 62
     7
176
     1
 90
        5
176
     1
 90
        0
176
     1
 90
        0
176
     1
290
     0
176
     1
 90
        1
176
     1
 40
50.0
176
     1
 90
        0
176
     1
290
     0
176
     1
290
     1
176
     1
290
     1
176
     1
290
     0
176
     1
290
     0
176
     1
290
     0
176
     1
290
     0
176
     1
290
     0
176
     1
290
     0
176
     1
 90
       50
176
     1
 40
0.0
176
     1
 40
1.0
176
     1
 90
        0
176
     1
 62
    18
420
        0
176
     1
 90
       50
176
     1
 90
        3
176
     1
 62
     5
420
      255
176
     1
290
     0
176
     1
 90
       50
176
     1
 90
       50
176
     1
 90
       50
176
     1
290
     0
176
     1
 90
       50
176
     1
 62
   256
176
     0
 40
1.0
176
     0
 90
        2
176
     1
  1
strokes_ogs.tif
176
     1
290
     0
176
     1
 40
1.0
176
     1
 40
1.0
176
     1
  0
VISUALSTYLE
  5
3A
102
{ACAD_REACTORS
330
2A
102
}
330
2A
100
AcDbVisualStyle
  2
ColorChange
 70
    16
177
     3
291
     1
 70
    58
 90
        2
176
     1
 90
        2
176
     1
 90
        3
176
     1
 90
        0
176
     1
 40
0.6
176
     1
 40
30.0
176
     1
 62
     8
420
  8421504
176
     1
 90
        1
176
     1
 90
        4
176
     1
 62
     7
176
     1
 62
   257
176
     1
 90
        1
176
     1
 90
        1
176
     1
 40
1.0
176
     1
 90
        8
176
     1
 62
     8
420
  8421504
176
     1
 40
1.0
176
     1
 90
        1
176
     1
 90
        6
176
     1
 90
        2
176
     1
 62
     7
176
     1
 90
        5
176
     1
 90
        0
176
     1
 90
        0
176
     1
290
     0
176
     1
 90
        1
176
     1
 40
0.0
176
     1
 90
        0
176
     1
290
     0
176
     1
290
     1
176
     1
290
     1
176
     1
290
     0
176
     1
290
     0
176
     1
290
     0
176
     1
290
     0
176
     1
290
     0
176
     1
290
     0
176
     1
 90
       50
176
     1
 40
0.0
176
     1
 40
1.0
176
     1
 90
        0
176
     1
 62
    18
420
        0
176
     1
 90
       50
176
     1
 90
        3
176
     1
 62
     5
420
      255
176
     1
290
     0
176
     1
 90
       50
176
     1
 90
       50
176
     1
 90
       50
176
     1
290
     0
176
     1
 90
       50
176
     1
 62
   256
176
     0
 40
1.0
176
     0
 90
        2
176
     1
  1
strokes_ogs.tif
176
     1
290
     0
176
     1
 40
1.0
176
     1
 40
1.0
176
     1
  0
VISUALSTYLE
  5
34
102
{ACAD_REACTORS
330
2A
102
}
330
2A
100
AcDbVisualStyle
  2
Conceptual
 70
     9
177
     3
291
     0
 70
    58
 90
        3
176
     1
 90
        2
176
     1
 90
        0
176
     1
 90
        0
176
     1
 40
0.6
176
     1
 40
30.0
176
     1
 62
     7
420
 16777215
176
     1
 90
        2
176
     1
 90
        2
176
     1
 62
     7
176
     1
 62
   257
176
     1
 90
        1
176
     1
 90
        1
176
     1
 40
179.0
176
     1
 90
        8
176
     1
 62
     7
176
     1
 40
1.0
176
     1
 90
        1
176
     1
 90
        6
176
     1
 90
        2
176
     1
 62
     7
176
     1
 90
        3
176
     1
 90
        0
176
     1
 90
        0
176
     1
290
     0
176
     1
 90
        1
176
     1
 40
0.0
176
     1
 90
        0
176
     1
290
     0
176
     1
290
     1
176
     1
290
     1
176
     1
290
     0
176
     1
290
     0
176
     1
290
     0
176
     1
290
     0
176
     1
290
     0
176
     1
290
     0
176
     1
 90
       50
176
     1
 40
0.0
176
     1
 40
1.0
176
     1
 90
        0
176
     1
 62
    18
420
        0
176
     1
 90
       50
176
     1
 90
        3
176
     1
 62
     5
420
      255
176
     1
290
     0
176
     1
 90
       50
176
     1
 90
       50
176
     1
 90
       50
176
     1
290
     0
176
     1
 90
       50
176
     1
 62
   256
176
     0
 40
1.0
176
     0
 90
        2
176
     1
  1
strokes_ogs.tif
176
     1
290
     0
176
     1
 40
1.0
176
     1
 40
1.0
176
     1
  0
VISUALSTYLE
  5
35
102
{ACAD_REACTORS
330
2A
102
}
330
2A
100
AcDbVisualStyle
  2
Dim
 70
    11
177
     3
291
     1
 70
    58
 90
        2
176
     1
 90
        2
176
     1
 90
        0
176
     1
 90
        0
176
     1
 40
0.6
176
     1
 40
30.0
176
     1
 62
     7
420
 16777215
176
     1
 90
        1
176
     1
 90
        4
176
     1
 62
     7
176
     1
 62
   257
176
     1
 90
        1
176
     1
 90
        1
176
     1
 40
1.0
176
     1
 90
        8
176
     1
 62
     7
176
     1
 40
1.0
176
     1
 90
        1
176
     1
 90
        6
176
     1
 90
        2
176
     1
 62
     7
176
     1
 90
        5
176
     1
 90
        0
176
     1
 90
        0
176
     1
290
     0
176
     1
 90
        1
176
     1
 40
-50.0
176
     1
 90
        0
176
     1
290
     0
176
     1
290
     1
176
     1
290
     1
176
     1
290
     0
176
     1
290
     0
176
     1
290
     0
176
     1
290
     0
176
     1
290
     0
176
     1
290
     0
176
     1
 90
       50
176
     1
 40
0.0
176
     1
 40
1.0
176
     1
 90
        0
176
     1
 62
    18
420
        0
176
     1
 90
       50
176
     1
 90
        3
176
     1
 62
     5
420
      255
176
     1
290
     0
176
     1
 90
       50
176
     1
 90
       50
176
     1
 90
       50
176
     1
290
     0
176
     1
 90
       50
176
     1
 62
   256
176
     0
 40
1.0
176
     0
 90
        2
176
     1
  1
strokes_ogs.tif
176
     1
290
     0
176
     1
 40
1.0
176
     1
 40
1.0
176
     1
  0
VISUALSTYLE
  5
3D
102
{ACAD_REACTORS
330
2A
102
}
330
2A
100
AcDbVisualStyle
  2
EdgeColorOff
 70
    22
177
     3
291
     1
 70
    58
 90
        2
176
     0
 90
        2
176
     0
 90
        0
176
     0
 90
        0
176
     0
 40
0.6
176
     0
 40
30.0
176
     0
 62
     7
420
 16777215
176
     0
 90
        1
176
     0
 90
        4
176
     0
 62
     7
176
     0
 62
   257
176
     0
 90
        1
176
     0
 90
        1
176
     0
 40
1.0
176
     0
 90
        8
176
     2
 62
     7
176
     0
 40
1.0
176
     0
 90
        1
176
     0
 90
        6
176
     0
 90
        2
176
     0
 62
     7
176
     0
 90
        5
176
     0
 90
        0
176
     0
 90
        0
176
     0
290
     0
176
     0
 90
        1
176
     0
 40
0.0
176
     0
 90
        0
176
     0
290
     0
176
     0
290
     1
176
     0
290
     1
176
     0
290
     0
176
     0
290
     0
176
     0
290
     0
176
     0
290
     0
176
     0
290
     0
176
     0
290
     0
176
     0
 90
       50
176
     0
 40
0.0
176
     0
 40
1.0
176
     0
 90
        0
176
     0
 62
    18
420
        0
176
     0
 90
       50
176
     0
 90
        3
176
     0
 62
     5
420
      255
176
     0
290
     0
176
     0
 90
       50
176
     0
 90
       50
176
     0
 90
       50
176
     0
290
     0
176
     0
 90
       50
176
     0
 62
   256
176
     0
 40
1.0
176
     0
 90
        2
176
     0
  1
strokes_ogs.tif
176
     0
290
     0
176
     0
 40
1.0
176
     0
 40
1.0
176
     0
  0
VISUALSTYLE
  5
39
102
{ACAD_REACTORS
330
2A
102
}
330
2A
100
AcDbVisualStyle
  2
Facepattern
 70
    15
177
     3
291
     1
 70
    58
 90
        2
176
     1
 90
        2
176
     1
 90
        0
176
     1
 90
        0
176
     1
 40
0.6
176
     1
 40
30.0
176
     1
 62
     7
420
 16777215
176
     1
 90
        1
176
     1
 90
        4
176
     1
 62
     7
176
     1
 62
   257
176
     1
 90
        1
176
     1
 90
        1
176
     1
 40
1.0
176
     1
 90
        8
176
     1
 62
     7
176
     1
 40
1.0
176
     1
 90
        1
176
     1
 90
        6
176
     1
 90
        2
176
     1
 62
     7
176
     1
 90
        5
176
     1
 90
        0
176
     1
 90
        0
176
     1
290
     0
176
     1
 90
        1
176
     1
 40
0.0
176
     1
 90
        0
176
     1
290
     0
176
     1
290
     1
176
     1
290
     1
176
     1
290
     0
176
     1
290
     0
176
     1
290
     0
176
     1
290
     0
176
     1
290
     0
176
     1
290
     0
176
     1
 90
       50
176
     1
 40
0.0
176
     1
 40
1.0
176
     1
 90
        0
176
     1
 62
    18
420
        0
176
     1
 90
       50
176
     1
 90
        3
176
     1
 62
     5
420
      255
176
     1
290
     0
176
     1
 90
       50
176
     1
 90
       50
176
     1
 90
       50
176
     1
290
     0
176
     1
 90
       50
176
     1
 62
   256
176
     0
 40
1.0
176
     0
 90
        2
176
     1
  1
strokes_ogs.tif
176
     1
290
     0
176
     1
 40
1.0
176
     1
 40
1.0
176
     1
  0
VISUALSTYLE
  5
2B
102
{ACAD_REACTORS
330
2A
102
}
330
2A
100
AcDbVisualStyle
  2
Flat
 70
     0
177
     3
291
     1
 70
    58
 90
        2
176
     1
 90
        1
176
     1
 90
        1
176
     1
 90
        2
176
     1
 40
0.6
176
     1
 40
30.0
176
     1
 62
     7
420
 16777215
176
     1
 90
        0
176
     1
 90
        0
176
     1
 62
     7
176
     1
 62
   257
176
     1
 90
        1
176
     1
 90
        1
176
     1
 40
1.0
176
     1
 90
        8
176
     1
 62
     7
176
     1
 40
1.0
176
     1
 90
        1
176
     1
 90
        6
176
     1
 90
        2
176
     1
 62
     7
176
     1
 90
        5
176
     1
 90
        0
176
     1
 90
        0
176
     1
290
     0
176
     1
 90
       13
176
     1
 40
0.0
176
     1
 90
        0
176
     1
290
     0
176
     1
290
     1
176
     1
290
     1
176
     1
290
     0
176
     1
290
     0
176
     1
290
     0
176
     1
290
     0
176
     1
290
     0
176
     1
290
     0
176
     1
 90
       50
176
     1
 40
0.0
176
     1
 40
1.0
176
     1
 90
        0
176
     1
 62
    18
420
        0
176
     1
 90
       50
176
     1
 90
        3
176
     1
 62
     5
420
      255
176
     1
290
     0
176
     1
 90
       50
176
     1
 90
       50
176
     1
 90
       50
176
     1
290
     0
176
     1
 90
       50
176
     1
 62
   256
176
     0
 40
1.0
176
     0
 90
        2
176
     1
  1
strokes_ogs.tif
176
     1
290
     0
176
     1
 40
1.0
176
     1
 40
1.0
176
     1
  0
VISUALSTYLE
  5
2C
102
{ACAD_REACTORS
330
2A
102
}
330
2A
100
AcDbVisualStyle
  2
FlatWithEdges
 70
     1
177
     3
291
     1
 70
    58
 90
        2
176
     1
 90
        1
176
     1
 90
        1
176
     1
 90
        2
176
     1
 40
0.6
176
     1
 40
30.0
176
     1
 62
     7
420
 16777215
176
     1
 90
        1
176
     1
 90
        0
176
     1
 62
     7
176
     1
 62
   257
176
     1
 90
        1
176
     1
 90
        1
176
     1
 40
1.0
176
     1
 90
        0
176
     1
 62
   257
176
     1
 40
1.0
176
     1
 90
        1
176
     1
 90
        6
176
     1
 90
        2
176
     1
 62
     7
176
     1
 90
        5
176
     1
 90
        0
176
     1
 90
        0
176
     1
290
     0
176
     1
 90
       13
176
     1
 40
0.0
176
     1
 90
        0
176
     1
290
     0
176
     1
290
     1
176
     1
290
     1
176
     1
290
     0
176
     1
290
     0
176
     1
290
     0
176
     1
290
     0
176
     1
290
     0
176
     1
290
     0
176
     1
 90
       50
176
     1
 40
0.0
176
     1
 40
1.0
176
     1
 90
        0
176
     1
 62
    18
420
        0
176
     1
 90
       50
176
     1
 90
        3
176
     1
 62
     5
420
      255
176
     1
290
     0
176
     1
 90
       50
176
     1
 90
       50
176
     1
 90
       50
176
     1
290
     0
176
     1
 90
       50
176
     1
 62
   256
176
     0
 40
1.0
176
     0
 90
        2
176
     1
  1
strokes_ogs.tif
176
     1
290
     0
176
     1
 40
1.0
176
     1
 40
1.0
176
     1
  0
VISUALSTYLE
  5
2D
102
{ACAD_REACTORS
330
2A
102
}
330
2A
100
AcDbVisualStyle
  2
Gouraud
 70
     2
177
     3
291
     1
 70
    58
 90
        2
176
     1
 90
        2
176
     1
 90
        1
176
     1
 90
        2
176
     1
 40
0.6
176
     1
 40
30.0
176
     1
 62
     7
420
 16777215
176
     1
 90
        0
176
     1
 90
        0
176
     1
 62
     7
176
     1
 62
   257
176
     1
 90
        1
176
     1
 90
        1
176
     1
 40
1.0
176
     1
 90
        0
176
     1
 62
     7
176
     1
 40
1.0
176
     1
 90
        1
176
     1
 90
        6
176
     1
 90
        2
176
     1
 62
     7
176
     1
 90
        5
176
     1
 90
        0
176
     1
 90
        0
176
     1
290
     0
176
     1
 90
       13
176
     1
 40
0.0
176
     1
 90
        0
176
     1
290
     0
176
     1
290
     1
176
     1
290
     1
176
     1
290
     0
176
     1
290
     0
176
     1
290
     0
176
     1
290
     0
176
     1
290
     0
176
     1
290
     0
176
     1
 90
       50
176
     1
 40
0.0
176
     1
 40
1.0
176
     1
 90
        0
176
     1
 62
    18
420
        0
176
     1
 90
       50
176
     1
 90
        3
176
     1
 62
     5
420
      255
176
     1
290
     0
176
     1
 90
       50
176
     1
 90
       50
176
     1
 90
       50
176
     1
290
     0
176
     1
 90
       50
176
     1
 62
   256
176
     0
 40
1.0
176
     0
 90
        2
176
     1
  1
strokes_ogs.tif
176
     1
290
     0
176
     1
 40
1.0
176
     1
 40
1.0
176
     1
  0
VISUALSTYLE
  5
2E
102
{ACAD_REACTORS
330
2A
102
}
330
2A
100
AcDbVisualStyle
  2
GouraudWithEdges
 70
     3
177
     3
291
     1
 70
    58
 90
        2
176
     1
 90
        2
176
     1
 90
        1
176
     1
 90
        2
176
     1
 40
0.6
176
     1
 40
30.0
176
     1
 62
     7
420
 16777215
176
     1
 90
        1
176
     1
 90
        0
176
     1
 62
     7
176
     1
 62
   257
176
     1
 90
        1
176
     1
 90
        1
176
     1
 40
1.0
176
     1
 90
        0
176
     1
 62
   257
176
     1
 40
1.0
176
     1
 90
        1
176
     1
 90
        6
176
     1
 90
        2
176
     1
 62
     7
176
     1
 90
        5
176
     1
 90
        0
176
     1
 90
        0
176
     1
290
     0
176
     1
 90
       13
176
     1
 40
0.0
176
     1
 90
        0
176
     1
290
     0
176
     1
290
     1
176
     1
290
     1
176
     1
290
     0
176
     1
290
     0
176
     1
290
     0
176
     1
290
     0
176
     1
290
     0
176
     1
290
     0
176
     1
 90
       50
176
     1
 40
0.0
176
     1
 40
1.0
176
     1
 90
        0
176
     1
 62
    18
420
        0
176
     1
 90
       50
176
     1
 90
        3
176
     1
 62
     5
420
      255
176
     1
290
     0
176
     1
 90
       50
176
     1
 90
       50
176
     1
 90
       50
176
     1
290
     0
176
     1
 90
       50
176
     1
 62
   256
176
     0
 40
1.0
176
     0
 90
        2
176
     1
  1
strokes_ogs.tif
176
     1
290
     0
176
     1
 40
1.0
176
     1
 40
1.0
176
     1
  0
VISUALSTYLE
  5
31
102
{ACAD_REACTORS
330
2A
102
}
330
2A
100
AcDbVisualStyle
  2
Hidden
 70
     6
177
     3
291
     0
 70
    58
 90
        1
176
     1
 90
        2
176
     1
 90
        2
176
     1
 90
        0
176
     1
 40
0.6
176
     1
 40
30.0
176
     1
 62
     7
420
 16777215
176
     1
 90
        2
176
     1
 90
        2
176
     1
 62
     7
176
     1
 62
   257
176
     1
 90
        2
176
     1
 90
        1
176
     1
 40
40.0
176
     1
 90
        0
176
     1
 62
   257
176
     1
 40
1.0
176
     1
 90
        1
176
     1
 90
        6
176
     1
 90
        2
176
     1
 62
     7
176
     1
 90
        3
176
     1
 90
        0
176
     1
 90
        0
176
     1
290
     0
176
     1
 90
        1
176
     1
 40
0.0
176
     1
 90
        0
176
     1
290
     0
176
     1
290
     1
176
     1
290
     1
176
     1
290
     0
176
     1
290
     0
176
     1
290
     0
176
     1
290
     0
176
     1
290
     0
176
     1
290
     0
176
     1
 90
       50
176
     1
 40
0.0
176
     1
 40
1.0
176
     1
 90
        0
176
     1
 62
    18
420
        0
176
     1
 90
       50
176
     1
 90
        3
176
     1
 62
     5
420
      255
176
     1
290
     0
176
     1
 90
       50
176
     1
 90
       50
176
     1
 90
       50
176
     1
290
     0
176
     1
 90
       50
176
     1
 62
   256
176
     0
 40
1.0
176
     0
 90
        2
176
     1
  1
strokes_ogs.tif
176
     1
290
     0
176
     1
 40
1.0
176
     1
 40
1.0
176
     1
  0
VISUALSTYLE
  5
3B
102
{ACAD_REACTORS
330
2A
102
}
330
2A
100
AcDbVisualStyle
  2
JitterOff
 70
    20
177
     3
291
     1
 70
    58
 90
        2
176
     0
 90
        2
176
     0
 90
        0
176
     0
 90
        0
176
     0
 40
0.6
176
     0
 40
30.0
176
     0
 62
     7
420
 16777215
176
     0
 90
        1
176
     0
 90
        4
176
     0
 62
     7
176
     0
 62
   257
176
     0
 90
        1
176
     0
 90
        1
176
     0
 40
1.0
176
     0
 90
       10
176
     2
 62
     7
176
     0
 40
1.0
176
     0
 90
        1
176
     0
 90
        6
176
     0
 90
        2
176
     0
 62
     7
176
     0
 90
        5
176
     0
 90
        0
176
     0
 90
        0
176
     0
290
     0
176
     0
 90
        1
176
     0
 40
0.0
176
     0
 90
        0
176
     0
290
     0
176
     0
290
     1
176
     0
290
     1
176
     0
290
     0
176
     0
290
     0
176
     0
290
     0
176
     0
290
     0
176
     0
290
     0
176
     0
290
     0
176
     0
 90
       50
176
     0
 40
0.0
176
     0
 40
1.0
176
     0
 90
        0
176
     0
 62
    18
420
        0
176
     0
 90
       50
176
     0
 90
        3
176
     0
 62
     5
420
      255
176
     0
290
     0
176
     0
 90
       50
176
     0
 90
       50
176
     0
 90
       50
176
     0
290
     0
176
     0
 90
       50
176
     0
 62
   256
176
     0
 40
1.0
176
     0
 90
        2
176
     0
  1
strokes_ogs.tif
176
     0
290
     0
176
     0
 40
1.0
176
     0
 40
1.0
176
     0
  0
VISUALSTYLE
  5
38
102
{ACAD_REACTORS
330
2A
102
}
330
2A
100
AcDbVisualStyle
  2
Linepattern
 70
    14
177
     3
291
     1
 70
    58
 90
        2
176
     1
 90
        2
176
     1
 90
        0
176
     1
 90
        0
176
     1
 40
0.6
176
     1
 40
30.0
176
     1
 62
     7
420
 16777215
176
     1
 90
        1
176
     1
 90
        4
176
     1
 62
     7
176
     1
 62
   257
176
     1
 90
        7
176
     1
 90
        7
176
     1
 40
1.0
176
     1
 90
        8
176
     1
 62
     7
176
     1
 40
1.0
176
     1
 90
        1
176
     1
 90
        6
176
     1
 90
        2
176
     1
 62
     7
176
     1
 90
        5
176
     1
 90
        0
176
     1
 90
        0
176
     1
290
     0
176
     1
 90
        1
176
     1
 40
0.0
176
     1
 90
        0
176
     1
290
     0
176
     1
290
     1
176
     1
290
     1
176
     1
290
     0
176
     1
290
     0
176
     1
290
     0
176
     1
290
     0
176
     1
290
     0
176
     1
290
     0
176
     1
 90
       50
176
     1
 40
0.0
176
     1
 40
1.0
176
     1
 90
        0
176
     1
 62
    18
420
        0
176
     1
 90
       50
176
     1
 90
        3
176
     1
 62
     5
420
      255
176
     1
290
     0
176
     1
 90
       50
176
     1
 90
       50
176
     1
 90
       50
176
     1
290
     0
176
     1
 90
       50
176
     1
 62
   256
176
     0
 40
1.0
176
     0
 90
        2
176
     1
  1
strokes_ogs.tif
176
     1
290
     0
176
     1
 40
1.0
176
     1
 40
1.0
176
     1
  0
VISUALSTYLE
  5
3C
102
{ACAD_REACTORS
330
2A
102
}
330
2A
100
AcDbVisualStyle
  2
OverhangOff
 70
    21
177
     3
291
     1
 70
    58
 90
        2
176
     0
 90
        2
176
     0
 90
        0
176
     0
 90
        0
176
     0
 40
0.6
176
     0
 40
30.0
176
     0
 62
     7
420
 16777215
176
     0
 90
        1
176
     0
 90
        4
176
     0
 62
     7
176
     0
 62
   257
176
     0
 90
        1
176
     0
 90
        1
176
     0
 40
1.0
176
     0
 90
        9
176
     2
 62
     7
176
     0
 40
1.0
176
     0
 90
        1
176
     0
 90
        6
176
     0
 90
        2
176
     0
 62
     7
176
     0
 90
        5
176
     0
 90
        0
176
     0
 90
        0
176
     0
290
     0
176
     0
 90
        1
176
     0
 40
0.0
176
     0
 90
        0
176
     0
290
     0
176
     0
290
     1
176
     0
290
     1
176
     0
290
     0
176
     0
290
     0
176
     0
290
     0
176
     0
290
     0
176
     0
290
     0
176
     0
290
     0
176
     0
 90
       50
176
     0
 40
0.0
176
     0
 40
1.0
176
     0
 90
        0
176
     0
 62
    18
420
        0
176
     0
 90
       50
176
     0
 90
        3
176
     0
 62
     5
420
      255
176
     0
290
     0
176
     0
 90
       50
176
     0
 90
       50
176
     0
 90
       50
176
     0
290
     0
176
     0
 90
       50
176
     0
 62
   256
176
     0
 40
1.0
176
     0
 90
        2
176
     0
  1
strokes_ogs.tif
176
     0
290
     0
176
     0
 40
1.0
176
     0
 40
1.0
176
     0
  0
VISUALSTYLE
  5
33
102
{ACAD_REACTORS
330
2A
102
}
330
2A
100
AcDbVisualStyle
  2
Realistic
 70
     8
177
     3
291
     0
 70
    58
 90
        2
176
     1
 90
        3
176
     1
 90
        0
176
     1
 90
        2
176
     1
 40
0.6
176
     1
 40
30.0
176
     1
 62
     7
420
 16777215
176
     1
 90
        0
176
     1
 90
        0
176
     1
 62
     7
176
     1
 62
   257
176
     1
 90
        1
176
     1
 90
        1
176
     1
 40
1.0
176
     1
 90
        8
176
     1
 62
   257
176
     1
 40
1.0
176
     1
 90
        1
176
     1
 90
        6
176
     1
 90
        2
176
     1
 62
     7
176
     1
 90
        3
176
     1
 90
        0
176
     1
 90
        0
176
     1
290
     0
176
     1
 90
       13
176
     1
 40
0.0
176
     1
 90
        0
176
     1
290
     0
176
     1
290
     1
176
     1
290
     1
176
     1
290
     0
176
     1
290
     0
176
     1
290
     0
176
     1
290
     0
176
     1
290
     0
176
     1
290
     0
176
     1
 90
       50
176
     1
 40
0.0
176
     1
 40
1.0
176
     1
 90
        0
176
     1
 62
    18
420
        0
176
     1
 90
       50
176
     1
 90
        3
176
     1
 62
     5
420
      255
176
     1
290
     0
176
     1
 90
       50
176
     1
 90
       50
176
     1
 90
       50
176
     1
290
     0
176
     1
 90
       50
176
     1
 62
   256
176
     0
 40
1.0
176
     0
 90
        2
176
     1
  1
strokes_ogs.tif
176
     1
290
     0
176
     1
 40
1.0
176
     1
 40
1.0
176
     1
  0
VISUALSTYLE
  5
42
102
{ACAD_REACTORS
330
2A
102
}
330
2A
100
AcDbVisualStyle
  2
Shaded
 70
    27
177
     3
291
     0
 70
    58
 90
        2
176
     1
 90
        2
176
     1
 90
        1
176
     1
 90
        2
176
     1
 40
0.6
176
     1
 40
30.0
176
     1
 62
     7
420
 16777215
176
     1
 90
        0
176
     1
 90
        4
176
     1
 62
     7
176
     1
 62
   257
176
     1
 90
        1
176
     1
 90
        1
176
     1
 40
1.0
176
     1
 90
        8
176
     1
 62
   257
176
     1
 40
1.0
176
     1
 90
        1
176
     1
 90
        6
176
     1
 90
        2
176
     1
 62
     8
420
  7895160
176
     1
 90
        3
176
     1
 90
        0
176
     1
 90
        0
176
     1
290
     0
176
     1
 90
        5
176
     1
 40
0.0
176
     1
 90
        0
176
     1
290
     0
176
     1
290
     1
176
     1
290
     1
176
     1
290
     0
176
     1
290
     0
176
     1
290
     0
176
     1
290
     0
176
     1
290
     0
176
     1
290
     0
176
     1
 90
       50
176
     1
 40
0.0
176
     1
 40
1.0
176
     1
 90
        0
176
     1
 62
    18
420
        0
176
     1
 90
       50
176
     1
 90
        3
176
     1
 62
     5
420
      255
176
     1
290
     0
176
     1
 90
       50
176
     1
 90
       50
176
     1
 90
       50
176
     1
290
     0
176
     1
 90
       50
176
     1
 62
   256
176
     0
 40
1.0
176
     0
 90
        2
176
     1
  1
strokes_ogs.tif
176
     1
290
     0
176
     1
 40
1.0
176
     1
 40
1.0
176
     1
  0
VISUALSTYLE
  5
41
102
{ACAD_REACTORS
330
2A
102
}
330
2A
100
AcDbVisualStyle
  2
Shaded with edges
 70
    26
177
     3
291
     0
 70
    58
 90
        2
176
     1
 90
        2
176
     1
 90
        1
176
     1
 90
        2
176
     1
 40
0.6
176
     1
 40
30.0
176
     1
 62
     7
420
 16777215
176
     1
 90
        1
176
     1
 90
       10
176
     1
 62
     7
176
     1
 62
   257
176
     1
 90
        2
176
     1
 90
        1
176
     1
 40
1.0
176
     1
 90
        8
176
     1
 62
   257
176
     1
 40
1.0
176
     1
 90
        1
176
     1
 90
        6
176
     1
 90
        2
176
     1
 62
     7
176
     1
 90
        3
176
     1
 90
        0
176
     1
 90
        0
176
     1
290
     0
176
     1
 90
        5
176
     1
 40
0.0
176
     1
 90
        0
176
     1
290
     0
176
     1
290
     1
176
     1
290
     1
176
     1
290
     0
176
     1
290
     0
176
     1
290
     0
176
     1
290
     0
176
     1
290
     0
176
     1
290
     0
176
     1
 90
       50
176
     1
 40
0.0
176
     1
 40
1.0
176
     1
 90
        0
176
     1
 62
    18
420
        0
176
     1
 90
       50
176
     1
 90
        3
176
     1
 62
     5
420
      255
176
     1
290
     0
176
     1
 90
       50
176
     1
 90
       50
176
     1
 90
       50
176
     1
290
     0
176
     1
 90
       50
176
     1
 62
   256
176
     0
 40
1.0
176
     0
 90
        2
176
     1
  1
strokes_ogs.tif
176
     1
290
     0
176
     1
 40
1.0
176
     1
 40
1.0
176
     1
  0
VISUALSTYLE
  5
3E
102
{ACAD_REACTORS
330
2A
102
}
330
2A
100
AcDbVisualStyle
  2
Shades of Gray
 70
    23
177
     3
291
     0
 70
    58
 90
        2
176
     1
 90
        2
176
     1
 90
        3
176
     1
 90
        0
176
     1
 40
0.6
176
     1
 40
30.0
176
     1
 62
     7
420
 16777215
176
     1
 90
        2
176
     1
 90
        2
176
     1
 62
     7
176
     1
 62
     7
176
     1
 90
        1
176
     1
 90
        1
176
     1
 40
40.0
176
     1
 90
        8
176
     1
 62
     7
176
     1
 40
1.0
176
     1
 90
        1
176
     1
 90
        6
176
     1
 90
        2
176
     1
 62
     7
176
     1
 90
        3
176
     1
 90
        0
176
     1
 90
        0
176
     1
290
     0
176
     1
 90
        1
176
     1
 40
0.0
176
     1
 90
        0
176
     1
290
     0
176
     1
290
     1
176
     1
290
     1
176
     1
290
     0
176
     1
290
     0
176
     1
290
     0
176
     1
290
     0
176
     1
290
     0
176
     1
290
     0
176
     1
 90
       50
176
     1
 40
0.0
176
     1
 40
1.0
176
     1
 90
        0
176
     1
 62
    18
420
        0
176
     1
 90
       50
176
     1
 90
        3
176
     1
 62
     5
420
      255
176
     1
290
     0
176
     1
 90
       50
176
     1
 90
       50
176
     1
 90
       50
176
     1
290
     0
176
     1
 90
       50
176
     1
 62
   256
176
     0
 40
1.0
176
     0
 90
        2
176
     1
  1
strokes_ogs.tif
176
     1
290
     0
176
     1
 40
1.0
176
     1
 40
1.0
176
     1
  0
VISUALSTYLE
  5
3F
102
{ACAD_REACTORS
330
2A
102
}
330
2A
100
AcDbVisualStyle
  2
Sketchy
 70
    24
177
     3
291
     0
 70
    58
 90
        1
176
     1
 90
        2
176
     1
 90
        2
176
     1
 90
        0
176
     1
 40
0.6
176
     1
 40
30.0
176
     1
 62
     7
420
 16777215
176
     1
 90
        2
176
     1
 90
        2
176
     1
 62
     7
176
     1
 62
     7
176
     1
 90
        1
176
     1
 90
        1
176
     1
 40
40.0
176
     1
 90
       11
176
     1
 62
     7
176
     1
 40
1.0
176
     1
 90
        1
176
     1
 90
        6
176
     1
 90
        2
176
     1
 62
     7
176
     1
 90
        6
176
     1
 90
        0
176
     1
 90
        0
176
     1
290
     0
176
     1
 90
        1
176
     1
 40
0.0
176
     1
 90
        0
176
     1
290
     0
176
     1
290
     1
176
     1
290
     1
176
     1
290
     0
176
     1
290
     0
176
     1
290
     0
176
     1
290
     0
176
     1
290
     0
176
     1
290
     0
176
     1
 90
       50
176
     1
 40
0.0
176
     1
 40
1.0
176
     1
 90
        0
176
     1
 62
    18
420
        0
176
     1
 90
       50
176
     1
 90
        3
176
     1
 62
     5
420
      255
176
     1
290
     0
176
     1
 90
       50
176
     1
 90
       50
176
     1
 90
       50
176
     1
290
     0
176
     1
 90
       50
176
     1
 62
   256
176
     0
 40
1.0
176
     0
 90
        2
176
     1
  1
strokes_ogs.tif
176
     1
290
     0
176
     1
 40
1.0
176
     1
 40
1.0
176
     1
  0
VISUALSTYLE
  5
37
102
{ACAD_REACTORS
330
2A
102
}
330
2A
100
AcDbVisualStyle
  2
Thicken
 70
    13
177
     3
291
     1
 70
    58
 90
        2
176
     1
 90
        2
176
     1
 90
        0
176
     1
 90
        0
176
     1
 40
0.6
176
     1
 40
30.0
176
     1
 62
     7
420
 16777215
176
     1
 90
        1
176
     1
 90
        4
176
     1
 62
     7
176
     1
 62
   257
176
     1
 90
        1
176
     1
 90
        1
176
     1
 40
1.0
176
     1
 90
       12
176
     1
 62
     7
176
     1
 40
1.0
176
     1
 90
        1
176
     1
 90
        6
176
     1
 90
        2
176
     1
 62
     7
176
     1
 90
        5
176
     1
 90
        0
176
     1
 90
        0
176
     1
290
     0
176
     1
 90
        1
176
     1
 40
0.0
176
     1
 90
        0
176
     1
290
     0
176
     1
290
     1
176
     1
290
     1
176
     1
290
     0
176
     1
290
     0
176
     1
290
     0
176
     1
290
     0
176
     1
290
     0
176
     1
290
     0
176
     1
 90
       50
176
     1
 40
0.0
176
     1
 40
1.0
176
     1
 90
        0
176
     1
 62
    18
420
        0
176
     1
 90
       50
176
     1
 90
        3
176
     1
 62
     5
420
      255
176
     1
290
     0
176
     1
 90
       50
176
     1
 90
       50
176
     1
 90
       50
176
     1
290
     0
176
     1
 90
       50
176
     1
 62
   256
176
     0
 40
1.0
176
     0
 90
        2
176
     1
  1
strokes_ogs.tif
176
     1
290
     0
176
     1
 40
1.0
176
     1
 40
1.0
176
     1
  0
VISUALSTYLE
  5
30
102
{ACAD_REACTORS
330
2A
102
}
330
2A
100
AcDbVisualStyle
  2
Wireframe
 70
     5
177
     3
291
     0
 70
    58
 90
        0
176
     1
 90
        2
176
     1
 90
        0
176
     1
 90
        0
176
     1
 40
0.6
176
     1
 40
30.0
176
     1
 62
     7
420
 16777215
176
     1
 90
        1
176
     1
 90
        4
176
     1
 62
     7
176
     1
 62
   257
176
     1
 90
        1
176
     1
 90
        1
176
     1
 40
1.0
176
     1
 90
        0
176
     1
 62
   257
176
     1
 40
1.0
176
     1
 90
        1
176
     1
 90
        6
176
     1
 90
        2
176
     1
 62
     7
176
     1
 90
        3
176
     1
 90
        0
176
     1
 90
        0
176
     1
290
     0
176
     1
 90
        1
176
     1
 40
0.0
176
     1
 90
        0
176
     1
290
     0
176
     1
290
     1
176
     1
290
     1
176
     1
290
     0
176
     1
290
     0
176
     1
290
     0
176
     1
290
     0
176
     1
290
     0
176
     1
290
     0
176
     1
 90
       50
176
     1
 40
0.0
176
     1
 40
1.0
176
     1
 90
        0
176
     1
 62
    18
420
        0
176
     1
 90
       50
176
     1
 90
        3
176
     1
 62
     5
420
      255
176
     1
290
     0
176
     1
 90
       50
176
     1
 90
       50
176
     1
 90
       50
176
     1
290
     0
176
     1
 90
       50
176
     1
 62
   256
176
     0
 40
1.0
176
     0
 90
        2
176
     1
  1
strokes_ogs.tif
176
     1
290
     0
176
     1
 40
1.0
176
     1
 40
1.0
176
     1
  0
VISUALSTYLE
  5
40
102
{ACAD_REACTORS
330
2A
102
}
330
2A
100
AcDbVisualStyle
  2
X-Ray
 70
    25
177
     3
291
     0
 70
    58
 90
        2
176
     1
 90
        2
176
     1
 90
        1
176
     1
 90
        1
176
     1
 40
0.5
176
     1
 40
30.0
176
     1
 62
     7
420
 16777215
176
     1
 90
        1
176
     1
 90
        0
176
     1
 62
     7
176
     1
 62
   257
176
     1
 90
        1
176
     1
 90
        1
176
     1
 40
1.0
176
     1
 90
        8
176
     1
 62
     7
176
     1
 40
1.0
176
     1
 90
        1
176
     1
 90
        6
176
     1
 90
        2
176
     1
 62
     7
176
     1
 90
        3
176
     1
 90
        0
176
     1
 90
        0
176
     1
290
     0
176
     1
 90
       13
176
     1
 40
0.0
176
     1
 90
        0
176
     1
290
     0
176
     1
290
     1
176
     1
290
     1
176
     1
290
     0
176
     1
290
     0
176
     1
290
     0
176
     1
290
     0
176
     1
290
     0
176
     1
290
     0
176
     1
 90
       50
176
     1
 40
0.0
176
     1
 40
1.0
176
     1
 90
        0
176
     1
 62
    18
420
        0
176
     1
 90
       50
176
     1
 90
        3
176
     1
 62
     5
420
      255
176
     1
290
     0
176
     1
 90
       50
176
     1
 90
       50
176
     1
 90
       50
176
     1
290
     0
176
     1
 90
       50
176
     1
 62
   256
176
     0
 40
1.0
176
     0
 90
        2
176
     1
  1
strokes_ogs.tif
176
     1
290
     0
176
     1
 40
1.0
176
     1
 40
1.0
176
     1
  0
DICTIONARYVAR
  5
1B1
102
{ACAD_REACTORS
330
1B0
102
}
330
1B0
100
DictionaryVariables
280
     0
  1
1:1
  0
DICTIONARYVAR
  5
1B6
102
{ACAD_REACTORS
330
1B0
102
}
330
1B0
100
DictionaryVariables
280
     0
  1
Standard
  0
DICTIONARYVAR
  5
1B5
102
{ACAD_REACTORS
330
1B0
102
}
330
1B0
100
DictionaryVariables
280
     0
  1
Standard
  0
DICTIONARY
  5
1B2
330
6A
100
AcDbDictionary
280
     1
281
     1
  3
ACAD_ROUNDTRIP_2008_TABLESTYLE_CELLSTYLEMAP
360
1B3
  0
CELLSTYLEMAP
  5
1B3
102
{ACAD_REACTORS
330
1B2
102
}
330
1B2
100
AcDbCellStyleMap
 90
        3
300
CELLSTYLE
  1
TABLEFORMAT_BEGIN
 90
        5
170
     1
 91
        0
 92
    32768
 62
   257
 93
        1
300
CONTENTFORMAT
  1
CONTENTFORMAT_BEGIN
 90
        0
 91
        0
 92
        4
 93
        0
300

 40
0.0
140
1.0
 94
        5
 62
     0
340
11
144
0.25
309
CONTENTFORMAT_END
171
     1
301
MARGIN
  1
CELLMARGIN_BEGIN
 40
0.06
 40
0.06
 40
0.06
 40
0.06
 40
0.06
 40
0.06
309
CELLMARGIN_END
 94
        6
 95
        1
302
GRIDFORMAT
  1
GRIDFORMAT_BEGIN
 90
        0
 91
        1
 62
     0
 92
       -2
340
14
 93
        0
 40
0.045
309
GRIDFORMAT_END
 95
        2
302
GRIDFORMAT
  1
GRIDFORMAT_BEGIN
 90
        0
 91
        1
 62
     0
 92
       -2
340
14
 93
        0
 40
0.045
309
GRIDFORMAT_END
 95
        4
302
GRIDFORMAT
  1
GRIDFORMAT_BEGIN
 90
        0
 91
        1
 62
     0
 92
       -2
340
14
 93
        0
 40
0.045
309
GRIDFORMAT_END
 95
        8
302
GRIDFORMAT
  1
GRIDFORMAT_BEGIN
 90
        0
 91
        1
 62
     0
 92
       -2
340
14
 93
        0
 40
0.045
309
GRIDFORMAT_END
 95
       16
302
GRIDFORMAT
  1
GRIDFORMAT_BEGIN
 90
        0
 91
        1
 62
     0
 92
       -2
340
14
 93
        0
 40
0.045
309
GRIDFORMAT_END
 95
       32
302
GRIDFORMAT
  1
GRIDFORMAT_BEGIN
 90
        0
 91
        1
 62
     0
 92
       -2
340
14
 93
        0
 40
0.045
309
GRIDFORMAT_END
309
TABLEFORMAT_END
  1
CELLSTYLE_BEGIN
 90
        1
 91
        1
300
_TITLE
309
CELLSTYLE_END
300
CELLSTYLE
  1
TABLEFORMAT_BEGIN
 90
        5
170
     1
 91
        0
 92
        0
 62
   257
 93
        1
300
CONTENTFORMAT
  1
CONTENTFORMAT_BEGIN
 90
        0
 91
        0
 92
        4
 93
        0
300

 40
0.0
140
1.0
 94
        5
 62
     0
340
11
144
0.18
309
CONTENTFORMAT_END
171
     1
301
MARGIN
  1
CELLMARGIN_BEGIN
 40
0.06
 40
0.06
 40
0.06
 40
0.06
 40
0.06
 40
0.06
309
CELLMARGIN_END
 94
        6
 95
        1
302
GRIDFORMAT
  1
GRIDFORMAT_BEGIN
 90
        0
 91
        1
 62
     0
 92
       -2
340
14
 93
        0
 40
0.045
309
GRIDFORMAT_END
 95
        2
302
GRIDFORMAT
  1
GRIDFORMAT_BEGIN
 90
        0
 91
        1
 62
     0
 92
       -2
340
14
 93
        0
 40
0.045
309
GRIDFORMAT_END
 95
        4
302
GRIDFORMAT
  1
GRIDFORMAT_BEGIN
 90
        0
 91
        1
 62
     0
 92
       -2
340
14
 93
        0
 40
0.045
309
GRIDFORMAT_END
 95
        8
302
GRIDFORMAT
  1
GRIDFORMAT_BEGIN
 90
        0
 91
        1
 62
     0
 92
       -2
340
14
 93
        0
 40
0.045
309
GRIDFORMAT_END
 95
       16
302
GRIDFORMAT
  1
GRIDFORMAT_BEGIN
 90
        0
 91
        1
 62
     0
 92
       -2
340
14
 93
        0
 40
0.045
309
GRIDFORMAT_END
 95
       32
302
GRIDFORMAT
  1
GRIDFORMAT_BEGIN
 90
        0
 91
        1
 62
     0
 92
       -2
340
14
 93
        0
 40
0.045
309
GRIDFORMAT_END
309
TABLEFORMAT_END
  1
CELLSTYLE_BEGIN
 90
        2
 91
        1
300
_HEADER
309
CELLSTYLE_END
300
CELLSTYLE
  1
TABLEFORMAT_BEGIN
 90
        5
170
     1
 91
        0
 92
        0
 62
   257
 93
        1
300
CONTENTFORMAT
  1
CONTENTFORMAT_BEGIN
 90
        0
 91
        0
 92
        4
 93
        0
300

 40
0.0
140
1.0
 94
        2
 62
     0
340
11
144
0.18
309
CONTENTFORMAT_END
171
     1
301
MARGIN
  1
CELLMARGIN_BEGIN
 40
0.06
 40
0.06
 40
0.06
 40
0.06
 40
0.06
 40
0.06
309
CELLMARGIN_END
 94
        6
 95
        1
302
GRIDFORMAT
  1
GRIDFORMAT_BEGIN
 90
        0
 91
        1
 62
     0
 92
       -2
340
14
 93
        0
 40
0.045
309
GRIDFORMAT_END
 95
        2
302
GRIDFORMAT
  1
GRIDFORMAT_BEGIN
 90
        0
 91
        1
 62
     0
 92
       -2
340
14
 93
        0
 40
0.045
309
GRIDFORMAT_END
 95
        4
302
GRIDFORMAT
  1
GRIDFORMAT_BEGIN
 90
        0
 91
        1
 62
     0
 92
       -2
340
14
 93
        0
 40
0.045
309
GRIDFORMAT_END
 95
        8
302
GRIDFORMAT
  1
GRIDFORMAT_BEGIN
 90
        0
 91
        1
 62
     0
 92
       -2
340
14
 93
        0
 40
0.045
309
GRIDFORMAT_END
 95
       16
302
GRIDFORMAT
  1
GRIDFORMAT_BEGIN
 90
        0
 91
        1
 62
     0
 92
       -2
340
14
 93
        0
 40
0.045
309
GRIDFORMAT_END
 95
       32
302
GRIDFORMAT
  1
GRIDFORMAT_BEGIN
 90
        0
 91
        1
 62
     0
 92
       -2
340
14
 93
        0
 40
0.045
309
GRIDFORMAT_END
309
TABLEFORMAT_END
  1
CELLSTYLE_BEGIN
 90
        3
 91
        2
300
_DATA
309
CELLSTYLE_END
  0
ENDSEC
  0
EOF