0
SECTION
  2
HEADER
  9
$ACADVER
  1
AC1027
  9
$ACADMAINTVER
 70
     8
  9
$DWGCODEPAGE
  3
ANSI_1252
  9
$REQUIREDVERSIONS
160
                 0
  9
$COMMENTS
  1
File was created by Cadenas
  9
$CUSTOMPROPERTYTAG
  1
NN
  9
$CUSTOMPROPERTY
  1
Eccentric Collar Two-Bolt Flange Inch Bore
  9
$CUSTOMPROPERTYTAG
  1
NT
  9
$CUSTOMPROPERTY
  1
Eccentric Collar 2 Bolt Flange Bearings -(Normal Duty)
  9
$CUSTOMPROPERTYTAG
  1
NB
  9
$CUSTOMPROPERTY
  1
131065
  9
$CUSTOMPROPERTYTAG
  1
NBSYN
  9
$CUSTOMPROPERTY
  1
$PN.
  9
$CUSTOMPROPERTYTAG
  1
LINA
  9
$CUSTOMPROPERTY
  1
131065
  9
$CUSTOMPROPERTYTAG
  1
SERIES
  9
$CUSTOMPROPERTY
  1
207
  9
$CUSTOMPROPERTYTAG
  1
SS
  9
$CUSTOMPROPERTY
  1
1-3/8
  9
$CUSTOMPROPERTYTAG
  1
PN
  9
$CUSTOMPROPERTY
  1
131065
  9
$CUSTOMPROPERTYTAG
  1
DESCRIPTION
  9
$CUSTOMPROPERTY
  1
F2B-SXR-106
  9
$CUSTOMPROPERTYTAG
  1
LF
  9
$CUSTOMPROPERTY
  1
RE-LUBE
  9
$CUSTOMPROPERTYTAG
  1
W
  9
$CUSTOMPROPERTY
  1
3.4
  9
$CUSTOMPROPERTYTAG
  1
A
  9
$CUSTOMPROPERTY
  1
1.95
  9
$CUSTOMPROPERTYTAG
  1
B
  9
$CUSTOMPROPERTY
  1
6.13
  9
$CUSTOMPROPERTYTAG
  1
C
  9
$CUSTOMPROPERTY
  1
1.99
  9
$CUSTOMPROPERTYTAG
  1
D
  9
$CUSTOMPROPERTY
  1
5.12
  9
$CUSTOMPROPERTYTAG
  1
F
  9
$CUSTOMPROPERTY
  1
1/2
  9
$CUSTOMPROPERTYTAG
  1
H
  9
$CUSTOMPROPERTY
  1
0.56
  9
$CUSTOMPROPERTYTAG
  1
J
  9
$CUSTOMPROPERTY
  1
0.77
  9
$CUSTOMPROPERTYTAG
  1
L
  9
$CUSTOMPROPERTY
  1
2.13
  9
$CUSTOMPROPERTYTAG
  1
M
  9
$CUSTOMPROPERTY
  1
3.75
  9
$CUSTOMPROPERTYTAG
  1
N
  9
$CUSTOMPROPERTY
  1
1.84
  9
$CUSTOMPROPERTYTAG
  1
COMPANY
  9
$CUSTOMPROPERTY
  1
baldor
  9
$INSBASE
 10
0.0
 20
0.0
 30
0.0
  9
$EXTMIN
 10
1.000000000000000E+20
 20
1.000000000000000E+20
 30
1.000000000000000E+20
  9
$EXTMAX
 10
-1.000000000000000E+20
 20
-1.000000000000000E+20
 30
-1.000000000000000E+20
  9
$LIMMIN
 10
0.0
 20
0.0
  9
$LIMMAX
 10
12.0
 20
9.0
  9
$ORTHOMODE
 70
     0
  9
$REGENMODE
 70
     1
  9
$FILLMODE
 70
     1
  9
$QTEXTMODE
 70
     0
  9
$MIRRTEXT
 70
     1
  9
$LTSCALE
 40
1.0
  9
$ATTMODE
 70
     1
  9
$TEXTSIZE
 40
0.2
  9
$TRACEWID
 40
0.05
  9
$TEXTSTYLE
  7
Standard
  9
$CLAYER
  8
0
  9
$CELTYPE
  6
ByLayer
  9
$CECOLOR
 62
   256
  9
$CELTSCALE
 40
1.0
  9
$DISPSILH
 70
     0
  9
$DIMSCALE
 40
1.0
  9
$DIMASZ
 40
0.18
  9
$DIMEXO
 40
0.0625
  9
$DIMDLI
 40
0.38
  9
$DIMRND
 40
0.0
  9
$DIMDLE
 40
0.0
  9
$DIMEXE
 40
0.18
  9
$DIMTP
 40
0.0
  9
$DIMTM
 40
0.0
  9
$DIMTXT
 40
0.18
  9
$DIMCEN
 40
0.09
  9
$DIMTSZ
 40
0.0
  9
$DIMTOL
 70
     0
  9
$DIMLIM
 70
     0
  9
$DIMTIH
 70
     1
  9
$DIMTOH
 70
     1
  9
$DIMSE1
 70
     0
  9
$DIMSE2
 70
     0
  9
$DIMTAD
 70
     0
  9
$DIMZIN
 70
     0
  9
$DIMBLK
  1

  9
$DIMASO
 70
     1
  9
$DIMSHO
 70
     1
  9
$DIMPOST
  1

  9
$DIMAPOST
  1

  9
$DIMALT
 70
     0
  9
$DIMALTD
 70
     2
  9
$DIMALTF
 40
25.4
  9
$DIMLFAC
 40
1.0
  9
$DIMTOFL
 70
     0
  9
$DIMTVP
 40
0.0
  9
$DIMTIX
 70
     0
  9
$DIMSOXD
 70
     0
  9
$DIMSAH
 70
     0
  9
$DIMBLK1
  1

  9
$DIMBLK2
  1

  9
$DIMSTYLE
  2
Standard
  9
$DIMCLRD
 70
     0
  9
$DIMCLRE
 70
     0
  9
$DIMCLRT
 70
     0
  9
$DIMTFAC
 40
1.0
  9
$DIMGAP
 40
0.09
  9
$DIMJUST
 70
     0
  9
$DIMSD1
 70
     0
  9
$DIMSD2
 70
     0
  9
$DIMTOLJ
 70
     1
  9
$DIMTZIN
 70
     0
  9
$DIMALTZ
 70
     0
  9
$DIMALTTZ
 70
     0
  9
$DIMUPT
 70
     0
  9
$DIMDEC
 70
     4
  9
$DIMTDEC
 70
     4
  9
$DIMALTU
 70
     2
  9
$DIMALTTD
 70
     2
  9
$DIMTXSTY
  7
Standard
  9
$DIMAUNIT
 70
     0
  9
$DIMADEC
 70
     0
  9
$DIMALTRND
 40
0.0
  9
$DIMAZIN
 70
     0
  9
$DIMDSEP
 70
    46
  9
$DIMATFIT
 70
     3
  9
$DIMFRAC
 70
     0
  9
$DIMLDRBLK
  1

  9
$DIMLUNIT
 70
     2
  9
$DIMLWD
 70
    -2
  9
$DIMLWE
 70
    -2
  9
$DIMTMOVE
 70
     0
  9
$DIMFXL
 40
1.0
  9
$DIMFXLON
 70
     0
  9
$DIMJOGANG
 40
0.7853981633974483
  9
$DIMTFILL
 70
     0
  9
$DIMTFILLCLR
 70
     0
  9
$DIMARCSYM
 70
     0
  9
$DIMLTYPE
  6

  9
$DIMLTEX1
  6

  9
$DIMLTEX2
  6

  9
$DIMTXTDIRECTION
 70
     0
  9
$LUNITS
 70
     2
  9
$LUPREC
 70
     4
  9
$SKETCHINC
 40
0.1
  9
$FILLETRAD
 40
0.5
  9
$AUNITS
 70
     0
  9
$AUPREC
 70
     0
  9
$MENU
  1
.
  9
$ELEVATION
 40
0.0
  9
$PELEVATION
 40
0.0
  9
$THICKNESS
 40
0.0
  9
$LIMCHECK
 70
     0
  9
$CHAMFERA
 40
0.0
  9
$CHAMFERB
 40
0.0
  9
$CHAMFERC
 40
0.0
  9
$CHAMFERD
 40
0.0
  9
$SKPOLY
 70
     0
  9
$TDCREATE
 40
2458168.975820255
  9
$TDUCREATE
 40
2458168.934153588
  9
$TDUPDATE
 40
2458168.97582044
  9
$TDUUPDATE
 40
2458168.934153773
  9
$TDINDWG
 40
0.0000000116
  9
$TDUSRTIMER
 40
0.0000000116
  9
$USRTIMER
 70
     1
  9
$ANGBASE
 50
0.0
  9
$ANGDIR
 70
     0
  9
$PDMODE
 70
     0
  9
$PDSIZE
 40
0.0
  9
$PLINEWID
 40
0.0
  9
$SPLFRAME
 70
     0
  9
$SPLINETYPE
 70
     6
  9
$SPLINESEGS
 70
     8
  9
$HANDSEED
  5
1B5
  9
$SURFTAB1
 70
     6
  9
$SURFTAB2
 70
     6
  9
$SURFTYPE
 70
     6
  9
$SURFU
 70
     6
  9
$SURFV
 70
     6
  9
$UCSBASE
  2

  9
$UCSNAME
  2

  9
$UCSORG
 10
0.0
 20
0.0
 30
0.0
  9
$UCSXDIR
 10
1.0
 20
0.0
 30
0.0
  9
$UCSYDIR
 10
0.0
 20
1.0
 30
0.0
  9
$UCSORTHOREF
  2

  9
$UCSORTHOVIEW
 70
     0
  9
$UCSORGTOP
 10
0.0
 20
0.0
 30
0.0
  9
$UCSORGBOTTOM
 10
0.0
 20
0.0
 30
0.0
  9
$UCSORGLEFT
 10
0.0
 20
0.0
 30
0.0
  9
$UCSORGRIGHT
 10
0.0
 20
0.0
 30
0.0
  9
$UCSORGFRONT
 10
0.0
 20
0.0
 30
0.0
  9
$UCSORGBACK
 10
0.0
 20
0.0
 30
0.0
  9
$PUCSBASE
  2

  9
$PUCSNAME
  2

  9
$PUCSORG
 10
0.0
 20
0.0
 30
0.0
  9
$PUCSXDIR
 10
1.0
 20
0.0
 30
0.0
  9
$PUCSYDIR
 10
0.0
 20
1.0
 30
0.0
  9
$PUCSORTHOREF
  2

  9
$PUCSORTHOVIEW
 70
     0
  9
$PUCSORGTOP
 10
0.0
 20
0.0
 30
0.0
  9
$PUCSORGBOTTOM
 10
0.0
 20
0.0
 30
0.0
  9
$PUCSORGLEFT
 10
0.0
 20
0.0
 30
0.0
  9
$PUCSORGRIGHT
 10
0.0
 20
0.0
 30
0.0
  9
$PUCSORGFRONT
 10
0.0
 20
0.0
 30
0.0
  9
$PUCSORGBACK
 10
0.0
 20
0.0
 30
0.0
  9
$USERI1
 70
     0
  9
$USERI2
 70
     0
  9
$USERI3
 70
     0
  9
$USERI4
 70
     0
  9
$USERI5
 70
     0
  9
$USERR1
 40
0.0
  9
$USERR2
 40
0.0
  9
$USERR3
 40
0.0
  9
$USERR4
 40
0.0
  9
$USERR5
 40
0.0
  9
$WORLDVIEW
 70
     1
  9
$SHADEDGE
 70
     3
  9
$SHADEDIF
 70
    70
  9
$TILEMODE
 70
     1
  9
$MAXACTVP
 70
    64
  9
$PINSBASE
 10
0.0
 20
0.0
 30
0.0
  9
$PLIMCHECK
 70
     0
  9
$PEXTMIN
 10
1.000000000000000E+20
 20
1.000000000000000E+20
 30
1.000000000000000E+20
  9
$PEXTMAX
 10
-1.000000000000000E+20
 20
-1.000000000000000E+20
 30
-1.000000000000000E+20
  9
$PLIMMIN
 10
0.0
 20
0.0
  9
$PLIMMAX
 10
12.0
 20
9.0
  9
$UNITMODE
 70
     0
  9
$VISRETAIN
 70
     1
  9
$PLINEGEN
 70
     0
  9
$PSLTSCALE
 70
     1
  9
$TREEDEPTH
 70
  3020
  9
$CMLSTYLE
  2
Standard
  9
$CMLJUST
 70
     0
  9
$CMLSCALE
 40
1.0
  9
$PROXYGRAPHICS
 70
     1
  9
$MEASUREMENT
 70
     0
  9
$CELWEIGHT
370
    -1
  9
$ENDCAPS
280
     0
  9
$JOINSTYLE
280
     0
  9
$LWDISPLAY
290
     0
  9
$INSUNITS
 70
     1
  9
$HYPERLINKBASE
  1

  9
$STYLESHEET
  1

  9
$XEDIT
290
     1
  9
$CEPSNTYPE
380
     0
  9
$PSTYLEMODE
290
     1
  9
$FINGERPRINTGUID
  2
{2CA46633-8BC5-4225-AE9B-4B65F9FA66DB}
  9
$VERSIONGUID
  2
{FAEB1C32-E019-11D5-929B-00C0DF256EC4}
  9
$EXTNAMES
290
     1
  9
$PSVPSCALE
 40
0.0
  9
$OLESTARTUP
290
     0
  9
$SORTENTS
280
   127
  9
$INDEXCTL
280
     0
  9
$HIDETEXT
280
     1
  9
$XCLIPFRAME
280
     2
  9
$HALOGAP
280
     0
  9
$OBSCOLOR
 70
   257
  9
$OBSLTYPE
280
     0
  9
$INTERSECTIONDISPLAY
280
     0
  9
$INTERSECTIONCOLOR
 70
   257
  9
$DIMASSOC
280
     2
  9
$PROJECTNAME
  1

  9
$CAMERADISPLAY
290
     0
  9
$LENSLENGTH
 40
50.0
  9
$CAMERAHEIGHT
 40
0.0
  9
$STEPSPERSEC
 40
2.0
  9
$STEPSIZE
 40
6.0
  9
$3DDWFPREC
 40
2.0
  9
$PSOLWIDTH
 40
0.25
  9
$PSOLHEIGHT
 40
4.0
  9
$LOFTANG1
 40
1.570796326794897
  9
$LOFTANG2
 40
1.570796326794897
  9
$LOFTMAG1
 40
0.0
  9
$LOFTMAG2
 40
0.0
  9
$LOFTPARAM
 70
     7
  9
$LOFTNORMALS
280
     1
  9
$LATITUDE
 40
37.795
  9
$LONGITUDE
 40
-122.394
  9
$NORTHDIRECTION
 40
0.0
  9
$TIMEZONE
 70
 -8000
  9
$LIGHTGLYPHDISPLAY
280
     1
  9
$TILEMODELIGHTSYNCH
280
     1
  9
$CMATERIAL
347
44
  9
$SOLIDHIST
280
     0
  9
$SHOWHIST
280
     1
  9
$DWFFRAME
280
     2
  9
$DGNFRAME
280
     2
  9
$REALWORLDSCALE
290
     1
  9
$INTERFERECOLOR
 62
   256
  9
$CSHADOW
280
     0
  9
$SHADOWPLANELOCATION
 40
0.0
  0
ENDSEC
  0
SECTION
  2
CLASSES
  0
CLASS
  1
ACDBDICTIONARYWDFLT
  2
AcDbDictionaryWithDefault
  3
ObjectDBX Classes
 90
        0
 91
        4
280
     0
281
     0
  0
CLASS
  1
VISUALSTYLE
  2
AcDbVisualStyle
  3
ObjectDBX Classes
 90
     4095
 91
        4
280
     0
281
     0
  0
CLASS
  1
MATERIAL
  2
AcDbMaterial
  3
ObjectDBX Classes
 90
     1153
 91
        4
280
     0
281
     0
  0
CLASS
  1
SCALE
  2
AcDbScale
  3
ObjectDBX Classes
 90
     1153
 91
        4
280
     0
281
     0
  0
CLASS
  1
TABLESTYLE
  2
AcDbTableStyle
  3
ObjectDBX Classes
 90
     4095
 91
        4
280
     0
281
     0
  0
CLASS
  1
MLEADERSTYLE
  2
AcDbMLeaderStyle
  3
ACDB_MLEADERSTYLE_CLASS
 90
     4095
 91
        4
280
     0
281
     0
  0
CLASS
  1
SUN
  2
AcDbSun
  3
SCENEOE
 90
     1153
 91
        4
280
     0
281
     0
  0
CLASS
  1
DICTIONARYVAR
  2
AcDbDictionaryVar
  3
ObjectDBX Classes
 90
        0
 91
        4
280
     0
281
     0
  0
CLASS
  1
CELLSTYLEMAP
  2
AcDbCellStyleMap
  3
ObjectDBX Classes
 90
     1152
 91
        4
280
     0
281
     0
  0
ENDSEC
  0
SECTION
  2
TABLES
  0
TABLE
  2
VPORT
  5
8
330
0
100
AcDbSymbolTable
 70
     1
  0
VPORT
  5
29
330
8
100
AcDbSymbolTableRecord
100
AcDbViewportTableRecord
  2
*Active
 70
     0
 10
0.0
 20
0.0
 11
1.0
 21
1.0
 12
-1.0107625
 22
-0.0000000000000009
 13
0.0
 23
0.0
 14
0.5
 24
0.5
 15
0.5
 25
0.5
 16
0.0
 26
0.0
 36
1.0
 17
0.0
 27
0.0
 37
0.0
 40
6.252600000000001
 41
0.3513009787928222
 42
50.0
 43
0.0
 44
0.0
 50
0.0
 51
0.0
 71
     0
 72
   100
 73
     1
 74
     3
 75
     0
 76
     0
 77
     0
 78
     0
281
     0
 65
     1
110
0.0
120
0.0
130
0.0
111
1.0
121
0.0
131
0.0
112
0.0
122
1.0
132
0.0
 79
     0
146
0.0
348
2F
 60
     3
 61
     5
292
     1
282
     1
141
0.0
142
0.0
 63
   250
361
6D
  0
ENDTAB
  0
TABLE
  2
LTYPE
  5
5
330
0
100
AcDbSymbolTable
 70
     3
  0
LTYPE
  5
14
330
5
100
AcDbSymbolTableRecord
100
AcDbLinetypeTableRecord
  2
ByBlock
 70
     0
  3

 72
    65
 73
     0
 40
0.0
  0
LTYPE
  5
15
330
5
100
AcDbSymbolTableRecord
100
AcDbLinetypeTableRecord
  2
ByLayer
 70
     0
  3

 72
    65
 73
     0
 40
0.0
  0
LTYPE
  5
16
330
5
100
AcDbSymbolTableRecord
100
AcDbLinetypeTableRecord
  2
Continuous
 70
     0
  3
Solid line
 72
    65
 73
     0
 40
0.0
  0
LTYPE
  5
95
330
5
100
AcDbSymbolTableRecord
100
AcDbLinetypeTableRecord
  2
Dashed
 70
     0
  3

 72
    65
 73
     2
 40
2.0
 49
1.0
 74
     0
 49
-1.0
 74
     0
  0
LTYPE
  5
188
330
5
100
AcDbSymbolTableRecord
100
AcDbLinetypeTableRecord
  2
Center
 70
     0
  3

 72
    65
 73
     4
 40
1.5
 49
0.45
 74
     0
 49
-0.5
 74
     0
 49
0.05
 74
     0
 49
-0.5
 74
     0
  0
ENDTAB
  0
TABLE
  2
LAYER
  5
2
330
0
100
AcDbSymbolTable
 70
     6
  0
LAYER
  5
10
330
2
100
AcDbSymbolTableRecord
100
AcDbLayerTableRecord
  2
0
 70
     0
 62
     7
  6
Continuous
370
    -3
390
F
347
46
348
0
  0
LAYER
  5
72
330
2
100
AcDbSymbolTableRecord
100
AcDbLayerTableRecord
  2
AM_6
 70
     0
 62
    -2
  6
Continuous
370
    35
390
F
347
46
348
0
  0
LAYER
  5
96
330
2
100
AcDbSymbolTableRecord
100
AcDbLayerTableRecord
  2
AM_9
 70
     0
 62
     6
  6
Dashed
370
    25
390
F
347
46
348
0
  0
LAYER
  5
C0
330
2
100
AcDbSymbolTableRecord
100
AcDbLayerTableRecord
  2
AM_4
 70
     0
 62
     7
  6
Continuous
370
    50
390
F
347
46
348
0
  0
LAYER
  5
189
330
2
100
AcDbSymbolTableRecord
100
AcDbLayerTableRecord
  2
AM_7
 70
     0
 62
     7
  6
Center
370
    25
390
F
347
46
348
0
  0
LAYER
  5
1A6
330
2
100
AcDbSymbolTableRecord
100
AcDbLayerTableRecord
  2
ConnectionPoints
 70
     0
 62
     7
  6
Continuous
370
    50
390
F
347
46
348
0
  0
ENDTAB
  0
TABLE
  2
STYLE
  5
3
330
0
100
AcDbSymbolTable
 70
     1
  0
STYLE
  5
11
330
3
100
AcDbSymbolTableRecord
100
AcDbTextStyleTableRecord
  2
Standard
 70
     0
 40
0.0
 41
1.0
 50
0.0
 71
     0
 42
0.2
  3
txt
  4

  0
ENDTAB
  0
TABLE
  2
VIEW
  5
6
330
0
100
AcDbSymbolTable
 70
     0
  0
ENDTAB
  0
TABLE
  2
UCS
  5
7
330
0
100
AcDbSymbolTable
 70
     0
  0
ENDTAB
  0
TABLE
  2
APPID
  5
9
330
0
100
AcDbSymbolTable
 70
     1
  0
APPID
  5
12
330
9
100
AcDbSymbolTableRecord
100
AcDbRegAppTableRecord
  2
ACAD
 70
     0
  0
ENDTAB
  0
TABLE
  2
DIMSTYLE
  5
A
330
0
100
AcDbSymbolTable
 70
     1
100
AcDbDimStyleTable
  0
DIMSTYLE
105
27
330
A
100
AcDbSymbolTableRecord
100
AcDbDimStyleTableRecord
  2
Standard
 70
     0
178
     0
340
11
  0
ENDTAB
  0
TABLE
  2
BLOCK_RECORD
  5
1
330
0
100
AcDbSymbolTable
 70
     5
  0
BLOCK_RECORD
  5
1F
330
1
100
AcDbSymbolTableRecord
100
AcDbBlockTableRecord
  2
*Model_Space
340
22
 70
     0
280
     1
281
     0
  0
BLOCK_RECORD
  5
1B
330
1
100
AcDbSymbolTableRecord
100
AcDbBlockTableRecord
  2
*Paper_Space
340
1E
 70
     0
280
     1
281
     0
  0
BLOCK_RECORD
  5
23
330
1
100
AcDbSymbolTableRecord
100
AcDbBlockTableRecord
  2
*Paper_Space0
340
26
 70
     0
280
     1
281
     0
  0
BLOCK_RECORD
  5
6E
330
1
100
AcDbSymbolTableRecord
100
AcDbBlockTableRecord
  2
1_131065_2
340
0
102
{BLKREFS
331
6F
102
}
 70
     0
280
     1
281
     0
  0
BLOCK_RECORD
  5
89
330
1
100
AcDbSymbolTableRecord
100
AcDbBlockTableRecord
  2
2_405015E_Inch_0_in_131065_2
340
0
102
{BLKREFS
331
8A
102
}
 70
     0
280
     1
281
     0
  0
BLOCK_RECORD
  5
E9
330
1
100
AcDbSymbolTableRecord
100
AcDbBlockTableRecord
  2
3_131914_0_in_131065_2
340
0
102
{BLKREFS
331
EA
102
}
 70
     0
280
     1
281
     0
  0
BLOCK_RECORD
  5
149
330
1
100
AcDbSymbolTableRecord
100
AcDbBlockTableRecord
  2
4_131065H_0_in_131065_2
340
0
102
{BLKREFS
331
14A
102
}
 70
     0
280
     1
281
     0
  0
ENDTAB
  0
ENDSEC
  0
SECTION
  2
BLOCKS
  0
BLOCK
  5
20
330
1F
100
AcDbEntity
  8
0
100
AcDbBlockBegin
  2
*Model_Space
 70
     0
 10
0.0
 20
0.0
 30
0.0
  3
*Model_Space
  1

  0
ENDBLK
  5
21
330
1F
100
AcDbEntity
  8
0
100
AcDbBlockEnd
  0
BLOCK
  5
1C
330
1B
100
AcDbEntity
 67
     1
  8
0
100
AcDbBlockBegin
  2
*Paper_Space
 70
     0
 10
0.0
 20
0.0
 30
0.0
  3
*Paper_Space
  1

  0
ENDBLK
  5
1D
330
1B
100
AcDbEntity
 67
     1
  8
0
100
AcDbBlockEnd
  0
BLOCK
  5
24
330
23
100
AcDbEntity
  8
0
100
AcDbBlockBegin
  2
*Paper_Space0
 70
     0
 10
0.0
 20
0.0
 30
0.0
  3
*Paper_Space0
  1

  0
ENDBLK
  5
25
330
23
100
AcDbEntity
  8
0
100
AcDbBlockEnd
  0
BLOCK
  5
70
330
6E
100
AcDbEntity
  8
0
100
AcDbBlockBegin
  2
1_131065_2
 70
     2
 10
0.0
 20
0.0
 30
0.0
  3
1_131065_2
  1

  0
ATTDEF
  5
73
330
6E
100
AcDbEntity
  8
AM_6
100
AcDbText
 10
5.065975
 20
3.065
 30
0.0
 40
0.5
  1
Eccentric Collar Two-Bolt Flange Inch Bore
100
AcDbAttributeDefinition
  3

  2
NN
 70
     8
280
     0
  0
ATTDEF
  5
74
330
6E
100
AcDbEntity
  8
AM_6
100
AcDbText
 10
5.065975
 20
2.565
 30
0.0
 40
0.5
  1
Eccentric Collar 2 Bolt Flange Bearings -(Normal Duty)
100
AcDbAttributeDefinition
  3

  2
NT
 70
     8
280
     0
  0
ATTDEF
  5
75
330
6E
100
AcDbEntity
  8
AM_6
100
AcDbText
 10
5.065975
 20
2.065
 30
0.0
 40
0.5
  1
131065
100
AcDbAttributeDefinition
  3

  2
NB
 70
     8
280
     0
  0
ATTDEF
  5
76
330
6E
100
AcDbEntity
  8
AM_6
100
AcDbText
 10
5.065975
 20
1.565
 30
0.0
 40
0.5
  1
$PN.
100
AcDbAttributeDefinition
  3

  2
NBSYN
 70
     8
280
     0
  0
ATTDEF
  5
77
330
6E
100
AcDbEntity
  8
AM_6
100
AcDbText
 10
5.065975
 20
1.065
 30
0.0
 40
0.5
  1
131065
100
AcDbAttributeDefinition
  3

  2
LINA
 70
     8
280
     0
  0
ATTDEF
  5
78
330
6E
100
AcDbEntity
  8
AM_6
100
AcDbText
 10
5.065975
 20
0.5649999999999995
 30
0.0
 40
0.5
  1
207
100
AcDbAttributeDefinition
  3

  2
SERIES
 70
     8
280
     0
  0
ATTDEF
  5
79
330
6E
100
AcDbEntity
  8
AM_6
100
AcDbText
 10
5.065975
 20
0.0649999999999995
 30
0.0
 40
0.5
  1
1-3/8
100
AcDbAttributeDefinition
  3

  2
SS
 70
     8
280
     0
  0
ATTDEF
  5
7A
330
6E
100
AcDbEntity
  8
AM_6
100
AcDbText
 10
5.065975
 20
-0.4350000000000005
 30
0.0
 40
0.5
  1
131065
100
AcDbAttributeDefinition
  3

  2
PN
 70
     8
280
     0
  0
ATTDEF
  5
7B
330
6E
100
AcDbEntity
  8
AM_6
100
AcDbText
 10
5.065975
 20
-0.9350000000000005
 30
0.0
 40
0.5
  1
F2B-SXR-106
100
AcDbAttributeDefinition
  3

  2
DESCRIPTION
 70
     8
280
     0
  0
ATTDEF
  5
7C
330
6E
100
AcDbEntity
  8
AM_6
100
AcDbText
 10
5.065975
 20
-1.435
 30
0.0
 40
0.5
  1
RE-LUBE
100
AcDbAttributeDefinition
  3

  2
LF
 70
     8
280
     0
  0
ATTDEF
  5
7D
330
6E
100
AcDbEntity
  8
AM_6
100
AcDbText
 10
5.065975
 20
-1.935
 30
0.0
 40
0.5
  1
3.4
100
AcDbAttributeDefinition
  3

  2
W
 70
     8
280
     0
  0
ATTDEF
  5
7E
330
6E
100
AcDbEntity
  8
AM_6
100
AcDbText
 10
5.065975
 20
-2.435
 30
0.0
 40
0.5
  1
1.95
100
AcDbAttributeDefinition
  3

  2
A
 70
     8
280
     0
  0
ATTDEF
  5
7F
330
6E
100
AcDbEntity
  8
AM_6
100
AcDbText
 10
5.065975
 20
-2.935
 30
0.0
 40
0.5
  1
6.13
100
AcDbAttributeDefinition
  3

  2
B
 70
     8
280
     0
  0
ATTDEF
  5
80
330
6E
100
AcDbEntity
  8
AM_6
100
AcDbText
 10
5.065975
 20
-3.435
 30
0.0
 40
0.5
  1
1.99
100
AcDbAttributeDefinition
  3

  2
C
 70
     8
280
     0
  0
ATTDEF
  5
81
330
6E
100
AcDbEntity
  8
AM_6
100
AcDbText
 10
5.065975
 20
-3.935
 30
0.0
 40
0.5
  1
5.12
100
AcDbAttributeDefinition
  3

  2
D
 70
     8
280
     0
  0
ATTDEF
  5
82
330
6E
100
AcDbEntity
  8
AM_6
100
AcDbText
 10
5.065975
 20
-4.435
 30
0.0
 40
0.5
  1
1/2
100
AcDbAttributeDefinition
  3

  2
F
 70
     8
280
     0
  0
ATTDEF
  5
83
330
6E
100
AcDbEntity
  8
AM_6
100
AcDbText
 10
5.065975
 20
-4.935
 30
0.0
 40
0.5
  1
0.56
100
AcDbAttributeDefinition
  3

  2
H
 70
     8
280
     0
  0
ATTDEF
  5
84
330
6E
100
AcDbEntity
  8
AM_6
100
AcDbText
 10
5.065975
 20
-5.435
 30
0.0
 40
0.5
  1
0.77
100
AcDbAttributeDefinition
  3

  2
J
 70
     8
280
     0
  0
ATTDEF
  5
85
330
6E
100
AcDbEntity
  8
AM_6
100
AcDbText
 10
5.065975
 20
-5.935
 30
0.0
 40
0.5
  1
2.13
100
AcDbAttributeDefinition
  3

  2
L
 70
     8
280
     0
  0
ATTDEF
  5
86
330
6E
100
AcDbEntity
  8
AM_6
100
AcDbText
 10
5.065975
 20
-6.435
 30
0.0
 40
0.5
  1
3.75
100
AcDbAttributeDefinition
  3

  2
M
 70
     8
280
     0
  0
ATTDEF
  5
87
330
6E
100
AcDbEntity
  8
AM_6
100
AcDbText
 10
5.065975
 20
-6.935
 30
0.0
 40
0.5
  1
1.84
100
AcDbAttributeDefinition
  3

  2
N
 70
     8
280
     0
  0
ATTDEF
  5
88
330
6E
100
AcDbEntity
  8
AM_6
100
AcDbText
 10
5.065975
 20
-7.435
 30
0.0
 40
0.5
  1
baldor
100
AcDbAttributeDefinition
  3

  2
COMPANY
 70
     8
280
     0
  0
INSERT
  5
8A
330
6E
100
AcDbEntity
  8
0
100
AcDbBlockReference
  2
2_405015E_Inch_0_in_131065_2
 10
0.0
 20
0.0
 30
0.0
  0
INSERT
  5
EA
330
6E
100
AcDbEntity
  8
0
100
AcDbBlockReference
  2
3_131914_0_in_131065_2
 10
0.0
 20
0.0
 30
0.0
  0
INSERT
  5
14A
330
6E
100
AcDbEntity
  8
0
100
AcDbBlockReference
  2
4_131065H_0_in_131065_2
 10
0.0
 20
0.0
 30
0.0
  0
ENDBLK
  5
71
330
6E
100
AcDbEntity
  8
0
100
AcDbBlockEnd
  0
BLOCK
  5
8B
330
89
100
AcDbEntity
  8
0
100
AcDbBlockBegin
  2
2_405015E_Inch_0_in_131065_2
 70
     2
 10
0.0
 20
0.0
 30
0.0
  3
2_405015E_Inch_0_in_131065_2
  1

  0
ATTDEF
  5
8D
330
89
100
AcDbEntity
  8
AM_6
100
AcDbText
 10
4.362590742770461
 20
1.912604240734961
 30
0.0
 40
0.5
  1
405015E -Inch
100
AcDbAttributeDefinition
  3

  2
NN
 70
     8
280
     0
  0
ATTDEF
  5
8E
330
89
100
AcDbEntity
  8
AM_6
100
AcDbText
 10
4.362590742770461
 20
1.412604240734961
 30
0.0
 40
0.5
  1
Grease Fitting
100
AcDbAttributeDefinition
  3

  2
NT
 70
     8
280
     0
  0
ATTDEF
  5
8F
330
89
100
AcDbEntity
  8
AM_6
100
AcDbText
 10
4.362590742770461
 20
0.9126042407349613
 30
0.0
 40
0.5
  1
405015E-Inch
100
AcDbAttributeDefinition
  3

  2
NB
 70
     8
280
     0
  0
ATTDEF
  5
90
330
89
100
AcDbEntity
  8
AM_6
100
AcDbText
 10
4.362590742770461
 20
0.4126042407349613
 30
0.0
 40
0.5
  1
$MN.-Inch
100
AcDbAttributeDefinition
  3

  2
NBSYN
 70
     8
280
     0
  0
ATTDEF
  5
91
330
89
100
AcDbEntity
  8
AM_6
100
AcDbText
 10
4.362590742770461
 20
-0.0873957592650387
 30
0.0
 40
0.5
  1
405015E
100
AcDbAttributeDefinition
  3

  2
LINA
 70
     8
280
     0
  0
ATTDEF
  5
92
330
89
100
AcDbEntity
  8
AM_6
100
AcDbText
 10
4.362590742770461
 20
-0.5873957592650387
 30
0.0
 40
0.5
  1
405015E
100
AcDbAttributeDefinition
  3

  2
MN
 70
     8
280
     0
  0
ATTDEF
  5
93
330
89
100
AcDbEntity
  8
AM_6
100
AcDbText
 10
4.362590742770461
 20
-1.087395759265039
 30
0.0
 40
0.5
  1
1/8 x 27PTF
100
AcDbAttributeDefinition
  3

  2
T
 70
     8
280
     0
  0
ATTDEF
  5
94
330
89
100
AcDbEntity
  8
AM_6
100
AcDbText
 10
4.362590742770461
 20
-1.587395759265039
 30
0.0
 40
0.5
  1
baldor
100
AcDbAttributeDefinition
  3

  2
COMPANY
 70
     8
280
     0
  0
LINE
  5
97
330
89
100
AcDbEntity
  8
AM_9
100
AcDbLine
 10
-1.016295371385231
 20
1.793813482323696
 30
0.0
 11
-1.016295371385231
 21
1.735926326674163
 31
0.0
  0
LINE
  5
98
330
89
100
AcDbEntity
  8
AM_9
100
AcDbLine
 10
-0.7637046286147693
 20
1.793813482323696
 30
0.0
 11
-0.7637046286147693
 21
1.735926326674163
 31
0.0
  0
LWPOLYLINE
  5
99
330
89
100
AcDbEntity
  8
AM_9
100
AcDbPolyline
 90
        4
 70
     0
 43
0.0
 10
-1.016295371385231
 20
1.735926326674163
 10
-0.9867996321117977
 20
1.733391216508232
 10
-0.9385424412477542
 20
1.730522778259086
 10
-0.8899999999999999
 20
1.729514565439602
  0
LWPOLYLINE
  5
9A
330
89
100
AcDbEntity
  8
AM_9
100
AcDbPolyline
 90
        3
 70
     0
 43
0.0
 10
-0.8899999999999999
 20
1.729514565439602
 10
-0.8268523143073847
 20
1.731206941222662
 10
-0.7637046286147693
 20
1.735926326674163
  0
ELLIPSE
  5
9B
330
89
100
AcDbEntity
  8
AM_9
100
AcDbEllipse
 10
-0.8899999999999999
 20
1.38745166004061
 30
0.0
 11
-0.1619028724722689
 21
1.982738345459262E-17
 31
0.0
210
0.0
220
0.0
230
1.0
 40
0.7071067811865482
 41
0.0
 42
6.283185307179586
  0
ELLIPSE
  5
9C
330
89
100
AcDbEntity
  8
AM_9
100
AcDbEllipse
 10
-0.8900000000000008
 20
1.574834957055044
 30
0.0
 11
0.2187500000000017
 21
3.259629011154202E-9
 31
0.0
210
0.0
220
0.0
230
1.0
 40
0.7071067811865475
 41
0.5235987571590579
 42
2.617993859552239
  0
LWPOLYLINE
  5
9D
330
89
100
AcDbEntity
  8
AM_9
100
AcDbPolyline
 90
        3
 70
     0
 43
0.0
 10
-0.7637046286147693
 20
1.735926326674163
 10
-0.7322727502678724
 20
1.692725860601256
 10
-0.7005569429221539
 20
1.652174761247324
  0
LWPOLYLINE
  5
9E
330
89
100
AcDbEntity
  8
AM_9
100
AcDbPolyline
 90
        3
 70
     0
 43
0.0
 10
-1.079443057077846
 20
1.652174761247324
 10
-1.047869214231538
 20
1.692537039126522
 10
-1.016295371385231
 20
1.735926326674163
  0
LINE
  5
9F
330
89
100
AcDbEntity
  8
AM_9
100
AcDbLine
 10
-1.016295371385231
 20
1.793813482323696
 30
0.0
 11
-1.024213188611287
 21
1.785543591338955
 31
0.0
  0
LWPOLYLINE
  5
A0
330
89
100
AcDbEntity
  8
AM_9
100
AcDbPolyline
 90
        4
 70
     0
 43
0.0
 10
-0.8899999999999999
 20
1.800225243558257
 10
-0.9383998160558988
 20
1.799222876762425
 10
-0.9867996321117977
 20
1.796348592489628
 10
-1.016295371385231
 20
1.793813482323696
  0
LINE
  5
A1
330
89
100
AcDbEntity
  8
AM_9
100
AcDbLine
 10
-0.7552104262984999
 20
1.784935706766713
 30
0.0
 11
-0.7637046286147693
 21
1.793813482323696
 31
0.0
  0
LWPOLYLINE
  5
A2
330
89
100
AcDbEntity
  8
AM_9
100
AcDbPolyline
 90
        3
 70
     0
 43
0.0
 10
-0.7637046286147693
 20
1.793813482323696
 10
-0.8265683853085631
 20
1.798517916593037
 10
-0.8899999999999999
 20
1.800225243558257
  0
LWPOLYLINE
  5
A3
330
89
100
AcDbEntity
  8
AM_9
100
AcDbPolyline
 90
        3
 70
     0
 43
0.0
 10
-0.7005569429221539
 20
1.652174761247324
 10
-0.6689831000758464
 20
1.615197234934244
 10
-0.6374092572295388
 20
1.581246718289606
  0
LWPOLYLINE
  5
A4
330
89
100
AcDbEntity
  8
AM_9
100
AcDbPolyline
 90
        3
 70
     0
 43
0.0
 10
-1.142590742770461
 20
1.581246718289606
 10
-1.111158864423564
 20
1.615038315823832
 10
-1.079443057077846
 20
1.652174761247324
  0
ELLIPSE
  5
A5
330
89
100
AcDbEntity
  8
AM_9
100
AcDbEllipse
 10
-0.8899999999999986
 20
1.574834957055046
 30
0.0
 11
0.2187500000000013
 21
0.0
 31
0.0
210
0.0
220
0.0
230
1.0
 40
0.7071067811865479
 41
2.617993877991502
 42
4.71238898038469
  0
ELLIPSE
  5
A6
330
89
100
AcDbEntity
  8
AM_9
100
AcDbEllipse
 10
-0.8900000000000019
 20
1.574834957055046
 30
0.0
 11
0.2187500000000019
 21
0.0
 31
0.0
210
0.0
220
0.0
230
1.0
 40
0.7071067811865471
 41
5.759586531581287
 42
6.806784082777875
  0
LINE
  5
A7
330
89
100
AcDbEntity
  8
AM_9
100
AcDbLine
 10
-0.6914793878686611
 20
1.409023821489037
 30
0.0
 11
-0.6843486021565374
 21
1.570288212289695
 31
0.0
  0
LINE
  5
A8
330
89
100
AcDbEntity
  8
AM_9
100
AcDbLine
 10
-1.095651397843463
 20
1.570288212289695
 30
0.0
 11
-1.088520612131339
 21
1.409023821489037
 31
0.0
  0
ELLIPSE
  5
A9
330
89
100
AcDbEntity
  8
AM_9
100
AcDbEllipse
 10
-0.8900000000000008
 20
1.574834957055046
 30
0.0
 11
0.2187500000000017
 21
0.0
 31
0.0
210
0.0
220
0.0
230
1.0
 40
0.7071067811865479
 41
4.71238898038469
 42
5.759586531581284
  0
ELLIPSE
  5
AA
330
89
100
AcDbEntity
  8
AM_9
100
AcDbEllipse
 10
-0.8900000000000002
 20
1.645545635173701
 30
0.0
 11
0.2187499999999996
 21
0.0
 31
0.0
210
0.0
220
0.0
230
1.0
 40
0.7071067811865435
 41
0.9156936017146462
 42
2.225899051875167
  0
LINE
  5
AB
330
89
100
AcDbEntity
  8
AM_9
100
AcDbLine
 10
-0.9848683298050513
 20
1.751611652351682
 30
0.0
 11
-0.9973548910028989
 21
1.732997785922616
 31
0.0
  0
LINE
  5
AC
330
89
100
AcDbEntity
  8
AM_9
100
AcDbLine
 10
-0.782645108997101
 20
1.732997785922616
 30
0.0
 11
-0.7951316701949486
 21
1.751611652351682
 31
0.0
  0
ELLIPSE
  5
AD
330
89
100
AcDbEntity
  8
AM_9
100
AcDbEllipse
 10
-0.89
 20
1.719791847198287
 30
0.0
 11
0.105
 21
0.0
 31
0.0
210
0.0
220
0.0
230
1.0
 40
0.7071067811865497
 41
0.4429110440736386
 42
2.698681609516149
  0
ELLIPSE
  5
AE
330
89
100
AcDbEntity
  8
AM_9
100
AcDbEllipse
 10
-0.8900000000000002
 20
1.71979184719829
 30
0.0
 11
0.1049999999999996
 21
0.0
 31
0.0
210
0.0
220
0.0
230
1.0
 40
0.7071067811865454
 41
2.698681609516179
 42
3.141592653589793
  0
ELLIPSE
  5
AF
330
89
100
AcDbEntity
  8
AM_9
100
AcDbEllipse
 10
-0.8899999999999998
 20
1.696989860822682
 30
0.0
 11
0.1188200907348972
 21
0.0
 31
0.0
210
0.0
220
0.0
230
1.0
 40
0.7071067811865503
 41
0.4429110440736368
 42
1.733730595722528
  0
ELLIPSE
  5
B0
330
89
100
AcDbEntity
  8
AM_9
100
AcDbEllipse
 10
-0.8900000000000277
 20
1.69698986082279
 30
0.0
 11
0.1188200907348675
 21
0.0
 31
0.0
210
0.0
220
0.0
230
1.0
 40
0.7071067811862259
 41
-3.584503697662547
 42
-3.517813279689757
  0
ELLIPSE
  5
B1
330
89
100
AcDbEntity
  8
AM_9
100
AcDbEllipse
 10
-0.8899999999999997
 20
1.6455456351737
 30
0.0
 11
0.2137499999999997
 21
0.0
 31
0.0
210
0.0
220
0.0
230
1.0
 40
0.7071067811865477
 41
0.9036552188403064
 42
2.237937434749548
  0
ELLIPSE
  5
B2
330
89
100
AcDbEntity
  8
AM_9
100
AcDbEllipse
 10
-0.8899999999999954
 20
1.719791847198286
 30
0.0
 11
0.1049999999999954
 21
1.564621925353936E-9
 31
0.0
210
0.0
220
0.0
230
1.0
 40
0.7071067811865507
 41
0.0000017304280906
 42
0.4429110249355621
  0
LINE
  5
B3
330
89
100
AcDbEntity
  8
AM_9
100
AcDbLine
 10
-0.7849999999999999
 20
1.721110838080825
 30
0.0
 11
-0.7849999999999999
 21
1.741005050633883
 31
0.0
  0
LINE
  5
B4
330
89
100
AcDbEntity
  8
AM_9
100
AcDbLine
 10
-0.9949999999999999
 20
1.741005050633883
 30
0.0
 11
-0.9949999999999999
 21
1.721110838080825
 31
0.0
  0
ELLIPSE
  5
B5
330
89
100
AcDbEntity
  8
AM_9
100
AcDbEllipse
 10
-0.890000000000003
 20
1.741005050633884
 30
0.0
 11
0.1049999999999969
 21
0.0
 31
0.0
210
0.0
220
0.0
230
1.0
 40
0.7071067811865495
 41
3.141592653589793
 42
3.665191429188114
  0
ELLIPSE
  5
B6
330
89
100
AcDbEntity
  8
AM_9
100
AcDbEllipse
 10
-0.8899999999998038
 20
1.696989860822841
 30
0.0
 11
0.1188200907346841
 21
1.770557325105133E-9
 31
0.0
210
0.0
220
0.0
230
1.0
 40
0.707106781186226
 41
0.3762206064488298
 42
0.4429110249346997
  0
ELLIPSE
  5
B7
330
89
100
AcDbEntity
  8
AM_9
100
AcDbEllipse
 10
-0.8899999999999991
 20
1.658498557581078
 30
0.0
 11
0.172534053283014
 21
0.0
 31
0.0
210
0.0
220
0.0
230
1.0
 40
0.7071067811865598
 41
0.7772913431419575
 42
1.733730595722532
  0
LINE
  5
B8
330
89
100
AcDbEntity
  8
AM_9
100
AcDbLine
 10
-0.9092743186691522
 20
1.77989557414236
 30
0.0
 11
-0.9179874918769158
 21
1.778882733951368
 31
0.0
  0
LINE
  5
B9
330
89
100
AcDbEntity
  8
AM_9
100
AcDbLine
 10
-0.8620125081230842
 20
1.778882733951368
 30
0.0
 11
-0.8707256813308475
 21
1.77989557414236
 31
0.0
  0
ELLIPSE
  5
BA
330
89
100
AcDbEntity
  8
AM_9
100
AcDbEllipse
 10
-0.8899999999999996
 20
1.696989860822681
 30
0.0
 11
0.1188200907348981
 21
0.0
 31
0.0
210
0.0
220
0.0
230
1.0
 40
0.7071067811865526
 41
1.733730595722528
 42
2.698681609516149
  0
ELLIPSE
  5
BB
330
89
100
AcDbEntity
  8
AM_9
100
AcDbEllipse
 10
-0.8900000000000008
 20
1.658498557581081
 30
0.0
 11
0.1725340532830135
 21
2.570957739398085E-9
 31
0.0
210
0.0
220
0.0
230
1.0
 40
0.7071067811865424
 41
1.733730584908554
 42
2.364301294557434
  0
ELLIPSE
  5
BC
330
89
100
AcDbEntity
  8
AM_9
100
AcDbEllipse
 10
-0.8899999999999999
 20
1.741005050633884
 30
0.0
 11
0.105
 21
0.0
 31
0.0
210
0.0
220
0.0
230
1.0
 40
0.7071067811865497
 41
5.759586531581288
 42
9.42477796076938
  0
ELLIPSE
  5
BD
330
89
100
AcDbEntity
  8
AM_9
100
AcDbEllipse
 10
-0.8899999999999998
 20
1.783431457505077
 30
0.0
 11
0.1349999999999998
 21
0.0
 31
0.0
210
0.0
220
0.0
230
1.0
 40
0.7071067811865476
 41
0.4159140521025444
 42
2.72567860148725
  0
ELLIPSE
  5
BE
330
89
100
AcDbEntity
  8
AM_9
100
AcDbEllipse
 10
-0.8899999999994492
 20
1.574834957054129
 30
0.0
 11
0.2057518972225189
 21
0.0
 31
0.0
210
0.0
220
0.0
230
1.0
 40
0.7071067811864782
 41
0.0
 42
6.283185307179586
  0
ELLIPSE
  5
BF
330
89
100
AcDbEntity
  8
AM_9
100
AcDbEllipse
 10
-0.8899999999991499
 20
1.4134129117816
 30
0.0
 11
0.1986176267803653
 21
0.0
 31
0.0
210
0.0
220
0.0
230
1.0
 40
0.7071067811864942
 41
0.0
 42
6.283185307179586
  0
LWPOLYLINE
  5
C1
330
89
100
AcDbEntity
  8
AM_4
100
AcDbPolyline
 90
        3
 70
     0
 43
0.0
 10
-1.024213188611287
 20
1.785543591338955
 10
-1.047727249732127
 20
1.76002188478947
 10
-1.079443057077846
 20
1.722885439365978
  0
LWPOLYLINE
  5
C2
330
89
100
AcDbEntity
  8
AM_4
100
AcDbPolyline
 90
        3
 70
     0
 43
0.0
 10
-0.7005569429221539
 20
1.722885439365978
 10
-0.7321307857684616
 20
1.759862965679058
 10
-0.7544360422305447
 20
1.784117704579334
  0
LWPOLYLINE
  5
C3
330
89
100
AcDbEntity
  8
AM_4
100
AcDbPolyline
 90
        3
 70
     0
 43
0.0
 10
-0.6374092572295388
 20
1.639133873939138
 10
-0.6688411355764355
 20
1.682334340012046
 10
-0.7005569429221539
 20
1.722885439365978
  0
LWPOLYLINE
  5
C4
330
89
100
AcDbEntity
  8
AM_4
100
AcDbPolyline
 90
        3
 70
     0
 43
0.0
 10
-1.079443057077846
 20
1.722885439365978
 10
-1.111016899924153
 20
1.682523161486779
 10
-1.142590742770461
 20
1.639133873939138
  0
LWPOLYLINE
  5
C5
330
89
100
AcDbEntity
  8
AM_4
100
AcDbPolyline
 90
        3
 70
     0
 43
0.0
 10
-1.079443057077846
 20
1.568205830981421
 10
-1.047869214231538
 20
1.527843553102222
 10
-1.016295371385231
 20
1.484454265554581
  0
LWPOLYLINE
  5
C6
330
89
100
AcDbEntity
  8
AM_4
100
AcDbPolyline
 90
        3
 70
     0
 43
0.0
 10
-1.142590742770461
 20
1.639133873939138
 10
-1.111158864423564
 20
1.605342276404913
 10
-1.079443057077846
 20
1.568205830981421
  0
LINE
  5
C7
330
89
100
AcDbEntity
  8
AM_4
100
AcDbLine
 10
-1.142590742770461
 20
1.639133873939138
 30
0.0
 11
-1.142590742770461
 21
1.581246718289606
 31
0.0
  0
LWPOLYLINE
  5
C8
330
89
100
AcDbEntity
  8
AM_4
100
AcDbPolyline
 90
        3
 70
     0
 43
0.0
 10
-1.079443057077846
 20
1.497495152862766
 10
-1.111016899924153
 20
1.537857430741965
 10
-1.142590742770461
 20
1.581246718289606
  0
LWPOLYLINE
  5
C9
330
89
100
AcDbEntity
  8
AM_4
100
AcDbPolyline
 90
        3
 70
     0
 43
0.0
 10
-1.016295371385231
 20
1.426567109905049
 10
-1.047727249732127
 20
1.460358707439274
 10
-1.079443057077846
 20
1.497495152862766
  0
LWPOLYLINE
  5
CA
330
89
100
AcDbEntity
  8
AM_4
100
AcDbPolyline
 90
        3
 70
     0
 43
0.0
 10
-0.8899999999999999
 20
1.490866026789142
 10
-0.8268523143073846
 20
1.489173651006083
 10
-0.7637046286147693
 20
1.484454265554581
  0
LWPOLYLINE
  5
CB
330
89
100
AcDbEntity
  8
AM_4
100
AcDbPolyline
 90
        4
 70
     0
 43
0.0
 10
-1.016295371385231
 20
1.484454265554581
 10
-0.9867996321117977
 20
1.486989375720513
 10
-0.9385424412477542
 20
1.489857813969659
 10
-0.8899999999999999
 20
1.490866026789142
  0
LINE
  5
CC
330
89
100
AcDbEntity
  8
AM_4
100
AcDbLine
 10
-1.016295371385231
 20
1.484454265554581
 30
0.0
 11
-1.016295371385231
 21
1.426567109905049
 31
0.0
  0
LWPOLYLINE
  5
CD
330
89
100
AcDbEntity
  8
AM_4
100
AcDbPolyline
 90
        4
 70
     0
 43
0.0
 10
-0.8899999999999999
 20
1.420155348670488
 10
-0.9383998160558988
 20
1.421157715466319
 10
-0.9867996321117977
 20
1.424031999739117
 10
-1.016295371385231
 20
1.426567109905049
  0
LWPOLYLINE
  5
CE
330
89
100
AcDbEntity
  8
AM_4
100
AcDbPolyline
 90
        3
 70
     0
 43
0.0
 10
-0.7637046286147693
 20
1.426567109905049
 10
-0.8265683853085631
 20
1.421862675635708
 10
-0.8899999999999999
 20
1.420155348670488
  0
LINE
  5
CF
330
89
100
AcDbEntity
  8
AM_4
100
AcDbLine
 10
-0.6374092572295388
 20
1.639133873939138
 30
0.0
 11
-0.6374092572295388
 21
1.581246718289606
 31
0.0
  0
LWPOLYLINE
  5
D0
330
89
100
AcDbEntity
  8
AM_4
100
AcDbPolyline
 90
        3
 70
     0
 43
0.0
 10
-0.7005569429221539
 20
1.568205830981421
 10
-0.6689831000758464
 20
1.605183357294501
 10
-0.6374092572295388
 20
1.639133873939138
  0
LWPOLYLINE
  5
D1
330
89
100
AcDbEntity
  8
AM_4
100
AcDbPolyline
 90
        3
 70
     0
 43
0.0
 10
-0.7637046286147693
 20
1.484454265554581
 10
-0.7322727502678724
 20
1.527654731627488
 10
-0.7005569429221539
 20
1.568205830981421
  0
LINE
  5
D2
330
89
100
AcDbEntity
  8
AM_4
100
AcDbLine
 10
-0.7637046286147693
 20
1.484454265554581
 30
0.0
 11
-0.7637046286147693
 21
1.426567109905049
 31
0.0
  0
LWPOLYLINE
  5
D3
330
89
100
AcDbEntity
  8
AM_4
100
AcDbPolyline
 90
        3
 70
     0
 43
0.0
 10
-0.7005569429221539
 20
1.497495152862766
 10
-0.7321307857684616
 20
1.460517626549687
 10
-0.7637046286147693
 20
1.426567109905049
  0
LWPOLYLINE
  5
D4
330
89
100
AcDbEntity
  8
AM_4
100
AcDbPolyline
 90
        3
 70
     0
 43
0.0
 10
-0.6374092572295388
 20
1.581246718289606
 10
-0.6688411355764358
 20
1.538046252216699
 10
-0.7005569429221539
 20
1.497495152862766
  0
ELLIPSE
  5
D5
330
89
100
AcDbEntity
  8
AM_4
100
AcDbEllipse
 10
-0.8899999999999993
 20
1.6455456351737
 30
0.0
 11
0.2187500000000008
 21
0.0
 31
0.0
210
0.0
220
0.0
230
1.0
 40
0.7071067811865477
 41
2.22589905187517
 42
4.71238898038469
  0
ELLIPSE
  5
D6
330
89
100
AcDbEntity
  8
AM_4
100
AcDbEllipse
 10
-0.8900000000000006
 20
1.6455456351737
 30
0.0
 11
0.2187500000000011
 21
0.0
 31
0.0
210
0.0
220
0.0
230
1.0
 40
0.7071067811865476
 41
4.71238898038469
 42
5.759586531581284
  0
ELLIPSE
  5
D7
330
89
100
AcDbEntity
  8
AM_4
100
AcDbEllipse
 10
-0.890000000000001
 20
1.645545635173698
 30
0.0
 11
0.218750000000001
 21
0.0
 31
0.0
210
0.0
220
0.0
230
1.0
 40
0.7071067811865478
 41
5.759586531581298
 42
7.198878908894237
  0
ELLIPSE
  5
D8
330
89
100
AcDbEntity
  8
AM_4
100
AcDbEllipse
 10
-0.8899999999999998
 20
1.696989860822682
 30
0.0
 11
0.1188200907348977
 21
0.0
 31
0.0
210
0.0
220
0.0
230
1.0
 40
0.707106781186547
 41
2.76537202748888
 42
6.283185307179586
  0
ELLIPSE
  5
D9
330
89
100
AcDbEntity
  8
AM_4
100
AcDbEllipse
 10
-0.8899999999999999
 20
1.6455456351737
 30
0.0
 11
0.2137500000000001
 21
0.0
 31
0.0
210
0.0
220
0.0
230
1.0
 40
0.7071067811865472
 41
2.237937434749544
 42
6.283185307179586
  0
ELLIPSE
  5
DA
330
89
100
AcDbEntity
  8
AM_4
100
AcDbEllipse
 10
-0.8900000000000003
 20
1.6455456351737
 30
0.0
 11
0.2137500000000004
 21
3.185123205184943E-9
 31
0.0
210
0.0
220
0.0
230
1.0
 40
0.7071067811865461
 41
0.0000017304280906
 42
0.903655204269692
  0
LINE
  5
DB
330
89
100
AcDbEntity
  8
AM_4
100
AcDbLine
 10
-0.7849999999999999
 20
1.719791847198287
 30
0.0
 11
-0.7849999999999999
 21
1.721110838080825
 31
0.0
  0
LINE
  5
DC
330
89
100
AcDbEntity
  8
AM_4
100
AcDbLine
 10
-0.9949999999999999
 20
1.721110838080825
 30
0.0
 11
-0.9949999999999999
 21
1.719791847198287
 31
0.0
  0
ELLIPSE
  5
DD
330
89
100
AcDbEntity
  8
AM_4
100
AcDbEllipse
 10
-0.8899999999999999
 20
1.719791847198287
 30
0.0
 11
0.1050000000000003
 21
0.0
 31
0.0
210
0.0
220
0.0
230
1.0
 40
0.7071067811865474
 41
3.141592653589793
 42
6.283185307179586
  0
ELLIPSE
  5
DE
330
89
100
AcDbEntity
  8
AM_4
100
AcDbEllipse
 10
-0.8900000000000003
 20
1.696989860822685
 30
0.0
 11
0.118820090734898
 21
0.0
 31
0.0
210
0.0
220
0.0
230
1.0
 40
0.7071067811865401
 41
0.0
 42
0.3762206261008884
  0
ELLIPSE
  5
DF
330
89
100
AcDbEntity
  8
AM_4
100
AcDbEllipse
 10
-0.8899999999999999
 20
1.658498557581079
 30
0.0
 11
0.1725340532830155
 21
0.0
 31
0.0
210
0.0
220
0.0
230
1.0
 40
0.707106781186547
 41
2.364301310447912
 42
7.060476650321544
  0
LINE
  5
E0
330
89
100
AcDbEntity
  8
AM_4
100
AcDbLine
 10
-0.799067332602634
 20
1.70388194462159
 30
0.0
 11
-0.7730865704891008
 21
1.735701749774984
 31
0.0
  0
LINE
  5
E1
330
89
100
AcDbEntity
  8
AM_4
100
AcDbLine
 10
-1.006913429510899
 20
1.735701749774984
 30
0.0
 11
-0.980932667397366
 21
1.70388194462159
 31
0.0
  0
ELLIPSE
  5
E2
330
89
100
AcDbEntity
  8
AM_4
100
AcDbEllipse
 10
-0.8899999999999999
 20
1.783431457505076
 30
0.0
 11
0.1349999999999998
 21
0.0
 31
0.0
210
0.0
220
0.0
230
1.0
 40
0.7071067811865476
 41
3.665191429188091
 42
6.283185307179586
  0
ELLIPSE
  5
E3
330
89
100
AcDbEntity
  8
AM_4
100
AcDbEllipse
 10
-0.89
 20
1.741005050633883
 30
0.0
 11
0.1049999999999996
 21
0.0
 31
0.0
210
0.0
220
0.0
230
1.0
 40
0.7071067811865477
 41
3.665191429188088
 42
5.759586531581291
  0
ELLIPSE
  5
E4
330
89
100
AcDbEntity
  8
AM_4
100
AcDbEllipse
 10
-0.8900000000000061
 20
1.783431457505076
 30
0.0
 11
0.1350000000000062
 21
0.0
 31
0.0
210
0.0
220
0.0
230
1.0
 40
0.7071067811865483
 41
0.0
 42
0.4159140521025355
  0
LINE
  5
E5
330
89
100
AcDbEntity
  8
AM_4
100
AcDbLine
 10
-0.9839243440009285
 20
1.869334017363775
 30
0.0
 11
-1.013490899223633
 21
1.821999564853885
 31
0.0
  0
LINE
  5
E6
330
89
100
AcDbEntity
  8
AM_4
100
AcDbLine
 10
-0.7665091007763664
 20
1.821999564853885
 30
0.0
 11
-0.7960756559990712
 21
1.869334017363775
 31
0.0
  0
ELLIPSE
  5
E7
330
89
100
AcDbEntity
  8
AM_4
100
AcDbEllipse
 10
-0.8900000000000016
 20
1.783431457505076
 30
0.0
 11
0.1349999999999985
 21
0.0
 31
0.0
210
0.0
220
0.0
230
1.0
 40
0.7071067811865479
 41
2.725678601487242
 42
3.665191429188098
  0
ELLIPSE
  5
E8
330
89
100
AcDbEntity
  8
AM_4
100
AcDbEllipse
 10
-0.890000000000005
 20
1.839999999999992
 30
0.0
 11
0.1026779019331926
 21
1.530019967752585E-9
 31
0.0
210
0.0
220
0.0
230
1.0
 40
0.7071067811865609
 41
0.0
 42
6.283185307179586
  0
ENDBLK
  5
8C
330
89
100
AcDbEntity
  8
0
100
AcDbBlockEnd
  0
BLOCK
  5
EB
330
E9
100
AcDbEntity
  8
0
100
AcDbBlockBegin
  2
3_131914_0_in_131065_2
 70
     2
 10
0.0
 20
0.0
 30
0.0
  3
3_131914_0_in_131065_2
  1

  0
ATTDEF
  5
ED
330
E9
100
AcDbEntity
  8
AM_6
100
AcDbText
 10
4.96
 20
1.416544648292934
 30
0.0
 40
0.5
  1
Eccentric Collar Insert Inch Bore
100
AcDbAttributeDefinition
  3

  2
NN
 70
     8
280
     0
  0
ATTDEF
  5
EE
330
E9
100
AcDbEntity
  8
AM_6
100
AcDbText
 10
4.96
 20
0.916544648292934
 30
0.0
 40
0.5
  1
SXR Normal Duty Bearing Inserts
100
AcDbAttributeDefinition
  3

  2
NT
 70
     8
280
     0
  0
ATTDEF
  5
EF
330
E9
100
AcDbEntity
  8
AM_6
100
AcDbText
 10
4.96
 20
0.416544648292934
 30
0.0
 40
0.5
  1
131914
100
AcDbAttributeDefinition
  3

  2
NB
 70
     8
280
     0
  0
ATTDEF
  5
F0
330
E9
100
AcDbEntity
  8
AM_6
100
AcDbText
 10
4.96
 20
-0.083455351707066
 30
0.0
 40
0.5
  1
$PN.
100
AcDbAttributeDefinition
  3

  2
NBSYN
 70
     8
280
     0
  0
ATTDEF
  5
F1
330
E9
100
AcDbEntity
  8
AM_6
100
AcDbText
 10
4.96
 20
-0.583455351707066
 30
0.0
 40
0.5
  1
131914
100
AcDbAttributeDefinition
  3

  2
LINA
 70
     8
280
     0
  0
ATTDEF
  5
F2
330
E9
100
AcDbEntity
  8
AM_6
100
AcDbText
 10
4.96
 20
-1.083455351707066
 30
0.0
 40
0.5
  1
207
100
AcDbAttributeDefinition
  3

  2
SERIES
 70
     8
280
     0
  0
ATTDEF
  5
F3
330
E9
100
AcDbEntity
  8
AM_6
100
AcDbText
 10
4.96
 20
-1.583455351707066
 30
0.0
 40
0.5
  1
1-3/8
100
AcDbAttributeDefinition
  3

  2
SS
 70
     8
280
     0
  0
ATTDEF
  5
F4
330
E9
100
AcDbEntity
  8
AM_6
100
AcDbText
 10
4.96
 20
-2.083455351707066
 30
0.0
 40
0.5
  1
131914
100
AcDbAttributeDefinition
  3

  2
PN
 70
     8
280
     0
  0
ATTDEF
  5
F5
330
E9
100
AcDbEntity
  8
AM_6
100
AcDbText
 10
4.96
 20
-2.583455351707066
 30
0.0
 40
0.5
  1
INS-SXR-106
100
AcDbAttributeDefinition
  3

  2
DESCRIPTION
 70
     8
280
     0
  0
ATTDEF
  5
F6
330
E9
100
AcDbEntity
  8
AM_6
100
AcDbText
 10
4.96
 20
-3.083455351707066
 30
0.0
 40
0.5
  1
1.3
100
AcDbAttributeDefinition
  3

  2
WEIGHT
 70
     8
280
     0
  0
ATTDEF
  5
F7
330
E9
100
AcDbEntity
  8
AM_6
100
AcDbText
 10
4.96
 20
-3.583455351707066
 30
0.0
 40
0.5
  1
1.95
100
AcDbAttributeDefinition
  3

  2
A
 70
     8
280
     0
  0
ATTDEF
  5
F8
330
E9
100
AcDbEntity
  8
AM_6
100
AcDbText
 10
4.96
 20
-4.083455351707066
 30
0.0
 40
0.5
  1
0.75
100
AcDbAttributeDefinition
  3

  2
C
 70
     8
280
     0
  0
ATTDEF
  5
F9
330
E9
100
AcDbEntity
  8
AM_6
100
AcDbText
 10
4.96
 20
-4.583455351707066
 30
0.0
 40
0.5
  1
2.8346
100
AcDbAttributeDefinition
  3

  2
D
 70
     8
280
     0
  0
ATTDEF
  5
FA
330
E9
100
AcDbEntity
  8
AM_6
100
AcDbText
 10
4.96
 20
-5.083455351707066
 30
0.0
 40
0.5
  1
0.20
100
AcDbAttributeDefinition
  3

  2
J
 70
     8
280
     0
  0
ATTDEF
  5
FB
330
E9
100
AcDbEntity
  8
AM_6
100
AcDbText
 10
4.96
 20
-5.583455351707066
 30
0.0
 40
0.5
  1
2.13
100
AcDbAttributeDefinition
  3

  2
L
 70
     8
280
     0
  0
ATTDEF
  5
FC
330
E9
100
AcDbEntity
  8
AM_6
100
AcDbText
 10
4.96
 20
-6.083455351707066
 30
0.0
 40
0.5
  1
5/16 - 24
100
AcDbAttributeDefinition
  3

  2
N
 70
     8
280
     0
  0
ATTDEF
  5
FD
330
E9
100
AcDbEntity
  8
AM_6
100
AcDbText
 10
4.96
 20
-6.583455351707066
 30
0.0
 40
0.5
  1
0.67
100
AcDbAttributeDefinition
  3

  2
W
 70
     8
280
     0
  0
ATTDEF
  5
FE
330
E9
100
AcDbEntity
  8
AM_6
100
AcDbText
 10
4.96
 20
-7.083455351707066
 30
0.0
 40
0.5
  1
1.28
100
AcDbAttributeDefinition
  3

  2
Y
 70
     8
280
     0
  0
ATTDEF
  5
FF
330
E9
100
AcDbEntity
  8
AM_6
100
AcDbText
 10
4.96
 20
-7.583455351707066
 30
0.0
 40
0.5
  1
1.84
100
AcDbAttributeDefinition
  3

  2
Z
 70
     8
280
     0
  0
ATTDEF
  5
100
330
E9
100
AcDbEntity
  8
AM_6
100
AcDbText
 10
4.96
 20
-8.083455351707066
 30
0.0
 40
0.5
  1
baldor
100
AcDbAttributeDefinition
  3

  2
COMPANY
 70
     8
280
     0
  0
ARC
  5
101
330
E9
100
AcDbEntity
  8
AM_9
100
AcDbCircle
 10
-0.51
 20
-1.334796800585092
 30
0.0
 40
0.1041666666666671
100
AcDbArc
 50
198.409725962699
 51
358.6333738329245
  0
LINE
  5
102
330
E9
100
AcDbEntity
  8
AM_9
100
AcDbLine
 10
-1.510643398282202
 20
-0.6875
 30
0.0
 11
-0.055
 21
-0.6875
 31
0.0
  0
LINE
  5
103
330
E9
100
AcDbEntity
  8
AM_9
100
AcDbLine
 10
-0.055
 20
0.6875
 30
0.0
 11
-1.510643398282202
 21
0.6875
 31
0.0
  0
LINE
  5
104
330
E9
100
AcDbEntity
  8
AM_9
100
AcDbLine
 10
-1.975
 20
-0.6875
 30
0.0
 11
-1.531856601717798
 21
-0.6875
 31
0.0
  0
LINE
  5
105
330
E9
100
AcDbEntity
  8
AM_9
100
AcDbLine
 10
-1.531856601717798
 20
0.6875
 30
0.0
 11
-1.975
 21
0.6875
 31
0.0
  0
LINE
  5
106
330
E9
100
AcDbEntity
  8
AM_9
100
AcDbLine
 10
-1.531856601717798
 20
-0.6875
 30
0.0
 11
-1.52125
 21
-0.6981066017177981
 31
0.0
  0
LINE
  5
107
330
E9
100
AcDbEntity
  8
AM_9
100
AcDbLine
 10
-1.52125
 20
0.6981066017177981
 30
0.0
 11
-1.531856601717798
 21
0.6875
 31
0.0
  0
LINE
  5
108
330
E9
100
AcDbEntity
  8
AM_9
100
AcDbLine
 10
-1.531856601717798
 20
0.6875
 30
0.0
 11
-1.531856601717798
 21
-0.6875
 31
0.0
  0
LINE
  5
109
330
E9
100
AcDbEntity
  8
AM_9
100
AcDbLine
 10
-1.510643398282202
 20
0.6875000000000001
 30
0.0
 11
-1.52125
 21
0.6981066017177983
 31
0.0
  0
LINE
  5
10A
330
E9
100
AcDbEntity
  8
AM_9
100
AcDbLine
 10
-1.52125
 20
-0.6981066017177983
 30
0.0
 11
-1.510643398282202
 21
-0.6875000000000001
 31
0.0
  0
LINE
  5
10B
330
E9
100
AcDbEntity
  8
AM_9
100
AcDbLine
 10
-1.510643398282202
 20
0.6875000000000001
 30
0.0
 11
-1.510643398282202
 21
-0.6875000000000001
 31
0.0
  0
LINE
  5
10C
330
E9
100
AcDbEntity
  8
AM_9
100
AcDbLine
 10
-1.52125
 20
0.6981066017177983
 30
0.0
 11
-1.52125
 21
-0.6981066017177983
 31
0.0
  0
LINE
  5
10D
330
E9
100
AcDbEntity
  8
AM_9
100
AcDbLine
 10
-0.055
 20
-0.6875
 30
0.0
 11
-0.0399999999999998
 21
-0.7024999999999999
 31
0.0
  0
LINE
  5
10E
330
E9
100
AcDbEntity
  8
AM_9
100
AcDbLine
 10
-0.0399999999999998
 20
0.7024999999999999
 30
0.0
 11
-0.055
 21
0.6875
 31
0.0
  0
LINE
  5
10F
330
E9
100
AcDbEntity
  8
AM_9
100
AcDbLine
 10
-1.975
 20
0.6875000000000001
 30
0.0
 11
-1.99
 21
0.7024999999999999
 31
0.0
  0
LINE
  5
110
330
E9
100
AcDbEntity
  8
AM_9
100
AcDbLine
 10
-1.99
 20
-0.7024999999999999
 30
0.0
 11
-1.975
 21
-0.6875000000000001
 31
0.0
  0
LINE
  5
111
330
E9
100
AcDbEntity
  8
AM_9
100
AcDbLine
 10
-1.975
 20
0.6875000000000001
 30
0.0
 11
-1.975
 21
-0.6875000000000001
 31
0.0
  0
LWPOLYLINE
  5
112
330
E9
100
AcDbEntity
  8
AM_9
100
AcDbPolyline
 90
       20
 70
     0
 43
0.0
 10
-1.894975
 20
0.177938093507983
 10
-1.893097349020925
 20
0.1558184802330448
 10
-1.887303849787369
 20
0.1335028125725894
 10
-1.878099693808762
 20
0.1128985656145333
 10
-1.865236070518972
 20
0.0934253400709741
 10
-1.849558729179458
 20
0.0765083794219584
 10
-1.830754397348338
 20
0.0619625835509758
 10
-1.810169166165817
 20
0.0509532648802168
 10
-1.787344796625954
 20
0.0433696288109004
 10
-1.764559720173975
 20
0.0399351304602405
 10
-1.740832275918199
 20
0.040445441989977
 10
-1.718547785632516
 20
0.0447588685456789
 10
-1.696686312829504
 20
0.0529415288928113
 10
-1.676902656992524
 20
0.0643662122832059
 10
-1.65878034248945
 20
0.0792548557376338
 10
-1.643521121173874
 20
0.0966925257879447
 10
-1.631046270634875
 20
0.1168918077351174
 10
-1.622399695937404
 20
0.1381570111783214
 10
-1.617366897608534
 20
0.1610639392443668
 10
-1.616275000782309
 20
0.1779523561545125
  0
LINE
  5
113
330
E9
100
AcDbEntity
  8
AM_9
100
AcDbLine
 10
-1.616275
 20
0.1779201828799803
 30
0.0
 11
-1.616275
 21
0.2741736522467462
 31
0.0
  0
LINE
  5
114
330
E9
100
AcDbEntity
  8
AM_9
100
AcDbLine
 10
-1.894975
 20
0.2741736522467463
 30
0.0
 11
-1.894975
 21
0.177938093507983
 31
0.0
  0
LWPOLYLINE
  5
115
330
E9
100
AcDbEntity
  8
AM_9
100
AcDbPolyline
 90
        4
 70
     0
 43
0.0
 10
-1.885829936953435
 20
0.2254314449107921
 10
-1.890484733749983
 20
0.2116000547472844
 10
-1.893828113114505
 20
0.1951118092326465
 10
-1.894975
 20
0.177938093507983
  0
LWPOLYLINE
  5
116
330
E9
100
AcDbEntity
  8
AM_9
100
AcDbPolyline
 90
        5
 70
     0
 43
0.0
 10
-1.616275000782309
 20
0.1779523561545125
 10
-1.616382583442806
 20
0.1832205698008683
 10
-1.619298522851645
 20
0.2056680316050617
 10
-1.625785245815456
 20
0.2263285440960785
 10
-1.62598932589029
 20
0.2268214204897562
  0
LINE
  5
117
330
E9
100
AcDbEntity
  8
AM_9
100
AcDbLine
 10
-0.0399999999999998
 20
0.9049999999999999
 30
0.0
 11
-0.055
 21
0.9199999999999999
 31
0.0
  0
LINE
  5
118
330
E9
100
AcDbEntity
  8
AM_9
100
AcDbLine
 10
-0.055
 20
-0.9199999999999999
 30
0.0
 11
-0.0399999999999998
 21
-0.9049999999999999
 31
0.0
  0
LINE
  5
119
330
E9
100
AcDbEntity
  8
AM_9
100
AcDbLine
 10
-0.0399999999999998
 20
0.9049999999999999
 30
0.0
 11
-0.0399999999999998
 21
-0.9049999999999999
 31
0.0
  0
LINE
  5
11A
330
E9
100
AcDbEntity
  8
AM_9
100
AcDbLine
 10
-1.22
 20
-0.92
 30
0.0
 11
-1.085
 21
-0.92
 31
0.0
  0
LINE
  5
11B
330
E9
100
AcDbEntity
  8
AM_9
100
AcDbLine
 10
-1.085
 20
0.92
 30
0.0
 11
-1.22
 21
0.92
 31
0.0
  0
LINE
  5
11C
330
E9
100
AcDbEntity
  8
AM_9
100
AcDbLine
 10
-0.335
 20
-0.9200000000000003
 30
0.0
 11
-0.055
 21
-0.9200000000000003
 31
0.0
  0
LINE
  5
11D
330
E9
100
AcDbEntity
  8
AM_9
100
AcDbLine
 10
-0.055
 20
0.9200000000000003
 30
0.0
 11
-0.335
 21
0.9200000000000003
 31
0.0
  0
LINE
  5
11E
330
E9
100
AcDbEntity
  8
AM_9
100
AcDbLine
 10
-0.055
 20
0.9200000000000003
 30
0.0
 11
-0.055
 21
-0.9200000000000003
 31
0.0
  0
LINE
  5
11F
330
E9
100
AcDbEntity
  8
AM_9
100
AcDbLine
 10
-0.95
 20
-1.349809523809524
 30
0.0
 11
-0.87
 21
-1.349809523809524
 31
0.0
  0
LINE
  5
120
330
E9
100
AcDbEntity
  8
AM_9
100
AcDbLine
 10
-0.87
 20
1.349809523809524
 30
0.0
 11
-0.95
 21
1.349809523809524
 31
0.0
  0
LINE
  5
121
330
E9
100
AcDbEntity
  8
AM_9
100
AcDbLine
 10
-1.085
 20
1.343717340068215
 30
0.0
 11
-1.085
 21
-1.343717340068215
 31
0.0
  0
ARC
  5
122
330
E9
100
AcDbEntity
  8
AM_9
100
AcDbCircle
 10
-1.055
 20
-1.343717340068215
 30
0.0
 40
0.0300000000000002
100
AcDbArc
 50
180.0
 51
255.6003189653793
  0
ARC
  5
123
330
E9
100
AcDbEntity
  8
AM_9
100
AcDbCircle
 10
-1.055
 20
1.343717340068215
 30
0.0
 40
0.0300000000000004
100
AcDbArc
 50
104.3996810346206
 51
180.0
  0
LINE
  5
124
330
E9
100
AcDbEntity
  8
AM_9
100
AcDbLine
 10
-0.335
 20
1.343717340068215
 30
0.0
 11
-0.335
 21
-1.343717340068215
 31
0.0
  0
ARC
  5
125
330
E9
100
AcDbEntity
  8
AM_9
100
AcDbCircle
 10
-0.3650000000000002
 20
-1.343717340068215
 30
0.0
 40
0.0300000000000004
100
AcDbArc
 50
284.3996785191662
 51
0.0000008537736463
  0
ARC
  5
126
330
E9
100
AcDbEntity
  8
AM_9
100
AcDbCircle
 10
-0.3650000000000002
 20
1.343717340068215
 30
0.0
 40
0.0300000000000002
100
AcDbArc
 50
0.0000008537736463
 51
75.60032148083378
  0
ARC
  5
127
330
E9
100
AcDbEntity
  8
AM_9
100
AcDbCircle
 10
-0.7099999999707397
 20
-0.0000000001369129
 30
0.0
 40
1.417300000139774
100
AcDbArc
 50
99.74921852514338
 51
104.3996810343912
  0
ARC
  5
128
330
E9
100
AcDbEntity
  8
AM_9
100
AcDbCircle
 10
-0.7099999999503036
 20
0.0000000002325291
 30
0.0
 40
1.417300000237389
100
AcDbArc
 50
255.600318965769
 51
260.2507814746963
  0
LINE
  5
129
330
E9
100
AcDbEntity
  8
AM_9
100
AcDbLine
 10
-1.06246053485187
 20
1.372774876435175
 30
0.0
 11
-1.06246053485187
 21
-1.372774876435092
 31
0.0
  0
LINE
  5
12A
330
E9
100
AcDbEntity
  8
AM_9
100
AcDbLine
 10
-0.95
 20
1.396831876068008
 30
0.0
 11
-0.95
 21
-1.396831876067925
 31
0.0
  0
ARC
  5
12B
330
E9
100
AcDbEntity
  8
AM_9
100
AcDbCircle
 10
-0.7099999999999815
 20
0.0000000000002145
 30
0.0
 40
1.41729999999978
100
AcDbArc
 50
75.60031901862244
 51
96.48197920051977
  0
ARC
  5
12C
330
E9
100
AcDbEntity
  8
AM_9
100
AcDbCircle
 10
-0.7100000000000555
 20
0.0000000000008249
 30
0.0
 40
1.417300000000799
100
AcDbArc
 50
263.5180207994879
 51
284.3996809813701
  0
LINE
  5
12D
330
E9
100
AcDbEntity
  8
AM_9
100
AcDbLine
 10
-0.87
 20
1.408239784269701
 30
0.0
 11
-0.87
 21
-1.408239784269696
 31
0.0
  0
LINE
  5
12E
330
E9
100
AcDbEntity
  8
AM_9
100
AcDbLine
 10
-0.3575394664238415
 20
1.372774876762825
 30
0.0
 11
-0.3575394664238415
 21
-1.372774876762819
 31
0.0
  0
ELLIPSE
  5
12F
330
E9
100
AcDbEntity
  8
AM_9
100
AcDbEllipse
 10
-0.5075232350073413
 20
-1.351326690525101
 30
0.0
 11
-0.1015874689237582
 21
-0.01522141330863671
 31
0.0
210
0.0
220
0.0
230
1.0
 40
0.2561501880760857
 41
0.0
 42
6.283185307179586
  0
ELLIPSE
  5
130
330
E9
100
AcDbEntity
  8
AM_4
100
AcDbEllipse
 10
-1.755624999999998
 20
0.2741736522467453
 30
0.0
 11
0.1393500000000019
 21
0.0
 31
0.0
210
0.0
220
0.0
230
1.0
 40
0.9659258262890686
 41
2.234228797474833
 42
4.048956509704745
  0
ELLIPSE
  5
131
330
E9
100
AcDbEntity
  8
AM_4
100
AcDbEllipse
 10
-1.755624999999998
 20
0.2741736522467451
 30
0.0
 11
0.1393499999999976
 21
0.0
 31
0.0
210
0.0
220
0.0
230
1.0
 40
0.9659258262890684
 41
5.375821451064611
 42
7.190549163294571
  0
LWPOLYLINE
  5
132
330
E9
100
AcDbEntity
  8
AM_4
100
AcDbPolyline
 90
       16
 70
     0
 43
0.0
 10
-1.62598932589029
 20
0.2268214204897562
 10
-1.636019208351771
 20
0.2460410017827676
 10
-1.649340074005188
 20
0.2634536244740278
 10
-1.666012712737708
 20
0.2788600613509892
 10
-1.6849924524935
 20
0.291230582779245
 10
-1.706607409369703
 20
0.3007052919286866
 10
-1.728905181834477
 20
0.3064859432881166
 10
-1.752670904819583
 20
0.308817783712702
 10
-1.775412948163605
 20
0.3075576054405563
 10
-1.79824072264893
 20
0.3027463333349109
 10
-1.819199285159958
 20
0.2947974248749085
 10
-1.838956218143846
 20
0.2834571724364764
 10
-1.856206183402597
 20
0.2693382555063056
 10
-1.871082375686003
 20
0.2521555019541182
 10
-1.882459740356941
 20
0.2330612509942181
 10
-1.885829936953435
 20
0.2254314449107921
  0
LINE
  5
133
330
E9
100
AcDbEntity
  8
AM_4
100
AcDbLine
 10
-1.45875
 20
-0.8761904761904761
 30
0.0
 11
-1.4275
 21
-0.8761904761904761
 31
0.0
  0
LINE
  5
134
330
E9
100
AcDbEntity
  8
AM_4
100
AcDbLine
 10
-1.4275
 20
0.8761904761904761
 30
0.0
 11
-1.45875
 21
0.8761904761904761
 31
0.0
  0
LINE
  5
135
330
E9
100
AcDbEntity
  8
AM_4
100
AcDbLine
 10
-1.4275
 20
-0.905
 30
0.0
 11
-1.4125
 21
-0.92
 31
0.0
  0
LINE
  5
136
330
E9
100
AcDbEntity
  8
AM_4
100
AcDbLine
 10
-1.4125
 20
0.92
 30
0.0
 11
-1.4275
 21
0.905
 31
0.0
  0
LINE
  5
137
330
E9
100
AcDbEntity
  8
AM_4
100
AcDbLine
 10
-1.4275
 20
0.905
 30
0.0
 11
-1.4275
 21
-0.905
 31
0.0
  0
LINE
  5
138
330
E9
100
AcDbEntity
  8
AM_4
100
AcDbLine
 10
-1.4125
 20
-0.92
 30
0.0
 11
-1.22
 21
-0.92
 31
0.0
  0
LINE
  5
139
330
E9
100
AcDbEntity
  8
AM_4
100
AcDbLine
 10
-1.22
 20
0.92
 30
0.0
 11
-1.4125
 21
0.92
 31
0.0
  0
LINE
  5
13A
330
E9
100
AcDbEntity
  8
AM_4
100
AcDbLine
 10
-1.4125
 20
0.92
 30
0.0
 11
-1.4125
 21
-0.92
 31
0.0
  0
LWPOLYLINE
  5
13B
330
E9
100
AcDbEntity
  8
AM_4
100
AcDbPolyline
 90
        9
 70
     0
 43
0.0
 10
-1.841440194240637
 20
0.3802241040490089
 10
-1.821856308620511
 20
0.3922219095941561
 10
-1.800405059711598
 20
0.400980775879899
 10
-1.777657790189631
 20
0.4062275969985531
 10
-1.754282686592592
 20
0.4078682787837684
 10
-1.731072423304522
 20
0.4058295712388509
 10
-1.708554020679987
 20
0.4002340628180282
 10
-1.688328270433485
 20
0.3916802904300766
 10
-1.669809805759363
 20
0.3802241040490089
  0
LWPOLYLINE
  5
13C
330
E9
100
AcDbEntity
  8
AM_4
100
AcDbPolyline
 90
       14
 70
     0
 43
0.0
 10
-1.669809805759363
 20
0.3802241040490089
 10
-1.657520629042711
 20
0.3712839224250556
 10
-1.646338559495993
 20
0.361116497995891
 10
-1.631488715269305
 20
0.342984305402158
 10
-1.620267402348351
 20
0.3225393092180053
 10
-1.613509071964079
 20
0.3016596956204494
 10
-1.610674845426008
 20
0.2798433876406721
 10
-1.611785936536253
 20
0.2589429873565144
 10
-1.616482582855826
 20
0.2384105465438933
 10
-1.624554491873395
 20
0.2189922626651903
 10
-1.63569200514446
 20
0.2010056676868729
 10
-1.650182204926839
 20
0.1842981231639921
 10
-1.667156601488835
 20
0.1699861148944902
 10
-1.669809805759363
 20
0.1681232004444837
  0
LWPOLYLINE
  5
13D
330
E9
100
AcDbEntity
  8
AM_4
100
AcDbPolyline
 90
        9
 70
     0
 43
0.0
 10
-1.669809805759363
 20
0.1681232004444836
 10
-1.689393691379488
 20
0.1553986122685645
 10
-1.710844940288401
 20
0.146055629015026
 10
-1.733592209810368
 20
0.1404383199318069
 10
-1.756967313407408
 20
0.1386772407754897
 10
-1.780177576695478
 20
0.1408650535336268
 10
-1.802695979320012
 20
0.1468538743969071
 10
-1.822921729566515
 20
0.1559747853339905
 10
-1.841440194240637
 20
0.1681232004444836
  0
LWPOLYLINE
  5
13E
330
E9
100
AcDbEntity
  8
AM_4
100
AcDbPolyline
 90
       14
 70
     0
 43
0.0
 10
-1.841440194240637
 20
0.1681232004444836
 10
-1.853729370957288
 20
0.1775511474507492
 10
-1.864911440504006
 20
0.1882179975010769
 10
-1.879761284730694
 20
0.2070953236656533
 10
-1.890982597651648
 20
0.2281649797116101
 10
-1.897740928035921
 20
0.2494454783836962
 10
-1.900575154573991
 20
0.2714365762488049
 10
-1.899464063463746
 20
0.2922676966504911
 10
-1.894767417144174
 20
0.3125162990116376
 10
-1.886695508126605
 20
0.3314669627328135
 10
-1.875557994855541
 20
0.3488536465128058
 10
-1.861067795073161
 20
0.3648590611481738
 10
-1.844093398511165
 20
0.3784610174847485
 10
-1.841440194240637
 20
0.3802241040490089
  0
LINE
  5
13F
330
E9
100
AcDbEntity
  8
AM_4
100
AcDbLine
 10
-1.9509375
 20
-1.065
 30
0.0
 11
-1.4978125
 21
-1.065
 31
0.0
  0
LINE
  5
140
330
E9
100
AcDbEntity
  8
AM_4
100
AcDbLine
 10
-1.4978125
 20
1.065
 30
0.0
 11
-1.9509375
 21
1.065
 31
0.0
  0
LINE
  5
141
330
E9
100
AcDbEntity
  8
AM_4
100
AcDbLine
 10
-1.45875
 20
1.0259375
 30
0.0
 11
-1.45875
 21
-1.0259375
 31
0.0
  0
ARC
  5
142
330
E9
100
AcDbEntity
  8
AM_4
100
AcDbCircle
 10
-1.4978125
 20
-1.0259375
 30
0.0
 40
0.0390625
100
AcDbArc
 50
270.0
 51
0.0
  0
ARC
  5
143
330
E9
100
AcDbEntity
  8
AM_4
100
AcDbCircle
 10
-1.4978125
 20
1.0259375
 30
0.0
 40
0.0390625
100
AcDbArc
 50
0.0
 51
90.0
  0
LINE
  5
144
330
E9
100
AcDbEntity
  8
AM_4
100
AcDbLine
 10
-1.4978125
 20
1.065
 30
0.0
 11
-1.4978125
 21
-1.065
 31
0.0
  0
LINE
  5
145
330
E9
100
AcDbEntity
  8
AM_4
100
AcDbLine
 10
-1.99
 20
1.0259375
 30
0.0
 11
-1.99
 21
-1.0259375
 31
0.0
  0
ARC
  5
146
330
E9
100
AcDbEntity
  8
AM_4
100
AcDbCircle
 10
-1.9509375
 20
-1.0259375
 30
0.0
 40
0.0390624999999996
100
AcDbArc
 50
180.0
 51
270.0
  0
ARC
  5
147
330
E9
100
AcDbEntity
  8
AM_4
100
AcDbCircle
 10
-1.9509375
 20
1.0259375
 30
0.0
 40
0.0390624999999996
100
AcDbArc
 50
90.0
 51
180.0
  0
LINE
  5
148
330
E9
100
AcDbEntity
  8
AM_4
100
AcDbLine
 10
-1.9509375
 20
1.065
 30
0.0
 11
-1.9509375
 21
-1.065
 31
0.0
  0
ENDBLK
  5
EC
330
E9
100
AcDbEntity
  8
0
100
AcDbBlockEnd
  0
BLOCK
  5
14B
330
149
100
AcDbEntity
  8
0
100
AcDbBlockBegin
  2
4_131065H_0_in_131065_2
 70
     2
 10
0.0
 20
0.0
 30
0.0
  3
4_131065H_0_in_131065_2
  1

  0
ATTDEF
  5
14D
330
149
100
AcDbEntity
  8
AM_6
100
AcDbText
 10
5.065975
 20
3.065
 30
0.0
 40
0.5
  1
F2B-SXR -Inch - housing
100
AcDbAttributeDefinition
  3

  2
NN
 70
     8
280
     0
  0
ATTDEF
  5
14E
330
149
100
AcDbEntity
  8
AM_6
100
AcDbText
 10
5.065975
 20
2.565
 30
0.0
 40
0.5
  1
Eccentric Collar 2 Bolt Flange Bearings -(Normal Duty)
100
AcDbAttributeDefinition
  3

  2
NT
 70
     8
280
     0
  0
ATTDEF
  5
14F
330
149
100
AcDbEntity
  8
AM_6
100
AcDbText
 10
5.065975
 20
2.065
 30
0.0
 40
0.5
  1
131065H
100
AcDbAttributeDefinition
  3

  2
NB
 70
     8
280
     0
  0
ATTDEF
  5
150
330
149
100
AcDbEntity
  8
AM_6
100
AcDbText
 10
5.065975
 20
1.565
 30
0.0
 40
0.5
  1
$PN.H
100
AcDbAttributeDefinition
  3

  2
NBSYN
 70
     8
280
     0
  0
ATTDEF
  5
151
330
149
100
AcDbEntity
  8
AM_6
100
AcDbText
 10
5.065975
 20
1.065
 30
0.0
 40
0.5
  1
131065
100
AcDbAttributeDefinition
  3

  2
LINA
 70
     8
280
     0
  0
ATTDEF
  5
152
330
149
100
AcDbEntity
  8
AM_6
100
AcDbText
 10
5.065975
 20
0.5649999999999995
 30
0.0
 40
0.5
  1
207
100
AcDbAttributeDefinition
  3

  2
SERIES
 70
     8
280
     0
  0
ATTDEF
  5
153
330
149
100
AcDbEntity
  8
AM_6
100
AcDbText
 10
5.065975
 20
0.0649999999999995
 30
0.0
 40
0.5
  1
1-3/8
100
AcDbAttributeDefinition
  3

  2
SS
 70
     8
280
     0
  0
ATTDEF
  5
154
330
149
100
AcDbEntity
  8
AM_6
100
AcDbText
 10
5.065975
 20
-0.4350000000000005
 30
0.0
 40
0.5
  1
131065
100
AcDbAttributeDefinition
  3

  2
PN
 70
     8
280
     0
  0
ATTDEF
  5
155
330
149
100
AcDbEntity
  8
AM_6
100
AcDbText
 10
5.065975
 20
-0.9350000000000005
 30
0.0
 40
0.5
  1
F2B-SXR-106
100
AcDbAttributeDefinition
  3

  2
DESCRIPTION
 70
     8
280
     0
  0
ATTDEF
  5
156
330
149
100
AcDbEntity
  8
AM_6
100
AcDbText
 10
5.065975
 20
-1.435
 30
0.0
 40
0.5
  1
RE-LUBE
100
AcDbAttributeDefinition
  3

  2
LF
 70
     8
280
     0
  0
ATTDEF
  5
157
330
149
100
AcDbEntity
  8
AM_6
100
AcDbText
 10
5.065975
 20
-1.935
 30
0.0
 40
0.5
  1
3.4
100
AcDbAttributeDefinition
  3

  2
W
 70
     8
280
     0
  0
ATTDEF
  5
158
330
149
100
AcDbEntity
  8
AM_6
100
AcDbText
 10
5.065975
 20
-2.435
 30
0.0
 40
0.5
  1
1.95
100
AcDbAttributeDefinition
  3

  2
A
 70
     8
280
     0
  0
ATTDEF
  5
159
330
149
100
AcDbEntity
  8
AM_6
100
AcDbText
 10
5.065975
 20
-2.935
 30
0.0
 40
0.5
  1
6.13
100
AcDbAttributeDefinition
  3

  2
B
 70
     8
280
     0
  0
ATTDEF
  5
15A
330
149
100
AcDbEntity
  8
AM_6
100
AcDbText
 10
5.065975
 20
-3.435
 30
0.0
 40
0.5
  1
1.99
100
AcDbAttributeDefinition
  3

  2
C
 70
     8
280
     0
  0
ATTDEF
  5
15B
330
149
100
AcDbEntity
  8
AM_6
100
AcDbText
 10
5.065975
 20
-3.935
 30
0.0
 40
0.5
  1
5.12
100
AcDbAttributeDefinition
  3

  2
D
 70
     8
280
     0
  0
ATTDEF
  5
15C
330
149
100
AcDbEntity
  8
AM_6
100
AcDbText
 10
5.065975
 20
-4.435
 30
0.0
 40
0.5
  1
1/2
100
AcDbAttributeDefinition
  3

  2
F
 70
     8
280
     0
  0
ATTDEF
  5
15D
330
149
100
AcDbEntity
  8
AM_6
100
AcDbText
 10
5.065975
 20
-4.935
 30
0.0
 40
0.5
  1
0.56
100
AcDbAttributeDefinition
  3

  2
H
 70
     8
280
     0
  0
ATTDEF
  5
15E
330
149
100
AcDbEntity
  8
AM_6
100
AcDbText
 10
5.065975
 20
-5.435
 30
0.0
 40
0.5
  1
0.77
100
AcDbAttributeDefinition
  3

  2
J
 70
     8
280
     0
  0
ATTDEF
  5
15F
330
149
100
AcDbEntity
  8
AM_6
100
AcDbText
 10
5.065975
 20
-5.935
 30
0.0
 40
0.5
  1
2.13
100
AcDbAttributeDefinition
  3

  2
L
 70
     8
280
     0
  0
ATTDEF
  5
160
330
149
100
AcDbEntity
  8
AM_6
100
AcDbText
 10
5.065975
 20
-6.435
 30
0.0
 40
0.5
  1
3.75
100
AcDbAttributeDefinition
  3

  2
M
 70
     8
280
     0
  0
ATTDEF
  5
161
330
149
100
AcDbEntity
  8
AM_6
100
AcDbText
 10
5.065975
 20
-6.935
 30
0.0
 40
0.5
  1
1.84
100
AcDbAttributeDefinition
  3

  2
N
 70
     8
280
     0
  0
ATTDEF
  5
162
330
149
100
AcDbEntity
  8
AM_6
100
AcDbText
 10
5.065975
 20
-7.435
 30
0.0
 40
0.5
  1
3065
100
AcDbAttributeDefinition
  3

  2
CAPS
 70
     8
280
     0
  0
ATTDEF
  5
163
330
149
100
AcDbEntity
  8
AM_6
100
AcDbText
 10
5.065975
 20
-7.935
 30
0.0
 40
0.5
  1
5759
100
AcDbAttributeDefinition
  3

  2
CAPD
 70
     8
280
     0
  0
ATTDEF
  5
164
330
149
100
AcDbEntity
  8
AM_6
100
AcDbText
 10
5.065975
 20
-8.435
 30
0.0
 40
0.5
  1
baldor
100
AcDbAttributeDefinition
  3

  2
COMPANY
 70
     8
280
     0
  0
LINE
  5
165
330
149
100
AcDbEntity
  8
AM_9
100
AcDbLine
 10
-0.793
 20
1.484061627922149
 30
0.0
 11
0.0
 21
1.484061627922149
 31
0.0
  0
LINE
  5
166
330
149
100
AcDbEntity
  8
AM_9
100
AcDbLine
 10
-0.793
 20
1.246810836578172
 30
0.0
 11
0.0
 21
1.246810836578172
 31
0.0
  0
LINE
  5
167
330
149
100
AcDbEntity
  8
AM_9
100
AcDbLine
 10
0.0
 20
1.48605
 30
0.0
 11
-0.793
 21
1.48605
 31
0.0
  0
LINE
  5
168
330
149
100
AcDbEntity
  8
AM_9
100
AcDbLine
 10
-0.56
 20
-2.81
 30
0.0
 11
0.0
 21
-2.81
 31
0.0
  0
LINE
  5
169
330
149
100
AcDbEntity
  8
AM_9
100
AcDbLine
 10
0.0
 20
-2.31
 30
0.0
 11
-0.56
 21
-2.31
 31
0.0
  0
LINE
  5
16A
330
149
100
AcDbEntity
  8
AM_9
100
AcDbLine
 10
-0.56
 20
2.31
 30
0.0
 11
0.0
 21
2.31
 31
0.0
  0
LINE
  5
16B
330
149
100
AcDbEntity
  8
AM_9
100
AcDbLine
 10
0.0
 20
2.81
 30
0.0
 11
-0.56
 21
2.81
 31
0.0
  0
LINE
  5
16C
330
149
100
AcDbEntity
  8
AM_9
100
AcDbLine
 10
-0.5599999999999998
 20
1.700824002903154
 30
0.0
 11
-0.5599999999999999
 21
1.779486760670654
 31
0.0
  0
LINE
  5
16D
330
149
100
AcDbEntity
  8
AM_9
100
AcDbLine
 10
-0.793
 20
-1.246810836578173
 30
0.0
 11
0.0
 21
-1.246810836578173
 31
0.0
  0
LINE
  5
16E
330
149
100
AcDbEntity
  8
AM_9
100
AcDbLine
 10
-0.793
 20
-1.484061627922149
 30
0.0
 11
0.0
 21
-1.484061627922149
 31
0.0
  0
LINE
  5
16F
330
149
100
AcDbEntity
  8
AM_9
100
AcDbLine
 10
-0.793
 20
-1.48605
 30
0.0
 11
0.0
 21
-1.48605
 31
0.0
  0
LINE
  5
170
330
149
100
AcDbEntity
  8
AM_9
100
AcDbLine
 10
-0.793
 20
-1.48605
 30
0.0
 11
-0.793
 21
-1.176821173050106
 31
0.0
  0
LINE
  5
171
330
149
100
AcDbEntity
  8
AM_9
100
AcDbLine
 10
-1.22
 20
1.607289748762533
 30
0.0
 11
-0.5039999999999999
 21
1.607289748762533
 31
0.0
  0
LINE
  5
172
330
149
100
AcDbEntity
  8
AM_9
100
AcDbLine
 10
-1.22
 20
1.578000426881188
 30
0.0
 11
-0.5039999999999999
 21
1.578000426881188
 31
0.0
  0
LINE
  5
173
330
149
100
AcDbEntity
  8
AM_9
100
AcDbLine
 10
0.0000000000000001
 20
1.661798624675719
 30
0.0
 11
-0.5039999999999999
 21
1.661798624675719
 31
0.0
  0
LINE
  5
174
330
149
100
AcDbEntity
  8
AM_9
100
AcDbLine
 10
-0.5040000000000001
 20
1.00341796875
 30
0.0
 11
-0.5039999999999999
 21
1.779486760670653
 31
0.0
  0
LINE
  5
175
330
149
100
AcDbEntity
  8
AM_9
100
AcDbLine
 10
-0.7503808355570459
 20
1.779486760670654
 30
0.0
 11
-1.029621636047686
 21
1.779486760670654
 31
0.0
  0
LINE
  5
176
330
149
100
AcDbEntity
  8
AM_9
100
AcDbLine
 10
0.0
 20
1.176821173050106
 30
0.0
 11
-0.793
 21
1.176821173050106
 31
0.0
  0
LINE
  5
177
330
149
100
AcDbEntity
  8
AM_9
100
AcDbLine
 10
-0.793
 20
1.414071964394084
 30
0.0
 11
0.0
 21
1.414071964394084
 31
0.0
  0
LINE
  5
178
330
149
100
AcDbEntity
  8
AM_9
100
AcDbLine
 10
0.0
 20
-1.176821173050106
 30
0.0
 11
-0.793
 21
-1.176821173050106
 31
0.0
  0
LINE
  5
179
330
149
100
AcDbEntity
  8
AM_9
100
AcDbLine
 10
-0.793
 20
-1.414071964394084
 30
0.0
 11
0.0
 21
-1.414071964394084
 31
0.0
  0
LINE
  5
17A
330
149
100
AcDbEntity
  8
AM_9
100
AcDbLine
 10
-1.22
 20
-1.4173
 30
0.0
 11
-0.793
 21
-1.4173
 31
0.0
  0
LINE
  5
17B
330
149
100
AcDbEntity
  8
AM_9
100
AcDbLine
 10
-0.793
 20
1.4173
 30
0.0
 11
-1.22
 21
1.4173
 31
0.0
  0
LINE
  5
17C
330
149
100
AcDbEntity
  8
AM_9
100
AcDbLine
 10
-0.793
 20
1.48605
 30
0.0
 11
-0.793
 21
1.176821173050106
 31
0.0
  0
LINE
  5
17D
330
149
100
AcDbEntity
  8
AM_9
100
AcDbLine
 10
-0.6900000000000001
 20
1.573420743492672
 30
0.0
 11
-0.6900000000000001
 21
1.574834957055045
 31
0.0
  0
LINE
  5
17E
330
149
100
AcDbEntity
  8
AM_9
100
AcDbLine
 10
-1.09
 20
1.574834957055045
 30
0.0
 11
-1.09
 21
1.573420743492672
 31
0.0
  0
ELLIPSE
  5
17F
330
149
100
AcDbEntity
  8
AM_9
100
AcDbEllipse
 10
-0.89
 20
1.574834957055045
 30
0.0
 11
0.1999999999999997
 21
0.0
 31
0.0
210
0.0
220
0.0
230
1.0
 40
0.707106781186547
 41
1.570796326794897
 42
6.283185307179586
  0
ELLIPSE
  5
180
330
149
100
AcDbEntity
  8
AM_9
100
AcDbEllipse
 10
-0.8900000000000001
 20
1.574834957055045
 30
0.0
 11
0.2000000000000001
 21
0.0
 31
0.0
210
0.0
220
0.0
230
1.0
 40
0.7071067811865481
 41
0.0
 42
1.570796326794897
  0
ELLIPSE
  5
181
330
149
100
AcDbEntity
  8
AM_9
100
AcDbEllipse
 10
-0.8899999999999999
 20
1.573420743492672
 30
0.0
 11
0.2
 21
0.0
 31
0.0
210
0.0
220
0.0
230
1.0
 40
0.7071067811865474
 41
4.71238898038469
 42
9.42477796076938
  0
ELLIPSE
  5
182
330
149
100
AcDbEntity
  8
AM_9
100
AcDbEllipse
 10
-0.8899999999999996
 20
1.573420743492672
 30
0.0
 11
0.2000000000000003
 21
0.0
 31
0.0
210
0.0
220
0.0
230
1.0
 40
0.7071067811865485
 41
3.141592653589793
 42
4.71238898038469
  0
LINE
  5
183
330
149
100
AcDbEntity
  8
AM_9
100
AcDbLine
 10
-1.056117666021739
 20
1.750197438789309
 30
0.0
 11
-0.7238777235041055
 21
1.750197438789309
 31
0.0
  0
LINE
  5
184
330
149
100
AcDbEntity
  8
AM_9
100
AcDbLine
 10
-1.22
 20
1.593038383492405
 30
0.0
 11
-0.5039999999999999
 21
1.593038383492405
 31
0.0
  0
LINE
  5
185
330
149
100
AcDbEntity
  8
AM_9
100
AcDbLine
 10
-0.5599999999999998
 20
1.700824002903154
 30
0.0
 11
-0.5039999999999999
 21
1.700824002903154
 31
0.0
  0
LINE
  5
186
330
149
100
AcDbEntity
  8
AM_9
100
AcDbLine
 10
-0.5040000000000001
 20
1.00341796875
 30
0.0
 11
-0.0000000000000001
 21
1.00341796875
 31
0.0
  0
LINE
  5
187
330
149
100
AcDbEntity
  8
AM_9
100
AcDbLine
 10
-0.8000402782051798
 20
1.874999999999999
 30
0.0
 11
-0.9799597217948202
 21
1.874999999999999
 31
0.0
  0
LINE
  5
18A
330
149
100
AcDbEntity
  8
AM_7
100
AcDbLine
 10
0.028
 20
2.56
 30
0.0
 11
-0.5880000000000001
 21
2.56
 31
0.0
  0
LINE
  5
18B
330
149
100
AcDbEntity
  8
AM_7
100
AcDbLine
 10
0.028
 20
-2.56
 30
0.0
 11
-0.5880000000000001
 21
-2.56
 31
0.0
  0
LINE
  5
18C
330
149
100
AcDbEntity
  8
AM_7
100
AcDbLine
 10
0.065975
 20
0.0
 30
0.0
 11
-2.0875
 21
0.0
 31
0.0
  0
LINE
  5
18D
330
149
100
AcDbEntity
  8
AM_4
100
AcDbLine
 10
-0.56
 20
-3.065000000000001
 30
0.0
 11
0.0
 21
-3.065000000000001
 31
0.0
  0
LINE
  5
18E
330
149
100
AcDbEntity
  8
AM_4
100
AcDbLine
 10
-0.56
 20
-3.065000000000001
 30
0.0
 11
-0.5599999999999999
 21
-1.700824002903156
 31
0.0
  0
LINE
  5
18F
330
149
100
AcDbEntity
  8
AM_4
100
AcDbLine
 10
-0.5599999999999999
 20
1.779486760670654
 30
0.0
 11
-0.56
 21
3.065
 31
0.0
  0
LINE
  5
190
330
149
100
AcDbEntity
  8
AM_4
100
AcDbLine
 10
0.0
 20
3.065
 30
0.0
 11
-0.56
 21
3.065
 31
0.0
  0
LINE
  5
191
330
149
100
AcDbEntity
  8
AM_4
100
AcDbLine
 10
-0.504
 20
-2.706962890624999
 30
0.0
 11
-0.56
 21
-2.706962890624999
 31
0.0
  0
LINE
  5
192
330
149
100
AcDbEntity
  8
AM_4
100
AcDbLine
 10
-0.504
 20
2.706962890625
 30
0.0
 11
-0.56
 21
2.706962890625
 31
0.0
  0
LINE
  5
193
330
149
100
AcDbEntity
  8
AM_4
100
AcDbLine
 10
-0.504
 20
2.83025390625
 30
0.0
 11
0.0
 21
2.83025390625
 31
0.0
  0
LINE
  5
194
330
149
100
AcDbEntity
  8
AM_4
100
AcDbLine
 10
-0.5039999999999999
 20
1.779486760670653
 30
0.0
 11
-0.504
 21
2.83025390625
 31
0.0
  0
LINE
  5
195
330
149
100
AcDbEntity
  8
AM_4
100
AcDbLine
 10
-1.029621636047686
 20
1.779486760670654
 30
0.0
 11
-1.22
 21
1.779486760670654
 31
0.0
  0
LINE
  5
196
330
149
100
AcDbEntity
  8
AM_4
100
AcDbLine
 10
0.0000000000000001
 20
1.779486760670654
 30
0.0
 11
-0.7503808355570459
 21
1.779486760670654
 31
0.0
  0
LINE
  5
197
330
149
100
AcDbEntity
  8
AM_4
100
AcDbLine
 10
-0.504
 20
-2.830253906249992
 30
0.0
 11
-0.5039999999999999
 21
-1.003417968749997
 31
0.0
  0
LINE
  5
198
330
149
100
AcDbEntity
  8
AM_4
100
AcDbLine
 10
-0.504
 20
-2.830253906249992
 30
0.0
 11
0.0
 21
-2.830253906249999
 31
0.0
  0
LINE
  5
199
330
149
100
AcDbEntity
  8
AM_4
100
AcDbLine
 10
-0.7238777235041055
 20
1.750197438789309
 30
0.0
 11
0.0000000000000001
 21
1.750197438789309
 31
0.0
  0
LINE
  5
19A
330
149
100
AcDbEntity
  8
AM_4
100
AcDbLine
 10
-1.22
 20
1.750197438789309
 30
0.0
 11
-1.056117666021739
 21
1.750197438789309
 31
0.0
  0
LINE
  5
19B
330
149
100
AcDbEntity
  8
AM_4
100
AcDbLine
 10
-1.22
 20
1.11231500193195
 30
0.0
 11
0.0000000000000001
 21
1.11231500193195
 31
0.0
  0
LINE
  5
19C
330
149
100
AcDbEntity
  8
AM_4
100
AcDbLine
 10
-1.22
 20
1.396644048196035
 30
0.0
 11
0.0000000000000001
 21
1.396644048196035
 31
0.0
  0
LINE
  5
19D
330
149
100
AcDbEntity
  8
AM_4
100
AcDbLine
 10
-1.22
 20
1.255222691958725
 30
0.0
 11
0.0000000000000001
 21
1.255222691958725
 31
0.0
  0
LINE
  5
19E
330
149
100
AcDbEntity
  8
AM_4
100
AcDbLine
 10
-0.5039999999999999
 20
-1.700824002903156
 30
0.0
 11
-0.5599999999999999
 21
-1.700824002903156
 31
0.0
  0
LINE
  5
19F
330
149
100
AcDbEntity
  8
AM_4
100
AcDbLine
 10
-0.5039999999999999
 20
-1.003417968749997
 30
0.0
 11
0.0000000000000001
 21
-1.003417968749997
 31
0.0
  0
LINE
  5
1A0
330
149
100
AcDbEntity
  8
AM_4
100
AcDbLine
 10
0.0
 20
-3.065000000000001
 30
0.0
 11
0.0
 21
3.065
 31
0.0
  0
LINE
  5
1A1
330
149
100
AcDbEntity
  8
AM_4
100
AcDbLine
 10
-1.22
 20
0.9888648643797117
 30
0.0
 11
0.0000000000000001
 21
0.9888648643797117
 31
0.0
  0
LINE
  5
1A2
330
149
100
AcDbEntity
  8
AM_4
100
AcDbLine
 10
-1.22
 20
-1.875000000000001
 30
0.0
 11
-0.56
 21
-1.875000000000001
 31
0.0
  0
LINE
  5
1A3
330
149
100
AcDbEntity
  8
AM_4
100
AcDbLine
 10
-0.9799597217948202
 20
1.874999999999999
 30
0.0
 11
-1.22
 21
1.874999999999999
 31
0.0
  0
LINE
  5
1A4
330
149
100
AcDbEntity
  8
AM_4
100
AcDbLine
 10
-0.56
 20
1.874999999999999
 30
0.0
 11
-0.8000402782051798
 21
1.874999999999999
 31
0.0
  0
LINE
  5
1A5
330
149
100
AcDbEntity
  8
AM_4
100
AcDbLine
 10
-1.22
 20
-1.875000000000001
 30
0.0
 11
-1.22
 21
1.874999999999999
 31
0.0
  0
ENDBLK
  5
14C
330
149
100
AcDbEntity
  8
0
100
AcDbBlockEnd
  0
ENDSEC
  0
SECTION
  2
ENTITIES
  0
INSERT
  5
6F
330
1F
100
AcDbEntity
  8
0
100
AcDbBlockReference
  2
1_131065_2
 10
0.0
 20
0.0
 30
0.0
  0
POINT
  5
1A7
330
1F
100
AcDbEntity
  8
ConnectionPoints
100
AcDbPoint
 10
-0.71
 20
0.0
 30
0.0
  0
POINT
  5
1A8
330
1F
100
AcDbEntity
  8
ConnectionPoints
100
AcDbPoint
 10
-1.99
 20
0.0
 30
0.0000000000000001
  0
POINT
  5
1A9
330
1F
100
AcDbEntity
  8
ConnectionPoints
100
AcDbPoint
 10
-0.8899999999999999
 20
1.301076477383247
 30
1.301076477383247
  0
POINT
  5
1AA
330
1F
100
AcDbEntity
  8
ConnectionPoints
100
AcDbPoint
 10
-0.8899999999999999
 20
1.574834957055045
 30
1.574834957055045
  0
POINT
  5
1AB
330
1F
100
AcDbEntity
  8
ConnectionPoints
100
AcDbPoint
 10
-1.99
 20
0.0
 30
0.0000000000000001
  0
ENDSEC
  0
SECTION
  2
OBJECTS
  0
DICTIONARY
  5
C
330
0
100
AcDbDictionary
281
     1
  3
ACAD_DETAILVIEWSTYLE
350
1B3
  3
ACAD_GROUP
350
D
  3
ACAD_LAYOUT
350
1A
  3
ACAD_MATERIAL
350
43
  3
ACAD_MLEADERSTYLE
350
6B
  3
ACAD_MLINESTYLE
350
17
  3
ACAD_PLOTSETTINGS
350
19
  3
ACAD_PLOTSTYLENAME
350
E
  3
ACAD_SCALELIST
350
47
  3
ACAD_SECTIONVIEWSTYLE
350
1B4
  3
ACAD_TABLESTYLE
350
69
  3
ACAD_VISUALSTYLE
350
2A
  3
ACDB_RECOMPOSE_DATA
350
1B0
  3
AcDbVariableDictionary
350
1AC
  0
SUN
  5
6D
330
29
100
AcDbSun
 90
        1
290
     0
 63
     7
421
 16777215
 40
1.0
291
     1
 91
  2455826
 92
 54000000
292
     0
 70
     2
 71
   256
280
     1
  0
DICTIONARY
  5
1B3
102
{ACAD_REACTORS
330
C
102
}
330
C
100
AcDbDictionary
281
     1
  0
DICTIONARY
  5
D
102
{ACAD_REACTORS
330
C
102
}
330
C
100
AcDbDictionary
281
     1
  0
DICTIONARY
  5
1A
102
{ACAD_REACTORS
330
C
102
}
330
C
100
AcDbDictionary
281
     1
  3
Layout1
350
1E
  3
Layout2
350
26
  3
Model
350
22
  0
DICTIONARY
  5
43
102
{ACAD_REACTORS
330
C
102
}
330
C
100
AcDbDictionary
281
     1
  3
ByBlock
350
45
  3
ByLayer
350
44
  3
Global
350
46
  0
DICTIONARY
  5
6B
102
{ACAD_REACTORS
330
C
102
}
330
C
100
AcDbDictionary
281
     1
  3
Standard
350
6C
  0
DICTIONARY
  5
17
102
{ACAD_REACTORS
330
C
102
}
330
C
100
AcDbDictionary
281
     1
  3
Standard
350
18
  0
DICTIONARY
  5
19
102
{ACAD_REACTORS
330
C
102
}
330
C
100
AcDbDictionary
281
     1
  0
ACDBDICTIONARYWDFLT
  5
E
102
{ACAD_REACTORS
330
C
102
}
330
C
100
AcDbDictionary
281
     1
  3
Normal
350
F
100
AcDbDictionaryWithDefault
340
F
  0
DICTIONARY
  5
47
102
{ACAD_REACTORS
330
C
102
}
330
C
100
AcDbDictionary
281
     1
  3
A0
350
48
  3
A1
350
49
  3
A2
350
4A
  3
A3
350
4B
  3
A4
350
4C
  3
A5
350
4D
  3
A6
350
4E
  3
A7
350
4F
  3
A8
350
50
  3
A9
350
51
  3
B0
350
52
  3
B1
350
53
  3
B2
350
54
  3
B3
350
55
  3
B4
350
56
  3
B5
350
57
  3
B6
350
58
  3
B7
350
59
  3
B8
350
5A
  3
B9
350
5B
  3
C0
350
5C
  3
C1
350
5D
  3
C2
350
5E
  3
C3
350
5F
  3
C4
350
60
  3
C5
350
61
  3
C6
350
62
  3
C7
350
63
  3
C8
350
64
  3
C9
350
65
  3
D0
350
66
  3
D1
350
67
  3
D2
350
68
  0
DICTIONARY
  5
1B4
102
{ACAD_REACTORS
330
C
102
}
330
C
100
AcDbDictionary
281
     1
  0
DICTIONARY
  5
69
102
{ACAD_REACTORS
330
C
102
}
330
C
100
AcDbDictionary
281
     1
  3
Standard
350
6A
  0
DICTIONARY
  5
2A
102
{ACAD_REACTORS
330
C
102
}
330
C
100
AcDbDictionary
281
     1
  3
2dWireframe
350
2F
  3
Basic
350
32
  3
Brighten
350
36
  3
ColorChange
350
3A
  3
Conceptual
350
34
  3
Dim
350
35
  3
EdgeColorOff
350
3D
  3
Facepattern
350
39
  3
Flat
350
2B
  3
FlatWithEdges
350
2C
  3
Gouraud
350
2D
  3
GouraudWithEdges
350
2E
  3
Hidden
350
31
  3
JitterOff
350
3B
  3
Linepattern
350
38
  3
OverhangOff
350
3C
  3
Realistic
350
33
  3
Shaded
350
42
  3
Shaded with edges
350
41
  3
Shades of Gray
350
3E
  3
Sketchy
350
3F
  3
Thicken
350
37
  3
Wireframe
350
30
  3
X-Ray
350
40
  0
XRECORD
  5
1B0
102
{ACAD_REACTORS
330
C
102
}
330
C
100
AcDbXrecord
280
     1
 90
        1
330
6A
  0
DICTIONARY
  5
1AC
102
{ACAD_REACTORS
330
C
102
}
330
C
100
AcDbDictionary
281
     1
  3
CANNOSCALE
350
1AD
  3
CMLEADERSTYLE
350
1B2
  3
CTABLESTYLE
350
1B1
  0
LAYOUT
  5
1E
102
{ACAD_REACTORS
330
1A
102
}
330
1A
100
AcDbPlotSettings
  1

  2
none_device
  4

  6

 40
0.0
 41
0.0
 42
0.0
 43
0.0
 44
0.0
 45
0.0
 46
0.0
 47
0.0
 48
0.0
 49
0.0
140
0.0
141
0.0
142
1.0
143
1.0
 70
   688
 72
     0
 73
     0
 74
     5
  7

 75
    16
 76
     0
 77
     2
 78
   300
147
1.0
148
0.0
149
0.0
100
AcDbLayout
  1
Layout1
 70
     1
 71
     1
 10
0.0
 20
0.0
 11
12.0
 21
9.0
 12
0.0
 22
0.0
 32
0.0
 14
1.000000000000000E+20
 24
1.000000000000000E+20
 34
1.000000000000000E+20
 15
-1.000000000000000E+20
 25
-1.000000000000000E+20
 35
-1.000000000000000E+20
146
0.0
 13
0.0
 23
0.0
 33
0.0
 16
1.0
 26
0.0
 36
0.0
 17
0.0
 27
1.0
 37
0.0
 76
     0
330
1B
  0
LAYOUT
  5
26
102
{ACAD_REACTORS
330
1A
102
}
330
1A
100
AcDbPlotSettings
  1

  2
none_device
  4

  6

 40
0.0
 41
0.0
 42
0.0
 43
0.0
 44
0.0
 45
0.0
 46
0.0
 47
0.0
 48
0.0
 49
0.0
140
0.0
141
0.0
142
1.0
143
1.0
 70
   688
 72
     0
 73
     0
 74
     5
  7

 75
    16
 76
     0
 77
     2
 78
   300
147
1.0
148
0.0
149
0.0
100
AcDbLayout
  1
Layout2
 70
     1
 71
     2
 10
0.0
 20
0.0
 11
0.0
 21
0.0
 12
0.0
 22
0.0
 32
0.0
 14
0.0
 24
0.0
 34
0.0
 15
0.0
 25
0.0
 35
0.0
146
0.0
 13
0.0
 23
0.0
 33
0.0
 16
1.0
 26
0.0
 36
0.0
 17
0.0
 27
1.0
 37
0.0
 76
     0
330
23
  0
LAYOUT
  5
22
102
{ACAD_REACTORS
330
1A
102
}
330
1A
100
AcDbPlotSettings
  1

  2
none_device
  4
Letter_(8.50_x_11.00_Inches)
  6

 40
6.35
 41
6.35
 42
6.35000508
 43
6.35000508
 44
215.9
 45
279.4
 46
0.0
 47
0.0
 48
0.0
 49
0.0
140
0.0
141
0.0
142
1.0
143
1.0
 70
  1712
 72
     0
 73
     0
 74
     0
  7

 75
     0
 76
     0
 77
     2
 78
   300
147
1.0
148
0.0
149
0.0
100
AcDbLayout
  1
Model
 70
     1
 71
     0
 10
0.0
 20
0.0
 11
12.0
 21
9.0
 12
0.0
 22
0.0
 32
0.0
 14
1.000000000000000E+20
 24
1.000000000000000E+20
 34
1.000000000000000E+20
 15
-1.000000000000000E+20
 25
-1.000000000000000E+20
 35
-1.000000000000000E+20
146
0.0
 13
0.0
 23
0.0
 33
0.0
 16
1.0
 26
0.0
 36
0.0
 17
0.0
 27
1.0
 37
0.0
 76
     0
330
1F
331
29
  0
MATERIAL
  5
45
102
{ACAD_REACTORS
330
43
102
}
330
43
100
AcDbMaterial
  1
ByBlock
 72
     1
 94
      127
  0
MATERIAL
  5
44
102
{ACAD_REACTORS
330
43
102
}
330
43
100
AcDbMaterial
  1
ByLayer
 72
     1
 94
      127
  0
MATERIAL
  5
46
102
{ACAD_REACTORS
330
43
102
}
330
43
100
AcDbMaterial
  1
Global
 72
     1
 94
      127
  0
MLEADERSTYLE
  5
6C
102
{ACAD_REACTORS
330
6B
102
}
330
6B
100
AcDbMLeaderStyle
179
     2
170
     2
171
     1
172
     0
 90
        2
 40
0.0
 41
0.0
173
     1
 91
-1056964608
340
14
 92
       -2
290
     1
 42
0.09
291
     1
 43
0.36
  3
Standard
341
0
 44
0.18
300

342
11
174
     1
178
     6
175
     1
176
     0
 93
-1056964608
 45
0.18
292
     0
297
     0
 46
0.18
343
0
 94
-1056964608
 47
1.0
 49
1.0
140
1.0
293
     1
141
0.0
294
     1
177
     0
142
1.0
295
     0
296
     0
143
0.125
271
     0
272
     9
273
     9
298
     0
  0
MLINESTYLE
  5
18
102
{ACAD_REACTORS
330
17
102
}
330
17
100
AcDbMlineStyle
  2
Standard
 70
     0
  3

 62
   256
 51
90.0
 52
90.0
 71
     2
 49
0.5
 62
   256
  6
BYLAYER
 49
-0.5
 62
   256
  6
BYLAYER
  0
ACDBPLACEHOLDER
  5
F
102
{ACAD_REACTORS
330
E
102
}
330
E
  0
SCALE
  5
48
102
{ACAD_REACTORS
330
47
102
}
330
47
100
AcDbScale
 70
     0
300
1:1
140
1.0
141
1.0
290
     1
  0
SCALE
  5
49
102
{ACAD_REACTORS
330
47
102
}
330
47
100
AcDbScale
 70
     0
300
1:2
140
1.0
141
2.0
290
     0
  0
SCALE
  5
4A
102
{ACAD_REACTORS
330
47
102
}
330
47
100
AcDbScale
 70
     0
300
1:4
140
1.0
141
4.0
290
     0
  0
SCALE
  5
4B
102
{ACAD_REACTORS
330
47
102
}
330
47
100
AcDbScale
 70
     0
300
1:5
140
1.0
141
5.0
290
     0
  0
SCALE
  5
4C
102
{ACAD_REACTORS
330
47
102
}
330
47
100
AcDbScale
 70
     0
300
1:8
140
1.0
141
8.0
290
     0
  0
SCALE
  5
4D
102
{ACAD_REACTORS
330
47
102
}
330
47
100
AcDbScale
 70
     0
300
1:10
140
1.0
141
10.0
290
     0
  0
SCALE
  5
4E
102
{ACAD_REACTORS
330
47
102
}
330
47
100
AcDbScale
 70
     0
300
1:16
140
1.0
141
16.0
290
     0
  0
SCALE
  5
4F
102
{ACAD_REACTORS
330
47
102
}
330
47
100
AcDbScale
 70
     0
300
1:20
140
1.0
141
20.0
290
     0
  0
SCALE
  5
50
102
{ACAD_REACTORS
330
47
102
}
330
47
100
AcDbScale
 70
     0
300
1:30
140
1.0
141
30.0
290
     0
  0
SCALE
  5
51
102
{ACAD_REACTORS
330
47
102
}
330
47
100
AcDbScale
 70
     0
300
1:40
140
1.0
141
40.0
290
     0
  0
SCALE
  5
52
102
{ACAD_REACTORS
330
47
102
}
330
47
100
AcDbScale
 70
     0
300
1:50
140
1.0
141
50.0
290
     0
  0
SCALE
  5
53
102
{ACAD_REACTORS
330
47
102
}
330
47
100
AcDbScale
 70
     0
300
1:100
140
1.0
141
100.0
290
     0
  0
SCALE
  5
54
102
{ACAD_REACTORS
330
47
102
}
330
47
100
AcDbScale
 70
     0
300
2:1
140
2.0
141
1.0
290
     0
  0
SCALE
  5
55
102
{ACAD_REACTORS
330
47
102
}
330
47
100
AcDbScale
 70
     0
300
4:1
140
4.0
141
1.0
290
     0
  0
SCALE
  5
56
102
{ACAD_REACTORS
330
47
102
}
330
47
100
AcDbScale
 70
     0
300
8:1
140
8.0
141
1.0
290
     0
  0
SCALE
  5
57
102
{ACAD_REACTORS
330
47
102
}
330
47
100
AcDbScale
 70
     0
300
10:1
140
10.0
141
1.0
290
     0
  0
SCALE
  5
58
102
{ACAD_REACTORS
330
47
102
}
330
47
100
AcDbScale
 70
     0
300
100:1
140
100.0
141
1.0
290
     0
  0
SCALE
  5
59
102
{ACAD_REACTORS
330
47
102
}
330
47
100
AcDbScale
 70
     0
300
1/128" = 1'-0"
140
0.0078125
141
12.0
290
     0
  0
SCALE
  5
5A
102
{ACAD_REACTORS
330
47
102
}
330
47
100
AcDbScale
 70
     0
300
1/64" = 1'-0"
140
0.015625
141
12.0
290
     0
  0
SCALE
  5
5B
102
{ACAD_REACTORS
330
47
102
}
330
47
100
AcDbScale
 70
     0
300
1/32" = 1'-0"
140
0.03125
141
12.0
290
     0
  0
SCALE
  5
5C
102
{ACAD_REACTORS
330
47
102
}
330
47
100
AcDbScale
 70
     0
300
1/16" = 1'-0"
140
0.0625
141
12.0
290
     0
  0
SCALE
  5
5D
102
{ACAD_REACTORS
330
47
102
}
330
47
100
AcDbScale
 70
     0
300
3/32" = 1'-0"
140
0.09375
141
12.0
290
     0
  0
SCALE
  5
5E
102
{ACAD_REACTORS
330
47
102
}
330
47
100
AcDbScale
 70
     0
300
1/8" = 1'-0"
140
0.125
141
12.0
290
     0
  0
SCALE
  5
5F
102
{ACAD_REACTORS
330
47
102
}
330
47
100
AcDbScale
 70
     0
300
3/16" = 1'-0"
140
0.1875
141
12.0
290
     0
  0
SCALE
  5
60
102
{ACAD_REACTORS
330
47
102
}
330
47
100
AcDbScale
 70
     0
300
1/4" = 1'-0"
140
0.25
141
12.0
290
     0
  0
SCALE
  5
61
102
{ACAD_REACTORS
330
47
102
}
330
47
100
AcDbScale
 70
     0
300
3/8" = 1'-0"
140
0.375
141
12.0
290
     0
  0
SCALE
  5
62
102
{ACAD_REACTORS
330
47
102
}
330
47
100
AcDbScale
 70
     0
300
1/2" = 1'-0"
140
0.5
141
12.0
290
     0
  0
SCALE
  5
63
102
{ACAD_REACTORS
330
47
102
}
330
47
100
AcDbScale
 70
     0
300
3/4" = 1'-0"
140
0.75
141
12.0
290
     0
  0
SCALE
  5
64
102
{ACAD_REACTORS
330
47
102
}
330
47
100
AcDbScale
 70
     0
300
1" = 1'-0"
140
1.0
141
12.0
290
     0
  0
SCALE
  5
65
102
{ACAD_REACTORS
330
47
102
}
330
47
100
AcDbScale
 70
     0
300
1-1/2" = 1'-0"
140
1.5
141
12.0
290
     0
  0
SCALE
  5
66
102
{ACAD_REACTORS
330
47
102
}
330
47
100
AcDbScale
 70
     0
300
3" = 1'-0"
140
3.0
141
12.0
290
     0
  0
SCALE
  5
67
102
{ACAD_REACTORS
330
47
102
}
330
47
100
AcDbScale
 70
     0
300
6" = 1'-0"
140
6.0
141
12.0
290
     0
  0
SCALE
  5
68
102
{ACAD_REACTORS
330
47
102
}
330
47
100
AcDbScale
 70
     0
300
1'-0" = 1'-0"
140
12.0
141
12.0
290
     0
  0
TABLESTYLE
  5
6A
102
{ACAD_REACTORS
330
69
102
}
102
{ACAD_XDICTIONARY
360
1AE
102
}
330
69
100
AcDbTableStyle
  3
Standard
 70
     0
 71
     0
 40
0.06
 41
0.06
280
     0
281
     0
  7
Standard
140
0.18
170
     2
 62
     0
 63
   257
283
     0
 90
        4
 91
        0
  1

274
    -2
284
     1
 64
     0
275
    -2
285
     1
 65
     0
276
    -2
286
     1
 66
     0
277
    -2
287
     1
 67
     0
278
    -2
288
     1
 68
     0
279
    -2
289
     1
 69
     0
  7
Standard
140
0.25
170
     5
 62
     0
 63
   257
283
     0
 90
        4
 91
        0
  1

274
    -2
284
     1
 64
     0
275
    -2
285
     1
 65
     0
276
    -2
286
     1
 66
     0
277
    -2
287
     1
 67
     0
278
    -2
288
     1
 68
     0
279
    -2
289
     1
 69
     0
  7
Standard
140
0.18
170
     5
 62
     0
 63
   257
283
     0
 90
        4
 91
        0
  1

274
    -2
284
     1
 64
     0
275
    -2
285
     1
 65
     0
276
    -2
286
     1
 66
     0
277
    -2
287
     1
 67
     0
278
    -2
288
     1
 68
     0
279
    -2
289
     1
 69
     0
  0
VISUALSTYLE
  5
2F
102
{ACAD_REACTORS
330
2A
102
}
330
2A
100
AcDbVisualStyle
  2
2dWireframe
 70
     4
177
     3
291
     0
 70
    58
 90
        0
176
     1
 90
        2
176
     1
 90
        0
176
     1
 90
        0
176
     1
 40
0.6
176
     1
 40
30.0
176
     1
 62
     7
420
 16777215
176
     1
 90
        1
176
     1
 90
        4
176
     1
 62
     7
176
     1
 62
   257
176
     1
 90
        1
176
     1
 90
        1
176
     1
 40
1.0
176
     1
 90
        0
176
     1
 62
   257
176
     1
 40
1.0
176
     1
 90
        1
176
     1
 90
        6
176
     1
 90
        2
176
     1
 62
     7
176
     1
 90
        5
176
     1
 90
        0
176
     1
 90
        0
176
     1
290
     0
176
     1
 90
        1
176
     1
 40
0.0
176
     1
 90
        0
176
     1
290
     1
176
     1
290
     1
176
     1
290
     0
176
     1
290
     0
176
     1
290
     0
176
     1
290
     0
176
     1
290
     0
176
     1
290
     0
176
     1
290
     0
176
     1
 90
       50
176
     1
 40
0.0
176
     1
 40
1.0
176
     1
 90
        0
176
     1
 62
    18
420
        0
176
     1
 90
       50
176
     1
 90
        3
176
     1
 62
     5
420
      255
176
     1
290
     0
176
     1
 90
       50
176
     1
 90
       50
176
     1
 90
       50
176
     1
290
     0
176
     1
 90
       50
176
     1
 62
   256
176
     0
 40
1.0
176
     0
 90
        2
176
     1
  1
strokes_ogs.tif
176
     1
290
     0
176
     1
 40
1.0
176
     1
 40
1.0
176
     1
  0
VISUALSTYLE
  5
32
102
{ACAD_REACTORS
330
2A
102
}
330
2A
100
AcDbVisualStyle
  2
Basic
 70
     7
177
     3
291
     1
 70
    58
 90
        1
176
     1
 90
        0
176
     1
 90
        1
176
     1
 90
        0
176
     1
 40
0.6
176
     1
 40
30.0
176
     1
 62
     7
420
 16777215
176
     1
 90
        0
176
     1
 90
        4
176
     1
 62
     7
176
     1
 62
   257
176
     1
 90
        1
176
     1
 90
        1
176
     1
 40
1.0
176
     1
 90
        8
176
     1
 62
     7
176
     1
 40
1.0
176
     1
 90
        1
176
     1
 90
        6
176
     1
 90
        2
176
     1
 62
     7
176
     1
 90
        5
176
     1
 90
        0
176
     1
 90
        0
176
     1
290
     0
176
     1
 90
        1
176
     1
 40
0.0
176
     1
 90
        0
176
     1
290
     0
176
     1
290
     1
176
     1
290
     1
176
     1
290
     0
176
     1
290
     0
176
     1
290
     0
176
     1
290
     0
176
     1
290
     0
176
     1
290
     0
176
     1
 90
       50
176
     1
 40
0.0
176
     1
 40
1.0
176
     1
 90
        0
176
     1
 62
    18
420
        0
176
     1
 90
       50
176
     1
 90
        3
176
     1
 62
     5
420
      255
176
     1
290
     0
176
     1
 90
       50
176
     1
 90
       50
176
     1
 90
       50
176
     1
290
     0
176
     1
 90
       50
176
     1
 62
   256
176
     0
 40
1.0
176
     0
 90
        2
176
     1
  1
strokes_ogs.tif
176
     1
290
     0
176
     1
 40
1.0
176
     1
 40
1.0
176
     1
  0
VISUALSTYLE
  5
36
102
{ACAD_REACTORS
330
2A
102
}
330
2A
100
AcDbVisualStyle
  2
Brighten
 70
    12
177
     3
291
     1
 70
    58
 90
        2
176
     1
 90
        2
176
     1
 90
        0
176
     1
 90
        0
176
     1
 40
0.6
176
     1
 40
30.0
176
     1
 62
     7
420
 16777215
176
     1
 90
        1
176
     1
 90
        4
176
     1
 62
     7
176
     1
 62
   257
176
     1
 90
        1
176
     1
 90
        1
176
     1
 40
1.0
176
     1
 90
        8
176
     1
 62
     7
176
     1
 40
1.0
176
     1
 90
        1
176
     1
 90
        6
176
     1
 90
        2
176
     1
 62
     7
176
     1
 90
        5
176
     1
 90
        0
176
     1
 90
        0
176
     1
290
     0
176
     1
 90
        1
176
     1
 40
50.0
176
     1
 90
        0
176
     1
290
     0
176
     1
290
     1
176
     1
290
     1
176
     1
290
     0
176
     1
290
     0
176
     1
290
     0
176
     1
290
     0
176
     1
290
     0
176
     1
290
     0
176
     1
 90
       50
176
     1
 40
0.0
176
     1
 40
1.0
176
     1
 90
        0
176
     1
 62
    18
420
        0
176
     1
 90
       50
176
     1
 90
        3
176
     1
 62
     5
420
      255
176
     1
290
     0
176
     1
 90
       50
176
     1
 90
       50
176
     1
 90
       50
176
     1
290
     0
176
     1
 90
       50
176
     1
 62
   256
176
     0
 40
1.0
176
     0
 90
        2
176
     1
  1
strokes_ogs.tif
176
     1
290
     0
176
     1
 40
1.0
176
     1
 40
1.0
176
     1
  0
VISUALSTYLE
  5
3A
102
{ACAD_REACTORS
330
2A
102
}
330
2A
100
AcDbVisualStyle
  2
ColorChange
 70
    16
177
     3
291
     1
 70
    58
 90
        2
176
     1
 90
        2
176
     1
 90
        3
176
     1
 90
        0
176
     1
 40
0.6
176
     1
 40
30.0
176
     1
 62
     8
420
  8421504
176
     1
 90
        1
176
     1
 90
        4
176
     1
 62
     7
176
     1
 62
   257
176
     1
 90
        1
176
     1
 90
        1
176
     1
 40
1.0
176
     1
 90
        8
176
     1
 62
     8
420
  8421504
176
     1
 40
1.0
176
     1
 90
        1
176
     1
 90
        6
176
     1
 90
        2
176
     1
 62
     7
176
     1
 90
        5
176
     1
 90
        0
176
     1
 90
        0
176
     1
290
     0
176
     1
 90
        1
176
     1
 40
0.0
176
     1
 90
        0
176
     1
290
     0
176
     1
290
     1
176
     1
290
     1
176
     1
290
     0
176
     1
290
     0
176
     1
290
     0
176
     1
290
     0
176
     1
290
     0
176
     1
290
     0
176
     1
 90
       50
176
     1
 40
0.0
176
     1
 40
1.0
176
     1
 90
        0
176
     1
 62
    18
420
        0
176
     1
 90
       50
176
     1
 90
        3
176
     1
 62
     5
420
      255
176
     1
290
     0
176
     1
 90
       50
176
     1
 90
       50
176
     1
 90
       50
176
     1
290
     0
176
     1
 90
       50
176
     1
 62
   256
176
     0
 40
1.0
176
     0
 90
        2
176
     1
  1
strokes_ogs.tif
176
     1
290
     0
176
     1
 40
1.0
176
     1
 40
1.0
176
     1
  0
VISUALSTYLE
  5
34
102
{ACAD_REACTORS
330
2A
102
}
330
2A
100
AcDbVisualStyle
  2
Conceptual
 70
     9
177
     3
291
     0
 70
    58
 90
        3
176
     1
 90
        2
176
     1
 90
        0
176
     1
 90
        0
176
     1
 40
0.6
176
     1
 40
30.0
176
     1
 62
     7
420
 16777215
176
     1
 90
        2
176
     1
 90
        2
176
     1
 62
     7
176
     1
 62
   257
176
     1
 90
        1
176
     1
 90
        1
176
     1
 40
179.0
176
     1
 90
        8
176
     1
 62
     7
176
     1
 40
1.0
176
     1
 90
        1
176
     1
 90
        6
176
     1
 90
        2
176
     1
 62
     7
176
     1
 90
        3
176
     1
 90
        0
176
     1
 90
        0
176
     1
290
     0
176
     1
 90
        1
176
     1
 40
0.0
176
     1
 90
        0
176
     1
290
     0
176
     1
290
     1
176
     1
290
     1
176
     1
290
     0
176
     1
290
     0
176
     1
290
     0
176
     1
290
     0
176
     1
290
     0
176
     1
290
     0
176
     1
 90
       50
176
     1
 40
0.0
176
     1
 40
1.0
176
     1
 90
        0
176
     1
 62
    18
420
        0
176
     1
 90
       50
176
     1
 90
        3
176
     1
 62
     5
420
      255
176
     1
290
     0
176
     1
 90
       50
176
     1
 90
       50
176
     1
 90
       50
176
     1
290
     0
176
     1
 90
       50
176
     1
 62
   256
176
     0
 40
1.0
176
     0
 90
        2
176
     1
  1
strokes_ogs.tif
176
     1
290
     0
176
     1
 40
1.0
176
     1
 40
1.0
176
     1
  0
VISUALSTYLE
  5
35
102
{ACAD_REACTORS
330
2A
102
}
330
2A
100
AcDbVisualStyle
  2
Dim
 70
    11
177
     3
291
     1
 70
    58
 90
        2
176
     1
 90
        2
176
     1
 90
        0
176
     1
 90
        0
176
     1
 40
0.6
176
     1
 40
30.0
176
     1
 62
     7
420
 16777215
176
     1
 90
        1
176
     1
 90
        4
176
     1
 62
     7
176
     1
 62
   257
176
     1
 90
        1
176
     1
 90
        1
176
     1
 40
1.0
176
     1
 90
        8
176
     1
 62
     7
176
     1
 40
1.0
176
     1
 90
        1
176
     1
 90
        6
176
     1
 90
        2
176
     1
 62
     7
176
     1
 90
        5
176
     1
 90
        0
176
     1
 90
        0
176
     1
290
     0
176
     1
 90
        1
176
     1
 40
-50.0
176
     1
 90
        0
176
     1
290
     0
176
     1
290
     1
176
     1
290
     1
176
     1
290
     0
176
     1
290
     0
176
     1
290
     0
176
     1
290
     0
176
     1
290
     0
176
     1
290
     0
176
     1
 90
       50
176
     1
 40
0.0
176
     1
 40
1.0
176
     1
 90
        0
176
     1
 62
    18
420
        0
176
     1
 90
       50
176
     1
 90
        3
176
     1
 62
     5
420
      255
176
     1
290
     0
176
     1
 90
       50
176
     1
 90
       50
176
     1
 90
       50
176
     1
290
     0
176
     1
 90
       50
176
     1
 62
   256
176
     0
 40
1.0
176
     0
 90
        2
176
     1
  1
strokes_ogs.tif
176
     1
290
     0
176
     1
 40
1.0
176
     1
 40
1.0
176
     1
  0
VISUALSTYLE
  5
3D
102
{ACAD_REACTORS
330
2A
102
}
330
2A
100
AcDbVisualStyle
  2
EdgeColorOff
 70
    22
177
     3
291
     1
 70
    58
 90
        2
176
     0
 90
        2
176
     0
 90
        0
176
     0
 90
        0
176
     0
 40
0.6
176
     0
 40
30.0
176
     0
 62
     7
420
 16777215
176
     0
 90
        1
176
     0
 90
        4
176
     0
 62
     7
176
     0
 62
   257
176
     0
 90
        1
176
     0
 90
        1
176
     0
 40
1.0
176
     0
 90
        8
176
     2
 62
     7
176
     0
 40
1.0
176
     0
 90
        1
176
     0
 90
        6
176
     0
 90
        2
176
     0
 62
     7
176
     0
 90
        5
176
     0
 90
        0
176
     0
 90
        0
176
     0
290
     0
176
     0
 90
        1
176
     0
 40
0.0
176
     0
 90
        0
176
     0
290
     0
176
     0
290
     1
176
     0
290
     1
176
     0
290
     0
176
     0
290
     0
176
     0
290
     0
176
     0
290
     0
176
     0
290
     0
176
     0
290
     0
176
     0
 90
       50
176
     0
 40
0.0
176
     0
 40
1.0
176
     0
 90
        0
176
     0
 62
    18
420
        0
176
     0
 90
       50
176
     0
 90
        3
176
     0
 62
     5
420
      255
176
     0
290
     0
176
     0
 90
       50
176
     0
 90
       50
176
     0
 90
       50
176
     0
290
     0
176
     0
 90
       50
176
     0
 62
   256
176
     0
 40
1.0
176
     0
 90
        2
176
     0
  1
strokes_ogs.tif
176
     0
290
     0
176
     0
 40
1.0
176
     0
 40
1.0
176
     0
  0
VISUALSTYLE
  5
39
102
{ACAD_REACTORS
330
2A
102
}
330
2A
100
AcDbVisualStyle
  2
Facepattern
 70
    15
177
     3
291
     1
 70
    58
 90
        2
176
     1
 90
        2
176
     1
 90
        0
176
     1
 90
        0
176
     1
 40
0.6
176
     1
 40
30.0
176
     1
 62
     7
420
 16777215
176
     1
 90
        1
176
     1
 90
        4
176
     1
 62
     7
176
     1
 62
   257
176
     1
 90
        1
176
     1
 90
        1
176
     1
 40
1.0
176
     1
 90
        8
176
     1
 62
     7
176
     1
 40
1.0
176
     1
 90
        1
176
     1
 90
        6
176
     1
 90
        2
176
     1
 62
     7
176
     1
 90
        5
176
     1
 90
        0
176
     1
 90
        0
176
     1
290
     0
176
     1
 90
        1
176
     1
 40
0.0
176
     1
 90
        0
176
     1
290
     0
176
     1
290
     1
176
     1
290
     1
176
     1
290
     0
176
     1
290
     0
176
     1
290
     0
176
     1
290
     0
176
     1
290
     0
176
     1
290
     0
176
     1
 90
       50
176
     1
 40
0.0
176
     1
 40
1.0
176
     1
 90
        0
176
     1
 62
    18
420
        0
176
     1
 90
       50
176
     1
 90
        3
176
     1
 62
     5
420
      255
176
     1
290
     0
176
     1
 90
       50
176
     1
 90
       50
176
     1
 90
       50
176
     1
290
     0
176
     1
 90
       50
176
     1
 62
   256
176
     0
 40
1.0
176
     0
 90
        2
176
     1
  1
strokes_ogs.tif
176
     1
290
     0
176
     1
 40
1.0
176
     1
 40
1.0
176
     1
  0
VISUALSTYLE
  5
2B
102
{ACAD_REACTORS
330
2A
102
}
330
2A
100
AcDbVisualStyle
  2
Flat
 70
     0
177
     3
291
     1
 70
    58
 90
        2
176
     1
 90
        1
176
     1
 90
        1
176
     1
 90
        2
176
     1
 40
0.6
176
     1
 40
30.0
176
     1
 62
     7
420
 16777215
176
     1
 90
        0
176
     1
 90
        0
176
     1
 62
     7
176
     1
 62
   257
176
     1
 90
        1
176
     1
 90
        1
176
     1
 40
1.0
176
     1
 90
        8
176
     1
 62
     7
176
     1
 40
1.0
176
     1
 90
        1
176
     1
 90
        6
176
     1
 90
        2
176
     1
 62
     7
176
     1
 90
        5
176
     1
 90
        0
176
     1
 90
        0
176
     1
290
     0
176
     1
 90
       13
176
     1
 40
0.0
176
     1
 90
        0
176
     1
290
     0
176
     1
290
     1
176
     1
290
     1
176
     1
290
     0
176
     1
290
     0
176
     1
290
     0
176
     1
290
     0
176
     1
290
     0
176
     1
290
     0
176
     1
 90
       50
176
     1
 40
0.0
176
     1
 40
1.0
176
     1
 90
        0
176
     1
 62
    18
420
        0
176
     1
 90
       50
176
     1
 90
        3
176
     1
 62
     5
420
      255
176
     1
290
     0
176
     1
 90
       50
176
     1
 90
       50
176
     1
 90
       50
176
     1
290
     0
176
     1
 90
       50
176
     1
 62
   256
176
     0
 40
1.0
176
     0
 90
        2
176
     1
  1
strokes_ogs.tif
176
     1
290
     0
176
     1
 40
1.0
176
     1
 40
1.0
176
     1
  0
VISUALSTYLE
  5
2C
102
{ACAD_REACTORS
330
2A
102
}
330
2A
100
AcDbVisualStyle
  2
FlatWithEdges
 70
     1
177
     3
291
     1
 70
    58
 90
        2
176
     1
 90
        1
176
     1
 90
        1
176
     1
 90
        2
176
     1
 40
0.6
176
     1
 40
30.0
176
     1
 62
     7
420
 16777215
176
     1
 90
        1
176
     1
 90
        0
176
     1
 62
     7
176
     1
 62
   257
176
     1
 90
        1
176
     1
 90
        1
176
     1
 40
1.0
176
     1
 90
        0
176
     1
 62
   257
176
     1
 40
1.0
176
     1
 90
        1
176
     1
 90
        6
176
     1
 90
        2
176
     1
 62
     7
176
     1
 90
        5
176
     1
 90
        0
176
     1
 90
        0
176
     1
290
     0
176
     1
 90
       13
176
     1
 40
0.0
176
     1
 90
        0
176
     1
290
     0
176
     1
290
     1
176
     1
290
     1
176
     1
290
     0
176
     1
290
     0
176
     1
290
     0
176
     1
290
     0
176
     1
290
     0
176
     1
290
     0
176
     1
 90
       50
176
     1
 40
0.0
176
     1
 40
1.0
176
     1
 90
        0
176
     1
 62
    18
420
        0
176
     1
 90
       50
176
     1
 90
        3
176
     1
 62
     5
420
      255
176
     1
290
     0
176
     1
 90
       50
176
     1
 90
       50
176
     1
 90
       50
176
     1
290
     0
176
     1
 90
       50
176
     1
 62
   256
176
     0
 40
1.0
176
     0
 90
        2
176
     1
  1
strokes_ogs.tif
176
     1
290
     0
176
     1
 40
1.0
176
     1
 40
1.0
176
     1
  0
VISUALSTYLE
  5
2D
102
{ACAD_REACTORS
330
2A
102
}
330
2A
100
AcDbVisualStyle
  2
Gouraud
 70
     2
177
     3
291
     1
 70
    58
 90
        2
176
     1
 90
        2
176
     1
 90
        1
176
     1
 90
        2
176
     1
 40
0.6
176
     1
 40
30.0
176
     1
 62
     7
420
 16777215
176
     1
 90
        0
176
     1
 90
        0
176
     1
 62
     7
176
     1
 62
   257
176
     1
 90
        1
176
     1
 90
        1
176
     1
 40
1.0
176
     1
 90
        0
176
     1
 62
     7
176
     1
 40
1.0
176
     1
 90
        1
176
     1
 90
        6
176
     1
 90
        2
176
     1
 62
     7
176
     1
 90
        5
176
     1
 90
        0
176
     1
 90
        0
176
     1
290
     0
176
     1
 90
       13
176
     1
 40
0.0
176
     1
 90
        0
176
     1
290
     0
176
     1
290
     1
176
     1
290
     1
176
     1
290
     0
176
     1
290
     0
176
     1
290
     0
176
     1
290
     0
176
     1
290
     0
176
     1
290
     0
176
     1
 90
       50
176
     1
 40
0.0
176
     1
 40
1.0
176
     1
 90
        0
176
     1
 62
    18
420
        0
176
     1
 90
       50
176
     1
 90
        3
176
     1
 62
     5
420
      255
176
     1
290
     0
176
     1
 90
       50
176
     1
 90
       50
176
     1
 90
       50
176
     1
290
     0
176
     1
 90
       50
176
     1
 62
   256
176
     0
 40
1.0
176
     0
 90
        2
176
     1
  1
strokes_ogs.tif
176
     1
290
     0
176
     1
 40
1.0
176
     1
 40
1.0
176
     1
  0
VISUALSTYLE
  5
2E
102
{ACAD_REACTORS
330
2A
102
}
330
2A
100
AcDbVisualStyle
  2
GouraudWithEdges
 70
     3
177
     3
291
     1
 70
    58
 90
        2
176
     1
 90
        2
176
     1
 90
        1
176
     1
 90
        2
176
     1
 40
0.6
176
     1
 40
30.0
176
     1
 62
     7
420
 16777215
176
     1
 90
        1
176
     1
 90
        0
176
     1
 62
     7
176
     1
 62
   257
176
     1
 90
        1
176
     1
 90
        1
176
     1
 40
1.0
176
     1
 90
        0
176
     1
 62
   257
176
     1
 40
1.0
176
     1
 90
        1
176
     1
 90
        6
176
     1
 90
        2
176
     1
 62
     7
176
     1
 90
        5
176
     1
 90
        0
176
     1
 90
        0
176
     1
290
     0
176
     1
 90
       13
176
     1
 40
0.0
176
     1
 90
        0
176
     1
290
     0
176
     1
290
     1
176
     1
290
     1
176
     1
290
     0
176
     1
290
     0
176
     1
290
     0
176
     1
290
     0
176
     1
290
     0
176
     1
290
     0
176
     1
 90
       50
176
     1
 40
0.0
176
     1
 40
1.0
176
     1
 90
        0
176
     1
 62
    18
420
        0
176
     1
 90
       50
176
     1
 90
        3
176
     1
 62
     5
420
      255
176
     1
290
     0
176
     1
 90
       50
176
     1
 90
       50
176
     1
 90
       50
176
     1
290
     0
176
     1
 90
       50
176
     1
 62
   256
176
     0
 40
1.0
176
     0
 90
        2
176
     1
  1
strokes_ogs.tif
176
     1
290
     0
176
     1
 40
1.0
176
     1
 40
1.0
176
     1
  0
VISUALSTYLE
  5
31
102
{ACAD_REACTORS
330
2A
102
}
330
2A
100
AcDbVisualStyle
  2
Hidden
 70
     6
177
     3
291
     0
 70
    58
 90
        1
176
     1
 90
        2
176
     1
 90
        2
176
     1
 90
        0
176
     1
 40
0.6
176
     1
 40
30.0
176
     1
 62
     7
420
 16777215
176
     1
 90
        2
176
     1
 90
        2
176
     1
 62
     7
176
     1
 62
   257
176
     1
 90
        2
176
     1
 90
        1
176
     1
 40
40.0
176
     1
 90
        0
176
     1
 62
   257
176
     1
 40
1.0
176
     1
 90
        1
176
     1
 90
        6
176
     1
 90
        2
176
     1
 62
     7
176
     1
 90
        3
176
     1
 90
        0
176
     1
 90
        0
176
     1
290
     0
176
     1
 90
        1
176
     1
 40
0.0
176
     1
 90
        0
176
     1
290
     0
176
     1
290
     1
176
     1
290
     1
176
     1
290
     0
176
     1
290
     0
176
     1
290
     0
176
     1
290
     0
176
     1
290
     0
176
     1
290
     0
176
     1
 90
       50
176
     1
 40
0.0
176
     1
 40
1.0
176
     1
 90
        0
176
     1
 62
    18
420
        0
176
     1
 90
       50
176
     1
 90
        3
176
     1
 62
     5
420
      255
176
     1
290
     0
176
     1
 90
       50
176
     1
 90
       50
176
     1
 90
       50
176
     1
290
     0
176
     1
 90
       50
176
     1
 62
   256
176
     0
 40
1.0
176
     0
 90
        2
176
     1
  1
strokes_ogs.tif
176
     1
290
     0
176
     1
 40
1.0
176
     1
 40
1.0
176
     1
  0
VISUALSTYLE
  5
3B
102
{ACAD_REACTORS
330
2A
102
}
330
2A
100
AcDbVisualStyle
  2
JitterOff
 70
    20
177
     3
291
     1
 70
    58
 90
        2
176
     0
 90
        2
176
     0
 90
        0
176
     0
 90
        0
176
     0
 40
0.6
176
     0
 40
30.0
176
     0
 62
     7
420
 16777215
176
     0
 90
        1
176
     0
 90
        4
176
     0
 62
     7
176
     0
 62
   257
176
     0
 90
        1
176
     0
 90
        1
176
     0
 40
1.0
176
     0
 90
       10
176
     2
 62
     7
176
     0
 40
1.0
176
     0
 90
        1
176
     0
 90
        6
176
     0
 90
        2
176
     0
 62
     7
176
     0
 90
        5
176
     0
 90
        0
176
     0
 90
        0
176
     0
290
     0
176
     0
 90
        1
176
     0
 40
0.0
176
     0
 90
        0
176
     0
290
     0
176
     0
290
     1
176
     0
290
     1
176
     0
290
     0
176
     0
290
     0
176
     0
290
     0
176
     0
290
     0
176
     0
290
     0
176
     0
290
     0
176
     0
 90
       50
176
     0
 40
0.0
176
     0
 40
1.0
176
     0
 90
        0
176
     0
 62
    18
420
        0
176
     0
 90
       50
176
     0
 90
        3
176
     0
 62
     5
420
      255
176
     0
290
     0
176
     0
 90
       50
176
     0
 90
       50
176
     0
 90
       50
176
     0
290
     0
176
     0
 90
       50
176
     0
 62
   256
176
     0
 40
1.0
176
     0
 90
        2
176
     0
  1
strokes_ogs.tif
176
     0
290
     0
176
     0
 40
1.0
176
     0
 40
1.0
176
     0
  0
VISUALSTYLE
  5
38
102
{ACAD_REACTORS
330
2A
102
}
330
2A
100
AcDbVisualStyle
  2
Linepattern
 70
    14
177
     3
291
     1
 70
    58
 90
        2
176
     1
 90
        2
176
     1
 90
        0
176
     1
 90
        0
176
     1
 40
0.6
176
     1
 40
30.0
176
     1
 62
     7
420
 16777215
176
     1
 90
        1
176
     1
 90
        4
176
     1
 62
     7
176
     1
 62
   257
176
     1
 90
        7
176
     1
 90
        7
176
     1
 40
1.0
176
     1
 90
        8
176
     1
 62
     7
176
     1
 40
1.0
176
     1
 90
        1
176
     1
 90
        6
176
     1
 90
        2
176
     1
 62
     7
176
     1
 90
        5
176
     1
 90
        0
176
     1
 90
        0
176
     1
290
     0
176
     1
 90
        1
176
     1
 40
0.0
176
     1
 90
        0
176
     1
290
     0
176
     1
290
     1
176
     1
290
     1
176
     1
290
     0
176
     1
290
     0
176
     1
290
     0
176
     1
290
     0
176
     1
290
     0
176
     1
290
     0
176
     1
 90
       50
176
     1
 40
0.0
176
     1
 40
1.0
176
     1
 90
        0
176
     1
 62
    18
420
        0
176
     1
 90
       50
176
     1
 90
        3
176
     1
 62
     5
420
      255
176
     1
290
     0
176
     1
 90
       50
176
     1
 90
       50
176
     1
 90
       50
176
     1
290
     0
176
     1
 90
       50
176
     1
 62
   256
176
     0
 40
1.0
176
     0
 90
        2
176
     1
  1
strokes_ogs.tif
176
     1
290
     0
176
     1
 40
1.0
176
     1
 40
1.0
176
     1
  0
VISUALSTYLE
  5
3C
102
{ACAD_REACTORS
330
2A
102
}
330
2A
100
AcDbVisualStyle
  2
OverhangOff
 70
    21
177
     3
291
     1
 70
    58
 90
        2
176
     0
 90
        2
176
     0
 90
        0
176
     0
 90
        0
176
     0
 40
0.6
176
     0
 40
30.0
176
     0
 62
     7
420
 16777215
176
     0
 90
        1
176
     0
 90
        4
176
     0
 62
     7
176
     0
 62
   257
176
     0
 90
        1
176
     0
 90
        1
176
     0
 40
1.0
176
     0
 90
        9
176
     2
 62
     7
176
     0
 40
1.0
176
     0
 90
        1
176
     0
 90
        6
176
     0
 90
        2
176
     0
 62
     7
176
     0
 90
        5
176
     0
 90
        0
176
     0
 90
        0
176
     0
290
     0
176
     0
 90
        1
176
     0
 40
0.0
176
     0
 90
        0
176
     0
290
     0
176
     0
290
     1
176
     0
290
     1
176
     0
290
     0
176
     0
290
     0
176
     0
290
     0
176
     0
290
     0
176
     0
290
     0
176
     0
290
     0
176
     0
 90
       50
176
     0
 40
0.0
176
     0
 40
1.0
176
     0
 90
        0
176
     0
 62
    18
420
        0
176
     0
 90
       50
176
     0
 90
        3
176
     0
 62
     5
420
      255
176
     0
290
     0
176
     0
 90
       50
176
     0
 90
       50
176
     0
 90
       50
176
     0
290
     0
176
     0
 90
       50
176
     0
 62
   256
176
     0
 40
1.0
176
     0
 90
        2
176
     0
  1
strokes_ogs.tif
176
     0
290
     0
176
     0
 40
1.0
176
     0
 40
1.0
176
     0
  0
VISUALSTYLE
  5
33
102
{ACAD_REACTORS
330
2A
102
}
330
2A
100
AcDbVisualStyle
  2
Realistic
 70
     8
177
     3
291
     0
 70
    58
 90
        2
176
     1
 90
        3
176
     1
 90
        0
176
     1
 90
        2
176
     1
 40
0.6
176
     1
 40
30.0
176
     1
 62
     7
420
 16777215
176
     1
 90
        0
176
     1
 90
        0
176
     1
 62
     7
176
     1
 62
   257
176
     1
 90
        1
176
     1
 90
        1
176
     1
 40
1.0
176
     1
 90
        8
176
     1
 62
   257
176
     1
 40
1.0
176
     1
 90
        1
176
     1
 90
        6
176
     1
 90
        2
176
     1
 62
     7
176
     1
 90
        3
176
     1
 90
        0
176
     1
 90
        0
176
     1
290
     0
176
     1
 90
       13
176
     1
 40
0.0
176
     1
 90
        0
176
     1
290
     0
176
     1
290
     1
176
     1
290
     1
176
     1
290
     0
176
     1
290
     0
176
     1
290
     0
176
     1
290
     0
176
     1
290
     0
176
     1
290
     0
176
     1
 90
       50
176
     1
 40
0.0
176
     1
 40
1.0
176
     1
 90
        0
176
     1
 62
    18
420
        0
176
     1
 90
       50
176
     1
 90
        3
176
     1
 62
     5
420
      255
176
     1
290
     0
176
     1
 90
       50
176
     1
 90
       50
176
     1
 90
       50
176
     1
290
     0
176
     1
 90
       50
176
     1
 62
   256
176
     0
 40
1.0
176
     0
 90
        2
176
     1
  1
strokes_ogs.tif
176
     1
290
     0
176
     1
 40
1.0
176
     1
 40
1.0
176
     1
  0
VISUALSTYLE
  5
42
102
{ACAD_REACTORS
330
2A
102
}
330
2A
100
AcDbVisualStyle
  2
Shaded
 70
    27
177
     3
291
     0
 70
    58
 90
        2
176
     1
 90
        2
176
     1
 90
        1
176
     1
 90
        2
176
     1
 40
0.6
176
     1
 40
30.0
176
     1
 62
     7
420
 16777215
176
     1
 90
        0
176
     1
 90
        4
176
     1
 62
     7
176
     1
 62
   257
176
     1
 90
        1
176
     1
 90
        1
176
     1
 40
1.0
176
     1
 90
        8
176
     1
 62
   257
176
     1
 40
1.0
176
     1
 90
        1
176
     1
 90
        6
176
     1
 90
        2
176
     1
 62
     8
420
  7895160
176
     1
 90
        3
176
     1
 90
        0
176
     1
 90
        0
176
     1
290
     0
176
     1
 90
        5
176
     1
 40
0.0
176
     1
 90
        0
176
     1
290
     0
176
     1
290
     1
176
     1
290
     1
176
     1
290
     0
176
     1
290
     0
176
     1
290
     0
176
     1
290
     0
176
     1
290
     0
176
     1
290
     0
176
     1
 90
       50
176
     1
 40
0.0
176
     1
 40
1.0
176
     1
 90
        0
176
     1
 62
    18
420
        0
176
     1
 90
       50
176
     1
 90
        3
176
     1
 62
     5
420
      255
176
     1
290
     0
176
     1
 90
       50
176
     1
 90
       50
176
     1
 90
       50
176
     1
290
     0
176
     1
 90
       50
176
     1
 62
   256
176
     0
 40
1.0
176
     0
 90
        2
176
     1
  1
strokes_ogs.tif
176
     1
290
     0
176
     1
 40
1.0
176
     1
 40
1.0
176
     1
  0
VISUALSTYLE
  5
41
102
{ACAD_REACTORS
330
2A
102
}
330
2A
100
AcDbVisualStyle
  2
Shaded with edges
 70
    26
177
     3
291
     0
 70
    58
 90
        2
176
     1
 90
        2
176
     1
 90
        1
176
     1
 90
        2
176
     1
 40
0.6
176
     1
 40
30.0
176
     1
 62
     7
420
 16777215
176
     1
 90
        1
176
     1
 90
       10
176
     1
 62
     7
176
     1
 62
   257
176
     1
 90
        2
176
     1
 90
        1
176
     1
 40
1.0
176
     1
 90
        8
176
     1
 62
   257
176
     1
 40
1.0
176
     1
 90
        1
176
     1
 90
        6
176
     1
 90
        2
176
     1
 62
     7
176
     1
 90
        3
176
     1
 90
        0
176
     1
 90
        0
176
     1
290
     0
176
     1
 90
        5
176
     1
 40
0.0
176
     1
 90
        0
176
     1
290
     0
176
     1
290
     1
176
     1
290
     1
176
     1
290
     0
176
     1
290
     0
176
     1
290
     0
176
     1
290
     0
176
     1
290
     0
176
     1
290
     0
176
     1
 90
       50
176
     1
 40
0.0
176
     1
 40
1.0
176
     1
 90
        0
176
     1
 62
    18
420
        0
176
     1
 90
       50
176
     1
 90
        3
176
     1
 62
     5
420
      255
176
     1
290
     0
176
     1
 90
       50
176
     1
 90
       50
176
     1
 90
       50
176
     1
290
     0
176
     1
 90
       50
176
     1
 62
   256
176
     0
 40
1.0
176
     0
 90
        2
176
     1
  1
strokes_ogs.tif
176
     1
290
     0
176
     1
 40
1.0
176
     1
 40
1.0
176
     1
  0
VISUALSTYLE
  5
3E
102
{ACAD_REACTORS
330
2A
102
}
330
2A
100
AcDbVisualStyle
  2
Shades of Gray
 70
    23
177
     3
291
     0
 70
    58
 90
        2
176
     1
 90
        2
176
     1
 90
        3
176
     1
 90
        0
176
     1
 40
0.6
176
     1
 40
30.0
176
     1
 62
     7
420
 16777215
176
     1
 90
        2
176
     1
 90
        2
176
     1
 62
     7
176
     1
 62
     7
176
     1
 90
        1
176
     1
 90
        1
176
     1
 40
40.0
176
     1
 90
        8
176
     1
 62
     7
176
     1
 40
1.0
176
     1
 90
        1
176
     1
 90
        6
176
     1
 90
        2
176
     1
 62
     7
176
     1
 90
        3
176
     1
 90
        0
176
     1
 90
        0
176
     1
290
     0
176
     1
 90
        1
176
     1
 40
0.0
176
     1
 90
        0
176
     1
290
     0
176
     1
290
     1
176
     1
290
     1
176
     1
290
     0
176
     1
290
     0
176
     1
290
     0
176
     1
290
     0
176
     1
290
     0
176
     1
290
     0
176
     1
 90
       50
176
     1
 40
0.0
176
     1
 40
1.0
176
     1
 90
        0
176
     1
 62
    18
420
        0
176
     1
 90
       50
176
     1
 90
        3
176
     1
 62
     5
420
      255
176
     1
290
     0
176
     1
 90
       50
176
     1
 90
       50
176
     1
 90
       50
176
     1
290
     0
176
     1
 90
       50
176
     1
 62
   256
176
     0
 40
1.0
176
     0
 90
        2
176
     1
  1
strokes_ogs.tif
176
     1
290
     0
176
     1
 40
1.0
176
     1
 40
1.0
176
     1
  0
VISUALSTYLE
  5
3F
102
{ACAD_REACTORS
330
2A
102
}
330
2A
100
AcDbVisualStyle
  2
Sketchy
 70
    24
177
     3
291
     0
 70
    58
 90
        1
176
     1
 90
        2
176
     1
 90
        2
176
     1
 90
        0
176
     1
 40
0.6
176
     1
 40
30.0
176
     1
 62
     7
420
 16777215
176
     1
 90
        2
176
     1
 90
        2
176
     1
 62
     7
176
     1
 62
     7
176
     1
 90
        1
176
     1
 90
        1
176
     1
 40
40.0
176
     1
 90
       11
176
     1
 62
     7
176
     1
 40
1.0
176
     1
 90
        1
176
     1
 90
        6
176
     1
 90
        2
176
     1
 62
     7
176
     1
 90
        6
176
     1
 90
        0
176
     1
 90
        0
176
     1
290
     0
176
     1
 90
        1
176
     1
 40
0.0
176
     1
 90
        0
176
     1
290
     0
176
     1
290
     1
176
     1
290
     1
176
     1
290
     0
176
     1
290
     0
176
     1
290
     0
176
     1
290
     0
176
     1
290
     0
176
     1
290
     0
176
     1
 90
       50
176
     1
 40
0.0
176
     1
 40
1.0
176
     1
 90
        0
176
     1
 62
    18
420
        0
176
     1
 90
       50
176
     1
 90
        3
176
     1
 62
     5
420
      255
176
     1
290
     0
176
     1
 90
       50
176
     1
 90
       50
176
     1
 90
       50
176
     1
290
     0
176
     1
 90
       50
176
     1
 62
   256
176
     0
 40
1.0
176
     0
 90
        2
176
     1
  1
strokes_ogs.tif
176
     1
290
     0
176
     1
 40
1.0
176
     1
 40
1.0
176
     1
  0
VISUALSTYLE
  5
37
102
{ACAD_REACTORS
330
2A
102
}
330
2A
100
AcDbVisualStyle
  2
Thicken
 70
    13
177
     3
291
     1
 70
    58
 90
        2
176
     1
 90
        2
176
     1
 90
        0
176
     1
 90
        0
176
     1
 40
0.6
176
     1
 40
30.0
176
     1
 62
     7
420
 16777215
176
     1
 90
        1
176
     1
 90
        4
176
     1
 62
     7
176
     1
 62
   257
176
     1
 90
        1
176
     1
 90
        1
176
     1
 40
1.0
176
     1
 90
       12
176
     1
 62
     7
176
     1
 40
1.0
176
     1
 90
        1
176
     1
 90
        6
176
     1
 90
        2
176
     1
 62
     7
176
     1
 90
        5
176
     1
 90
        0
176
     1
 90
        0
176
     1
290
     0
176
     1
 90
        1
176
     1
 40
0.0
176
     1
 90
        0
176
     1
290
     0
176
     1
290
     1
176
     1
290
     1
176
     1
290
     0
176
     1
290
     0
176
     1
290
     0
176
     1
290
     0
176
     1
290
     0
176
     1
290
     0
176
     1
 90
       50
176
     1
 40
0.0
176
     1
 40
1.0
176
     1
 90
        0
176
     1
 62
    18
420
        0
176
     1
 90
       50
176
     1
 90
        3
176
     1
 62
     5
420
      255
176
     1
290
     0
176
     1
 90
       50
176
     1
 90
       50
176
     1
 90
       50
176
     1
290
     0
176
     1
 90
       50
176
     1
 62
   256
176
     0
 40
1.0
176
     0
 90
        2
176
     1
  1
strokes_ogs.tif
176
     1
290
     0
176
     1
 40
1.0
176
     1
 40
1.0
176
     1
  0
VISUALSTYLE
  5
30
102
{ACAD_REACTORS
330
2A
102
}
330
2A
100
AcDbVisualStyle
  2
Wireframe
 70
     5
177
     3
291
     0
 70
    58
 90
        0
176
     1
 90
        2
176
     1
 90
        0
176
     1
 90
        0
176
     1
 40
0.6
176
     1
 40
30.0
176
     1
 62
     7
420
 16777215
176
     1
 90
        1
176
     1
 90
        4
176
     1
 62
     7
176
     1
 62
   257
176
     1
 90
        1
176
     1
 90
        1
176
     1
 40
1.0
176
     1
 90
        0
176
     1
 62
   257
176
     1
 40
1.0
176
     1
 90
        1
176
     1
 90
        6
176
     1
 90
        2
176
     1
 62
     7
176
     1
 90
        3
176
     1
 90
        0
176
     1
 90
        0
176
     1
290
     0
176
     1
 90
        1
176
     1
 40
0.0
176
     1
 90
        0
176
     1
290
     0
176
     1
290
     1
176
     1
290
     1
176
     1
290
     0
176
     1
290
     0
176
     1
290
     0
176
     1
290
     0
176
     1
290
     0
176
     1
290
     0
176
     1
 90
       50
176
     1
 40
0.0
176
     1
 40
1.0
176
     1
 90
        0
176
     1
 62
    18
420
        0
176
     1
 90
       50
176
     1
 90
        3
176
     1
 62
     5
420
      255
176
     1
290
     0
176
     1
 90
       50
176
     1
 90
       50
176
     1
 90
       50
176
     1
290
     0
176
     1
 90
       50
176
     1
 62
   256
176
     0
 40
1.0
176
     0
 90
        2
176
     1
  1
strokes_ogs.tif
176
     1
290
     0
176
     1
 40
1.0
176
     1
 40
1.0
176
     1
  0
VISUALSTYLE
  5
40
102
{ACAD_REACTORS
330
2A
102
}
330
2A
100
AcDbVisualStyle
  2
X-Ray
 70
    25
177
     3
291
     0
 70
    58
 90
        2
176
     1
 90
        2
176
     1
 90
        1
176
     1
 90
        1
176
     1
 40
0.5
176
     1
 40
30.0
176
     1
 62
     7
420
 16777215
176
     1
 90
        1
176
     1
 90
        0
176
     1
 62
     7
176
     1
 62
   257
176
     1
 90
        1
176
     1
 90
        1
176
     1
 40
1.0
176
     1
 90
        8
176
     1
 62
     7
176
     1
 40
1.0
176
     1
 90
        1
176
     1
 90
        6
176
     1
 90
        2
176
     1
 62
     7
176
     1
 90
        3
176
     1
 90
        0
176
     1
 90
        0
176
     1
290
     0
176
     1
 90
       13
176
     1
 40
0.0
176
     1
 90
        0
176
     1
290
     0
176
     1
290
     1
176
     1
290
     1
176
     1
290
     0
176
     1
290
     0
176
     1
290
     0
176
     1
290
     0
176
     1
290
     0
176
     1
290
     0
176
     1
 90
       50
176
     1
 40
0.0
176
     1
 40
1.0
176
     1
 90
        0
176
     1
 62
    18
420
        0
176
     1
 90
       50
176
     1
 90
        3
176
     1
 62
     5
420
      255
176
     1
290
     0
176
     1
 90
       50
176
     1
 90
       50
176
     1
 90
       50
176
     1
290
     0
176
     1
 90
       50
176
     1
 62
   256
176
     0
 40
1.0
176
     0
 90
        2
176
     1
  1
strokes_ogs.tif
176
     1
290
     0
176
     1
 40
1.0
176
     1
 40
1.0
176
     1
  0
DICTIONARYVAR
  5
1AD
102
{ACAD_REACTORS
330
1AC
102
}
330
1AC
100
DictionaryVariables
280
     0
  1
1:1
  0
DICTIONARYVAR
  5
1B2
102
{ACAD_REACTORS
330
1AC
102
}
330
1AC
100
DictionaryVariables
280
     0
  1
Standard
  0
DICTIONARYVAR
  5
1B1
102
{ACAD_REACTORS
330
1AC
102
}
330
1AC
100
DictionaryVariables
280
     0
  1
Standard
  0
DICTIONARY
  5
1AE
330
6A
100
AcDbDictionary
280
     1
281
     1
  3
ACAD_ROUNDTRIP_2008_TABLESTYLE_CELLSTYLEMAP
360
1AF
  0
CELLSTYLEMAP
  5
1AF
102
{ACAD_REACTORS
330
1AE
102
}
330
1AE
100
AcDbCellStyleMap
 90
        3
300
CELLSTYLE
  1
TABLEFORMAT_BEGIN
 90
        5
170
     1
 91
        0
 92
    32768
 62
   257
 93
        1
300
CONTENTFORMAT
  1
CONTENTFORMAT_BEGIN
 90
        0
 91
        0
 92
        4
 93
        0
300

 40
0.0
140
1.0
 94
        5
 62
     0
340
11
144
0.25
309
CONTENTFORMAT_END
171
     1
301
MARGIN
  1
CELLMARGIN_BEGIN
 40
0.06
 40
0.06
 40
0.06
 40
0.06
 40
0.06
 40
0.06
309
CELLMARGIN_END
 94
        6
 95
        1
302
GRIDFORMAT
  1
GRIDFORMAT_BEGIN
 90
        0
 91
        1
 62
     0
 92
       -2
340
14
 93
        0
 40
0.045
309
GRIDFORMAT_END
 95
        2
302
GRIDFORMAT
  1
GRIDFORMAT_BEGIN
 90
        0
 91
        1
 62
     0
 92
       -2
340
14
 93
        0
 40
0.045
309
GRIDFORMAT_END
 95
        4
302
GRIDFORMAT
  1
GRIDFORMAT_BEGIN
 90
        0
 91
        1
 62
     0
 92
       -2
340
14
 93
        0
 40
0.045
309
GRIDFORMAT_END
 95
        8
302
GRIDFORMAT
  1
GRIDFORMAT_BEGIN
 90
        0
 91
        1
 62
     0
 92
       -2
340
14
 93
        0
 40
0.045
309
GRIDFORMAT_END
 95
       16
302
GRIDFORMAT
  1
GRIDFORMAT_BEGIN
 90
        0
 91
        1
 62
     0
 92
       -2
340
14
 93
        0
 40
0.045
309
GRIDFORMAT_END
 95
       32
302
GRIDFORMAT
  1
GRIDFORMAT_BEGIN
 90
        0
 91
        1
 62
     0
 92
       -2
340
14
 93
        0
 40
0.045
309
GRIDFORMAT_END
309
TABLEFORMAT_END
  1
CELLSTYLE_BEGIN
 90
        1
 91
        1
300
_TITLE
309
CELLSTYLE_END
300
CELLSTYLE
  1
TABLEFORMAT_BEGIN
 90
        5
170
     1
 91
        0
 92
        0
 62
   257
 93
        1
300
CONTENTFORMAT
  1
CONTENTFORMAT_BEGIN
 90
        0
 91
        0
 92
        4
 93
        0
300

 40
0.0
140
1.0
 94
        5
 62
     0
340
11
144
0.18
309
CONTENTFORMAT_END
171
     1
301
MARGIN
  1
CELLMARGIN_BEGIN
 40
0.06
 40
0.06
 40
0.06
 40
0.06
 40
0.06
 40
0.06
309
CELLMARGIN_END
 94
        6
 95
        1
302
GRIDFORMAT
  1
GRIDFORMAT_BEGIN
 90
        0
 91
        1
 62
     0
 92
       -2
340
14
 93
        0
 40
0.045
309
GRIDFORMAT_END
 95
        2
302
GRIDFORMAT
  1
GRIDFORMAT_BEGIN
 90
        0
 91
        1
 62
     0
 92
       -2
340
14
 93
        0
 40
0.045
309
GRIDFORMAT_END
 95
        4
302
GRIDFORMAT
  1
GRIDFORMAT_BEGIN
 90
        0
 91
        1
 62
     0
 92
       -2
340
14
 93
        0
 40
0.045
309
GRIDFORMAT_END
 95
        8
302
GRIDFORMAT
  1
GRIDFORMAT_BEGIN
 90
        0
 91
        1
 62
     0
 92
       -2
340
14
 93
        0
 40
0.045
309
GRIDFORMAT_END
 95
       16
302
GRIDFORMAT
  1
GRIDFORMAT_BEGIN
 90
        0
 91
        1
 62
     0
 92
       -2
340
14
 93
        0
 40
0.045
309
GRIDFORMAT_END
 95
       32
302
GRIDFORMAT
  1
GRIDFORMAT_BEGIN
 90
        0
 91
        1
 62
     0
 92
       -2
340
14
 93
        0
 40
0.045
309
GRIDFORMAT_END
309
TABLEFORMAT_END
  1
CELLSTYLE_BEGIN
 90
        2
 91
        1
300
_HEADER
309
CELLSTYLE_END
300
CELLSTYLE
  1
TABLEFORMAT_BEGIN
 90
        5
170
     1
 91
        0
 92
        0
 62
   257
 93
        1
300
CONTENTFORMAT
  1
CONTENTFORMAT_BEGIN
 90
        0
 91
        0
 92
        4
 93
        0
300

 40
0.0
140
1.0
 94
        2
 62
     0
340
11
144
0.18
309
CONTENTFORMAT_END
171
     1
301
MARGIN
  1
CELLMARGIN_BEGIN
 40
0.06
 40
0.06
 40
0.06
 40
0.06
 40
0.06
 40
0.06
309
CELLMARGIN_END
 94
        6
 95
        1
302
GRIDFORMAT
  1
GRIDFORMAT_BEGIN
 90
        0
 91
        1
 62
     0
 92
       -2
340
14
 93
        0
 40
0.045
309
GRIDFORMAT_END
 95
        2
302
GRIDFORMAT
  1
GRIDFORMAT_BEGIN
 90
        0
 91
        1
 62
     0
 92
       -2
340
14
 93
        0
 40
0.045
309
GRIDFORMAT_END
 95
        4
302
GRIDFORMAT
  1
GRIDFORMAT_BEGIN
 90
        0
 91
        1
 62
     0
 92
       -2
340
14
 93
        0
 40
0.045
309
GRIDFORMAT_END
 95
        8
302
GRIDFORMAT
  1
GRIDFORMAT_BEGIN
 90
        0
 91
        1
 62
     0
 92
       -2
340
14
 93
        0
 40
0.045
309
GRIDFORMAT_END
 95
       16
302
GRIDFORMAT
  1
GRIDFORMAT_BEGIN
 90
        0
 91
        1
 62
     0
 92
       -2
340
14
 93
        0
 40
0.045
309
GRIDFORMAT_END
 95
       32
302
GRIDFORMAT
  1
GRIDFORMAT_BEGIN
 90
        0
 91
        1
 62
     0
 92
       -2
340
14
 93
        0
 40
0.045
309
GRIDFORMAT_END
309
TABLEFORMAT_END
  1
CELLSTYLE_BEGIN
 90
        3
 91
        2
300
_DATA
309
CELLSTYLE_END
  0
ENDSEC
  0
EOF