0
SECTION
  2
HEADER
  9
$ACADVER
  1
AC1027
  9
$ACADMAINTVER
 70
   105
  9
$DWGCODEPAGE
  3
ANSI_1252
  9
$REQUIREDVERSIONS
160
                 0
  9
$COMMENTS
  1
File was created by Cadenas
  9
$CUSTOMPROPERTYTAG
  1
NN
  9
$CUSTOMPROPERTY
  1
Eccentric Collar Two-Bolt Flange Inch Bore
  9
$CUSTOMPROPERTYTAG
  1
NT
  9
$CUSTOMPROPERTY
  1
Eccentric Collar 2 Bolt Flange Bearings -(Normal Duty)
  9
$CUSTOMPROPERTYTAG
  1
NB
  9
$CUSTOMPROPERTY
  1
131056
  9
$CUSTOMPROPERTYTAG
  1
NBSYN
  9
$CUSTOMPROPERTY
  1
$PN.
  9
$CUSTOMPROPERTYTAG
  1
LINA
  9
$CUSTOMPROPERTY
  1
131056
  9
$CUSTOMPROPERTYTAG
  1
SERIES
  9
$CUSTOMPROPERTY
  1
205
  9
$CUSTOMPROPERTYTAG
  1
SS
  9
$CUSTOMPROPERTY
  1
7/8
  9
$CUSTOMPROPERTYTAG
  1
PN
  9
$CUSTOMPROPERTY
  1
131056
  9
$CUSTOMPROPERTYTAG
  1
DESCRIPTION
  9
$CUSTOMPROPERTY
  1
F2B-SXR-014
  9
$CUSTOMPROPERTYTAG
  1
LF
  9
$CUSTOMPROPERTY
  1
RE-LUBE
  9
$CUSTOMPROPERTYTAG
  1
W
  9
$CUSTOMPROPERTY
  1
1.7
  9
$CUSTOMPROPERTYTAG
  1
A
  9
$CUSTOMPROPERTY
  1
1.62
  9
$CUSTOMPROPERTYTAG
  1
B
  9
$CUSTOMPROPERTY
  1
4.88
  9
$CUSTOMPROPERTYTAG
  1
C
  9
$CUSTOMPROPERTY
  1
1.65
  9
$CUSTOMPROPERTYTAG
  1
D
  9
$CUSTOMPROPERTY
  1
3.89
  9
$CUSTOMPROPERTYTAG
  1
F
  9
$CUSTOMPROPERTY
  1
7/16
  9
$CUSTOMPROPERTYTAG
  1
H
  9
$CUSTOMPROPERTY
  1
0.52
  9
$CUSTOMPROPERTYTAG
  1
J
  9
$CUSTOMPROPERTY
  1
0.70
  9
$CUSTOMPROPERTYTAG
  1
L
  9
$CUSTOMPROPERTY
  1
1.50
  9
$CUSTOMPROPERTYTAG
  1
M
  9
$CUSTOMPROPERTY
  1
2.75
  9
$CUSTOMPROPERTYTAG
  1
N
  9
$CUSTOMPROPERTY
  1
1.44
  9
$CUSTOMPROPERTYTAG
  1
COMPANY
  9
$CUSTOMPROPERTY
  1
baldor
  9
$INSBASE
 10
0.0
 20
0.0
 30
0.0
  9
$EXTMIN
 10
1.000000000000000E+20
 20
1.000000000000000E+20
 30
1.000000000000000E+20
  9
$EXTMAX
 10
-1.000000000000000E+20
 20
-1.000000000000000E+20
 30
-1.000000000000000E+20
  9
$LIMMIN
 10
0.0
 20
0.0
  9
$LIMMAX
 10
12.0
 20
9.0
  9
$ORTHOMODE
 70
     0
  9
$REGENMODE
 70
     1
  9
$FILLMODE
 70
     1
  9
$QTEXTMODE
 70
     0
  9
$MIRRTEXT
 70
     1
  9
$LTSCALE
 40
1.0
  9
$ATTMODE
 70
     1
  9
$TEXTSIZE
 40
0.2
  9
$TRACEWID
 40
0.05
  9
$TEXTSTYLE
  7
Standard
  9
$CLAYER
  8
0
  9
$CELTYPE
  6
ByLayer
  9
$CECOLOR
 62
   256
  9
$CELTSCALE
 40
1.0
  9
$DISPSILH
 70
     0
  9
$DIMSCALE
 40
1.0
  9
$DIMASZ
 40
0.18
  9
$DIMEXO
 40
0.0625
  9
$DIMDLI
 40
0.38
  9
$DIMRND
 40
0.0
  9
$DIMDLE
 40
0.0
  9
$DIMEXE
 40
0.18
  9
$DIMTP
 40
0.0
  9
$DIMTM
 40
0.0
  9
$DIMTXT
 40
0.18
  9
$DIMCEN
 40
0.09
  9
$DIMTSZ
 40
0.0
  9
$DIMTOL
 70
     0
  9
$DIMLIM
 70
     0
  9
$DIMTIH
 70
     1
  9
$DIMTOH
 70
     1
  9
$DIMSE1
 70
     0
  9
$DIMSE2
 70
     0
  9
$DIMTAD
 70
     0
  9
$DIMZIN
 70
     0
  9
$DIMBLK
  1

  9
$DIMASO
 70
     1
  9
$DIMSHO
 70
     1
  9
$DIMPOST
  1

  9
$DIMAPOST
  1

  9
$DIMALT
 70
     0
  9
$DIMALTD
 70
     2
  9
$DIMALTF
 40
25.4
  9
$DIMLFAC
 40
1.0
  9
$DIMTOFL
 70
     0
  9
$DIMTVP
 40
0.0
  9
$DIMTIX
 70
     0
  9
$DIMSOXD
 70
     0
  9
$DIMSAH
 70
     0
  9
$DIMBLK1
  1

  9
$DIMBLK2
  1

  9
$DIMSTYLE
  2
Standard
  9
$DIMCLRD
 70
     0
  9
$DIMCLRE
 70
     0
  9
$DIMCLRT
 70
     0
  9
$DIMTFAC
 40
1.0
  9
$DIMGAP
 40
0.09
  9
$DIMJUST
 70
     0
  9
$DIMSD1
 70
     0
  9
$DIMSD2
 70
     0
  9
$DIMTOLJ
 70
     1
  9
$DIMTZIN
 70
     0
  9
$DIMALTZ
 70
     0
  9
$DIMALTTZ
 70
     0
  9
$DIMUPT
 70
     0
  9
$DIMDEC
 70
     4
  9
$DIMTDEC
 70
     4
  9
$DIMALTU
 70
     2
  9
$DIMALTTD
 70
     2
  9
$DIMTXSTY
  7
Standard
  9
$DIMAUNIT
 70
     0
  9
$DIMADEC
 70
     0
  9
$DIMALTRND
 40
0.0
  9
$DIMAZIN
 70
     0
  9
$DIMDSEP
 70
    46
  9
$DIMATFIT
 70
     3
  9
$DIMFRAC
 70
     0
  9
$DIMLDRBLK
  1

  9
$DIMLUNIT
 70
     2
  9
$DIMLWD
 70
    -2
  9
$DIMLWE
 70
    -2
  9
$DIMTMOVE
 70
     0
  9
$DIMFXL
 40
1.0
  9
$DIMFXLON
 70
     0
  9
$DIMJOGANG
 40
0.7853981633974483
  9
$DIMTFILL
 70
     0
  9
$DIMTFILLCLR
 70
     0
  9
$DIMARCSYM
 70
     0
  9
$DIMLTYPE
  6

  9
$DIMLTEX1
  6

  9
$DIMLTEX2
  6

  9
$DIMTXTDIRECTION
 70
     0
  9
$LUNITS
 70
     2
  9
$LUPREC
 70
     4
  9
$SKETCHINC
 40
0.1
  9
$FILLETRAD
 40
0.5
  9
$AUNITS
 70
     0
  9
$AUPREC
 70
     0
  9
$MENU
  1
.
  9
$ELEVATION
 40
0.0
  9
$PELEVATION
 40
0.0
  9
$THICKNESS
 40
0.0
  9
$LIMCHECK
 70
     0
  9
$CHAMFERA
 40
0.0
  9
$CHAMFERB
 40
0.0
  9
$CHAMFERC
 40
0.0
  9
$CHAMFERD
 40
0.0
  9
$SKPOLY
 70
     0
  9
$TDCREATE
 40
2458168.980075208
  9
$TDUCREATE
 40
2458168.938408541
  9
$TDUPDATE
 40
2458168.980075393
  9
$TDUUPDATE
 40
2458168.938408727
  9
$TDINDWG
 40
0.0000000116
  9
$TDUSRTIMER
 40
0.0000000116
  9
$USRTIMER
 70
     1
  9
$ANGBASE
 50
0.0
  9
$ANGDIR
 70
     0
  9
$PDMODE
 70
     0
  9
$PDSIZE
 40
0.0
  9
$PLINEWID
 40
0.0
  9
$SPLFRAME
 70
     0
  9
$SPLINETYPE
 70
     6
  9
$SPLINESEGS
 70
     8
  9
$HANDSEED
  5
1AD
  9
$SURFTAB1
 70
     6
  9
$SURFTAB2
 70
     6
  9
$SURFTYPE
 70
     6
  9
$SURFU
 70
     6
  9
$SURFV
 70
     6
  9
$UCSBASE
  2

  9
$UCSNAME
  2

  9
$UCSORG
 10
0.0
 20
0.0
 30
0.0
  9
$UCSXDIR
 10
1.0
 20
0.0
 30
0.0
  9
$UCSYDIR
 10
0.0
 20
1.0
 30
0.0
  9
$UCSORTHOREF
  2

  9
$UCSORTHOVIEW
 70
     0
  9
$UCSORGTOP
 10
0.0
 20
0.0
 30
0.0
  9
$UCSORGBOTTOM
 10
0.0
 20
0.0
 30
0.0
  9
$UCSORGLEFT
 10
0.0
 20
0.0
 30
0.0
  9
$UCSORGRIGHT
 10
0.0
 20
0.0
 30
0.0
  9
$UCSORGFRONT
 10
0.0
 20
0.0
 30
0.0
  9
$UCSORGBACK
 10
0.0
 20
0.0
 30
0.0
  9
$PUCSBASE
  2

  9
$PUCSNAME
  2

  9
$PUCSORG
 10
0.0
 20
0.0
 30
0.0
  9
$PUCSXDIR
 10
1.0
 20
0.0
 30
0.0
  9
$PUCSYDIR
 10
0.0
 20
1.0
 30
0.0
  9
$PUCSORTHOREF
  2

  9
$PUCSORTHOVIEW
 70
     0
  9
$PUCSORGTOP
 10
0.0
 20
0.0
 30
0.0
  9
$PUCSORGBOTTOM
 10
0.0
 20
0.0
 30
0.0
  9
$PUCSORGLEFT
 10
0.0
 20
0.0
 30
0.0
  9
$PUCSORGRIGHT
 10
0.0
 20
0.0
 30
0.0
  9
$PUCSORGFRONT
 10
0.0
 20
0.0
 30
0.0
  9
$PUCSORGBACK
 10
0.0
 20
0.0
 30
0.0
  9
$USERI1
 70
     0
  9
$USERI2
 70
     0
  9
$USERI3
 70
     0
  9
$USERI4
 70
     0
  9
$USERI5
 70
     0
  9
$USERR1
 40
0.0
  9
$USERR2
 40
0.0
  9
$USERR3
 40
0.0
  9
$USERR4
 40
0.0
  9
$USERR5
 40
0.0
  9
$WORLDVIEW
 70
     1
  9
$SHADEDGE
 70
     3
  9
$SHADEDIF
 70
    70
  9
$TILEMODE
 70
     1
  9
$MAXACTVP
 70
    64
  9
$PINSBASE
 10
0.0
 20
0.0
 30
0.0
  9
$PLIMCHECK
 70
     0
  9
$PEXTMIN
 10
1.000000000000000E+20
 20
1.000000000000000E+20
 30
1.000000000000000E+20
  9
$PEXTMAX
 10
-1.000000000000000E+20
 20
-1.000000000000000E+20
 30
-1.000000000000000E+20
  9
$PLIMMIN
 10
0.0
 20
0.0
  9
$PLIMMAX
 10
12.0
 20
9.0
  9
$UNITMODE
 70
     0
  9
$VISRETAIN
 70
     1
  9
$PLINEGEN
 70
     0
  9
$PSLTSCALE
 70
     1
  9
$TREEDEPTH
 70
  3020
  9
$CMLSTYLE
  2
Standard
  9
$CMLJUST
 70
     0
  9
$CMLSCALE
 40
1.0
  9
$PROXYGRAPHICS
 70
     1
  9
$MEASUREMENT
 70
     0
  9
$CELWEIGHT
370
    -1
  9
$ENDCAPS
280
     0
  9
$JOINSTYLE
280
     0
  9
$LWDISPLAY
290
     0
  9
$INSUNITS
 70
     1
  9
$HYPERLINKBASE
  1

  9
$STYLESHEET
  1

  9
$XEDIT
290
     1
  9
$CEPSNTYPE
380
     0
  9
$PSTYLEMODE
290
     1
  9
$FINGERPRINTGUID
  2
{9686D58B-1D0A-4572-BD51-E9B8E3D38212}
  9
$VERSIONGUID
  2
{FAEB1C32-E019-11D5-929B-00C0DF256EC4}
  9
$EXTNAMES
290
     1
  9
$PSVPSCALE
 40
0.0
  9
$OLESTARTUP
290
     0
  9
$SORTENTS
280
   127
  9
$INDEXCTL
280
     0
  9
$HIDETEXT
280
     1
  9
$XCLIPFRAME
280
     2
  9
$HALOGAP
280
     0
  9
$OBSCOLOR
 70
   257
  9
$OBSLTYPE
280
     0
  9
$INTERSECTIONDISPLAY
280
     0
  9
$INTERSECTIONCOLOR
 70
   257
  9
$DIMASSOC
280
     2
  9
$PROJECTNAME
  1

  9
$CAMERADISPLAY
290
     0
  9
$LENSLENGTH
 40
50.0
  9
$CAMERAHEIGHT
 40
0.0
  9
$STEPSPERSEC
 40
2.0
  9
$STEPSIZE
 40
6.0
  9
$3DDWFPREC
 40
2.0
  9
$PSOLWIDTH
 40
0.25
  9
$PSOLHEIGHT
 40
4.0
  9
$LOFTANG1
 40
1.570796326794897
  9
$LOFTANG2
 40
1.570796326794897
  9
$LOFTMAG1
 40
0.0
  9
$LOFTMAG2
 40
0.0
  9
$LOFTPARAM
 70
     7
  9
$LOFTNORMALS
280
     1
  9
$LATITUDE
 40
37.795
  9
$LONGITUDE
 40
-122.394
  9
$NORTHDIRECTION
 40
0.0
  9
$TIMEZONE
 70
 -8000
  9
$LIGHTGLYPHDISPLAY
280
     1
  9
$TILEMODELIGHTSYNCH
280
     1
  9
$CMATERIAL
347
44
  9
$SOLIDHIST
280
     0
  9
$SHOWHIST
280
     1
  9
$DWFFRAME
280
     2
  9
$DGNFRAME
280
     2
  9
$REALWORLDSCALE
290
     1
  9
$INTERFERECOLOR
 62
   256
  9
$CSHADOW
280
     0
  9
$SHADOWPLANELOCATION
 40
0.0
  0
ENDSEC
  0
SECTION
  2
CLASSES
  0
CLASS
  1
ACDBDICTIONARYWDFLT
  2
AcDbDictionaryWithDefault
  3
ObjectDBX Classes
 90
        0
 91
        4
280
     0
281
     0
  0
CLASS
  1
VISUALSTYLE
  2
AcDbVisualStyle
  3
ObjectDBX Classes
 90
     4095
 91
        4
280
     0
281
     0
  0
CLASS
  1
MATERIAL
  2
AcDbMaterial
  3
ObjectDBX Classes
 90
     1153
 91
        4
280
     0
281
     0
  0
CLASS
  1
SCALE
  2
AcDbScale
  3
ObjectDBX Classes
 90
     1153
 91
        4
280
     0
281
     0
  0
CLASS
  1
TABLESTYLE
  2
AcDbTableStyle
  3
ObjectDBX Classes
 90
     4095
 91
        4
280
     0
281
     0
  0
CLASS
  1
MLEADERSTYLE
  2
AcDbMLeaderStyle
  3
ACDB_MLEADERSTYLE_CLASS
 90
     4095
 91
        4
280
     0
281
     0
  0
CLASS
  1
SUN
  2
AcDbSun
  3
SCENEOE
 90
     1153
 91
        4
280
     0
281
     0
  0
CLASS
  1
DICTIONARYVAR
  2
AcDbDictionaryVar
  3
ObjectDBX Classes
 90
        0
 91
        4
280
     0
281
     0
  0
CLASS
  1
CELLSTYLEMAP
  2
AcDbCellStyleMap
  3
ObjectDBX Classes
 90
     1152
 91
        4
280
     0
281
     0
  0
ENDSEC
  0
SECTION
  2
TABLES
  0
TABLE
  2
VPORT
  5
8
330
0
100
AcDbSymbolTable
 70
     1
  0
VPORT
  5
29
330
8
100
AcDbSymbolTableRecord
100
AcDbViewportTableRecord
  2
*Active
 70
     0
 10
0.0
 20
0.0
 11
1.0
 21
1.0
 12
3.981428571428571
 22
-2.559999999999999
 13
0.0
 23
0.0
 14
0.5
 24
0.5
 15
0.5
 25
0.5
 16
0.0
 26
0.0
 36
1.0
 17
0.0
 27
0.0
 37
0.0
 40
11.22
 41
1.038623376623377
 42
50.0
 43
0.0
 44
0.0
 50
0.0
 51
0.0
 71
     0
 72
   100
 73
     1
 74
     3
 75
     0
 76
     0
 77
     0
 78
     0
281
     0
 65
     1
110
0.0
120
0.0
130
0.0
111
1.0
121
0.0
131
0.0
112
0.0
122
1.0
132
0.0
 79
     0
146
0.0
348
2F
 60
     3
 61
     5
292
     1
282
     1
141
0.0
142
0.0
 63
   250
361
6D
  0
ENDTAB
  0
TABLE
  2
LTYPE
  5
5
330
0
100
AcDbSymbolTable
 70
     3
  0
LTYPE
  5
14
330
5
100
AcDbSymbolTableRecord
100
AcDbLinetypeTableRecord
  2
ByBlock
 70
     0
  3

 72
    65
 73
     0
 40
0.0
  0
LTYPE
  5
15
330
5
100
AcDbSymbolTableRecord
100
AcDbLinetypeTableRecord
  2
ByLayer
 70
     0
  3

 72
    65
 73
     0
 40
0.0
  0
LTYPE
  5
16
330
5
100
AcDbSymbolTableRecord
100
AcDbLinetypeTableRecord
  2
Continuous
 70
     0
  3
Solid line
 72
    65
 73
     0
 40
0.0
  0
LTYPE
  5
91
330
5
100
AcDbSymbolTableRecord
100
AcDbLinetypeTableRecord
  2
Dashed
 70
     0
  3

 72
    65
 73
     2
 40
2.0
 49
1.0
 74
     0
 49
-1.0
 74
     0
  0
LTYPE
  5
12A
330
5
100
AcDbSymbolTableRecord
100
AcDbLinetypeTableRecord
  2
Center
 70
     0
  3

 72
    65
 73
     4
 40
1.5
 49
0.45
 74
     0
 49
-0.5
 74
     0
 49
0.05
 74
     0
 49
-0.5
 74
     0
  0
ENDTAB
  0
TABLE
  2
LAYER
  5
2
330
0
100
AcDbSymbolTable
 70
     7
  0
LAYER
  5
10
330
2
100
AcDbSymbolTableRecord
100
AcDbLayerTableRecord
  2
0
 70
     0
 62
     7
  6
Continuous
370
    -3
390
F
347
46
348
0
  0
LAYER
  5
6E
330
2
100
AcDbSymbolTableRecord
100
AcDbLayerTableRecord
  2
AM_6
 70
     0
 62
    -2
  6
Continuous
370
    35
390
F
347
46
348
0
  0
LAYER
  5
92
330
2
100
AcDbSymbolTableRecord
100
AcDbLayerTableRecord
  2
AM_9
 70
     0
 62
     6
  6
Dashed
370
    25
390
F
347
46
348
0
  0
LAYER
  5
BC
330
2
100
AcDbSymbolTableRecord
100
AcDbLayerTableRecord
  2
AM_0
 70
     0
 62
     7
  6
Continuous
370
    50
390
F
347
46
348
0
  0
LAYER
  5
12B
330
2
100
AcDbSymbolTableRecord
100
AcDbLayerTableRecord
  2
AM_7
 70
     0
 62
     7
  6
Center
370
    25
390
F
347
46
348
0
  0
LAYER
  5
141
330
2
100
AcDbSymbolTableRecord
100
AcDbLayerTableRecord
  2
AM_4
 70
     0
 62
     3
  6
Continuous
370
    25
390
F
347
46
348
0
  0
LAYER
  5
19E
330
2
100
AcDbSymbolTableRecord
100
AcDbLayerTableRecord
  2
ConnectionPoints
 70
     0
 62
     7
  6
Continuous
370
    50
390
F
347
46
348
0
  0
ENDTAB
  0
TABLE
  2
STYLE
  5
3
330
0
100
AcDbSymbolTable
 70
     1
  0
STYLE
  5
11
330
3
100
AcDbSymbolTableRecord
100
AcDbTextStyleTableRecord
  2
Standard
 70
     0
 40
0.0
 41
1.0
 50
0.0
 71
     0
 42
0.2
  3
txt
  4

  0
ENDTAB
  0
TABLE
  2
VIEW
  5
6
330
0
100
AcDbSymbolTable
 70
     0
  0
ENDTAB
  0
TABLE
  2
UCS
  5
7
330
0
100
AcDbSymbolTable
 70
     0
  0
ENDTAB
  0
TABLE
  2
APPID
  5
9
330
0
100
AcDbSymbolTable
 70
     1
  0
APPID
  5
12
330
9
100
AcDbSymbolTableRecord
100
AcDbRegAppTableRecord
  2
ACAD
 70
     0
  0
ENDTAB
  0
TABLE
  2
DIMSTYLE
  5
A
330
0
100
AcDbSymbolTable
 70
     1
100
AcDbDimStyleTable
  0
DIMSTYLE
105
27
330
A
100
AcDbSymbolTableRecord
100
AcDbDimStyleTableRecord
  2
Standard
 70
     0
178
     0
340
11
  0
ENDTAB
  0
TABLE
  2
BLOCK_RECORD
  5
1
330
0
100
AcDbSymbolTable
 70
     4
  0
BLOCK_RECORD
  5
1F
330
1
100
AcDbSymbolTableRecord
100
AcDbBlockTableRecord
  2
*Model_Space
340
22
 70
     0
280
     1
281
     0
  0
BLOCK_RECORD
  5
1B
330
1
100
AcDbSymbolTableRecord
100
AcDbBlockTableRecord
  2
*Paper_Space
340
1E
 70
     0
280
     1
281
     0
  0
BLOCK_RECORD
  5
23
330
1
100
AcDbSymbolTableRecord
100
AcDbBlockTableRecord
  2
*Paper_Space0
340
26
 70
     0
280
     1
281
     0
  0
BLOCK_RECORD
  5
85
330
1
100
AcDbSymbolTableRecord
100
AcDbBlockTableRecord
  2
1_405015E_Inch_0_in_131056_2
340
0
102
{BLKREFS
331
86
102
}
 70
     0
280
     1
281
     0
  0
BLOCK_RECORD
  5
E3
330
1
100
AcDbSymbolTableRecord
100
AcDbBlockTableRecord
  2
2_131906_0_in_131056_2
340
0
102
{BLKREFS
331
E4
102
}
 70
     0
280
     1
281
     0
  0
BLOCK_RECORD
  5
144
330
1
100
AcDbSymbolTableRecord
100
AcDbBlockTableRecord
  2
3_131056H_0_in_131056_2
340
0
102
{BLKREFS
331
145
102
}
 70
     0
280
     1
281
     0
  0
ENDTAB
  0
ENDSEC
  0
SECTION
  2
BLOCKS
  0
BLOCK
  5
20
330
1F
100
AcDbEntity
  8
0
100
AcDbBlockBegin
  2
*Model_Space
 70
     0
 10
0.0
 20
0.0
 30
0.0
  3
*Model_Space
  1

  0
ENDBLK
  5
21
330
1F
100
AcDbEntity
  8
0
100
AcDbBlockEnd
  0
BLOCK
  5
1C
330
1B
100
AcDbEntity
 67
     1
  8
0
100
AcDbBlockBegin
  2
*Paper_Space
 70
     0
 10
0.0
 20
0.0
 30
0.0
  3
*Paper_Space
  1

  0
ENDBLK
  5
1D
330
1B
100
AcDbEntity
 67
     1
  8
0
100
AcDbBlockEnd
  0
BLOCK
  5
24
330
23
100
AcDbEntity
  8
0
100
AcDbBlockBegin
  2
*Paper_Space0
 70
     0
 10
0.0
 20
0.0
 30
0.0
  3
*Paper_Space0
  1

  0
ENDBLK
  5
25
330
23
100
AcDbEntity
  8
0
100
AcDbBlockEnd
  0
BLOCK
  5
87
330
85
100
AcDbEntity
  8
0
100
AcDbBlockBegin
  2
1_405015E_Inch_0_in_131056_2
 70
     2
 10
0.0
 20
0.0
 30
0.0
  3
1_405015E_Inch_0_in_131056_2
  1

  0
ATTDEF
  5
89
330
85
100
AcDbEntity
  8
AM_6
100
AcDbText
 10
4.517590742770461
 20
1.512589106711548
 30
0.0
 40
0.5
  1
405015E -Inch
100
AcDbAttributeDefinition
  3

  2
NN
 70
     8
280
     0
  0
ATTDEF
  5
8A
330
85
100
AcDbEntity
  8
AM_6
100
AcDbText
 10
4.517590742770461
 20
1.012589106711548
 30
0.0
 40
0.5
  1
Grease Fitting
100
AcDbAttributeDefinition
  3

  2
NT
 70
     8
280
     0
  0
ATTDEF
  5
8B
330
85
100
AcDbEntity
  8
AM_6
100
AcDbText
 10
4.517590742770461
 20
0.5125891067115484
 30
0.0
 40
0.5
  1
405015E-Inch
100
AcDbAttributeDefinition
  3

  2
NB
 70
     8
280
     0
  0
ATTDEF
  5
8C
330
85
100
AcDbEntity
  8
AM_6
100
AcDbText
 10
4.517590742770461
 20
0.0125891067115484
 30
0.0
 40
0.5
  1
$MN.-Inch
100
AcDbAttributeDefinition
  3

  2
NBSYN
 70
     8
280
     0
  0
ATTDEF
  5
8D
330
85
100
AcDbEntity
  8
AM_6
100
AcDbText
 10
4.517590742770461
 20
-0.4874108932884516
 30
0.0
 40
0.5
  1
405015E
100
AcDbAttributeDefinition
  3

  2
LINA
 70
     8
280
     0
  0
ATTDEF
  5
8E
330
85
100
AcDbEntity
  8
AM_6
100
AcDbText
 10
4.517590742770461
 20
-0.9874108932884516
 30
0.0
 40
0.5
  1
405015E
100
AcDbAttributeDefinition
  3

  2
MN
 70
     8
280
     0
  0
ATTDEF
  5
8F
330
85
100
AcDbEntity
  8
AM_6
100
AcDbText
 10
4.517590742770461
 20
-1.487410893288452
 30
0.0
 40
0.5
  1
1/8 x 27PTF
100
AcDbAttributeDefinition
  3

  2
T
 70
     8
280
     0
  0
ATTDEF
  5
90
330
85
100
AcDbEntity
  8
AM_6
100
AcDbText
 10
4.517590742770461
 20
-1.987410893288452
 30
0.0
 40
0.5
  1
baldor
100
AcDbAttributeDefinition
  3

  2
COMPANY
 70
     8
280
     0
  0
LINE
  5
93
330
85
100
AcDbEntity
  8
AM_9
 48
0.0016832649854734
100
AcDbLine
 10
-0.6087046286147691
 20
1.393813482323696
 30
0.0
 11
-0.6087046286147691
 21
1.335926326674163
 31
0.0
  0
LINE
  5
94
330
85
100
AcDbEntity
  8
AM_9
 48
0.0016832649854734
100
AcDbLine
 10
-0.8612953713852305
 20
1.393813482323696
 30
0.0
 11
-0.8612953713852305
 21
1.335926326674163
 31
0.0
  0
LWPOLYLINE
  5
95
330
85
100
AcDbEntity
  8
AM_9
 48
0.0016832649854734
100
AcDbPolyline
 90
        3
 70
     0
 43
0.0
 10
-0.7349999999999998
 20
1.329514565439602
 10
-0.6718523143073846
 20
1.331206941222661
 10
-0.6087046286147691
 20
1.335926326674163
  0
LWPOLYLINE
  5
96
330
85
100
AcDbEntity
  8
AM_9
 48
0.0016832649854734
100
AcDbPolyline
 90
        4
 70
     0
 43
0.0
 10
-0.8612953713852305
 20
1.335926326674163
 10
-0.8317996321117976
 20
1.333391216508231
 10
-0.7835424412477542
 20
1.330522778259085
 10
-0.7349999999999998
 20
1.329514565439602
  0
ELLIPSE
  5
97
330
85
100
AcDbEntity
  8
AM_9
 48
0.0016832649854734
100
AcDbEllipse
 10
-0.7349999999999998
 20
0.9874516600406096
 30
0.0
 11
-0.161902872472269
 21
1.982738345459263E-17
 31
0.0
210
0.0
220
0.0
230
1.0
 40
0.7071067811865478
 41
0.0
 42
6.283185307179586
  0
ELLIPSE
  5
98
330
85
100
AcDbEntity
  8
AM_9
 48
0.0016832649854734
100
AcDbEllipse
 10
-0.7349999999999994
 20
1.174834957055045
 30
0.0
 11
0.2187500000000004
 21
6.661338147750938E-16
 31
0.0
210
0.0
220
0.0
230
1.0
 40
0.7071067811865457
 41
1.570796326794895
 42
2.617993877991492
  0
LWPOLYLINE
  5
99
330
85
100
AcDbEntity
  8
AM_9
 48
0.0016832649854734
100
AcDbPolyline
 90
        3
 70
     0
 43
0.0
 10
-0.9244430570778458
 20
1.252174761247323
 10
-0.8928692142315381
 20
1.292537039126522
 10
-0.8612953713852305
 20
1.335926326674163
  0
LWPOLYLINE
  5
9A
330
85
100
AcDbEntity
  8
AM_9
 48
0.0016832649854734
100
AcDbPolyline
 90
        3
 70
     0
 43
0.0
 10
-0.6087046286147691
 20
1.335926326674163
 10
-0.5772727502678723
 20
1.292725860601256
 10
-0.5455569429221538
 20
1.252174761247323
  0
LINE
  5
9B
330
85
100
AcDbEntity
  8
AM_9
 48
0.0016832649854734
100
AcDbLine
 10
-0.8612953713852305
 20
1.393813482323696
 30
0.0
 11
-0.8695385093142
 21
1.385200592810031
 31
0.0
  0
LWPOLYLINE
  5
9C
330
85
100
AcDbEntity
  8
AM_9
 48
0.0016832649854734
100
AcDbPolyline
 90
        4
 70
     0
 43
0.0
 10
-0.7349999999999998
 20
1.400225243558257
 10
-0.7833998160558987
 20
1.399222876762425
 10
-0.8317996321117976
 20
1.396348592489628
 10
-0.8612953713852305
 20
1.393813482323696
  0
LINE
  5
9D
330
85
100
AcDbEntity
  8
AM_9
 48
0.0016832649854734
100
AcDbLine
 10
-0.6001903903507059
 20
1.38491456106558
 30
0.0
 11
-0.6087046286147691
 21
1.393813482323696
 31
0.0
  0
LWPOLYLINE
  5
9E
330
85
100
AcDbEntity
  8
AM_9
 48
0.0016832649854734
100
AcDbPolyline
 90
        3
 70
     0
 43
0.0
 10
-0.6087046286147691
 20
1.393813482323696
 10
-0.671568385308563
 20
1.398517916593036
 10
-0.7349999999999998
 20
1.400225243558257
  0
LWPOLYLINE
  5
9F
330
85
100
AcDbEntity
  8
AM_9
 48
0.0016832649854734
100
AcDbPolyline
 90
        3
 70
     0
 43
0.0
 10
-0.987590742770461
 20
1.181246718289606
 10
-0.956158864423564
 20
1.215038315823832
 10
-0.9244430570778458
 20
1.252174761247323
  0
LWPOLYLINE
  5
A0
330
85
100
AcDbEntity
  8
AM_9
 48
0.0016832649854734
100
AcDbPolyline
 90
        3
 70
     0
 43
0.0
 10
-0.5455569429221538
 20
1.252174761247323
 10
-0.5139831000758462
 20
1.215197234934244
 10
-0.4824092572295386
 20
1.181246718289606
  0
ELLIPSE
  5
A1
330
85
100
AcDbEntity
  8
AM_9
 48
0.0016832649854734
100
AcDbEllipse
 10
-0.7350000000000001
 20
1.174834957055045
 30
0.0
 11
0.2187499999999997
 21
0.0
 31
0.0
210
0.0
220
0.0
230
1.0
 40
0.7071067811865472
 41
2.617993877991494
 42
3.665191429188092
  0
LINE
  5
A2
330
85
100
AcDbEntity
  8
AM_9
 48
0.0016832649854734
100
AcDbLine
 10
-0.536479387868661
 20
1.009023821489036
 30
0.0
 11
-0.5293486021565372
 21
1.170288212289695
 31
0.0
  0
LINE
  5
A3
330
85
100
AcDbEntity
  8
AM_9
 48
0.0016832649854734
100
AcDbLine
 10
-0.9406513978434624
 20
1.170288212289695
 30
0.0
 11
-0.9335206121313386
 21
1.009023821489036
 31
0.0
  0
ELLIPSE
  5
A4
330
85
100
AcDbEntity
  8
AM_9
 48
0.0016832649854734
100
AcDbEllipse
 10
-0.7350000000000002
 20
1.174834957055045
 30
0.0
 11
0.2187500000000006
 21
-6.364453853909055E-16
 31
0.0
210
0.0
220
0.0
230
1.0
 40
0.7071067811865483
 41
4.712388980384694
 42
7.853981633974483
  0
ELLIPSE
  5
A5
330
85
100
AcDbEntity
  8
AM_9
 48
0.0016832649854734
100
AcDbEllipse
 10
-0.7349999999999995
 20
1.174834957055045
 30
0.0
 11
0.2187500000000006
 21
6.661338147750940E-16
 31
0.0
210
0.0
220
0.0
230
1.0
 40
0.7071067811865483
 41
3.665191429188091
 42
4.712388980384688
  0
ELLIPSE
  5
A6
330
85
100
AcDbEntity
  8
AM_9
 48
0.0016832649854734
100
AcDbEllipse
 10
-0.7350000000000011
 20
1.245545635173697
 30
0.0
 11
0.2187500000000033
 21
0.0
 31
0.0
210
0.0
220
0.0
230
1.0
 40
0.7071067811865476
 41
0.9156936017146897
 42
1.570796326794891
  0
ELLIPSE
  5
A7
330
85
100
AcDbEntity
  8
AM_9
 48
0.0016832649854734
100
AcDbEllipse
 10
-0.7349999999999995
 20
1.245545635173699
 30
0.0
 11
0.2187500000000003
 21
0.0
 31
0.0
210
0.0
220
0.0
230
1.0
 40
0.7071067811865481
 41
1.570796326794897
 42
2.225899051875097
  0
LINE
  5
A8
330
85
100
AcDbEntity
  8
AM_9
 48
0.0016832649854734
100
AcDbLine
 10
-0.8298683298050512
 20
1.351611652351681
 30
0.0
 11
-0.8423548910028987
 21
1.332997785922616
 31
0.0
  0
LINE
  5
A9
330
85
100
AcDbEntity
  8
AM_9
 48
0.0016832649854734
100
AcDbLine
 10
-0.6276451089971009
 20
1.332997785922616
 30
0.0
 11
-0.6401316701949484
 21
1.351611652351681
 31
0.0
  0
ELLIPSE
  5
AA
330
85
100
AcDbEntity
  8
AM_9
 48
0.0016832649854734
100
AcDbEllipse
 10
-0.7349999999999998
 20
1.319791847198287
 30
0.0
 11
0.105
 21
0.0
 31
0.0
210
0.0
220
0.0
230
1.0
 40
0.7071067811865454
 41
0.4429110440736377
 42
3.141592653589793
  0
ELLIPSE
  5
AB
330
85
100
AcDbEntity
  8
AM_9
 48
0.0016832649854734
100
AcDbEllipse
 10
-0.7349999999999998
 20
1.296989860822681
 30
0.0
 11
0.1188200907348974
 21
4.440892098500626E-16
 31
0.0
210
0.0
220
0.0
230
1.0
 40
0.7071067811865509
 41
0.376220626100916
 42
1.733730595722524
  0
ELLIPSE
  5
AC
330
85
100
AcDbEntity
  8
AM_9
 48
0.0016832649854734
100
AcDbEllipse
 10
-0.7350000000000277
 20
1.29698986082259
 30
0.0
 11
0.1188200907348674
 21
-1.845015563785836E-13
 31
0.0
210
0.0
220
0.0
230
1.0
 40
0.7071067811868694
 41
-3.58450369766235
 42
-3.517813279689614
  0
ELLIPSE
  5
AD
330
85
100
AcDbEntity
  8
AM_9
 48
0.0016832649854734
100
AcDbEllipse
 10
-0.735
 20
1.2455456351737
 30
0.0
 11
0.2137499999999996
 21
-2.422017878744506E-16
 31
0.0
210
0.0
220
0.0
230
1.0
 40
0.7071067811865459
 41
0.903655218840334
 42
2.237937434749503
  0
ELLIPSE
  5
AE
330
85
100
AcDbEntity
  8
AM_9
 48
0.0016832649854734
100
AcDbEllipse
 10
-0.7350000000000007
 20
1.319791847198282
 30
0.0
 11
0.1050000000000009
 21
9.103828801926284E-15
 31
0.0
210
0.0
220
0.0
230
1.0
 40
0.7071067811865521
 41
6.283185307179529
 42
6.726096351253165
  0
LINE
  5
AF
330
85
100
AcDbEntity
  8
AM_9
 48
0.0016832649854734
100
AcDbLine
 10
-0.6299999999999998
 20
1.321110838080825
 30
0.0
 11
-0.6299999999999998
 21
1.341005050633883
 31
0.0
  0
LINE
  5
B0
330
85
100
AcDbEntity
  8
AM_9
 48
0.0016832649854734
100
AcDbLine
 10
-0.8399999999999997
 20
1.341005050633883
 30
0.0
 11
-0.8399999999999997
 21
1.321110838080825
 31
0.0
  0
ELLIPSE
  5
B1
330
85
100
AcDbEntity
  8
AM_9
 48
0.0016832649854734
100
AcDbEllipse
 10
-0.7350000000000008
 20
1.341005050633882
 30
0.0
 11
0.104999999999999
 21
-3.196514541111510E-15
 31
0.0
210
0.0
220
0.0
230
1.0
 40
0.7071067811865416
 41
3.141592653589815
 42
3.665191429188119
  0
ELLIPSE
  5
B2
330
85
100
AcDbEntity
  8
AM_9
 48
0.0016832649854734
100
AcDbEllipse
 10
-0.7350000000000018
 20
1.258498557581076
 30
0.0
 11
0.172534053283019
 21
0.0
 31
0.0
210
0.0
220
0.0
230
1.0
 40
0.707106781186547
 41
0.7772913431420259
 42
1.407862057867259
  0
LINE
  5
B3
330
85
100
AcDbEntity
  8
AM_9
 48
0.0016832649854734
100
AcDbLine
 10
-0.7542743186691521
 20
1.37989557414236
 30
0.0
 11
-0.7629874918769156
 21
1.378882733951368
 31
0.0
  0
LINE
  5
B4
330
85
100
AcDbEntity
  8
AM_9
 48
0.0016832649854734
100
AcDbLine
 10
-0.707012508123084
 20
1.378882733951368
 30
0.0
 11
-0.7157256813308475
 21
1.37989557414236
 31
0.0
  0
ELLIPSE
  5
B5
330
85
100
AcDbEntity
  8
AM_9
 48
0.0016832649854734
100
AcDbEllipse
 10
-0.7350000000000002
 20
1.296989860822682
 30
0.0
 11
0.118820090734897
 21
6.661338147750940E-16
 31
0.0
210
0.0
220
0.0
230
1.0
 40
0.7071067811865441
 41
1.73373059572252
 42
2.698681609516154
  0
ELLIPSE
  5
B6
330
85
100
AcDbEntity
  8
AM_9
 48
0.0016832649854734
100
AcDbEllipse
 10
-0.7349999999999998
 20
1.258498557581081
 30
0.0
 11
0.1725340532830237
 21
0.0
 31
0.0
210
0.0
220
0.0
230
1.0
 40
0.7071067811864992
 41
1.407862057867275
 42
2.364301310447829
  0
ELLIPSE
  5
B7
330
85
100
AcDbEntity
  8
AM_9
 48
0.0016832649854734
100
AcDbEllipse
 10
-0.7349999999999998
 20
1.341005050633883
 30
0.0
 11
0.105
 21
0.0
 31
0.0
210
0.0
220
0.0
230
1.0
 40
0.7071067811865497
 41
0.0
 42
3.141592653589793
  0
ELLIPSE
  5
B8
330
85
100
AcDbEntity
  8
AM_9
 48
0.0016832649854734
100
AcDbEllipse
 10
-0.7350000000000007
 20
1.341005050633882
 30
0.0
 11
0.1050000000000009
 21
3.108624468950438E-15
 31
0.0
210
0.0
220
0.0
230
1.0
 40
0.7071067811865416
 41
5.759586531581269
 42
6.283185307179562
  0
ELLIPSE
  5
B9
330
85
100
AcDbEntity
  8
AM_9
 48
0.0016832649854734
100
AcDbEllipse
 10
-0.7349999999999998
 20
1.383431457505076
 30
0.0
 11
0.1349999999999998
 21
0.0
 31
0.0
210
0.0
220
0.0
230
1.0
 40
0.7071067811865476
 41
0.4159140521025444
 42
2.725678601487248
  0
ELLIPSE
  5
BA
330
85
100
AcDbEntity
  8
AM_9
 48
0.0016832649854734
100
AcDbEllipse
 10
-0.7349999999999999
 20
1.174834957055045
 30
0.0
 11
0.2057518972230699
 21
0.0
 31
0.0
210
0.0
220
0.0
230
1.0
 40
0.7071067811865476
 41
0.0
 42
6.283185307179586
  0
ELLIPSE
  5
BB
330
85
100
AcDbEntity
  8
AM_9
 48
0.0016832649854734
100
AcDbEllipse
 10
-0.7349999999991657
 20
1.013412911781146
 30
0.0
 11
0.1986176267803812
 21
1.816991002101531E-12
 31
0.0
210
0.0
220
0.0
230
1.0
 40
0.7071067811864756
 41
0.0
 42
6.283185307179586
  0
LWPOLYLINE
  5
BD
330
85
100
AcDbEntity
  8
AM_0
 48
0.0016832649854734
100
AcDbPolyline
 90
        3
 70
     0
 43
0.0
 10
-0.8695385093142
 20
1.385200592810031
 10
-0.8927272497321274
 20
1.36002188478947
 10
-0.9244430570778458
 20
1.322885439365978
  0
LWPOLYLINE
  5
BE
330
85
100
AcDbEntity
  8
AM_0
 48
0.0016832649854734
100
AcDbPolyline
 90
        3
 70
     0
 43
0.0
 10
-0.5455569429221538
 20
1.322885439365978
 10
-0.5771307857684614
 20
1.359862965679058
 10
-0.5994645452525049
 20
1.384147839576906
  0
LWPOLYLINE
  5
BF
330
85
100
AcDbEntity
  8
AM_0
 48
0.0016832649854734
100
AcDbPolyline
 90
        3
 70
     0
 43
0.0
 10
-0.9244430570778458
 20
1.322885439365978
 10
-0.9560168999241534
 20
1.282523161486779
 10
-0.987590742770461
 20
1.239133873939138
  0
LWPOLYLINE
  5
C0
330
85
100
AcDbEntity
  8
AM_0
 48
0.0016832649854734
100
AcDbPolyline
 90
        3
 70
     0
 43
0.0
 10
-0.4824092572295386
 20
1.239133873939138
 10
-0.5138411355764355
 20
1.282334340012045
 10
-0.5455569429221538
 20
1.322885439365978
  0
LINE
  5
C1
330
85
100
AcDbEntity
  8
AM_0
 48
0.0016832649854734
100
AcDbLine
 10
-0.4824092572295386
 20
1.239133873939138
 30
0.0
 11
-0.4824092572295386
 21
1.181246718289606
 31
0.0
  0
LWPOLYLINE
  5
C2
330
85
100
AcDbEntity
  8
AM_0
 48
0.0016832649854734
100
AcDbPolyline
 90
        3
 70
     0
 43
0.0
 10
-0.5455569429221538
 20
1.168205830981421
 10
-0.5139831000758462
 20
1.205183357294501
 10
-0.4824092572295386
 20
1.239133873939138
  0
LWPOLYLINE
  5
C3
330
85
100
AcDbEntity
  8
AM_0
 48
0.0016832649854734
100
AcDbPolyline
 90
        3
 70
     0
 43
0.0
 10
-0.5455569429221538
 20
1.097495152862766
 10
-0.5771307857684614
 20
1.060517626549686
 10
-0.6087046286147691
 20
1.026567109905049
  0
LWPOLYLINE
  5
C4
330
85
100
AcDbEntity
  8
AM_0
 48
0.0016832649854734
100
AcDbPolyline
 90
        3
 70
     0
 43
0.0
 10
-0.4824092572295386
 20
1.181246718289606
 10
-0.5138411355764355
 20
1.138046252216699
 10
-0.5455569429221538
 20
1.097495152862766
  0
LWPOLYLINE
  5
C5
330
85
100
AcDbEntity
  8
AM_0
 48
0.0016832649854734
100
AcDbPolyline
 90
        3
 70
     0
 43
0.0
 10
-0.9244430570778458
 20
1.168205830981421
 10
-0.8928692142315381
 20
1.127843553102222
 10
-0.8612953713852305
 20
1.084454265554581
  0
LWPOLYLINE
  5
C6
330
85
100
AcDbEntity
  8
AM_0
 48
0.0016832649854734
100
AcDbPolyline
 90
        3
 70
     0
 43
0.0
 10
-0.987590742770461
 20
1.239133873939138
 10
-0.9561588644235641
 20
1.205342276404913
 10
-0.9244430570778458
 20
1.168205830981421
  0
LINE
  5
C7
330
85
100
AcDbEntity
  8
AM_0
 48
0.0016832649854734
100
AcDbLine
 10
-0.987590742770461
 20
1.239133873939138
 30
0.0
 11
-0.987590742770461
 21
1.181246718289606
 31
0.0
  0
LWPOLYLINE
  5
C8
330
85
100
AcDbEntity
  8
AM_0
 48
0.0016832649854734
100
AcDbPolyline
 90
        3
 70
     0
 43
0.0
 10
-0.9244430570778458
 20
1.097495152862766
 10
-0.9560168999241534
 20
1.137857430741965
 10
-0.987590742770461
 20
1.181246718289606
  0
LWPOLYLINE
  5
C9
330
85
100
AcDbEntity
  8
AM_0
 48
0.0016832649854734
100
AcDbPolyline
 90
        3
 70
     0
 43
0.0
 10
-0.8612953713852305
 20
1.026567109905049
 10
-0.8927272497321274
 20
1.060358707439274
 10
-0.9244430570778458
 20
1.097495152862766
  0
LWPOLYLINE
  5
CA
330
85
100
AcDbEntity
  8
AM_0
 48
0.0016832649854734
100
AcDbPolyline
 90
        3
 70
     0
 43
0.0
 10
-0.6087046286147691
 20
1.084454265554581
 10
-0.5772727502678723
 20
1.127654731627488
 10
-0.5455569429221538
 20
1.168205830981421
  0
ELLIPSE
  5
CB
330
85
100
AcDbEntity
  8
AM_0
 48
0.0016832649854734
100
AcDbEllipse
 10
-0.7349999999999999
 20
1.2455456351737
 30
0.0
 11
0.2187499999999998
 21
8.881784197001254E-16
 31
0.0
210
0.0
220
0.0
230
1.0
 40
0.7071067811865509
 41
2.225899051875095
 42
4.712388980384688
  0
ELLIPSE
  5
CC
330
85
100
AcDbEntity
  8
AM_0
 48
0.0016832649854734
100
AcDbEllipse
 10
-0.7349999999999997
 20
1.2455456351737
 30
0.0
 11
0.2187499999999994
 21
-8.307344147003041E-16
 31
0.0
210
0.0
220
0.0
230
1.0
 40
0.7071067811865508
 41
4.712388980384691
 42
5.759586531581293
  0
ELLIPSE
  5
CD
330
85
100
AcDbEntity
  8
AM_0
 48
0.0016832649854734
100
AcDbEllipse
 10
-0.7349999999999999
 20
1.245545635173699
 30
0.0
 11
0.21875
 21
1.776356839400250E-15
 31
0.0
210
0.0
220
0.0
230
1.0
 40
0.7071067811865471
 41
5.759586531581283
 42
7.198878908894266
  0
LINE
  5
CE
330
85
100
AcDbEntity
  8
AM_0
 48
0.0016832649854734
100
AcDbLine
 10
-0.6087046286147691
 20
1.084454265554581
 30
0.0
 11
-0.6087046286147691
 21
1.026567109905049
 31
0.0
  0
LWPOLYLINE
  5
CF
330
85
100
AcDbEntity
  8
AM_0
 48
0.0016832649854734
100
AcDbPolyline
 90
        3
 70
     0
 43
0.0
 10
-0.7349999999999998
 20
1.090866026789142
 10
-0.6718523143073845
 20
1.089173651006083
 10
-0.6087046286147691
 20
1.084454265554581
  0
LWPOLYLINE
  5
D0
330
85
100
AcDbEntity
  8
AM_0
 48
0.0016832649854734
100
AcDbPolyline
 90
        4
 70
     0
 43
0.0
 10
-0.8612953713852305
 20
1.084454265554581
 10
-0.8317996321117976
 20
1.086989375720513
 10
-0.7835424412477542
 20
1.089857813969659
 10
-0.7349999999999998
 20
1.090866026789142
  0
LINE
  5
D1
330
85
100
AcDbEntity
  8
AM_0
 48
0.0016832649854734
100
AcDbLine
 10
-0.8612953713852305
 20
1.084454265554581
 30
0.0
 11
-0.8612953713852305
 21
1.026567109905049
 31
0.0
  0
LWPOLYLINE
  5
D2
330
85
100
AcDbEntity
  8
AM_0
 48
0.0016832649854734
100
AcDbPolyline
 90
        4
 70
     0
 43
0.0
 10
-0.7349999999999998
 20
1.020155348670488
 10
-0.7833998160558987
 20
1.021157715466319
 10
-0.8317996321117976
 20
1.024031999739117
 10
-0.8612953713852305
 20
1.026567109905049
  0
LWPOLYLINE
  5
D3
330
85
100
AcDbEntity
  8
AM_0
 48
0.0016832649854734
100
AcDbPolyline
 90
        3
 70
     0
 43
0.0
 10
-0.6087046286147691
 20
1.026567109905049
 10
-0.671568385308563
 20
1.021862675635708
 10
-0.7349999999999998
 20
1.020155348670488
  0
ELLIPSE
  5
D4
330
85
100
AcDbEntity
  8
AM_0
 48
0.0016832649854734
100
AcDbEllipse
 10
-0.7349999999999998
 20
1.296989860822682
 30
0.0
 11
0.1188200907348975
 21
2.220446049250313E-16
 31
0.0
210
0.0
220
0.0
230
1.0
 40
0.7071067811865483
 41
2.765372027488874
 42
6.6594059332805
  0
ELLIPSE
  5
D5
330
85
100
AcDbEntity
  8
AM_0
 48
0.0016832649854734
100
AcDbEllipse
 10
-0.7349999999999999
 20
1.245545635173699
 30
0.0
 11
0.21375
 21
0.0
 31
0.0
210
0.0
220
0.0
230
1.0
 40
0.7071067811865476
 41
2.2379374347495
 42
7.186840526019921
  0
LINE
  5
D6
330
85
100
AcDbEntity
  8
AM_0
 48
0.0016832649854734
100
AcDbLine
 10
-0.6299999999999998
 20
1.319791847198287
 30
0.0
 11
-0.6299999999999998
 21
1.321110838080825
 31
0.0
  0
LINE
  5
D7
330
85
100
AcDbEntity
  8
AM_0
 48
0.0016832649854734
100
AcDbLine
 10
-0.8399999999999997
 20
1.321110838080825
 30
0.0
 11
-0.8399999999999997
 21
1.319791847198287
 31
0.0
  0
ELLIPSE
  5
D8
330
85
100
AcDbEntity
  8
AM_0
 48
0.0016832649854734
100
AcDbEllipse
 10
-0.7349999999999998
 20
1.319791847198287
 30
0.0
 11
0.105
 21
0.0
 31
0.0
210
0.0
220
0.0
230
1.0
 40
0.7071067811865476
 41
3.141592653589793
 42
6.283185307179586
  0
ELLIPSE
  5
D9
330
85
100
AcDbEntity
  8
AM_0
 48
0.0016832649854734
100
AcDbEllipse
 10
-0.7349999999999991
 20
1.258498557581079
 30
0.0
 11
0.1725340532830147
 21
-1.574668883113045E-15
 31
0.0
210
0.0
220
0.0
230
1.0
 40
0.7071067811865464
 41
2.364301310447865
 42
7.060476650321615
  0
LINE
  5
DA
330
85
100
AcDbEntity
  8
AM_0
 48
0.0016832649854734
100
AcDbLine
 10
-0.6440673326026338
 20
1.30388194462159
 30
0.0
 11
-0.6180865704891007
 21
1.335701749774984
 31
0.0
  0
LINE
  5
DB
330
85
100
AcDbEntity
  8
AM_0
 48
0.0016832649854734
100
AcDbLine
 10
-0.851913429510899
 20
1.335701749774984
 30
0.0
 11
-0.8259326673973658
 21
1.30388194462159
 31
0.0
  0
ELLIPSE
  5
DC
330
85
100
AcDbEntity
  8
AM_0
 48
0.0016832649854734
100
AcDbEllipse
 10
-0.7349999999999999
 20
1.383431457505076
 30
0.0
 11
0.1350000000000001
 21
0.0
 31
0.0
210
0.0
220
0.0
230
1.0
 40
0.7071067811865475
 41
2.725678601487247
 42
5.759586531581287
  0
ELLIPSE
  5
DD
330
85
100
AcDbEntity
  8
AM_0
 48
0.0016832649854734
100
AcDbEllipse
 10
-0.7350000000000004
 20
1.383431457505076
 30
0.0
 11
0.1350000000000007
 21
0.0
 31
0.0
210
0.0
220
0.0
230
1.0
 40
0.7071067811865478
 41
5.759586531581287
 42
6.699099359282128
  0
ELLIPSE
  5
DE
330
85
100
AcDbEntity
  8
AM_0
 48
0.0016832649854734
100
AcDbEllipse
 10
-0.7349999999999998
 20
1.341005050633883
 30
0.0
 11
0.1049999999999996
 21
0.0
 31
0.0
210
0.0
220
0.0
230
1.0
 40
0.7071067811865477
 41
3.665191429188088
 42
5.759586531581292
  0
ELLIPSE
  5
DF
330
85
100
AcDbEntity
  8
AM_0
 48
0.0016832649854734
100
AcDbEllipse
 10
-0.7350000000000081
 20
1.439999999999999
 30
0.0
 11
0.1026779019331958
 21
0.0
 31
0.0
210
0.0
220
0.0
230
1.0
 40
0.7071067811865475
 41
0.0000000000000153
 42
0.4159140521025298
  0
LINE
  5
E0
330
85
100
AcDbEntity
  8
AM_0
 48
0.0016832649854734
100
AcDbLine
 10
-0.8289243440009284
 20
1.469334017363775
 30
0.0
 11
-0.8584908992236332
 21
1.421999564853884
 31
0.0
  0
LINE
  5
E1
330
85
100
AcDbEntity
  8
AM_0
 48
0.0016832649854734
100
AcDbLine
 10
-0.6115091007763663
 20
1.421999564853884
 30
0.0
 11
-0.641075655999071
 21
1.469334017363775
 31
0.0
  0
ELLIPSE
  5
E2
330
85
100
AcDbEntity
  8
AM_0
 48
0.0016832649854734
100
AcDbEllipse
 10
-0.7349999999999998
 20
1.44
 30
0.0
 11
0.1026779019331874
 21
0.0
 31
0.0
210
0.0
220
0.0
230
1.0
 40
0.7071067811865471
 41
0.4159140521025462
 42
6.283185307179584
  0
ENDBLK
  5
88
330
85
100
AcDbEntity
  8
0
100
AcDbBlockEnd
  0
BLOCK
  5
E5
330
E3
100
AcDbEntity
  8
0
100
AcDbBlockBegin
  2
2_131906_0_in_131056_2
 70
     2
 10
0.0
 20
0.0
 30
0.0
  3
2_131906_0_in_131056_2
  1

  0
ATTDEF
  5
E7
330
E3
100
AcDbEntity
  8
AM_6
100
AcDbText
 10
5.051
 20
1.022983357735381
 30
0.0
 40
0.5
  1
Eccentric Collar Insert Inch Bore
100
AcDbAttributeDefinition
  3

  2
NN
 70
     8
280
     0
  0
ATTDEF
  5
E8
330
E3
100
AcDbEntity
  8
AM_6
100
AcDbText
 10
5.051
 20
0.5229833577353808
 30
0.0
 40
0.5
  1
SXR Normal Duty Bearing Inserts
100
AcDbAttributeDefinition
  3

  2
NT
 70
     8
280
     0
  0
ATTDEF
  5
E9
330
E3
100
AcDbEntity
  8
AM_6
100
AcDbText
 10
5.051
 20
0.0229833577353808
 30
0.0
 40
0.5
  1
131906
100
AcDbAttributeDefinition
  3

  2
NB
 70
     8
280
     0
  0
ATTDEF
  5
EA
330
E3
100
AcDbEntity
  8
AM_6
100
AcDbText
 10
5.051
 20
-0.4770166422646192
 30
0.0
 40
0.5
  1
$PN.
100
AcDbAttributeDefinition
  3

  2
NBSYN
 70
     8
280
     0
  0
ATTDEF
  5
EB
330
E3
100
AcDbEntity
  8
AM_6
100
AcDbText
 10
5.051
 20
-0.9770166422646192
 30
0.0
 40
0.5
  1
131906
100
AcDbAttributeDefinition
  3

  2
LINA
 70
     8
280
     0
  0
ATTDEF
  5
EC
330
E3
100
AcDbEntity
  8
AM_6
100
AcDbText
 10
5.051
 20
-1.477016642264619
 30
0.0
 40
0.5
  1
205
100
AcDbAttributeDefinition
  3

  2
SERIES
 70
     8
280
     0
  0
ATTDEF
  5
ED
330
E3
100
AcDbEntity
  8
AM_6
100
AcDbText
 10
5.051
 20
-1.977016642264619
 30
0.0
 40
0.5
  1
7/8
100
AcDbAttributeDefinition
  3

  2
SS
 70
     8
280
     0
  0
ATTDEF
  5
EE
330
E3
100
AcDbEntity
  8
AM_6
100
AcDbText
 10
5.051
 20
-2.477016642264619
 30
0.0
 40
0.5
  1
131906
100
AcDbAttributeDefinition
  3

  2
PN
 70
     8
280
     0
  0
ATTDEF
  5
EF
330
E3
100
AcDbEntity
  8
AM_6
100
AcDbText
 10
5.051
 20
-2.977016642264619
 30
0.0
 40
0.5
  1
INS-SXR-014
100
AcDbAttributeDefinition
  3

  2
DESCRIPTION
 70
     8
280
     0
  0
ATTDEF
  5
F0
330
E3
100
AcDbEntity
  8
AM_6
100
AcDbText
 10
5.051
 20
-3.477016642264619
 30
0.0
 40
0.5
  1
0.6
100
AcDbAttributeDefinition
  3

  2
WEIGHT
 70
     8
280
     0
  0
ATTDEF
  5
F1
330
E3
100
AcDbEntity
  8
AM_6
100
AcDbText
 10
5.051
 20
-3.977016642264619
 30
0.0
 40
0.5
  1
1.62
100
AcDbAttributeDefinition
  3

  2
A
 70
     8
280
     0
  0
ATTDEF
  5
F2
330
E3
100
AcDbEntity
  8
AM_6
100
AcDbText
 10
5.051
 20
-4.477016642264619
 30
0.0
 40
0.5
  1
0.59
100
AcDbAttributeDefinition
  3

  2
C
 70
     8
280
     0
  0
ATTDEF
  5
F3
330
E3
100
AcDbEntity
  8
AM_6
100
AcDbText
 10
5.051
 20
-4.977016642264619
 30
0.0
 40
0.5
  1
2.0472
100
AcDbAttributeDefinition
  3

  2
D
 70
     8
280
     0
  0
ATTDEF
  5
F4
330
E3
100
AcDbEntity
  8
AM_6
100
AcDbText
 10
5.051
 20
-5.477016642264619
 30
0.0
 40
0.5
  1
0.16
100
AcDbAttributeDefinition
  3

  2
J
 70
     8
280
     0
  0
ATTDEF
  5
F5
330
E3
100
AcDbEntity
  8
AM_6
100
AcDbText
 10
5.051
 20
-5.977016642264619
 30
0.0
 40
0.5
  1
1.50
100
AcDbAttributeDefinition
  3

  2
L
 70
     8
280
     0
  0
ATTDEF
  5
F6
330
E3
100
AcDbEntity
  8
AM_6
100
AcDbText
 10
5.051
 20
-6.477016642264619
 30
0.0
 40
0.5
  1
1/4 - 28
100
AcDbAttributeDefinition
  3

  2
N
 70
     8
280
     0
  0
ATTDEF
  5
F7
330
E3
100
AcDbEntity
  8
AM_6
100
AcDbText
 10
5.051
 20
-6.977016642264619
 30
0.0
 40
0.5
  1
0.56
100
AcDbAttributeDefinition
  3

  2
W
 70
     8
280
     0
  0
ATTDEF
  5
F8
330
E3
100
AcDbEntity
  8
AM_6
100
AcDbText
 10
5.051
 20
-7.477016642264619
 30
0.0
 40
0.5
  1
1.06
100
AcDbAttributeDefinition
  3

  2
Y
 70
     8
280
     0
  0
ATTDEF
  5
F9
330
E3
100
AcDbEntity
  8
AM_6
100
AcDbText
 10
5.051
 20
-7.977016642264619
 30
0.0
 40
0.5
  1
1.32
100
AcDbAttributeDefinition
  3

  2
Z
 70
     8
280
     0
  0
ATTDEF
  5
FA
330
E3
100
AcDbEntity
  8
AM_6
100
AcDbText
 10
5.051
 20
-8.47701664226462
 30
0.0
 40
0.5
  1
baldor
100
AcDbAttributeDefinition
  3

  2
COMPANY
 70
     8
280
     0
  0
ARC
  5
FB
330
E3
100
AcDbEntity
  8
AM_9
 48
0.006035257375934
100
AcDbCircle
 10
-0.4300000000000001
 20
-0.9504871118322132
 30
0.0
 40
0.0833333333333346
100
AcDbArc
 50
206.5389371057709
 51
352.5716377396139
  0
LINE
  5
FC
330
E3
100
AcDbEntity
  8
AM_9
 48
0.006035257375934
100
AcDbLine
 10
-1.6382
 20
-0.4375000000000001
 30
0.0
 11
-1.283343860018001
 21
-0.4375000000000001
 31
0.0
  0
LINE
  5
FD
330
E3
100
AcDbEntity
  8
AM_9
 48
0.006035257375934
100
AcDbLine
 10
-1.283343860018001
 20
0.4375000000000001
 30
0.0
 11
-1.6382
 21
0.4375000000000001
 31
0.0
  0
LINE
  5
FE
330
E3
100
AcDbEntity
  8
AM_9
 48
0.006035257375934
100
AcDbLine
 10
-1.266656139981998
 20
-0.4375000000000001
 30
0.0
 11
-0.0417999999999999
 21
-0.4375000000000001
 31
0.0
  0
LINE
  5
FF
330
E3
100
AcDbEntity
  8
AM_9
 48
0.006035257375934
100
AcDbLine
 10
-0.0417999999999999
 20
0.4375000000000001
 30
0.0
 11
-1.266656139981998
 21
0.4375000000000001
 31
0.0
  0
LINE
  5
100
330
E3
100
AcDbEntity
  8
AM_9
 48
0.006035257375934
100
AcDbLine
 10
-1.283343860018001
 20
-0.4375000000000001
 30
0.0
 11
-1.275
 21
-0.4458438600180014
 31
0.0
  0
LINE
  5
101
330
E3
100
AcDbEntity
  8
AM_9
 48
0.006035257375934
100
AcDbLine
 10
-1.275
 20
0.4458438600180014
 30
0.0
 11
-1.283343860018001
 21
0.4375000000000001
 31
0.0
  0
LINE
  5
102
330
E3
100
AcDbEntity
  8
AM_9
 48
0.006035257375934
100
AcDbLine
 10
-1.283343860018001
 20
0.4375000000000001
 30
0.0
 11
-1.283343860018001
 21
-0.4375000000000001
 31
0.0
  0
LINE
  5
103
330
E3
100
AcDbEntity
  8
AM_9
 48
0.006035257375934
100
AcDbLine
 10
-1.266656139981998
 20
0.4375000000000001
 30
0.0
 11
-1.275
 21
0.4458438600180014
 31
0.0
  0
LINE
  5
104
330
E3
100
AcDbEntity
  8
AM_9
 48
0.006035257375934
100
AcDbLine
 10
-1.275
 20
-0.4458438600180014
 30
0.0
 11
-1.266656139981998
 21
-0.4375000000000001
 31
0.0
  0
LINE
  5
105
330
E3
100
AcDbEntity
  8
AM_9
 48
0.006035257375934
100
AcDbLine
 10
-1.266656139981998
 20
0.4375000000000001
 30
0.0
 11
-1.266656139981998
 21
-0.4375000000000001
 31
0.0
  0
LINE
  5
106
330
E3
100
AcDbEntity
  8
AM_9
 48
0.006035257375934
100
AcDbLine
 10
-1.275
 20
0.4458438600180014
 30
0.0
 11
-1.275
 21
-0.4458438600180014
 31
0.0
  0
LINE
  5
107
330
E3
100
AcDbEntity
  8
AM_9
 48
0.006035257375934
100
AcDbLine
 10
-0.0417999999999999
 20
-0.4375000000000001
 30
0.0
 11
-0.0299999999999998
 21
-0.4493
 31
0.0
  0
LINE
  5
108
330
E3
100
AcDbEntity
  8
AM_9
 48
0.006035257375934
100
AcDbLine
 10
-0.0299999999999998
 20
0.4493
 30
0.0
 11
-0.0417999999999999
 21
0.4375000000000001
 31
0.0
  0
LINE
  5
109
330
E3
100
AcDbEntity
  8
AM_9
 48
0.006035257375934
100
AcDbLine
 10
-1.6382
 20
0.4375
 30
0.0
 11
-1.65
 21
0.4493
 31
0.0
  0
LINE
  5
10A
330
E3
100
AcDbEntity
  8
AM_9
 48
0.006035257375934
100
AcDbLine
 10
-1.65
 20
-0.4493
 30
0.0
 11
-1.6382
 21
-0.4374999999999999
 31
0.0
  0
LINE
  5
10B
330
E3
100
AcDbEntity
  8
AM_9
 48
0.006035257375934
100
AcDbLine
 10
-1.6382
 20
0.4375
 30
0.0
 11
-1.6382
 21
-0.4374999999999999
 31
0.0
  0
LWPOLYLINE
  5
10C
330
E3
100
AcDbEntity
  8
AM_9
 48
0.006035257375934
100
AcDbPolyline
 90
       20
 70
     0
 43
0.0
 10
-1.5706
 20
0.1132333322323528
 10
-1.569159527563461
 20
0.0961526078589973
 10
-1.564716384597787
 20
0.0788883536871367
 10
-1.557664896369188
 20
0.0629238861988834
 10
-1.547820445723516
 20
0.0478062993244361
 10
-1.535748583737184
 20
0.0345570175212758
 10
-1.521256342011799
 20
0.0231254703043159
 10
-1.505283347678354
 20
0.0143890321628835
 10
-1.487529991696426
 20
0.0083344730068392
 10
-1.469898456343024
 20
0.0055673417477748
 10
-1.45151078210288
 20
0.0058835919001391
 10
-1.434376659570747
 20
0.0091425081379436
 10
-1.417555969391799
 20
0.0153732263039379
 10
-1.402261319863362
 20
0.0241227398611953
 10
-1.388220293326748
 20
0.0355325227313912
 10
-1.376237345516314
 20
0.0490419441845134
 10
-1.366387059826419
 20
0.0647164076796128
 10
-1.3594853042515
 20
0.0812662187610187
 10
-1.355383169953181
 20
0.0991200838828344
 10
-1.354400000579429
 20
0.1132441433485892
  0
LINE
  5
10D
330
E3
100
AcDbEntity
  8
AM_9
 48
0.006035257375934
100
AcDbLine
 10
-1.3544
 20
0.1132199239728801
 30
0.0
 11
-1.3544
 21
0.1920721945437879
 31
0.0
  0
LINE
  5
10E
330
E3
100
AcDbEntity
  8
AM_9
 48
0.006035257375934
100
AcDbLine
 10
-1.5706
 20
0.192072194543788
 30
0.0
 11
-1.5706
 21
0.1132333322323528
 31
0.0
  0
LWPOLYLINE
  5
10F
330
E3
100
AcDbEntity
  8
AM_9
 48
0.006035257375934
100
AcDbPolyline
 90
        4
 70
     0
 43
0.0
 10
-1.562366007980637
 20
0.1526966958354653
 10
-1.566507657415739
 20
0.1414345207171569
 10
-1.569550119122128
 20
0.1276837558586456
 10
-1.5706
 20
0.1132333322323528
  0
LWPOLYLINE
  5
110
330
E3
100
AcDbEntity
  8
AM_9
 48
0.006035257375934
100
AcDbPolyline
 90
        5
 70
     0
 43
0.0
 10
-1.354400000579429
 20
0.1132441433485892
 10
-1.35444515863969
 20
0.1162482881941461
 10
-1.356504476643354
 20
0.1336030859721159
 10
-1.361290293900187
 20
0.149488296713081
 10
-1.362769505356703
 20
0.1530031022853283
  0
LINE
  5
111
330
E3
100
AcDbEntity
  8
AM_9
 48
0.006035257375934
100
AcDbLine
 10
-0.0299999999999998
 20
0.6482000000000001
 30
0.0
 11
-0.0417999999999998
 21
0.66
 31
0.0
  0
LINE
  5
112
330
E3
100
AcDbEntity
  8
AM_9
 48
0.006035257375934
100
AcDbLine
 10
-0.0417999999999998
 20
-0.66
 30
0.0
 11
-0.0299999999999998
 21
-0.6482000000000001
 31
0.0
  0
LINE
  5
113
330
E3
100
AcDbEntity
  8
AM_9
 48
0.006035257375934
100
AcDbLine
 10
-0.0299999999999998
 20
0.6482000000000001
 30
0.0
 11
-0.0299999999999998
 21
-0.6482000000000001
 31
0.0
  0
LINE
  5
114
330
E3
100
AcDbEntity
  8
AM_9
 48
0.006035257375934
100
AcDbLine
 10
-0.2949999999999999
 20
-0.66
 30
0.0
 11
-0.0417999999999998
 21
-0.66
 31
0.0
  0
LINE
  5
115
330
E3
100
AcDbEntity
  8
AM_9
 48
0.006035257375934
100
AcDbLine
 10
-0.0417999999999998
 20
0.66
 30
0.0
 11
-0.2949999999999999
 21
0.66
 31
0.0
  0
LINE
  5
116
330
E3
100
AcDbEntity
  8
AM_9
 48
0.006035257375934
100
AcDbLine
 10
-0.0417999999999998
 20
0.66
 30
0.0
 11
-0.0417999999999998
 21
-0.66
 31
0.0
  0
LINE
  5
117
330
E3
100
AcDbEntity
  8
AM_9
 48
0.006035257375934
100
AcDbLine
 10
-0.9499999999999998
 20
-0.66
 30
0.0
 11
-0.8849999999999999
 21
-0.66
 31
0.0
  0
LINE
  5
118
330
E3
100
AcDbEntity
  8
AM_9
 48
0.006035257375934
100
AcDbLine
 10
-0.8849999999999999
 20
0.66
 30
0.0
 11
-0.9499999999999998
 21
0.66
 31
0.0
  0
LINE
  5
119
330
E3
100
AcDbEntity
  8
AM_9
 48
0.006035257375934
100
AcDbLine
 10
-0.7819999999999999
 20
-0.9748571428571434
 30
0.0
 11
-0.7179999999999999
 21
-0.9748571428571434
 31
0.0
  0
LINE
  5
11A
330
E3
100
AcDbEntity
  8
AM_9
 48
0.006035257375934
100
AcDbLine
 10
-0.7179999999999999
 20
0.9748571428571434
 30
0.0
 11
-0.7819999999999999
 21
0.9748571428571434
 31
0.0
  0
LINE
  5
11B
330
E3
100
AcDbEntity
  8
AM_9
 48
0.006035257375934
100
AcDbLine
 10
-0.2949999999999999
 20
0.9624666435778437
 30
0.0
 11
-0.2949999999999999
 21
-0.9624666435778437
 31
0.0
  0
ARC
  5
11C
330
E3
100
AcDbEntity
  8
AM_9
 48
0.006035257375934
100
AcDbCircle
 10
-0.3185999999999996
 20
-0.962466643577844
 30
0.0
 40
0.0235999999999997
100
AcDbArc
 50
285.7475919993692
 51
0.0000000000005391
  0
ARC
  5
11D
330
E3
100
AcDbEntity
  8
AM_9
 48
0.006035257375934
100
AcDbCircle
 10
-0.3185999999999994
 20
0.9624666435778441
 30
0.0
 40
0.0235999999999995
100
AcDbArc
 50
359.9999999999993
 51
74.25240800063114
  0
LINE
  5
11E
330
E3
100
AcDbEntity
  8
AM_9
 48
0.006035257375934
100
AcDbLine
 10
-0.8849999999999999
 20
0.9624666435778437
 30
0.0
 11
-0.8849999999999999
 21
-0.9624666435778437
 31
0.0
  0
ARC
  5
11F
330
E3
100
AcDbEntity
  8
AM_9
 48
0.006035257375934
100
AcDbCircle
 10
-0.8613999999999998
 20
-0.9624666435778437
 30
0.0
 40
0.0236000000000001
100
AcDbArc
 50
180.0
 51
254.2524080006302
  0
ARC
  5
120
330
E3
100
AcDbEntity
  8
AM_9
 48
0.006035257375934
100
AcDbCircle
 10
-0.8613999999999998
 20
0.9624666435778437
 30
0.0
 40
0.0236
100
AcDbArc
 50
105.7475919993698
 51
180.0
  0
ARC
  5
121
330
E3
100
AcDbEntity
  8
AM_9
 48
0.006035257375934
100
AcDbCircle
 10
-0.5899999999954615
 20
-0.0000000000192646
 30
0.0
 40
1.023600000019755
100
AcDbArc
 50
100.8111968129
 51
105.7475919993217
  0
ARC
  5
122
330
E3
100
AcDbEntity
  8
AM_9
 48
0.006035257375934
100
AcDbCircle
 10
-0.5899999999922426
 20
0.0000000000329099
 30
0.0
 40
1.023600000033749
100
AcDbArc
 50
254.252408000712
 51
259.1888031870661
  0
LINE
  5
123
330
E3
100
AcDbEntity
  8
AM_9
 48
0.006035257375934
100
AcDbLine
 10
-0.8678050399999999
 20
0.985180856366262
 30
0.0
 11
-0.8678050399999999
 21
-0.9851808563662485
 31
0.0
  0
LINE
  5
124
330
E3
100
AcDbEntity
  8
AM_9
 48
0.006035257375934
100
AcDbLine
 10
-0.7819999999999999
 20
1.005431728164554
 30
0.0
 11
-0.7819999999999999
 21
-1.005431728164541
 31
0.0
  0
ARC
  5
125
330
E3
100
AcDbEntity
  8
AM_9
 48
0.006035257375934
100
AcDbCircle
 10
-0.590000000000003
 20
-0.0000000000000502
 30
0.0
 40
1.023600000000051
100
AcDbArc
 50
74.252408000631
 51
97.18357665371019
  0
ARC
  5
126
330
E3
100
AcDbEntity
  8
AM_9
 48
0.006035257375934
100
AcDbCircle
 10
-0.5899999999999657
 20
-0.0000000000004581
 30
0.0
 40
1.023599999999552
100
AcDbArc
 50
262.8164233462842
 51
285.7475919993747
  0
LINE
  5
127
330
E3
100
AcDbEntity
  8
AM_9
 48
0.006035257375934
100
AcDbLine
 10
-0.7179999999999999
 20
1.015565340093882
 30
0.0
 11
-0.7179999999999999
 21
-1.015565340093883
 31
0.0
  0
LINE
  5
128
330
E3
100
AcDbEntity
  8
AM_9
 48
0.006035257375934
100
AcDbLine
 10
-0.3121949599999998
 20
0.9851808563662824
 30
0.0
 11
-0.3121949599999998
 21
-0.9851808563662833
 31
0.0
  0
ELLIPSE
  5
129
330
E3
100
AcDbEntity
  8
AM_9
 48
0.006035257375934
100
AcDbEllipse
 10
-0.4262230209041757
 20
-0.9729244240337179
 30
0.0
 11
-0.07883212059453817
 21
-0.01327018445396089
 31
0.0
210
0.0
220
0.0
230
1.0
 40
0.2554640461881013
 41
0.0
 42
6.283185307179586
  0
LINE
  5
12C
330
E3
100
AcDbEntity
  8
AM_7
 48
0.006035257375934
100
AcDbLine
 10
-1.731
 20
0.0
 30
0.0
 11
0.0510000000000003
 21
0.0
 31
0.0
  0
ELLIPSE
  5
12D
330
E3
100
AcDbEntity
  8
AM_0
 48
0.006035257375934
100
AcDbEllipse
 10
-1.4625
 20
0.1920721945437879
 30
0.0
 11
0.1081000000000001
 21
-2.647686379756580E-17
 31
0.0
210
0.0
220
0.0
230
1.0
 40
0.9659258262890684
 41
0.0000000000000008
 42
3.141592653589793
  0
LWPOLYLINE
  5
12E
330
E3
100
AcDbEntity
  8
AM_0
 48
0.006035257375934
100
AcDbPolyline
 90
       16
 70
     0
 43
0.0
 10
-1.362769505356703
 20
0.1530031022853283
 10
-1.368927447973477
 20
0.1646465404982534
 10
-1.378981617947231
 20
0.178124369798266
 10
-1.391617206093797
 20
0.1900809402021345
 10
-1.406185919637251
 20
0.1998152212284598
 10
-1.42285380239686
 20
0.2073417308151189
 10
-1.440102006466759
 20
0.2120260725963067
 10
-1.458562306422981
 20
0.2140743949532496
 10
-1.476101344769903
 20
0.2133656020198724
 10
-1.493755471444064
 20
0.2099769631866897
 10
-1.509962365231901
 20
0.2042217799237785
 10
-1.525296269845054
 20
0.1959113966421545
 10
-1.538873597953383
 20
0.1853847709453465
 10
-1.550674597964667
 20
0.1724764610508484
 10
-1.559875855625306
 20
0.1579221538186107
 10
-1.562366007980637
 20
0.1526966958354653
  0
ELLIPSE
  5
12F
330
E3
100
AcDbEntity
  8
AM_0
 48
0.006035257375934
100
AcDbEllipse
 10
-1.4625
 20
0.192072194543788
 30
0.0
 11
0.1081000000000001
 21
-2.647686379756580E-17
 31
0.0
210
0.0
220
0.0
230
1.0
 40
0.9659258262890681
 41
3.141592653589794
 42
6.283185307179586
  0
LINE
  5
130
330
E3
100
AcDbEntity
  8
AM_0
 48
0.006035257375934
100
AcDbLine
 10
-1.225
 20
-0.6285714285714284
 30
0.0
 11
-1.2
 21
-0.6285714285714284
 31
0.0
  0
LINE
  5
131
330
E3
100
AcDbEntity
  8
AM_0
 48
0.006035257375934
100
AcDbLine
 10
-1.2
 20
0.6285714285714284
 30
0.0
 11
-1.225
 21
0.6285714285714284
 31
0.0
  0
LINE
  5
132
330
E3
100
AcDbEntity
  8
AM_0
 48
0.006035257375934
100
AcDbLine
 10
-1.2
 20
-0.6482000000000001
 30
0.0
 11
-1.1882
 21
-0.66
 31
0.0
  0
LINE
  5
133
330
E3
100
AcDbEntity
  8
AM_0
 48
0.006035257375934
100
AcDbLine
 10
-1.1882
 20
0.66
 30
0.0
 11
-1.2
 21
0.6482000000000001
 31
0.0
  0
LINE
  5
134
330
E3
100
AcDbEntity
  8
AM_0
 48
0.006035257375934
100
AcDbLine
 10
-1.2
 20
0.6482000000000001
 30
0.0
 11
-1.2
 21
-0.6482000000000001
 31
0.0
  0
LINE
  5
135
330
E3
100
AcDbEntity
  8
AM_0
 48
0.006035257375934
100
AcDbLine
 10
-1.1882
 20
-0.66
 30
0.0
 11
-0.9499999999999998
 21
-0.66
 31
0.0
  0
LINE
  5
136
330
E3
100
AcDbEntity
  8
AM_0
 48
0.006035257375934
100
AcDbLine
 10
-0.9499999999999998
 20
0.66
 30
0.0
 11
-1.1882
 21
0.66
 31
0.0
  0
LINE
  5
137
330
E3
100
AcDbEntity
  8
AM_0
 48
0.006035257375934
100
AcDbLine
 10
-1.1882
 20
0.66
 30
0.0
 11
-1.1882
 21
-0.66
 31
0.0
  0
LINE
  5
138
330
E3
100
AcDbEntity
  8
AM_0
 48
0.006035257375934
100
AcDbLine
 10
-1.225
 20
0.71875
 30
0.0
 11
-1.225
 21
-0.71875
 31
0.0
  0
ARC
  5
139
330
E3
100
AcDbEntity
  8
AM_0
 48
0.006035257375934
100
AcDbCircle
 10
-1.25625
 20
-0.7187500000000003
 30
0.0
 40
0.0312499999999996
100
AcDbArc
 50
269.9999999999992
 51
0.0000000000006107
  0
ARC
  5
13A
330
E3
100
AcDbEntity
  8
AM_0
 48
0.006035257375934
100
AcDbCircle
 10
-1.25625
 20
0.7187500000000001
 30
0.0
 40
0.0312499999999998
100
AcDbArc
 50
359.9999999999998
 51
90.00000000000082
  0
LINE
  5
13B
330
E3
100
AcDbEntity
  8
AM_0
 48
0.006035257375934
100
AcDbLine
 10
-1.65
 20
0.7187500000000001
 30
0.0
 11
-1.65
 21
-0.7187500000000001
 31
0.0
  0
ARC
  5
13C
330
E3
100
AcDbEntity
  8
AM_0
 48
0.006035257375934
100
AcDbCircle
 10
-1.61875
 20
-0.7187499999999996
 30
0.0
 40
0.0312500000000002
100
AcDbArc
 50
180.0000000000009
 51
270.0
  0
ARC
  5
13D
330
E3
100
AcDbEntity
  8
AM_0
 48
0.006035257375934
100
AcDbCircle
 10
-1.61875
 20
0.7187499999999997
 30
0.0
 40
0.0312500000000002
100
AcDbArc
 50
90.0
 51
179.9999999999991
  0
LWPOLYLINE
  5
13E
330
E3
100
AcDbEntity
  8
AM_0
 48
0.006035257375934
100
AcDbPolyline
 90
       39
 70
     0
 43
0.0
 10
-1.382163777263428
 20
0.2683454969226302
 10
-1.370671072649375
 20
0.2570933569103266
 10
-1.361099748602798
 20
0.2442867167761286
 10
-1.353044869498507
 20
0.2283630456547043
 10
-1.348091161113192
 20
0.2112180502944927
 10
-1.346524199975706
 20
0.1945454994348923
 10
-1.347937246117404
 20
0.1777579951737011
 10
-1.352123261532265
 20
0.1619052113687072
 10
-1.358876933770923
 20
0.1468430450585961
 10
-1.368254313018998
 20
0.1326251785189418
 10
-1.379773413251036
 20
0.119970100778829
 10
-1.394042147344691
 20
0.1085327299292624
 10
-1.40994517760218
 20
0.0994148878209911
 10
-1.428258466310158
 20
0.0924803653305175
 10
-1.447457122272358
 20
0.0885394817910277
 10
-1.46785487563528
 20
0.0877465618751965
 10
-1.488104507365356
 20
0.090305882589611
 10
-1.507847550246518
 20
0.0962880625672587
 10
-1.526276229094068
 20
0.1054969072196642
 10
-1.542517164725572
 20
0.117515803547707
 10
-1.556363097176522
 20
0.1321236644928523
 10
-1.566743646561273
 20
0.1480213618645238
 10
-1.574054906624752
 20
0.1654028549491167
 10
-1.577736799785692
 20
0.1823376769749657
 10
-1.578332825613183
 20
0.1995354234553926
 10
-1.575969658400761
 20
0.2155985039666783
 10
-1.570896191592563
 20
0.2309745055569187
 10
-1.563211613471528
 20
0.2453500287778047
 10
-1.55324212290423
 20
0.2583229879103104
 10
-1.540550055202667
 20
0.2702076121620466
 10
-1.52603567333708
 20
0.2800465004714852
 10
-1.50890637356193
 20
0.2881149986453267
 10
-1.490608912447451
 20
0.2935461351696159
 10
-1.470622607114602
 20
0.2962952493988831
 10
-1.45041599781282
 20
0.2960031046878935
 10
-1.430134603188784
 20
0.2925359445386875
 10
-1.410778190293324
 20
0.2859605326693245
 10
-1.395774804962573
 20
0.2781488163740256
 10
-1.382163777263428
 20
0.2683454969226302
  0
LINE
  5
13F
330
E3
100
AcDbEntity
  8
AM_0
 48
0.006035257375934
100
AcDbLine
 10
-1.61875
 20
-0.7499999999999999
 30
0.0
 11
-1.25625
 21
-0.7499999999999999
 31
0.0
  0
LINE
  5
140
330
E3
100
AcDbEntity
  8
AM_0
 48
0.006035257375934
100
AcDbLine
 10
-1.25625
 20
0.7499999999999999
 30
0.0
 11
-1.61875
 21
0.7499999999999999
 31
0.0
  0
LINE
  5
142
330
E3
100
AcDbEntity
  8
AM_4
 48
0.006035257375934
100
AcDbLine
 10
-1.61875
 20
0.7499999999999999
 30
0.0
 11
-1.61875
 21
-0.7499999999999999
 31
0.0
  0
LINE
  5
143
330
E3
100
AcDbEntity
  8
AM_4
 48
0.006035257375934
100
AcDbLine
 10
-1.25625
 20
0.7499999999999997
 30
0.0
 11
-1.25625
 21
-0.7499999999999998
 31
0.0
  0
ENDBLK
  5
E6
330
E3
100
AcDbEntity
  8
0
100
AcDbBlockEnd
  0
BLOCK
  5
146
330
144
100
AcDbEntity
  8
0
100
AcDbBlockBegin
  2
3_131056H_0_in_131056_2
 70
     2
 10
0.0
 20
0.0
 30
0.0
  3
3_131056H_0_in_131056_2
  1

  0
ATTDEF
  5
148
330
144
100
AcDbEntity
  8
AM_6
100
AcDbText
 10
5.026
 20
2.44
 30
0.0
 40
0.5
  1
F2B-SXR -Inch - housing
100
AcDbAttributeDefinition
  3

  2
NN
 70
     8
280
     0
  0
ATTDEF
  5
149
330
144
100
AcDbEntity
  8
AM_6
100
AcDbText
 10
5.026
 20
1.94
 30
0.0
 40
0.5
  1
Eccentric Collar 2 Bolt Flange Bearings -(Normal Duty)
100
AcDbAttributeDefinition
  3

  2
NT
 70
     8
280
     0
  0
ATTDEF
  5
14A
330
144
100
AcDbEntity
  8
AM_6
100
AcDbText
 10
5.026
 20
1.44
 30
0.0
 40
0.5
  1
131056H
100
AcDbAttributeDefinition
  3

  2
NB
 70
     8
280
     0
  0
ATTDEF
  5
14B
330
144
100
AcDbEntity
  8
AM_6
100
AcDbText
 10
5.026
 20
0.9400000000000004
 30
0.0
 40
0.5
  1
$PN.H
100
AcDbAttributeDefinition
  3

  2
NBSYN
 70
     8
280
     0
  0
ATTDEF
  5
14C
330
144
100
AcDbEntity
  8
AM_6
100
AcDbText
 10
5.026
 20
0.4400000000000004
 30
0.0
 40
0.5
  1
131056
100
AcDbAttributeDefinition
  3

  2
LINA
 70
     8
280
     0
  0
ATTDEF
  5
14D
330
144
100
AcDbEntity
  8
AM_6
100
AcDbText
 10
5.026
 20
-0.0599999999999996
 30
0.0
 40
0.5
  1
205
100
AcDbAttributeDefinition
  3

  2
SERIES
 70
     8
280
     0
  0
ATTDEF
  5
14E
330
144
100
AcDbEntity
  8
AM_6
100
AcDbText
 10
5.026
 20
-0.5599999999999996
 30
0.0
 40
0.5
  1
7/8
100
AcDbAttributeDefinition
  3

  2
SS
 70
     8
280
     0
  0
ATTDEF
  5
14F
330
144
100
AcDbEntity
  8
AM_6
100
AcDbText
 10
5.026
 20
-1.06
 30
0.0
 40
0.5
  1
131056
100
AcDbAttributeDefinition
  3

  2
PN
 70
     8
280
     0
  0
ATTDEF
  5
150
330
144
100
AcDbEntity
  8
AM_6
100
AcDbText
 10
5.026
 20
-1.56
 30
0.0
 40
0.5
  1
F2B-SXR-014
100
AcDbAttributeDefinition
  3

  2
DESCRIPTION
 70
     8
280
     0
  0
ATTDEF
  5
151
330
144
100
AcDbEntity
  8
AM_6
100
AcDbText
 10
5.026
 20
-2.06
 30
0.0
 40
0.5
  1
RE-LUBE
100
AcDbAttributeDefinition
  3

  2
LF
 70
     8
280
     0
  0
ATTDEF
  5
152
330
144
100
AcDbEntity
  8
AM_6
100
AcDbText
 10
5.026
 20
-2.56
 30
0.0
 40
0.5
  1
1.7
100
AcDbAttributeDefinition
  3

  2
W
 70
     8
280
     0
  0
ATTDEF
  5
153
330
144
100
AcDbEntity
  8
AM_6
100
AcDbText
 10
5.026
 20
-3.06
 30
0.0
 40
0.5
  1
1.62
100
AcDbAttributeDefinition
  3

  2
A
 70
     8
280
     0
  0
ATTDEF
  5
154
330
144
100
AcDbEntity
  8
AM_6
100
AcDbText
 10
5.026
 20
-3.56
 30
0.0
 40
0.5
  1
4.88
100
AcDbAttributeDefinition
  3

  2
B
 70
     8
280
     0
  0
ATTDEF
  5
155
330
144
100
AcDbEntity
  8
AM_6
100
AcDbText
 10
5.026
 20
-4.06
 30
0.0
 40
0.5
  1
1.65
100
AcDbAttributeDefinition
  3

  2
C
 70
     8
280
     0
  0
ATTDEF
  5
156
330
144
100
AcDbEntity
  8
AM_6
100
AcDbText
 10
5.026
 20
-4.56
 30
0.0
 40
0.5
  1
3.89
100
AcDbAttributeDefinition
  3

  2
D
 70
     8
280
     0
  0
ATTDEF
  5
157
330
144
100
AcDbEntity
  8
AM_6
100
AcDbText
 10
5.026
 20
-5.06
 30
0.0
 40
0.5
  1
7/16
100
AcDbAttributeDefinition
  3

  2
F
 70
     8
280
     0
  0
ATTDEF
  5
158
330
144
100
AcDbEntity
  8
AM_6
100
AcDbText
 10
5.026
 20
-5.56
 30
0.0
 40
0.5
  1
0.52
100
AcDbAttributeDefinition
  3

  2
H
 70
     8
280
     0
  0
ATTDEF
  5
159
330
144
100
AcDbEntity
  8
AM_6
100
AcDbText
 10
5.026
 20
-6.06
 30
0.0
 40
0.5
  1
0.70
100
AcDbAttributeDefinition
  3

  2
J
 70
     8
280
     0
  0
ATTDEF
  5
15A
330
144
100
AcDbEntity
  8
AM_6
100
AcDbText
 10
5.026
 20
-6.56
 30
0.0
 40
0.5
  1
1.50
100
AcDbAttributeDefinition
  3

  2
L
 70
     8
280
     0
  0
ATTDEF
  5
15B
330
144
100
AcDbEntity
  8
AM_6
100
AcDbText
 10
5.026
 20
-7.06
 30
0.0
 40
0.5
  1
2.75
100
AcDbAttributeDefinition
  3

  2
M
 70
     8
280
     0
  0
ATTDEF
  5
15C
330
144
100
AcDbEntity
  8
AM_6
100
AcDbText
 10
5.026
 20
-7.56
 30
0.0
 40
0.5
  1
1.44
100
AcDbAttributeDefinition
  3

  2
N
 70
     8
280
     0
  0
ATTDEF
  5
15D
330
144
100
AcDbEntity
  8
AM_6
100
AcDbText
 10
5.026
 20
-8.059999999999999
 30
0.0
 40
0.5
  1
1565
100
AcDbAttributeDefinition
  3

  2
CAPS
 70
     8
280
     0
  0
ATTDEF
  5
15E
330
144
100
AcDbEntity
  8
AM_6
100
AcDbText
 10
5.026
 20
-8.559999999999999
 30
0.0
 40
0.5
  1
3146
100
AcDbAttributeDefinition
  3

  2
CAPD
 70
     8
280
     0
  0
ATTDEF
  5
15F
330
144
100
AcDbEntity
  8
AM_6
100
AcDbText
 10
5.026
 20
-9.059999999999999
 30
0.0
 40
0.5
  1
baldor
100
AcDbAttributeDefinition
  3

  2
COMPANY
 70
     8
280
     0
  0
LINE
  5
160
330
144
100
AcDbEntity
  8
AM_9
 48
0.0119346441705331
100
AcDbLine
 10
-0.6174999999999999
 20
1.067230188714725
 30
0.0
 11
0.0
 21
1.067230188714725
 31
0.0
  0
LINE
  5
161
330
144
100
AcDbEntity
  8
AM_9
 48
0.0119346441705331
100
AcDbLine
 10
-0.6174999999999999
 20
0.9162524124049207
 30
0.0
 11
0.0
 21
0.9162524124049207
 31
0.0
  0
LINE
  5
162
330
144
100
AcDbEntity
  8
AM_9
 48
0.0119346441705331
100
AcDbLine
 10
0.0
 20
1.06735
 30
0.0
 11
-0.6174999999999999
 21
1.06735
 31
0.0
  0
LINE
  5
163
330
144
100
AcDbEntity
  8
AM_9
 48
0.0119346441705331
100
AcDbLine
 10
-0.6174999999999999
 20
0.8722450829395169
 30
0.0
 11
-0.6174999999999999
 21
1.067230188714725
 31
0.0
  0
LINE
  5
164
330
144
100
AcDbEntity
  8
AM_9
 48
0.0119346441705331
100
AcDbLine
 10
-0.52
 20
-2.16375
 30
0.0
 11
-0.0000000000000003
 21
-2.16375
 31
0.0
  0
LINE
  5
165
330
144
100
AcDbEntity
  8
AM_9
 48
0.0119346441705331
100
AcDbLine
 10
-0.0000000000000003
 20
-1.72625
 30
0.0
 11
-0.52
 21
-1.72625
 31
0.0
  0
LINE
  5
166
330
144
100
AcDbEntity
  8
AM_9
 48
0.0119346441705331
100
AcDbLine
 10
-0.52
 20
1.72625
 30
0.0
 11
-0.0000000000000003
 21
1.72625
 31
0.0
  0
LINE
  5
167
330
144
100
AcDbEntity
  8
AM_9
 48
0.0119346441705331
100
AcDbLine
 10
-0.0000000000000003
 20
2.16375
 30
0.0
 11
-0.52
 21
2.16375
 31
0.0
  0
LINE
  5
168
330
144
100
AcDbEntity
  8
AM_9
 48
0.0119346441705331
100
AcDbLine
 10
-0.6174999999999999
 20
-0.9162524124049216
 30
0.0
 11
0.0
 21
-0.9162524124049216
 31
0.0
  0
LINE
  5
169
330
144
100
AcDbEntity
  8
AM_9
 48
0.0119346441705331
100
AcDbLine
 10
-0.6174999999999999
 20
-1.067230188714725
 30
0.0
 11
0.0
 21
-1.067230188714725
 31
0.0
  0
LINE
  5
16A
330
144
100
AcDbEntity
  8
AM_9
 48
0.0119346441705331
100
AcDbLine
 10
-0.6174999999999999
 20
-1.06735
 30
0.0
 11
0.0
 21
-1.06735
 31
0.0
  0
LINE
  5
16B
330
144
100
AcDbEntity
  8
AM_9
 48
0.0119346441705331
100
AcDbLine
 10
-0.6174999999999999
 20
-1.06735
 30
0.0
 11
-0.6174999999999999
 21
-0.8722450829395173
 31
0.0
  0
LINE
  5
16C
330
144
100
AcDbEntity
  8
AM_9
 48
0.0119346441705331
100
AcDbLine
 10
-0.95
 20
1.240745899681238
 30
0.0
 11
-0.468
 21
1.240745899681238
 31
0.0
  0
LINE
  5
16D
330
144
100
AcDbEntity
  8
AM_9
 48
0.0119346441705331
100
AcDbLine
 10
-0.4679999999999999
 20
1.211588112864673
 30
0.0
 11
-0.5199999999999999
 21
1.211588112864673
 31
0.0
  0
LINE
  5
16E
330
144
100
AcDbEntity
  8
AM_9
 48
0.0119346441705331
100
AcDbLine
 10
-0.95
 20
1.211456577799892
 30
0.0
 11
-0.4680000000000003
 21
1.211456577799892
 31
0.0
  0
LINE
  5
16F
330
144
100
AcDbEntity
  8
AM_9
 48
0.0119346441705331
100
AcDbLine
 10
-0.468
 20
0.6318376927412486
 30
0.0
 11
-0.4679999999999999
 21
1.379486760670654
 31
0.0
  0
LINE
  5
170
330
144
100
AcDbEntity
  8
AM_9
 48
0.0119346441705331
100
AcDbLine
 10
0.0000000000000001
 20
1.351251770346122
 30
0.0
 11
-0.4679999999999999
 21
1.351251770346122
 31
0.0
  0
LINE
  5
171
330
144
100
AcDbEntity
  8
AM_9
 48
0.0119346441705331
100
AcDbLine
 10
-0.5953808355570467
 20
1.379486760670654
 30
0.0
 11
-0.8746216360476855
 21
1.379486760670654
 31
0.0
  0
LINE
  5
172
330
144
100
AcDbEntity
  8
AM_9
 48
0.0119346441705331
100
AcDbLine
 10
0.0
 20
0.8722450829395169
 30
0.0
 11
-0.6174999999999999
 21
0.8722450829395169
 31
0.0
  0
LINE
  5
173
330
144
100
AcDbEntity
  8
AM_9
 48
0.0119346441705331
100
AcDbLine
 10
-0.95
 20
1.0236
 30
0.0
 11
0.0
 21
1.023222859249321
 31
0.0
  0
LINE
  5
174
330
144
100
AcDbEntity
  8
AM_9
 48
0.0119346441705331
100
AcDbLine
 10
0.0
 20
-0.8722450829395173
 30
0.0
 11
-0.6174999999999999
 21
-0.8722450829395173
 31
0.0
  0
LINE
  5
175
330
144
100
AcDbEntity
  8
AM_9
 48
0.0119346441705331
100
AcDbLine
 10
-0.95
 20
-1.0236
 30
0.0
 11
0.0
 21
-1.023222859249321
 31
0.0
  0
LINE
  5
176
330
144
100
AcDbEntity
  8
AM_9
 48
0.0119346441705331
100
AcDbLine
 10
-0.5349999999999997
 20
1.173420743492672
 30
0.0
 11
-0.5349999999999997
 21
1.174834957055045
 31
0.0
  0
LINE
  5
177
330
144
100
AcDbEntity
  8
AM_9
 48
0.0119346441705331
100
AcDbLine
 10
-0.935
 20
1.174834957055045
 30
0.0
 11
-0.935
 21
1.173420743492672
 31
0.0
  0
ELLIPSE
  5
178
330
144
100
AcDbEntity
  8
AM_9
 48
0.0119346441705331
100
AcDbEllipse
 10
-0.735
 20
1.173420743492672
 30
0.0
 11
0.2000000000000001
 21
0.0
 31
0.0
210
0.0
220
0.0
230
1.0
 40
0.707106781186547
 41
4.71238898038469
 42
9.42477796076938
  0
ELLIPSE
  5
179
330
144
100
AcDbEntity
  8
AM_9
 48
0.0119346441705331
100
AcDbEllipse
 10
-0.7350000000000001
 20
1.173420743492672
 30
0.0
 11
0.2
 21
6.661338147750938E-16
 31
0.0
210
0.0
220
0.0
230
1.0
 40
0.7071067811865496
 41
3.14159265358979
 42
4.712388980384689
  0
LINE
  5
17A
330
144
100
AcDbEntity
  8
AM_9
 48
0.0119346441705331
100
AcDbLine
 10
-0.9499999999999998
 20
1.130165754188935
 30
0.0
 11
-0.9499999999999998
 21
1.290214838039809
 31
0.0
  0
LINE
  5
17B
330
144
100
AcDbEntity
  8
AM_9
 48
0.0119346441705331
100
AcDbLine
 10
-0.9011176660217389
 20
1.350197438789309
 30
0.0
 11
-0.5688777235041058
 21
1.350197438789309
 31
0.0
  0
LINE
  5
17C
330
144
100
AcDbEntity
  8
AM_9
 48
0.0119346441705331
100
AcDbLine
 10
-0.95
 20
1.222544270136335
 30
0.0
 11
-0.52
 21
1.222544270136335
 31
0.0
  0
LINE
  5
17D
330
144
100
AcDbEntity
  8
AM_9
 48
0.0119346441705331
100
AcDbLine
 10
-0.52
 20
1.199219182127827
 30
0.0
 11
-0.5199999999999999
 21
1.379486760670654
 31
0.0
  0
LINE
  5
17E
330
144
100
AcDbEntity
  8
AM_9
 48
0.0119346441705331
100
AcDbLine
 10
-0.468
 20
1.199219182127827
 30
0.0
 11
-0.52
 21
1.199219182127827
 31
0.0
  0
LINE
  5
17F
330
144
100
AcDbEntity
  8
AM_9
 48
0.0119346441705331
100
AcDbLine
 10
-0.52
 20
1.375000000000001
 30
0.0
 11
-0.9499999999999997
 21
1.375000000000001
 31
0.0
  0
ELLIPSE
  5
180
330
144
100
AcDbEntity
  8
AM_9
 48
0.0119346441705331
100
AcDbEllipse
 10
-0.7349999999999998
 20
1.174834957055045
 30
0.0
 11
0.2000000000000004
 21
0.0
 31
0.0
210
0.0
220
0.0
230
1.0
 40
0.707106781186548
 41
0.0
 42
6.283185307179586
  0
LINE
  5
181
330
144
100
AcDbEntity
  8
AM_7
 48
0.0119346441705331
100
AcDbLine
 10
0.026
 20
1.945
 30
0.0
 11
-0.546
 21
1.945
 31
0.0
  0
LINE
  5
182
330
144
100
AcDbEntity
  8
AM_7
 48
0.0119346441705331
100
AcDbLine
 10
0.026
 20
-1.945
 30
0.0
 11
-0.546
 21
-1.945
 31
0.0
  0
LINE
  5
183
330
144
100
AcDbEntity
  8
AM_0
 48
0.0119346441705331
100
AcDbLine
 10
-0.5199999999999999
 20
1.379486760670654
 30
0.0
 11
-0.52
 21
2.44
 31
0.0
  0
LINE
  5
184
330
144
100
AcDbEntity
  8
AM_0
 48
0.0119346441705331
100
AcDbLine
 10
-0.0000000000000003
 20
2.44
 30
0.0
 11
-0.52
 21
2.44
 31
0.0
  0
LINE
  5
185
330
144
100
AcDbEntity
  8
AM_0
 48
0.0119346441705331
100
AcDbLine
 10
-0.52
 20
-2.44
 30
0.0
 11
-0.0000000000000003
 21
-2.44
 31
0.0
  0
LINE
  5
186
330
144
100
AcDbEntity
  8
AM_0
 48
0.0119346441705331
100
AcDbLine
 10
-0.52
 20
-2.44
 30
0.0
 11
-0.5199999999999999
 21
-1.199219182127831
 31
0.0
  0
LINE
  5
187
330
144
100
AcDbEntity
  8
AM_4
 48
0.0119346441705331
100
AcDbLine
 10
-0.468
 20
2.052313624678663
 30
0.0
 11
-0.52
 21
2.052313624678663
 31
0.0
  0
LINE
  5
188
330
144
100
AcDbEntity
  8
AM_4
 48
0.0119346441705331
100
AcDbLine
 10
-0.468
 20
-2.05231362467866
 30
0.0
 11
-0.52
 21
-2.05231362467866
 31
0.0
  0
LINE
  5
189
330
144
100
AcDbEntity
  8
AM_0
 48
0.0119346441705331
100
AcDbLine
 10
-0.4679999999999999
 20
1.379486760670654
 30
0.0
 11
-0.468
 21
2.168958868894601
 31
0.0
  0
LINE
  5
18A
330
144
100
AcDbEntity
  8
AM_4
 48
0.0119346441705331
100
AcDbLine
 10
-0.468
 20
2.168958868894601
 30
0.0
 11
0.0
 21
2.168958868894601
 31
0.0
  0
LINE
  5
18B
330
144
100
AcDbEntity
  8
AM_0
 48
0.0119346441705331
100
AcDbLine
 10
-0.9499999999999998
 20
1.290214838039809
 30
0.0
 11
-0.95
 21
1.379486760670654
 31
0.0
  0
LINE
  5
18C
330
144
100
AcDbEntity
  8
AM_0
 48
0.0119346441705331
100
AcDbLine
 10
-0.8746216360476855
 20
1.379486760670654
 30
0.0
 11
-0.95
 21
1.379486760670654
 31
0.0
  0
LINE
  5
18D
330
144
100
AcDbEntity
  8
AM_0
 48
0.0119346441705331
100
AcDbLine
 10
-0.0000000000000005
 20
1.379486760670654
 30
0.0
 11
-0.5953808355570467
 21
1.379486760670654
 31
0.0
  0
LINE
  5
18E
330
144
100
AcDbEntity
  8
AM_0
 48
0.0119346441705331
100
AcDbLine
 10
-0.4679999999999999
 20
0.6221079691516719
 30
0.0
 11
-0.4679999999999999
 21
0.6318376927412486
 31
0.0
  0
LINE
  5
18F
330
144
100
AcDbEntity
  8
AM_0
 48
0.0119346441705331
100
AcDbLine
 10
-0.468
 20
-2.168958868894607
 30
0.0
 11
-0.4679999999999999
 21
-0.6221079691516713
 31
0.0
  0
LINE
  5
190
330
144
100
AcDbEntity
  8
AM_4
 48
0.0119346441705331
100
AcDbLine
 10
-0.468
 20
-2.168958868894607
 30
0.0
 11
0.0
 21
-2.168958868894602
 31
0.0
  0
LINE
  5
191
330
144
100
AcDbEntity
  8
AM_0
 48
0.0119346441705331
100
AcDbLine
 10
0.0000000000000001
 20
0.6318376927412492
 30
0.0
 11
-0.4679999999999999
 21
0.6318376927412486
 31
0.0
  0
LINE
  5
192
330
144
100
AcDbEntity
  8
AM_4
 48
0.0119346441705331
100
AcDbLine
 10
-0.5688777235041058
 20
1.350197438789309
 30
0.0
 11
0.0000000000000001
 21
1.350197438789309
 31
0.0
  0
LINE
  5
193
330
144
100
AcDbEntity
  8
AM_4
 48
0.0119346441705331
100
AcDbLine
 10
-0.95
 20
1.350197438789309
 30
0.0
 11
-0.9011176660217389
 21
1.350197438789309
 31
0.0
  0
LINE
  5
194
330
144
100
AcDbEntity
  8
AM_0
 48
0.0119346441705331
100
AcDbLine
 10
0.0
 20
-2.44
 30
0.0
 11
0.0
 21
2.44
 31
0.0
  0
LINE
  5
195
330
144
100
AcDbEntity
  8
AM_4
 48
0.0119346441705331
100
AcDbLine
 10
-0.9499999999999998
 20
0.745771152850655
 30
0.0
 11
0.0000000000000001
 21
0.745771152850655
 31
0.0
  0
LINE
  5
196
330
144
100
AcDbEntity
  8
AM_4
 48
0.0119346441705331
100
AcDbLine
 10
-0.4679999999999999
 20
0.6221079691516719
 30
0.0
 11
0.0000000000000001
 21
0.6221079691516719
 31
0.0
  0
LINE
  5
197
330
144
100
AcDbEntity
  8
AM_4
 48
0.0119346441705331
100
AcDbLine
 10
-0.9499999999999998
 20
0.6292936628857626
 30
0.0
 11
-0.468
 21
0.6292936628857626
 31
0.0
  0
LINE
  5
198
330
144
100
AcDbEntity
  8
AM_0
 48
0.0119346441705331
100
AcDbLine
 10
-0.4679999999999999
 20
-1.199219182127831
 30
0.0
 11
-0.5199999999999999
 21
-1.199219182127831
 31
0.0
  0
LINE
  5
199
330
144
100
AcDbEntity
  8
AM_4
 48
0.0119346441705331
100
AcDbLine
 10
-0.4679999999999999
 20
-0.6221079691516713
 30
0.0
 11
0.0000000000000001
 21
-0.6221079691516713
 31
0.0
  0
LINE
  5
19A
330
144
100
AcDbEntity
  8
AM_0
 48
0.0119346441705331
100
AcDbLine
 10
-0.9499999999999997
 20
-1.375000000000001
 30
0.0
 11
-0.52
 21
-1.375000000000001
 31
0.0
  0
LINE
  5
19B
330
144
100
AcDbEntity
  8
AM_0
 48
0.0119346441705331
100
AcDbLine
 10
-0.95
 20
-1.375
 30
0.0
 11
-0.9499999999999998
 21
1.130165754188935
 31
0.0
  0
LINE
  5
19C
330
144
100
AcDbEntity
  8
AM_4
 48
0.0119346441705331
100
AcDbLine
 10
-0.9499999999999998
 20
0.9966440481960349
 30
0.0
 11
0.0000000000000001
 21
0.9966440481960349
 31
0.0
  0
LINE
  5
19D
330
144
100
AcDbEntity
  8
AM_4
 48
0.0119346441705331
100
AcDbLine
 10
-0.9499999999999998
 20
0.8552226919587255
 30
0.0
 11
0.0000000000000001
 21
0.8552226919587255
 31
0.0
  0
ENDBLK
  5
147
330
144
100
AcDbEntity
  8
0
100
AcDbBlockEnd
  0
ENDSEC
  0
SECTION
  2
ENTITIES
  0
ATTDEF
  5
6F
330
1F
100
AcDbEntity
  8
AM_6
100
AcDbText
 10
5.051
 20
2.44
 30
0.0
 40
0.5
  1
Eccentric Collar Two-Bolt Flange Inch Bore
100
AcDbAttributeDefinition
  3

  2
NN
 70
     8
280
     0
  0
ATTDEF
  5
70
330
1F
100
AcDbEntity
  8
AM_6
100
AcDbText
 10
5.051
 20
1.94
 30
0.0
 40
0.5
  1
Eccentric Collar 2 Bolt Flange Bearings -(Normal Duty)
100
AcDbAttributeDefinition
  3

  2
NT
 70
     8
280
     0
  0
ATTDEF
  5
71
330
1F
100
AcDbEntity
  8
AM_6
100
AcDbText
 10
5.051
 20
1.44
 30
0.0
 40
0.5
  1
131056
100
AcDbAttributeDefinition
  3

  2
NB
 70
     8
280
     0
  0
ATTDEF
  5
72
330
1F
100
AcDbEntity
  8
AM_6
100
AcDbText
 10
5.051
 20
0.9400000000000004
 30
0.0
 40
0.5
  1
$PN.
100
AcDbAttributeDefinition
  3

  2
NBSYN
 70
     8
280
     0
  0
ATTDEF
  5
73
330
1F
100
AcDbEntity
  8
AM_6
100
AcDbText
 10
5.051
 20
0.4400000000000004
 30
0.0
 40
0.5
  1
131056
100
AcDbAttributeDefinition
  3

  2
LINA
 70
     8
280
     0
  0
ATTDEF
  5
74
330
1F
100
AcDbEntity
  8
AM_6
100
AcDbText
 10
5.051
 20
-0.0599999999999996
 30
0.0
 40
0.5
  1
205
100
AcDbAttributeDefinition
  3

  2
SERIES
 70
     8
280
     0
  0
ATTDEF
  5
75
330
1F
100
AcDbEntity
  8
AM_6
100
AcDbText
 10
5.051
 20
-0.5599999999999996
 30
0.0
 40
0.5
  1
7/8
100
AcDbAttributeDefinition
  3

  2
SS
 70
     8
280
     0
  0
ATTDEF
  5
76
330
1F
100
AcDbEntity
  8
AM_6
100
AcDbText
 10
5.051
 20
-1.06
 30
0.0
 40
0.5
  1
131056
100
AcDbAttributeDefinition
  3

  2
PN
 70
     8
280
     0
  0
ATTDEF
  5
77
330
1F
100
AcDbEntity
  8
AM_6
100
AcDbText
 10
5.051
 20
-1.56
 30
0.0
 40
0.5
  1
F2B-SXR-014
100
AcDbAttributeDefinition
  3

  2
DESCRIPTION
 70
     8
280
     0
  0
ATTDEF
  5
78
330
1F
100
AcDbEntity
  8
AM_6
100
AcDbText
 10
5.051
 20
-2.06
 30
0.0
 40
0.5
  1
RE-LUBE
100
AcDbAttributeDefinition
  3

  2
LF
 70
     8
280
     0
  0
ATTDEF
  5
79
330
1F
100
AcDbEntity
  8
AM_6
100
AcDbText
 10
5.051
 20
-2.56
 30
0.0
 40
0.5
  1
1.7
100
AcDbAttributeDefinition
  3

  2
W
 70
     8
280
     0
  0
ATTDEF
  5
7A
330
1F
100
AcDbEntity
  8
AM_6
100
AcDbText
 10
5.051
 20
-3.06
 30
0.0
 40
0.5
  1
1.62
100
AcDbAttributeDefinition
  3

  2
A
 70
     8
280
     0
  0
ATTDEF
  5
7B
330
1F
100
AcDbEntity
  8
AM_6
100
AcDbText
 10
5.051
 20
-3.56
 30
0.0
 40
0.5
  1
4.88
100
AcDbAttributeDefinition
  3

  2
B
 70
     8
280
     0
  0
ATTDEF
  5
7C
330
1F
100
AcDbEntity
  8
AM_6
100
AcDbText
 10
5.051
 20
-4.06
 30
0.0
 40
0.5
  1
1.65
100
AcDbAttributeDefinition
  3

  2
C
 70
     8
280
     0
  0
ATTDEF
  5
7D
330
1F
100
AcDbEntity
  8
AM_6
100
AcDbText
 10
5.051
 20
-4.56
 30
0.0
 40
0.5
  1
3.89
100
AcDbAttributeDefinition
  3

  2
D
 70
     8
280
     0
  0
ATTDEF
  5
7E
330
1F
100
AcDbEntity
  8
AM_6
100
AcDbText
 10
5.051
 20
-5.06
 30
0.0
 40
0.5
  1
7/16
100
AcDbAttributeDefinition
  3

  2
F
 70
     8
280
     0
  0
ATTDEF
  5
7F
330
1F
100
AcDbEntity
  8
AM_6
100
AcDbText
 10
5.051
 20
-5.56
 30
0.0
 40
0.5
  1
0.52
100
AcDbAttributeDefinition
  3

  2
H
 70
     8
280
     0
  0
ATTDEF
  5
80
330
1F
100
AcDbEntity
  8
AM_6
100
AcDbText
 10
5.051
 20
-6.06
 30
0.0
 40
0.5
  1
0.70
100
AcDbAttributeDefinition
  3

  2
J
 70
     8
280
     0
  0
ATTDEF
  5
81
330
1F
100
AcDbEntity
  8
AM_6
100
AcDbText
 10
5.051
 20
-6.56
 30
0.0
 40
0.5
  1
1.50
100
AcDbAttributeDefinition
  3

  2
L
 70
     8
280
     0
  0
ATTDEF
  5
82
330
1F
100
AcDbEntity
  8
AM_6
100
AcDbText
 10
5.051
 20
-7.06
 30
0.0
 40
0.5
  1
2.75
100
AcDbAttributeDefinition
  3

  2
M
 70
     8
280
     0
  0
ATTDEF
  5
83
330
1F
100
AcDbEntity
  8
AM_6
100
AcDbText
 10
5.051
 20
-7.56
 30
0.0
 40
0.5
  1
1.44
100
AcDbAttributeDefinition
  3

  2
N
 70
     8
280
     0
  0
ATTDEF
  5
84
330
1F
100
AcDbEntity
  8
AM_6
100
AcDbText
 10
5.051
 20
-8.059999999999999
 30
0.0
 40
0.5
  1
baldor
100
AcDbAttributeDefinition
  3

  2
COMPANY
 70
     8
280
     0
  0
INSERT
  5
86
330
1F
100
AcDbEntity
  8
0
100
AcDbBlockReference
  2
1_405015E_Inch_0_in_131056_2
 10
0.0
 20
0.0
 30
0.0
  0
INSERT
  5
E4
330
1F
100
AcDbEntity
  8
0
100
AcDbBlockReference
  2
2_131906_0_in_131056_2
 10
0.0
 20
0.0
 30
0.0
  0
INSERT
  5
145
330
1F
100
AcDbEntity
  8
0
100
AcDbBlockReference
  2
3_131056H_0_in_131056_2
 10
0.0
 20
0.0
 30
0.0
  0
POINT
  5
19F
330
1F
100
AcDbEntity
  8
ConnectionPoints
100
AcDbPoint
 10
-0.5899999999999999
 20
0.0
 30
0.0
  0
POINT
  5
1A0
330
1F
100
AcDbEntity
  8
ConnectionPoints
100
AcDbPoint
 10
-1.65
 20
0.0
 30
0.0000000000000001
  0
POINT
  5
1A1
330
1F
100
AcDbEntity
  8
ConnectionPoints
100
AcDbPoint
 10
-0.7349999999999999
 20
1.018233764908628
 30
1.018233764908628
  0
POINT
  5
1A2
330
1F
100
AcDbEntity
  8
ConnectionPoints
100
AcDbPoint
 10
-0.7349999999999999
 20
1.174834957055045
 30
1.174834957055045
  0
POINT
  5
1A3
330
1F
100
AcDbEntity
  8
ConnectionPoints
100
AcDbPoint
 10
-1.65
 20
0.0
 30
0.0000000000000001
  0
ENDSEC
  0
SECTION
  2
OBJECTS
  0
DICTIONARY
  5
C
330
0
100
AcDbDictionary
281
     1
  3
ACAD_DETAILVIEWSTYLE
350
1AB
  3
ACAD_GROUP
350
D
  3
ACAD_LAYOUT
350
1A
  3
ACAD_MATERIAL
350
43
  3
ACAD_MLEADERSTYLE
350
6B
  3
ACAD_MLINESTYLE
350
17
  3
ACAD_PLOTSETTINGS
350
19
  3
ACAD_PLOTSTYLENAME
350
E
  3
ACAD_SCALELIST
350
47
  3
ACAD_SECTIONVIEWSTYLE
350
1AC
  3
ACAD_TABLESTYLE
350
69
  3
ACAD_VISUALSTYLE
350
2A
  3
ACDB_RECOMPOSE_DATA
350
1A8
  3
AcDbVariableDictionary
350
1A4
  0
SUN
  5
6D
330
29
100
AcDbSun
 90
        1
290
     0
 63
     7
421
 16777215
 40
1.0
291
     1
 91
  2455826
 92
 54000000
292
     0
 70
     2
 71
   256
280
     1
  0
DICTIONARY
  5
1AB
102
{ACAD_REACTORS
330
C
102
}
330
C
100
AcDbDictionary
281
     1
  0
DICTIONARY
  5
D
102
{ACAD_REACTORS
330
C
102
}
330
C
100
AcDbDictionary
281
     1
  0
DICTIONARY
  5
1A
102
{ACAD_REACTORS
330
C
102
}
330
C
100
AcDbDictionary
281
     1
  3
Layout1
350
1E
  3
Layout2
350
26
  3
Model
350
22
  0
DICTIONARY
  5
43
102
{ACAD_REACTORS
330
C
102
}
330
C
100
AcDbDictionary
281
     1
  3
ByBlock
350
45
  3
ByLayer
350
44
  3
Global
350
46
  0
DICTIONARY
  5
6B
102
{ACAD_REACTORS
330
C
102
}
330
C
100
AcDbDictionary
281
     1
  3
Standard
350
6C
  0
DICTIONARY
  5
17
102
{ACAD_REACTORS
330
C
102
}
330
C
100
AcDbDictionary
281
     1
  3
Standard
350
18
  0
DICTIONARY
  5
19
102
{ACAD_REACTORS
330
C
102
}
330
C
100
AcDbDictionary
281
     1
  0
ACDBDICTIONARYWDFLT
  5
E
102
{ACAD_REACTORS
330
C
102
}
330
C
100
AcDbDictionary
281
     1
  3
Normal
350
F
100
AcDbDictionaryWithDefault
340
F
  0
DICTIONARY
  5
47
102
{ACAD_REACTORS
330
C
102
}
330
C
100
AcDbDictionary
281
     1
  3
A0
350
48
  3
A1
350
49
  3
A2
350
4A
  3
A3
350
4B
  3
A4
350
4C
  3
A5
350
4D
  3
A6
350
4E
  3
A7
350
4F
  3
A8
350
50
  3
A9
350
51
  3
B0
350
52
  3
B1
350
53
  3
B2
350
54
  3
B3
350
55
  3
B4
350
56
  3
B5
350
57
  3
B6
350
58
  3
B7
350
59
  3
B8
350
5A
  3
B9
350
5B
  3
C0
350
5C
  3
C1
350
5D
  3
C2
350
5E
  3
C3
350
5F
  3
C4
350
60
  3
C5
350
61
  3
C6
350
62
  3
C7
350
63
  3
C8
350
64
  3
C9
350
65
  3
D0
350
66
  3
D1
350
67
  3
D2
350
68
  0
DICTIONARY
  5
1AC
102
{ACAD_REACTORS
330
C
102
}
330
C
100
AcDbDictionary
281
     1
  0
DICTIONARY
  5
69
102
{ACAD_REACTORS
330
C
102
}
330
C
100
AcDbDictionary
281
     1
  3
Standard
350
6A
  0
DICTIONARY
  5
2A
102
{ACAD_REACTORS
330
C
102
}
330
C
100
AcDbDictionary
281
     1
  3
2dWireframe
350
2F
  3
Basic
350
32
  3
Brighten
350
36
  3
ColorChange
350
3A
  3
Conceptual
350
34
  3
Dim
350
35
  3
EdgeColorOff
350
3D
  3
Facepattern
350
39
  3
Flat
350
2B
  3
FlatWithEdges
350
2C
  3
Gouraud
350
2D
  3
GouraudWithEdges
350
2E
  3
Hidden
350
31
  3
JitterOff
350
3B
  3
Linepattern
350
38
  3
OverhangOff
350
3C
  3
Realistic
350
33
  3
Shaded
350
42
  3
Shaded with edges
350
41
  3
Shades of Gray
350
3E
  3
Sketchy
350
3F
  3
Thicken
350
37
  3
Wireframe
350
30
  3
X-Ray
350
40
  0
XRECORD
  5
1A8
102
{ACAD_REACTORS
330
C
102
}
330
C
100
AcDbXrecord
280
     1
 90
        1
330
6A
  0
DICTIONARY
  5
1A4
102
{ACAD_REACTORS
330
C
102
}
330
C
100
AcDbDictionary
281
     1
  3
CANNOSCALE
350
1A5
  3
CMLEADERSTYLE
350
1AA
  3
CTABLESTYLE
350
1A9
  0
LAYOUT
  5
1E
102
{ACAD_REACTORS
330
1A
102
}
330
1A
100
AcDbPlotSettings
  1

  2
none_device
  4

  6

 40
0.0
 41
0.0
 42
0.0
 43
0.0
 44
0.0
 45
0.0
 46
0.0
 47
0.0
 48
0.0
 49
0.0
140
0.0
141
0.0
142
1.0
143
1.0
 70
   688
 72
     0
 73
     0
 74
     5
  7

 75
    16
 76
     0
 77
     2
 78
   300
147
1.0
148
0.0
149
0.0
100
AcDbLayout
  1
Layout1
 70
     1
 71
     1
 10
0.0
 20
0.0
 11
12.0
 21
9.0
 12
0.0
 22
0.0
 32
0.0
 14
1.000000000000000E+20
 24
1.000000000000000E+20
 34
1.000000000000000E+20
 15
-1.000000000000000E+20
 25
-1.000000000000000E+20
 35
-1.000000000000000E+20
146
0.0
 13
0.0
 23
0.0
 33
0.0
 16
1.0
 26
0.0
 36
0.0
 17
0.0
 27
1.0
 37
0.0
 76
     0
330
1B
  0
LAYOUT
  5
26
102
{ACAD_REACTORS
330
1A
102
}
330
1A
100
AcDbPlotSettings
  1

  2
none_device
  4

  6

 40
0.0
 41
0.0
 42
0.0
 43
0.0
 44
0.0
 45
0.0
 46
0.0
 47
0.0
 48
0.0
 49
0.0
140
0.0
141
0.0
142
1.0
143
1.0
 70
   688
 72
     0
 73
     0
 74
     5
  7

 75
    16
 76
     0
 77
     2
 78
   300
147
1.0
148
0.0
149
0.0
100
AcDbLayout
  1
Layout2
 70
     1
 71
     2
 10
0.0
 20
0.0
 11
0.0
 21
0.0
 12
0.0
 22
0.0
 32
0.0
 14
0.0
 24
0.0
 34
0.0
 15
0.0
 25
0.0
 35
0.0
146
0.0
 13
0.0
 23
0.0
 33
0.0
 16
1.0
 26
0.0
 36
0.0
 17
0.0
 27
1.0
 37
0.0
 76
     0
330
23
  0
LAYOUT
  5
22
102
{ACAD_REACTORS
330
1A
102
}
330
1A
100
AcDbPlotSettings
  1

  2
none_device
  4
Letter_(8.50_x_11.00_Inches)
  6

 40
6.35
 41
6.35
 42
6.35000508
 43
6.35000508
 44
215.9
 45
279.4
 46
0.0
 47
0.0
 48
0.0
 49
0.0
140
0.0
141
0.0
142
1.0
143
1.0
 70
  1712
 72
     0
 73
     0
 74
     0
  7

 75
     0
 76
     0
 77
     2
 78
   300
147
1.0
148
0.0
149
0.0
100
AcDbLayout
  1
Model
 70
     1
 71
     0
 10
0.0
 20
0.0
 11
12.0
 21
9.0
 12
0.0
 22
0.0
 32
0.0
 14
1.000000000000000E+20
 24
1.000000000000000E+20
 34
1.000000000000000E+20
 15
-1.000000000000000E+20
 25
-1.000000000000000E+20
 35
-1.000000000000000E+20
146
0.0
 13
0.0
 23
0.0
 33
0.0
 16
1.0
 26
0.0
 36
0.0
 17
0.0
 27
1.0
 37
0.0
 76
     0
330
1F
331
29
  0
MATERIAL
  5
45
102
{ACAD_REACTORS
330
43
102
}
330
43
100
AcDbMaterial
  1
ByBlock
 72
     1
 94
      127
  0
MATERIAL
  5
44
102
{ACAD_REACTORS
330
43
102
}
330
43
100
AcDbMaterial
  1
ByLayer
 72
     1
 94
      127
  0
MATERIAL
  5
46
102
{ACAD_REACTORS
330
43
102
}
330
43
100
AcDbMaterial
  1
Global
 72
     1
 94
      127
  0
MLEADERSTYLE
  5
6C
102
{ACAD_REACTORS
330
6B
102
}
330
6B
100
AcDbMLeaderStyle
179
     2
170
     2
171
     1
172
     0
 90
        2
 40
0.0
 41
0.0
173
     1
 91
-1056964608
340
14
 92
       -2
290
     1
 42
0.09
291
     1
 43
0.36
  3
Standard
341
0
 44
0.18
300

342
11
174
     1
178
     6
175
     1
176
     0
 93
-1056964608
 45
0.18
292
     0
297
     0
 46
0.18
343
0
 94
-1056964608
 47
1.0
 49
1.0
140
1.0
293
     1
141
0.0
294
     1
177
     0
142
1.0
295
     0
296
     0
143
0.125
271
     0
272
     9
273
     9
298
     0
  0
MLINESTYLE
  5
18
102
{ACAD_REACTORS
330
17
102
}
330
17
100
AcDbMlineStyle
  2
Standard
 70
     0
  3

 62
   256
 51
90.0
 52
90.0
 71
     2
 49
0.5
 62
   256
  6
BYLAYER
 49
-0.5
 62
   256
  6
BYLAYER
  0
ACDBPLACEHOLDER
  5
F
102
{ACAD_REACTORS
330
E
102
}
330
E
  0
SCALE
  5
48
102
{ACAD_REACTORS
330
47
102
}
330
47
100
AcDbScale
 70
     0
300
1:1
140
1.0
141
1.0
290
     1
  0
SCALE
  5
49
102
{ACAD_REACTORS
330
47
102
}
330
47
100
AcDbScale
 70
     0
300
1:2
140
1.0
141
2.0
290
     0
  0
SCALE
  5
4A
102
{ACAD_REACTORS
330
47
102
}
330
47
100
AcDbScale
 70
     0
300
1:4
140
1.0
141
4.0
290
     0
  0
SCALE
  5
4B
102
{ACAD_REACTORS
330
47
102
}
330
47
100
AcDbScale
 70
     0
300
1:5
140
1.0
141
5.0
290
     0
  0
SCALE
  5
4C
102
{ACAD_REACTORS
330
47
102
}
330
47
100
AcDbScale
 70
     0
300
1:8
140
1.0
141
8.0
290
     0
  0
SCALE
  5
4D
102
{ACAD_REACTORS
330
47
102
}
330
47
100
AcDbScale
 70
     0
300
1:10
140
1.0
141
10.0
290
     0
  0
SCALE
  5
4E
102
{ACAD_REACTORS
330
47
102
}
330
47
100
AcDbScale
 70
     0
300
1:16
140
1.0
141
16.0
290
     0
  0
SCALE
  5
4F
102
{ACAD_REACTORS
330
47
102
}
330
47
100
AcDbScale
 70
     0
300
1:20
140
1.0
141
20.0
290
     0
  0
SCALE
  5
50
102
{ACAD_REACTORS
330
47
102
}
330
47
100
AcDbScale
 70
     0
300
1:30
140
1.0
141
30.0
290
     0
  0
SCALE
  5
51
102
{ACAD_REACTORS
330
47
102
}
330
47
100
AcDbScale
 70
     0
300
1:40
140
1.0
141
40.0
290
     0
  0
SCALE
  5
52
102
{ACAD_REACTORS
330
47
102
}
330
47
100
AcDbScale
 70
     0
300
1:50
140
1.0
141
50.0
290
     0
  0
SCALE
  5
53
102
{ACAD_REACTORS
330
47
102
}
330
47
100
AcDbScale
 70
     0
300
1:100
140
1.0
141
100.0
290
     0
  0
SCALE
  5
54
102
{ACAD_REACTORS
330
47
102
}
330
47
100
AcDbScale
 70
     0
300
2:1
140
2.0
141
1.0
290
     0
  0
SCALE
  5
55
102
{ACAD_REACTORS
330
47
102
}
330
47
100
AcDbScale
 70
     0
300
4:1
140
4.0
141
1.0
290
     0
  0
SCALE
  5
56
102
{ACAD_REACTORS
330
47
102
}
330
47
100
AcDbScale
 70
     0
300
8:1
140
8.0
141
1.0
290
     0
  0
SCALE
  5
57
102
{ACAD_REACTORS
330
47
102
}
330
47
100
AcDbScale
 70
     0
300
10:1
140
10.0
141
1.0
290
     0
  0
SCALE
  5
58
102
{ACAD_REACTORS
330
47
102
}
330
47
100
AcDbScale
 70
     0
300
100:1
140
100.0
141
1.0
290
     0
  0
SCALE
  5
59
102
{ACAD_REACTORS
330
47
102
}
330
47
100
AcDbScale
 70
     0
300
1/128" = 1'-0"
140
0.0078125
141
12.0
290
     0
  0
SCALE
  5
5A
102
{ACAD_REACTORS
330
47
102
}
330
47
100
AcDbScale
 70
     0
300
1/64" = 1'-0"
140
0.015625
141
12.0
290
     0
  0
SCALE
  5
5B
102
{ACAD_REACTORS
330
47
102
}
330
47
100
AcDbScale
 70
     0
300
1/32" = 1'-0"
140
0.03125
141
12.0
290
     0
  0
SCALE
  5
5C
102
{ACAD_REACTORS
330
47
102
}
330
47
100
AcDbScale
 70
     0
300
1/16" = 1'-0"
140
0.0625
141
12.0
290
     0
  0
SCALE
  5
5D
102
{ACAD_REACTORS
330
47
102
}
330
47
100
AcDbScale
 70
     0
300
3/32" = 1'-0"
140
0.09375
141
12.0
290
     0
  0
SCALE
  5
5E
102
{ACAD_REACTORS
330
47
102
}
330
47
100
AcDbScale
 70
     0
300
1/8" = 1'-0"
140
0.125
141
12.0
290
     0
  0
SCALE
  5
5F
102
{ACAD_REACTORS
330
47
102
}
330
47
100
AcDbScale
 70
     0
300
3/16" = 1'-0"
140
0.1875
141
12.0
290
     0
  0
SCALE
  5
60
102
{ACAD_REACTORS
330
47
102
}
330
47
100
AcDbScale
 70
     0
300
1/4" = 1'-0"
140
0.25
141
12.0
290
     0
  0
SCALE
  5
61
102
{ACAD_REACTORS
330
47
102
}
330
47
100
AcDbScale
 70
     0
300
3/8" = 1'-0"
140
0.375
141
12.0
290
     0
  0
SCALE
  5
62
102
{ACAD_REACTORS
330
47
102
}
330
47
100
AcDbScale
 70
     0
300
1/2" = 1'-0"
140
0.5
141
12.0
290
     0
  0
SCALE
  5
63
102
{ACAD_REACTORS
330
47
102
}
330
47
100
AcDbScale
 70
     0
300
3/4" = 1'-0"
140
0.75
141
12.0
290
     0
  0
SCALE
  5
64
102
{ACAD_REACTORS
330
47
102
}
330
47
100
AcDbScale
 70
     0
300
1" = 1'-0"
140
1.0
141
12.0
290
     0
  0
SCALE
  5
65
102
{ACAD_REACTORS
330
47
102
}
330
47
100
AcDbScale
 70
     0
300
1-1/2" = 1'-0"
140
1.5
141
12.0
290
     0
  0
SCALE
  5
66
102
{ACAD_REACTORS
330
47
102
}
330
47
100
AcDbScale
 70
     0
300
3" = 1'-0"
140
3.0
141
12.0
290
     0
  0
SCALE
  5
67
102
{ACAD_REACTORS
330
47
102
}
330
47
100
AcDbScale
 70
     0
300
6" = 1'-0"
140
6.0
141
12.0
290
     0
  0
SCALE
  5
68
102
{ACAD_REACTORS
330
47
102
}
330
47
100
AcDbScale
 70
     0
300
1'-0" = 1'-0"
140
12.0
141
12.0
290
     0
  0
TABLESTYLE
  5
6A
102
{ACAD_REACTORS
330
69
102
}
102
{ACAD_XDICTIONARY
360
1A6
102
}
330
69
100
AcDbTableStyle
  3
Standard
 70
     0
 71
     0
 40
0.06
 41
0.06
280
     0
281
     0
  7
Standard
140
0.18
170
     2
 62
     0
 63
   257
283
     0
 90
        4
 91
        0
  1

274
    -2
284
     1
 64
     0
275
    -2
285
     1
 65
     0
276
    -2
286
     1
 66
     0
277
    -2
287
     1
 67
     0
278
    -2
288
     1
 68
     0
279
    -2
289
     1
 69
     0
  7
Standard
140
0.25
170
     5
 62
     0
 63
   257
283
     0
 90
        4
 91
        0
  1

274
    -2
284
     1
 64
     0
275
    -2
285
     1
 65
     0
276
    -2
286
     1
 66
     0
277
    -2
287
     1
 67
     0
278
    -2
288
     1
 68
     0
279
    -2
289
     1
 69
     0
  7
Standard
140
0.18
170
     5
 62
     0
 63
   257
283
     0
 90
        4
 91
        0
  1

274
    -2
284
     1
 64
     0
275
    -2
285
     1
 65
     0
276
    -2
286
     1
 66
     0
277
    -2
287
     1
 67
     0
278
    -2
288
     1
 68
     0
279
    -2
289
     1
 69
     0
  0
VISUALSTYLE
  5
2F
102
{ACAD_REACTORS
330
2A
102
}
330
2A
100
AcDbVisualStyle
  2
2dWireframe
 70
     4
177
     3
291
     0
 70
    58
 90
        0
176
     1
 90
        2
176
     1
 90
        0
176
     1
 90
        0
176
     1
 40
0.6
176
     1
 40
30.0
176
     1
 62
     7
420
 16777215
176
     1
 90
        1
176
     1
 90
        4
176
     1
 62
     7
176
     1
 62
   257
176
     1
 90
        1
176
     1
 90
        1
176
     1
 40
1.0
176
     1
 90
        0
176
     1
 62
   257
176
     1
 40
1.0
176
     1
 90
        1
176
     1
 90
        6
176
     1
 90
        2
176
     1
 62
     7
176
     1
 90
        5
176
     1
 90
        0
176
     1
 90
        0
176
     1
290
     0
176
     1
 90
        1
176
     1
 40
0.0
176
     1
 90
        0
176
     1
290
     1
176
     1
290
     1
176
     1
290
     0
176
     1
290
     0
176
     1
290
     0
176
     1
290
     0
176
     1
290
     0
176
     1
290
     0
176
     1
290
     0
176
     1
 90
       50
176
     1
 40
0.0
176
     1
 40
1.0
176
     1
 90
        0
176
     1
 62
    18
420
        0
176
     1
 90
       50
176
     1
 90
        3
176
     1
 62
     5
420
      255
176
     1
290
     0
176
     1
 90
       50
176
     1
 90
       50
176
     1
 90
       50
176
     1
290
     0
176
     1
 90
       50
176
     1
 62
   256
176
     0
 40
1.0
176
     0
 90
        2
176
     1
  1
strokes_ogs.tif
176
     1
290
     0
176
     1
 40
1.0
176
     1
 40
1.0
176
     1
  0
VISUALSTYLE
  5
32
102
{ACAD_REACTORS
330
2A
102
}
330
2A
100
AcDbVisualStyle
  2
Basic
 70
     7
177
     3
291
     1
 70
    58
 90
        1
176
     1
 90
        0
176
     1
 90
        1
176
     1
 90
        0
176
     1
 40
0.6
176
     1
 40
30.0
176
     1
 62
     7
420
 16777215
176
     1
 90
        0
176
     1
 90
        4
176
     1
 62
     7
176
     1
 62
   257
176
     1
 90
        1
176
     1
 90
        1
176
     1
 40
1.0
176
     1
 90
        8
176
     1
 62
     7
176
     1
 40
1.0
176
     1
 90
        1
176
     1
 90
        6
176
     1
 90
        2
176
     1
 62
     7
176
     1
 90
        5
176
     1
 90
        0
176
     1
 90
        0
176
     1
290
     0
176
     1
 90
        1
176
     1
 40
0.0
176
     1
 90
        0
176
     1
290
     0
176
     1
290
     1
176
     1
290
     1
176
     1
290
     0
176
     1
290
     0
176
     1
290
     0
176
     1
290
     0
176
     1
290
     0
176
     1
290
     0
176
     1
 90
       50
176
     1
 40
0.0
176
     1
 40
1.0
176
     1
 90
        0
176
     1
 62
    18
420
        0
176
     1
 90
       50
176
     1
 90
        3
176
     1
 62
     5
420
      255
176
     1
290
     0
176
     1
 90
       50
176
     1
 90
       50
176
     1
 90
       50
176
     1
290
     0
176
     1
 90
       50
176
     1
 62
   256
176
     0
 40
1.0
176
     0
 90
        2
176
     1
  1
strokes_ogs.tif
176
     1
290
     0
176
     1
 40
1.0
176
     1
 40
1.0
176
     1
  0
VISUALSTYLE
  5
36
102
{ACAD_REACTORS
330
2A
102
}
330
2A
100
AcDbVisualStyle
  2
Brighten
 70
    12
177
     3
291
     1
 70
    58
 90
        2
176
     1
 90
        2
176
     1
 90
        0
176
     1
 90
        0
176
     1
 40
0.6
176
     1
 40
30.0
176
     1
 62
     7
420
 16777215
176
     1
 90
        1
176
     1
 90
        4
176
     1
 62
     7
176
     1
 62
   257
176
     1
 90
        1
176
     1
 90
        1
176
     1
 40
1.0
176
     1
 90
        8
176
     1
 62
     7
176
     1
 40
1.0
176
     1
 90
        1
176
     1
 90
        6
176
     1
 90
        2
176
     1
 62
     7
176
     1
 90
        5
176
     1
 90
        0
176
     1
 90
        0
176
     1
290
     0
176
     1
 90
        1
176
     1
 40
50.0
176
     1
 90
        0
176
     1
290
     0
176
     1
290
     1
176
     1
290
     1
176
     1
290
     0
176
     1
290
     0
176
     1
290
     0
176
     1
290
     0
176
     1
290
     0
176
     1
290
     0
176
     1
 90
       50
176
     1
 40
0.0
176
     1
 40
1.0
176
     1
 90
        0
176
     1
 62
    18
420
        0
176
     1
 90
       50
176
     1
 90
        3
176
     1
 62
     5
420
      255
176
     1
290
     0
176
     1
 90
       50
176
     1
 90
       50
176
     1
 90
       50
176
     1
290
     0
176
     1
 90
       50
176
     1
 62
   256
176
     0
 40
1.0
176
     0
 90
        2
176
     1
  1
strokes_ogs.tif
176
     1
290
     0
176
     1
 40
1.0
176
     1
 40
1.0
176
     1
  0
VISUALSTYLE
  5
3A
102
{ACAD_REACTORS
330
2A
102
}
330
2A
100
AcDbVisualStyle
  2
ColorChange
 70
    16
177
     3
291
     1
 70
    58
 90
        2
176
     1
 90
        2
176
     1
 90
        3
176
     1
 90
        0
176
     1
 40
0.6
176
     1
 40
30.0
176
     1
 62
     8
420
  8421504
176
     1
 90
        1
176
     1
 90
        4
176
     1
 62
     7
176
     1
 62
   257
176
     1
 90
        1
176
     1
 90
        1
176
     1
 40
1.0
176
     1
 90
        8
176
     1
 62
     8
420
  8421504
176
     1
 40
1.0
176
     1
 90
        1
176
     1
 90
        6
176
     1
 90
        2
176
     1
 62
     7
176
     1
 90
        5
176
     1
 90
        0
176
     1
 90
        0
176
     1
290
     0
176
     1
 90
        1
176
     1
 40
0.0
176
     1
 90
        0
176
     1
290
     0
176
     1
290
     1
176
     1
290
     1
176
     1
290
     0
176
     1
290
     0
176
     1
290
     0
176
     1
290
     0
176
     1
290
     0
176
     1
290
     0
176
     1
 90
       50
176
     1
 40
0.0
176
     1
 40
1.0
176
     1
 90
        0
176
     1
 62
    18
420
        0
176
     1
 90
       50
176
     1
 90
        3
176
     1
 62
     5
420
      255
176
     1
290
     0
176
     1
 90
       50
176
     1
 90
       50
176
     1
 90
       50
176
     1
290
     0
176
     1
 90
       50
176
     1
 62
   256
176
     0
 40
1.0
176
     0
 90
        2
176
     1
  1
strokes_ogs.tif
176
     1
290
     0
176
     1
 40
1.0
176
     1
 40
1.0
176
     1
  0
VISUALSTYLE
  5
34
102
{ACAD_REACTORS
330
2A
102
}
330
2A
100
AcDbVisualStyle
  2
Conceptual
 70
     9
177
     3
291
     0
 70
    58
 90
        3
176
     1
 90
        2
176
     1
 90
        0
176
     1
 90
        0
176
     1
 40
0.6
176
     1
 40
30.0
176
     1
 62
     7
420
 16777215
176
     1
 90
        2
176
     1
 90
        2
176
     1
 62
     7
176
     1
 62
   257
176
     1
 90
        1
176
     1
 90
        1
176
     1
 40
179.0
176
     1
 90
        8
176
     1
 62
     7
176
     1
 40
1.0
176
     1
 90
        1
176
     1
 90
        6
176
     1
 90
        2
176
     1
 62
     7
176
     1
 90
        3
176
     1
 90
        0
176
     1
 90
        0
176
     1
290
     0
176
     1
 90
        1
176
     1
 40
0.0
176
     1
 90
        0
176
     1
290
     0
176
     1
290
     1
176
     1
290
     1
176
     1
290
     0
176
     1
290
     0
176
     1
290
     0
176
     1
290
     0
176
     1
290
     0
176
     1
290
     0
176
     1
 90
       50
176
     1
 40
0.0
176
     1
 40
1.0
176
     1
 90
        0
176
     1
 62
    18
420
        0
176
     1
 90
       50
176
     1
 90
        3
176
     1
 62
     5
420
      255
176
     1
290
     0
176
     1
 90
       50
176
     1
 90
       50
176
     1
 90
       50
176
     1
290
     0
176
     1
 90
       50
176
     1
 62
   256
176
     0
 40
1.0
176
     0
 90
        2
176
     1
  1
strokes_ogs.tif
176
     1
290
     0
176
     1
 40
1.0
176
     1
 40
1.0
176
     1
  0
VISUALSTYLE
  5
35
102
{ACAD_REACTORS
330
2A
102
}
330
2A
100
AcDbVisualStyle
  2
Dim
 70
    11
177
     3
291
     1
 70
    58
 90
        2
176
     1
 90
        2
176
     1
 90
        0
176
     1
 90
        0
176
     1
 40
0.6
176
     1
 40
30.0
176
     1
 62
     7
420
 16777215
176
     1
 90
        1
176
     1
 90
        4
176
     1
 62
     7
176
     1
 62
   257
176
     1
 90
        1
176
     1
 90
        1
176
     1
 40
1.0
176
     1
 90
        8
176
     1
 62
     7
176
     1
 40
1.0
176
     1
 90
        1
176
     1
 90
        6
176
     1
 90
        2
176
     1
 62
     7
176
     1
 90
        5
176
     1
 90
        0
176
     1
 90
        0
176
     1
290
     0
176
     1
 90
        1
176
     1
 40
-50.0
176
     1
 90
        0
176
     1
290
     0
176
     1
290
     1
176
     1
290
     1
176
     1
290
     0
176
     1
290
     0
176
     1
290
     0
176
     1
290
     0
176
     1
290
     0
176
     1
290
     0
176
     1
 90
       50
176
     1
 40
0.0
176
     1
 40
1.0
176
     1
 90
        0
176
     1
 62
    18
420
        0
176
     1
 90
       50
176
     1
 90
        3
176
     1
 62
     5
420
      255
176
     1
290
     0
176
     1
 90
       50
176
     1
 90
       50
176
     1
 90
       50
176
     1
290
     0
176
     1
 90
       50
176
     1
 62
   256
176
     0
 40
1.0
176
     0
 90
        2
176
     1
  1
strokes_ogs.tif
176
     1
290
     0
176
     1
 40
1.0
176
     1
 40
1.0
176
     1
  0
VISUALSTYLE
  5
3D
102
{ACAD_REACTORS
330
2A
102
}
330
2A
100
AcDbVisualStyle
  2
EdgeColorOff
 70
    22
177
     3
291
     1
 70
    58
 90
        2
176
     0
 90
        2
176
     0
 90
        0
176
     0
 90
        0
176
     0
 40
0.6
176
     0
 40
30.0
176
     0
 62
     7
420
 16777215
176
     0
 90
        1
176
     0
 90
        4
176
     0
 62
     7
176
     0
 62
   257
176
     0
 90
        1
176
     0
 90
        1
176
     0
 40
1.0
176
     0
 90
        8
176
     2
 62
     7
176
     0
 40
1.0
176
     0
 90
        1
176
     0
 90
        6
176
     0
 90
        2
176
     0
 62
     7
176
     0
 90
        5
176
     0
 90
        0
176
     0
 90
        0
176
     0
290
     0
176
     0
 90
        1
176
     0
 40
0.0
176
     0
 90
        0
176
     0
290
     0
176
     0
290
     1
176
     0
290
     1
176
     0
290
     0
176
     0
290
     0
176
     0
290
     0
176
     0
290
     0
176
     0
290
     0
176
     0
290
     0
176
     0
 90
       50
176
     0
 40
0.0
176
     0
 40
1.0
176
     0
 90
        0
176
     0
 62
    18
420
        0
176
     0
 90
       50
176
     0
 90
        3
176
     0
 62
     5
420
      255
176
     0
290
     0
176
     0
 90
       50
176
     0
 90
       50
176
     0
 90
       50
176
     0
290
     0
176
     0
 90
       50
176
     0
 62
   256
176
     0
 40
1.0
176
     0
 90
        2
176
     0
  1
strokes_ogs.tif
176
     0
290
     0
176
     0
 40
1.0
176
     0
 40
1.0
176
     0
  0
VISUALSTYLE
  5
39
102
{ACAD_REACTORS
330
2A
102
}
330
2A
100
AcDbVisualStyle
  2
Facepattern
 70
    15
177
     3
291
     1
 70
    58
 90
        2
176
     1
 90
        2
176
     1
 90
        0
176
     1
 90
        0
176
     1
 40
0.6
176
     1
 40
30.0
176
     1
 62
     7
420
 16777215
176
     1
 90
        1
176
     1
 90
        4
176
     1
 62
     7
176
     1
 62
   257
176
     1
 90
        1
176
     1
 90
        1
176
     1
 40
1.0
176
     1
 90
        8
176
     1
 62
     7
176
     1
 40
1.0
176
     1
 90
        1
176
     1
 90
        6
176
     1
 90
        2
176
     1
 62
     7
176
     1
 90
        5
176
     1
 90
        0
176
     1
 90
        0
176
     1
290
     0
176
     1
 90
        1
176
     1
 40
0.0
176
     1
 90
        0
176
     1
290
     0
176
     1
290
     1
176
     1
290
     1
176
     1
290
     0
176
     1
290
     0
176
     1
290
     0
176
     1
290
     0
176
     1
290
     0
176
     1
290
     0
176
     1
 90
       50
176
     1
 40
0.0
176
     1
 40
1.0
176
     1
 90
        0
176
     1
 62
    18
420
        0
176
     1
 90
       50
176
     1
 90
        3
176
     1
 62
     5
420
      255
176
     1
290
     0
176
     1
 90
       50
176
     1
 90
       50
176
     1
 90
       50
176
     1
290
     0
176
     1
 90
       50
176
     1
 62
   256
176
     0
 40
1.0
176
     0
 90
        2
176
     1
  1
strokes_ogs.tif
176
     1
290
     0
176
     1
 40
1.0
176
     1
 40
1.0
176
     1
  0
VISUALSTYLE
  5
2B
102
{ACAD_REACTORS
330
2A
102
}
330
2A
100
AcDbVisualStyle
  2
Flat
 70
     0
177
     3
291
     1
 70
    58
 90
        2
176
     1
 90
        1
176
     1
 90
        1
176
     1
 90
        2
176
     1
 40
0.6
176
     1
 40
30.0
176
     1
 62
     7
420
 16777215
176
     1
 90
        0
176
     1
 90
        0
176
     1
 62
     7
176
     1
 62
   257
176
     1
 90
        1
176
     1
 90
        1
176
     1
 40
1.0
176
     1
 90
        8
176
     1
 62
     7
176
     1
 40
1.0
176
     1
 90
        1
176
     1
 90
        6
176
     1
 90
        2
176
     1
 62
     7
176
     1
 90
        5
176
     1
 90
        0
176
     1
 90
        0
176
     1
290
     0
176
     1
 90
       13
176
     1
 40
0.0
176
     1
 90
        0
176
     1
290
     0
176
     1
290
     1
176
     1
290
     1
176
     1
290
     0
176
     1
290
     0
176
     1
290
     0
176
     1
290
     0
176
     1
290
     0
176
     1
290
     0
176
     1
 90
       50
176
     1
 40
0.0
176
     1
 40
1.0
176
     1
 90
        0
176
     1
 62
    18
420
        0
176
     1
 90
       50
176
     1
 90
        3
176
     1
 62
     5
420
      255
176
     1
290
     0
176
     1
 90
       50
176
     1
 90
       50
176
     1
 90
       50
176
     1
290
     0
176
     1
 90
       50
176
     1
 62
   256
176
     0
 40
1.0
176
     0
 90
        2
176
     1
  1
strokes_ogs.tif
176
     1
290
     0
176
     1
 40
1.0
176
     1
 40
1.0
176
     1
  0
VISUALSTYLE
  5
2C
102
{ACAD_REACTORS
330
2A
102
}
330
2A
100
AcDbVisualStyle
  2
FlatWithEdges
 70
     1
177
     3
291
     1
 70
    58
 90
        2
176
     1
 90
        1
176
     1
 90
        1
176
     1
 90
        2
176
     1
 40
0.6
176
     1
 40
30.0
176
     1
 62
     7
420
 16777215
176
     1
 90
        1
176
     1
 90
        0
176
     1
 62
     7
176
     1
 62
   257
176
     1
 90
        1
176
     1
 90
        1
176
     1
 40
1.0
176
     1
 90
        0
176
     1
 62
   257
176
     1
 40
1.0
176
     1
 90
        1
176
     1
 90
        6
176
     1
 90
        2
176
     1
 62
     7
176
     1
 90
        5
176
     1
 90
        0
176
     1
 90
        0
176
     1
290
     0
176
     1
 90
       13
176
     1
 40
0.0
176
     1
 90
        0
176
     1
290
     0
176
     1
290
     1
176
     1
290
     1
176
     1
290
     0
176
     1
290
     0
176
     1
290
     0
176
     1
290
     0
176
     1
290
     0
176
     1
290
     0
176
     1
 90
       50
176
     1
 40
0.0
176
     1
 40
1.0
176
     1
 90
        0
176
     1
 62
    18
420
        0
176
     1
 90
       50
176
     1
 90
        3
176
     1
 62
     5
420
      255
176
     1
290
     0
176
     1
 90
       50
176
     1
 90
       50
176
     1
 90
       50
176
     1
290
     0
176
     1
 90
       50
176
     1
 62
   256
176
     0
 40
1.0
176
     0
 90
        2
176
     1
  1
strokes_ogs.tif
176
     1
290
     0
176
     1
 40
1.0
176
     1
 40
1.0
176
     1
  0
VISUALSTYLE
  5
2D
102
{ACAD_REACTORS
330
2A
102
}
330
2A
100
AcDbVisualStyle
  2
Gouraud
 70
     2
177
     3
291
     1
 70
    58
 90
        2
176
     1
 90
        2
176
     1
 90
        1
176
     1
 90
        2
176
     1
 40
0.6
176
     1
 40
30.0
176
     1
 62
     7
420
 16777215
176
     1
 90
        0
176
     1
 90
        0
176
     1
 62
     7
176
     1
 62
   257
176
     1
 90
        1
176
     1
 90
        1
176
     1
 40
1.0
176
     1
 90
        0
176
     1
 62
     7
176
     1
 40
1.0
176
     1
 90
        1
176
     1
 90
        6
176
     1
 90
        2
176
     1
 62
     7
176
     1
 90
        5
176
     1
 90
        0
176
     1
 90
        0
176
     1
290
     0
176
     1
 90
       13
176
     1
 40
0.0
176
     1
 90
        0
176
     1
290
     0
176
     1
290
     1
176
     1
290
     1
176
     1
290
     0
176
     1
290
     0
176
     1
290
     0
176
     1
290
     0
176
     1
290
     0
176
     1
290
     0
176
     1
 90
       50
176
     1
 40
0.0
176
     1
 40
1.0
176
     1
 90
        0
176
     1
 62
    18
420
        0
176
     1
 90
       50
176
     1
 90
        3
176
     1
 62
     5
420
      255
176
     1
290
     0
176
     1
 90
       50
176
     1
 90
       50
176
     1
 90
       50
176
     1
290
     0
176
     1
 90
       50
176
     1
 62
   256
176
     0
 40
1.0
176
     0
 90
        2
176
     1
  1
strokes_ogs.tif
176
     1
290
     0
176
     1
 40
1.0
176
     1
 40
1.0
176
     1
  0
VISUALSTYLE
  5
2E
102
{ACAD_REACTORS
330
2A
102
}
330
2A
100
AcDbVisualStyle
  2
GouraudWithEdges
 70
     3
177
     3
291
     1
 70
    58
 90
        2
176
     1
 90
        2
176
     1
 90
        1
176
     1
 90
        2
176
     1
 40
0.6
176
     1
 40
30.0
176
     1
 62
     7
420
 16777215
176
     1
 90
        1
176
     1
 90
        0
176
     1
 62
     7
176
     1
 62
   257
176
     1
 90
        1
176
     1
 90
        1
176
     1
 40
1.0
176
     1
 90
        0
176
     1
 62
   257
176
     1
 40
1.0
176
     1
 90
        1
176
     1
 90
        6
176
     1
 90
        2
176
     1
 62
     7
176
     1
 90
        5
176
     1
 90
        0
176
     1
 90
        0
176
     1
290
     0
176
     1
 90
       13
176
     1
 40
0.0
176
     1
 90
        0
176
     1
290
     0
176
     1
290
     1
176
     1
290
     1
176
     1
290
     0
176
     1
290
     0
176
     1
290
     0
176
     1
290
     0
176
     1
290
     0
176
     1
290
     0
176
     1
 90
       50
176
     1
 40
0.0
176
     1
 40
1.0
176
     1
 90
        0
176
     1
 62
    18
420
        0
176
     1
 90
       50
176
     1
 90
        3
176
     1
 62
     5
420
      255
176
     1
290
     0
176
     1
 90
       50
176
     1
 90
       50
176
     1
 90
       50
176
     1
290
     0
176
     1
 90
       50
176
     1
 62
   256
176
     0
 40
1.0
176
     0
 90
        2
176
     1
  1
strokes_ogs.tif
176
     1
290
     0
176
     1
 40
1.0
176
     1
 40
1.0
176
     1
  0
VISUALSTYLE
  5
31
102
{ACAD_REACTORS
330
2A
102
}
330
2A
100
AcDbVisualStyle
  2
Hidden
 70
     6
177
     3
291
     0
 70
    58
 90
        1
176
     1
 90
        2
176
     1
 90
        2
176
     1
 90
        0
176
     1
 40
0.6
176
     1
 40
30.0
176
     1
 62
     7
420
 16777215
176
     1
 90
        2
176
     1
 90
        2
176
     1
 62
     7
176
     1
 62
   257
176
     1
 90
        2
176
     1
 90
        1
176
     1
 40
40.0
176
     1
 90
        0
176
     1
 62
   257
176
     1
 40
1.0
176
     1
 90
        1
176
     1
 90
        6
176
     1
 90
        2
176
     1
 62
     7
176
     1
 90
        3
176
     1
 90
        0
176
     1
 90
        0
176
     1
290
     0
176
     1
 90
        1
176
     1
 40
0.0
176
     1
 90
        0
176
     1
290
     0
176
     1
290
     1
176
     1
290
     1
176
     1
290
     0
176
     1
290
     0
176
     1
290
     0
176
     1
290
     0
176
     1
290
     0
176
     1
290
     0
176
     1
 90
       50
176
     1
 40
0.0
176
     1
 40
1.0
176
     1
 90
        0
176
     1
 62
    18
420
        0
176
     1
 90
       50
176
     1
 90
        3
176
     1
 62
     5
420
      255
176
     1
290
     0
176
     1
 90
       50
176
     1
 90
       50
176
     1
 90
       50
176
     1
290
     0
176
     1
 90
       50
176
     1
 62
   256
176
     0
 40
1.0
176
     0
 90
        2
176
     1
  1
strokes_ogs.tif
176
     1
290
     0
176
     1
 40
1.0
176
     1
 40
1.0
176
     1
  0
VISUALSTYLE
  5
3B
102
{ACAD_REACTORS
330
2A
102
}
330
2A
100
AcDbVisualStyle
  2
JitterOff
 70
    20
177
     3
291
     1
 70
    58
 90
        2
176
     0
 90
        2
176
     0
 90
        0
176
     0
 90
        0
176
     0
 40
0.6
176
     0
 40
30.0
176
     0
 62
     7
420
 16777215
176
     0
 90
        1
176
     0
 90
        4
176
     0
 62
     7
176
     0
 62
   257
176
     0
 90
        1
176
     0
 90
        1
176
     0
 40
1.0
176
     0
 90
       10
176
     2
 62
     7
176
     0
 40
1.0
176
     0
 90
        1
176
     0
 90
        6
176
     0
 90
        2
176
     0
 62
     7
176
     0
 90
        5
176
     0
 90
        0
176
     0
 90
        0
176
     0
290
     0
176
     0
 90
        1
176
     0
 40
0.0
176
     0
 90
        0
176
     0
290
     0
176
     0
290
     1
176
     0
290
     1
176
     0
290
     0
176
     0
290
     0
176
     0
290
     0
176
     0
290
     0
176
     0
290
     0
176
     0
290
     0
176
     0
 90
       50
176
     0
 40
0.0
176
     0
 40
1.0
176
     0
 90
        0
176
     0
 62
    18
420
        0
176
     0
 90
       50
176
     0
 90
        3
176
     0
 62
     5
420
      255
176
     0
290
     0
176
     0
 90
       50
176
     0
 90
       50
176
     0
 90
       50
176
     0
290
     0
176
     0
 90
       50
176
     0
 62
   256
176
     0
 40
1.0
176
     0
 90
        2
176
     0
  1
strokes_ogs.tif
176
     0
290
     0
176
     0
 40
1.0
176
     0
 40
1.0
176
     0
  0
VISUALSTYLE
  5
38
102
{ACAD_REACTORS
330
2A
102
}
330
2A
100
AcDbVisualStyle
  2
Linepattern
 70
    14
177
     3
291
     1
 70
    58
 90
        2
176
     1
 90
        2
176
     1
 90
        0
176
     1
 90
        0
176
     1
 40
0.6
176
     1
 40
30.0
176
     1
 62
     7
420
 16777215
176
     1
 90
        1
176
     1
 90
        4
176
     1
 62
     7
176
     1
 62
   257
176
     1
 90
        7
176
     1
 90
        7
176
     1
 40
1.0
176
     1
 90
        8
176
     1
 62
     7
176
     1
 40
1.0
176
     1
 90
        1
176
     1
 90
        6
176
     1
 90
        2
176
     1
 62
     7
176
     1
 90
        5
176
     1
 90
        0
176
     1
 90
        0
176
     1
290
     0
176
     1
 90
        1
176
     1
 40
0.0
176
     1
 90
        0
176
     1
290
     0
176
     1
290
     1
176
     1
290
     1
176
     1
290
     0
176
     1
290
     0
176
     1
290
     0
176
     1
290
     0
176
     1
290
     0
176
     1
290
     0
176
     1
 90
       50
176
     1
 40
0.0
176
     1
 40
1.0
176
     1
 90
        0
176
     1
 62
    18
420
        0
176
     1
 90
       50
176
     1
 90
        3
176
     1
 62
     5
420
      255
176
     1
290
     0
176
     1
 90
       50
176
     1
 90
       50
176
     1
 90
       50
176
     1
290
     0
176
     1
 90
       50
176
     1
 62
   256
176
     0
 40
1.0
176
     0
 90
        2
176
     1
  1
strokes_ogs.tif
176
     1
290
     0
176
     1
 40
1.0
176
     1
 40
1.0
176
     1
  0
VISUALSTYLE
  5
3C
102
{ACAD_REACTORS
330
2A
102
}
330
2A
100
AcDbVisualStyle
  2
OverhangOff
 70
    21
177
     3
291
     1
 70
    58
 90
        2
176
     0
 90
        2
176
     0
 90
        0
176
     0
 90
        0
176
     0
 40
0.6
176
     0
 40
30.0
176
     0
 62
     7
420
 16777215
176
     0
 90
        1
176
     0
 90
        4
176
     0
 62
     7
176
     0
 62
   257
176
     0
 90
        1
176
     0
 90
        1
176
     0
 40
1.0
176
     0
 90
        9
176
     2
 62
     7
176
     0
 40
1.0
176
     0
 90
        1
176
     0
 90
        6
176
     0
 90
        2
176
     0
 62
     7
176
     0
 90
        5
176
     0
 90
        0
176
     0
 90
        0
176
     0
290
     0
176
     0
 90
        1
176
     0
 40
0.0
176
     0
 90
        0
176
     0
290
     0
176
     0
290
     1
176
     0
290
     1
176
     0
290
     0
176
     0
290
     0
176
     0
290
     0
176
     0
290
     0
176
     0
290
     0
176
     0
290
     0
176
     0
 90
       50
176
     0
 40
0.0
176
     0
 40
1.0
176
     0
 90
        0
176
     0
 62
    18
420
        0
176
     0
 90
       50
176
     0
 90
        3
176
     0
 62
     5
420
      255
176
     0
290
     0
176
     0
 90
       50
176
     0
 90
       50
176
     0
 90
       50
176
     0
290
     0
176
     0
 90
       50
176
     0
 62
   256
176
     0
 40
1.0
176
     0
 90
        2
176
     0
  1
strokes_ogs.tif
176
     0
290
     0
176
     0
 40
1.0
176
     0
 40
1.0
176
     0
  0
VISUALSTYLE
  5
33
102
{ACAD_REACTORS
330
2A
102
}
330
2A
100
AcDbVisualStyle
  2
Realistic
 70
     8
177
     3
291
     0
 70
    58
 90
        2
176
     1
 90
        3
176
     1
 90
        0
176
     1
 90
        2
176
     1
 40
0.6
176
     1
 40
30.0
176
     1
 62
     7
420
 16777215
176
     1
 90
        0
176
     1
 90
        0
176
     1
 62
     7
176
     1
 62
   257
176
     1
 90
        1
176
     1
 90
        1
176
     1
 40
1.0
176
     1
 90
        8
176
     1
 62
   257
176
     1
 40
1.0
176
     1
 90
        1
176
     1
 90
        6
176
     1
 90
        2
176
     1
 62
     7
176
     1
 90
        3
176
     1
 90
        0
176
     1
 90
        0
176
     1
290
     0
176
     1
 90
       13
176
     1
 40
0.0
176
     1
 90
        0
176
     1
290
     0
176
     1
290
     1
176
     1
290
     1
176
     1
290
     0
176
     1
290
     0
176
     1
290
     0
176
     1
290
     0
176
     1
290
     0
176
     1
290
     0
176
     1
 90
       50
176
     1
 40
0.0
176
     1
 40
1.0
176
     1
 90
        0
176
     1
 62
    18
420
        0
176
     1
 90
       50
176
     1
 90
        3
176
     1
 62
     5
420
      255
176
     1
290
     0
176
     1
 90
       50
176
     1
 90
       50
176
     1
 90
       50
176
     1
290
     0
176
     1
 90
       50
176
     1
 62
   256
176
     0
 40
1.0
176
     0
 90
        2
176
     1
  1
strokes_ogs.tif
176
     1
290
     0
176
     1
 40
1.0
176
     1
 40
1.0
176
     1
  0
VISUALSTYLE
  5
42
102
{ACAD_REACTORS
330
2A
102
}
330
2A
100
AcDbVisualStyle
  2
Shaded
 70
    27
177
     3
291
     0
 70
    58
 90
        2
176
     1
 90
        2
176
     1
 90
        1
176
     1
 90
        2
176
     1
 40
0.6
176
     1
 40
30.0
176
     1
 62
     7
420
 16777215
176
     1
 90
        0
176
     1
 90
        4
176
     1
 62
     7
176
     1
 62
   257
176
     1
 90
        1
176
     1
 90
        1
176
     1
 40
1.0
176
     1
 90
        8
176
     1
 62
   257
176
     1
 40
1.0
176
     1
 90
        1
176
     1
 90
        6
176
     1
 90
        2
176
     1
 62
     8
420
  7895160
176
     1
 90
        3
176
     1
 90
        0
176
     1
 90
        0
176
     1
290
     0
176
     1
 90
        5
176
     1
 40
0.0
176
     1
 90
        0
176
     1
290
     0
176
     1
290
     1
176
     1
290
     1
176
     1
290
     0
176
     1
290
     0
176
     1
290
     0
176
     1
290
     0
176
     1
290
     0
176
     1
290
     0
176
     1
 90
       50
176
     1
 40
0.0
176
     1
 40
1.0
176
     1
 90
        0
176
     1
 62
    18
420
        0
176
     1
 90
       50
176
     1
 90
        3
176
     1
 62
     5
420
      255
176
     1
290
     0
176
     1
 90
       50
176
     1
 90
       50
176
     1
 90
       50
176
     1
290
     0
176
     1
 90
       50
176
     1
 62
   256
176
     0
 40
1.0
176
     0
 90
        2
176
     1
  1
strokes_ogs.tif
176
     1
290
     0
176
     1
 40
1.0
176
     1
 40
1.0
176
     1
  0
VISUALSTYLE
  5
41
102
{ACAD_REACTORS
330
2A
102
}
330
2A
100
AcDbVisualStyle
  2
Shaded with edges
 70
    26
177
     3
291
     0
 70
    58
 90
        2
176
     1
 90
        2
176
     1
 90
        1
176
     1
 90
        2
176
     1
 40
0.6
176
     1
 40
30.0
176
     1
 62
     7
420
 16777215
176
     1
 90
        1
176
     1
 90
       10
176
     1
 62
     7
176
     1
 62
   257
176
     1
 90
        2
176
     1
 90
        1
176
     1
 40
1.0
176
     1
 90
        8
176
     1
 62
   257
176
     1
 40
1.0
176
     1
 90
        1
176
     1
 90
        6
176
     1
 90
        2
176
     1
 62
     7
176
     1
 90
        3
176
     1
 90
        0
176
     1
 90
        0
176
     1
290
     0
176
     1
 90
        5
176
     1
 40
0.0
176
     1
 90
        0
176
     1
290
     0
176
     1
290
     1
176
     1
290
     1
176
     1
290
     0
176
     1
290
     0
176
     1
290
     0
176
     1
290
     0
176
     1
290
     0
176
     1
290
     0
176
     1
 90
       50
176
     1
 40
0.0
176
     1
 40
1.0
176
     1
 90
        0
176
     1
 62
    18
420
        0
176
     1
 90
       50
176
     1
 90
        3
176
     1
 62
     5
420
      255
176
     1
290
     0
176
     1
 90
       50
176
     1
 90
       50
176
     1
 90
       50
176
     1
290
     0
176
     1
 90
       50
176
     1
 62
   256
176
     0
 40
1.0
176
     0
 90
        2
176
     1
  1
strokes_ogs.tif
176
     1
290
     0
176
     1
 40
1.0
176
     1
 40
1.0
176
     1
  0
VISUALSTYLE
  5
3E
102
{ACAD_REACTORS
330
2A
102
}
330
2A
100
AcDbVisualStyle
  2
Shades of Gray
 70
    23
177
     3
291
     0
 70
    58
 90
        2
176
     1
 90
        2
176
     1
 90
        3
176
     1
 90
        0
176
     1
 40
0.6
176
     1
 40
30.0
176
     1
 62
     7
420
 16777215
176
     1
 90
        2
176
     1
 90
        2
176
     1
 62
     7
176
     1
 62
     7
176
     1
 90
        1
176
     1
 90
        1
176
     1
 40
40.0
176
     1
 90
        8
176
     1
 62
     7
176
     1
 40
1.0
176
     1
 90
        1
176
     1
 90
        6
176
     1
 90
        2
176
     1
 62
     7
176
     1
 90
        3
176
     1
 90
        0
176
     1
 90
        0
176
     1
290
     0
176
     1
 90
        1
176
     1
 40
0.0
176
     1
 90
        0
176
     1
290
     0
176
     1
290
     1
176
     1
290
     1
176
     1
290
     0
176
     1
290
     0
176
     1
290
     0
176
     1
290
     0
176
     1
290
     0
176
     1
290
     0
176
     1
 90
       50
176
     1
 40
0.0
176
     1
 40
1.0
176
     1
 90
        0
176
     1
 62
    18
420
        0
176
     1
 90
       50
176
     1
 90
        3
176
     1
 62
     5
420
      255
176
     1
290
     0
176
     1
 90
       50
176
     1
 90
       50
176
     1
 90
       50
176
     1
290
     0
176
     1
 90
       50
176
     1
 62
   256
176
     0
 40
1.0
176
     0
 90
        2
176
     1
  1
strokes_ogs.tif
176
     1
290
     0
176
     1
 40
1.0
176
     1
 40
1.0
176
     1
  0
VISUALSTYLE
  5
3F
102
{ACAD_REACTORS
330
2A
102
}
330
2A
100
AcDbVisualStyle
  2
Sketchy
 70
    24
177
     3
291
     0
 70
    58
 90
        1
176
     1
 90
        2
176
     1
 90
        2
176
     1
 90
        0
176
     1
 40
0.6
176
     1
 40
30.0
176
     1
 62
     7
420
 16777215
176
     1
 90
        2
176
     1
 90
        2
176
     1
 62
     7
176
     1
 62
     7
176
     1
 90
        1
176
     1
 90
        1
176
     1
 40
40.0
176
     1
 90
       11
176
     1
 62
     7
176
     1
 40
1.0
176
     1
 90
        1
176
     1
 90
        6
176
     1
 90
        2
176
     1
 62
     7
176
     1
 90
        6
176
     1
 90
        0
176
     1
 90
        0
176
     1
290
     0
176
     1
 90
        1
176
     1
 40
0.0
176
     1
 90
        0
176
     1
290
     0
176
     1
290
     1
176
     1
290
     1
176
     1
290
     0
176
     1
290
     0
176
     1
290
     0
176
     1
290
     0
176
     1
290
     0
176
     1
290
     0
176
     1
 90
       50
176
     1
 40
0.0
176
     1
 40
1.0
176
     1
 90
        0
176
     1
 62
    18
420
        0
176
     1
 90
       50
176
     1
 90
        3
176
     1
 62
     5
420
      255
176
     1
290
     0
176
     1
 90
       50
176
     1
 90
       50
176
     1
 90
       50
176
     1
290
     0
176
     1
 90
       50
176
     1
 62
   256
176
     0
 40
1.0
176
     0
 90
        2
176
     1
  1
strokes_ogs.tif
176
     1
290
     0
176
     1
 40
1.0
176
     1
 40
1.0
176
     1
  0
VISUALSTYLE
  5
37
102
{ACAD_REACTORS
330
2A
102
}
330
2A
100
AcDbVisualStyle
  2
Thicken
 70
    13
177
     3
291
     1
 70
    58
 90
        2
176
     1
 90
        2
176
     1
 90
        0
176
     1
 90
        0
176
     1
 40
0.6
176
     1
 40
30.0
176
     1
 62
     7
420
 16777215
176
     1
 90
        1
176
     1
 90
        4
176
     1
 62
     7
176
     1
 62
   257
176
     1
 90
        1
176
     1
 90
        1
176
     1
 40
1.0
176
     1
 90
       12
176
     1
 62
     7
176
     1
 40
1.0
176
     1
 90
        1
176
     1
 90
        6
176
     1
 90
        2
176
     1
 62
     7
176
     1
 90
        5
176
     1
 90
        0
176
     1
 90
        0
176
     1
290
     0
176
     1
 90
        1
176
     1
 40
0.0
176
     1
 90
        0
176
     1
290
     0
176
     1
290
     1
176
     1
290
     1
176
     1
290
     0
176
     1
290
     0
176
     1
290
     0
176
     1
290
     0
176
     1
290
     0
176
     1
290
     0
176
     1
 90
       50
176
     1
 40
0.0
176
     1
 40
1.0
176
     1
 90
        0
176
     1
 62
    18
420
        0
176
     1
 90
       50
176
     1
 90
        3
176
     1
 62
     5
420
      255
176
     1
290
     0
176
     1
 90
       50
176
     1
 90
       50
176
     1
 90
       50
176
     1
290
     0
176
     1
 90
       50
176
     1
 62
   256
176
     0
 40
1.0
176
     0
 90
        2
176
     1
  1
strokes_ogs.tif
176
     1
290
     0
176
     1
 40
1.0
176
     1
 40
1.0
176
     1
  0
VISUALSTYLE
  5
30
102
{ACAD_REACTORS
330
2A
102
}
330
2A
100
AcDbVisualStyle
  2
Wireframe
 70
     5
177
     3
291
     0
 70
    58
 90
        0
176
     1
 90
        2
176
     1
 90
        0
176
     1
 90
        0
176
     1
 40
0.6
176
     1
 40
30.0
176
     1
 62
     7
420
 16777215
176
     1
 90
        1
176
     1
 90
        4
176
     1
 62
     7
176
     1
 62
   257
176
     1
 90
        1
176
     1
 90
        1
176
     1
 40
1.0
176
     1
 90
        0
176
     1
 62
   257
176
     1
 40
1.0
176
     1
 90
        1
176
     1
 90
        6
176
     1
 90
        2
176
     1
 62
     7
176
     1
 90
        3
176
     1
 90
        0
176
     1
 90
        0
176
     1
290
     0
176
     1
 90
        1
176
     1
 40
0.0
176
     1
 90
        0
176
     1
290
     0
176
     1
290
     1
176
     1
290
     1
176
     1
290
     0
176
     1
290
     0
176
     1
290
     0
176
     1
290
     0
176
     1
290
     0
176
     1
290
     0
176
     1
 90
       50
176
     1
 40
0.0
176
     1
 40
1.0
176
     1
 90
        0
176
     1
 62
    18
420
        0
176
     1
 90
       50
176
     1
 90
        3
176
     1
 62
     5
420
      255
176
     1
290
     0
176
     1
 90
       50
176
     1
 90
       50
176
     1
 90
       50
176
     1
290
     0
176
     1
 90
       50
176
     1
 62
   256
176
     0
 40
1.0
176
     0
 90
        2
176
     1
  1
strokes_ogs.tif
176
     1
290
     0
176
     1
 40
1.0
176
     1
 40
1.0
176
     1
  0
VISUALSTYLE
  5
40
102
{ACAD_REACTORS
330
2A
102
}
330
2A
100
AcDbVisualStyle
  2
X-Ray
 70
    25
177
     3
291
     0
 70
    58
 90
        2
176
     1
 90
        2
176
     1
 90
        1
176
     1
 90
        1
176
     1
 40
0.5
176
     1
 40
30.0
176
     1
 62
     7
420
 16777215
176
     1
 90
        1
176
     1
 90
        0
176
     1
 62
     7
176
     1
 62
   257
176
     1
 90
        1
176
     1
 90
        1
176
     1
 40
1.0
176
     1
 90
        8
176
     1
 62
     7
176
     1
 40
1.0
176
     1
 90
        1
176
     1
 90
        6
176
     1
 90
        2
176
     1
 62
     7
176
     1
 90
        3
176
     1
 90
        0
176
     1
 90
        0
176
     1
290
     0
176
     1
 90
       13
176
     1
 40
0.0
176
     1
 90
        0
176
     1
290
     0
176
     1
290
     1
176
     1
290
     1
176
     1
290
     0
176
     1
290
     0
176
     1
290
     0
176
     1
290
     0
176
     1
290
     0
176
     1
290
     0
176
     1
 90
       50
176
     1
 40
0.0
176
     1
 40
1.0
176
     1
 90
        0
176
     1
 62
    18
420
        0
176
     1
 90
       50
176
     1
 90
        3
176
     1
 62
     5
420
      255
176
     1
290
     0
176
     1
 90
       50
176
     1
 90
       50
176
     1
 90
       50
176
     1
290
     0
176
     1
 90
       50
176
     1
 62
   256
176
     0
 40
1.0
176
     0
 90
        2
176
     1
  1
strokes_ogs.tif
176
     1
290
     0
176
     1
 40
1.0
176
     1
 40
1.0
176
     1
  0
DICTIONARYVAR
  5
1A5
102
{ACAD_REACTORS
330
1A4
102
}
330
1A4
100
DictionaryVariables
280
     0
  1
1:1
  0
DICTIONARYVAR
  5
1AA
102
{ACAD_REACTORS
330
1A4
102
}
330
1A4
100
DictionaryVariables
280
     0
  1
Standard
  0
DICTIONARYVAR
  5
1A9
102
{ACAD_REACTORS
330
1A4
102
}
330
1A4
100
DictionaryVariables
280
     0
  1
Standard
  0
DICTIONARY
  5
1A6
330
6A
100
AcDbDictionary
280
     1
281
     1
  3
ACAD_ROUNDTRIP_2008_TABLESTYLE_CELLSTYLEMAP
360
1A7
  0
CELLSTYLEMAP
  5
1A7
102
{ACAD_REACTORS
330
1A6
102
}
330
1A6
100
AcDbCellStyleMap
 90
        3
300
CELLSTYLE
  1
TABLEFORMAT_BEGIN
 90
        5
170
     1
 91
        0
 92
    32768
 62
   257
 93
        1
300
CONTENTFORMAT
  1
CONTENTFORMAT_BEGIN
 90
        0
 91
        0
 92
        4
 93
        0
300

 40
0.0
140
1.0
 94
        5
 62
     0
340
11
144
0.25
309
CONTENTFORMAT_END
171
     1
301
MARGIN
  1
CELLMARGIN_BEGIN
 40
0.06
 40
0.06
 40
0.06
 40
0.06
 40
0.06
 40
0.06
309
CELLMARGIN_END
 94
        6
 95
        1
302
GRIDFORMAT
  1
GRIDFORMAT_BEGIN
 90
        0
 91
        1
 62
     0
 92
       -2
340
14
 93
        0
 40
0.045
309
GRIDFORMAT_END
 95
        2
302
GRIDFORMAT
  1
GRIDFORMAT_BEGIN
 90
        0
 91
        1
 62
     0
 92
       -2
340
14
 93
        0
 40
0.045
309
GRIDFORMAT_END
 95
        4
302
GRIDFORMAT
  1
GRIDFORMAT_BEGIN
 90
        0
 91
        1
 62
     0
 92
       -2
340
14
 93
        0
 40
0.045
309
GRIDFORMAT_END
 95
        8
302
GRIDFORMAT
  1
GRIDFORMAT_BEGIN
 90
        0
 91
        1
 62
     0
 92
       -2
340
14
 93
        0
 40
0.045
309
GRIDFORMAT_END
 95
       16
302
GRIDFORMAT
  1
GRIDFORMAT_BEGIN
 90
        0
 91
        1
 62
     0
 92
       -2
340
14
 93
        0
 40
0.045
309
GRIDFORMAT_END
 95
       32
302
GRIDFORMAT
  1
GRIDFORMAT_BEGIN
 90
        0
 91
        1
 62
     0
 92
       -2
340
14
 93
        0
 40
0.045
309
GRIDFORMAT_END
309
TABLEFORMAT_END
  1
CELLSTYLE_BEGIN
 90
        1
 91
        1
300
_TITLE
309
CELLSTYLE_END
300
CELLSTYLE
  1
TABLEFORMAT_BEGIN
 90
        5
170
     1
 91
        0
 92
        0
 62
   257
 93
        1
300
CONTENTFORMAT
  1
CONTENTFORMAT_BEGIN
 90
        0
 91
        0
 92
        4
 93
        0
300

 40
0.0
140
1.0
 94
        5
 62
     0
340
11
144
0.18
309
CONTENTFORMAT_END
171
     1
301
MARGIN
  1
CELLMARGIN_BEGIN
 40
0.06
 40
0.06
 40
0.06
 40
0.06
 40
0.06
 40
0.06
309
CELLMARGIN_END
 94
        6
 95
        1
302
GRIDFORMAT
  1
GRIDFORMAT_BEGIN
 90
        0
 91
        1
 62
     0
 92
       -2
340
14
 93
        0
 40
0.045
309
GRIDFORMAT_END
 95
        2
302
GRIDFORMAT
  1
GRIDFORMAT_BEGIN
 90
        0
 91
        1
 62
     0
 92
       -2
340
14
 93
        0
 40
0.045
309
GRIDFORMAT_END
 95
        4
302
GRIDFORMAT
  1
GRIDFORMAT_BEGIN
 90
        0
 91
        1
 62
     0
 92
       -2
340
14
 93
        0
 40
0.045
309
GRIDFORMAT_END
 95
        8
302
GRIDFORMAT
  1
GRIDFORMAT_BEGIN
 90
        0
 91
        1
 62
     0
 92
       -2
340
14
 93
        0
 40
0.045
309
GRIDFORMAT_END
 95
       16
302
GRIDFORMAT
  1
GRIDFORMAT_BEGIN
 90
        0
 91
        1
 62
     0
 92
       -2
340
14
 93
        0
 40
0.045
309
GRIDFORMAT_END
 95
       32
302
GRIDFORMAT
  1
GRIDFORMAT_BEGIN
 90
        0
 91
        1
 62
     0
 92
       -2
340
14
 93
        0
 40
0.045
309
GRIDFORMAT_END
309
TABLEFORMAT_END
  1
CELLSTYLE_BEGIN
 90
        2
 91
        1
300
_HEADER
309
CELLSTYLE_END
300
CELLSTYLE
  1
TABLEFORMAT_BEGIN
 90
        5
170
     1
 91
        0
 92
        0
 62
   257
 93
        1
300
CONTENTFORMAT
  1
CONTENTFORMAT_BEGIN
 90
        0
 91
        0
 92
        4
 93
        0
300

 40
0.0
140
1.0
 94
        2
 62
     0
340
11
144
0.18
309
CONTENTFORMAT_END
171
     1
301
MARGIN
  1
CELLMARGIN_BEGIN
 40
0.06
 40
0.06
 40
0.06
 40
0.06
 40
0.06
 40
0.06
309
CELLMARGIN_END
 94
        6
 95
        1
302
GRIDFORMAT
  1
GRIDFORMAT_BEGIN
 90
        0
 91
        1
 62
     0
 92
       -2
340
14
 93
        0
 40
0.045
309
GRIDFORMAT_END
 95
        2
302
GRIDFORMAT
  1
GRIDFORMAT_BEGIN
 90
        0
 91
        1
 62
     0
 92
       -2
340
14
 93
        0
 40
0.045
309
GRIDFORMAT_END
 95
        4
302
GRIDFORMAT
  1
GRIDFORMAT_BEGIN
 90
        0
 91
        1
 62
     0
 92
       -2
340
14
 93
        0
 40
0.045
309
GRIDFORMAT_END
 95
        8
302
GRIDFORMAT
  1
GRIDFORMAT_BEGIN
 90
        0
 91
        1
 62
     0
 92
       -2
340
14
 93
        0
 40
0.045
309
GRIDFORMAT_END
 95
       16
302
GRIDFORMAT
  1
GRIDFORMAT_BEGIN
 90
        0
 91
        1
 62
     0
 92
       -2
340
14
 93
        0
 40
0.045
309
GRIDFORMAT_END
 95
       32
302
GRIDFORMAT
  1
GRIDFORMAT_BEGIN
 90
        0
 91
        1
 62
     0
 92
       -2
340
14
 93
        0
 40
0.045
309
GRIDFORMAT_END
309
TABLEFORMAT_END
  1
CELLSTYLE_BEGIN
 90
        3
 91
        2
300
_DATA
309
CELLSTYLE_END
  0
ENDSEC
  0
EOF