0
SECTION
  2
HEADER
  9
$ACADVER
  1
AC1027
  9
$ACADMAINTVER
 70
     8
  9
$DWGCODEPAGE
  3
ANSI_1252
  9
$REQUIREDVERSIONS
160
                 0
  9
$COMMENTS
  1
File was created by Cadenas
  9
$CUSTOMPROPERTYTAG
  1
NN
  9
$CUSTOMPROPERTY
  1
Eccentric Collar Two-Bolt Flange Inch Bore
  9
$CUSTOMPROPERTYTAG
  1
NT
  9
$CUSTOMPROPERTY
  1
Eccentric Collar 2 Bolt Flange Bearings -(Normal Duty)
  9
$CUSTOMPROPERTYTAG
  1
NB
  9
$CUSTOMPROPERTY
  1
131054
  9
$CUSTOMPROPERTYTAG
  1
NBSYN
  9
$CUSTOMPROPERTY
  1
$PN.
  9
$CUSTOMPROPERTYTAG
  1
LINA
  9
$CUSTOMPROPERTY
  1
131054
  9
$CUSTOMPROPERTYTAG
  1
SERIES
  9
$CUSTOMPROPERTY
  1
204
  9
$CUSTOMPROPERTYTAG
  1
SS
  9
$CUSTOMPROPERTY
  1
3/4
  9
$CUSTOMPROPERTYTAG
  1
PN
  9
$CUSTOMPROPERTY
  1
131054
  9
$CUSTOMPROPERTYTAG
  1
DESCRIPTION
  9
$CUSTOMPROPERTY
  1
F2B-SXR-012
  9
$CUSTOMPROPERTYTAG
  1
LF
  9
$CUSTOMPROPERTY
  1
RE-LUBE
  9
$CUSTOMPROPERTYTAG
  1
W
  9
$CUSTOMPROPERTY
  1
1.2
  9
$CUSTOMPROPERTYTAG
  1
A
  9
$CUSTOMPROPERTY
  1
1.55
  9
$CUSTOMPROPERTYTAG
  1
B
  9
$CUSTOMPROPERTY
  1
4.41
  9
$CUSTOMPROPERTYTAG
  1
C
  9
$CUSTOMPROPERTY
  1
1.66
  9
$CUSTOMPROPERTYTAG
  1
D
  9
$CUSTOMPROPERTY
  1
3.53
  9
$CUSTOMPROPERTYTAG
  1
F
  9
$CUSTOMPROPERTY
  1
3/8
  9
$CUSTOMPROPERTYTAG
  1
H
  9
$CUSTOMPROPERTY
  1
0.50
  9
$CUSTOMPROPERTYTAG
  1
J
  9
$CUSTOMPROPERTY
  1
0.68
  9
$CUSTOMPROPERTYTAG
  1
L
  9
$CUSTOMPROPERTY
  1
1.31
  9
$CUSTOMPROPERTYTAG
  1
M
  9
$CUSTOMPROPERTY
  1
2.38
  9
$CUSTOMPROPERTYTAG
  1
N
  9
$CUSTOMPROPERTY
  1
1.50
  9
$CUSTOMPROPERTYTAG
  1
COMPANY
  9
$CUSTOMPROPERTY
  1
baldor
  9
$INSBASE
 10
0.0
 20
0.0
 30
0.0
  9
$EXTMIN
 10
1.000000000000000E+20
 20
1.000000000000000E+20
 30
1.000000000000000E+20
  9
$EXTMAX
 10
-1.000000000000000E+20
 20
-1.000000000000000E+20
 30
-1.000000000000000E+20
  9
$LIMMIN
 10
0.0
 20
0.0
  9
$LIMMAX
 10
12.0
 20
9.0
  9
$ORTHOMODE
 70
     0
  9
$REGENMODE
 70
     1
  9
$FILLMODE
 70
     1
  9
$QTEXTMODE
 70
     0
  9
$MIRRTEXT
 70
     1
  9
$LTSCALE
 40
1.0
  9
$ATTMODE
 70
     1
  9
$TEXTSIZE
 40
0.2
  9
$TRACEWID
 40
0.05
  9
$TEXTSTYLE
  7
Standard
  9
$CLAYER
  8
0
  9
$CELTYPE
  6
ByLayer
  9
$CECOLOR
 62
   256
  9
$CELTSCALE
 40
1.0
  9
$DISPSILH
 70
     0
  9
$DIMSCALE
 40
1.0
  9
$DIMASZ
 40
0.18
  9
$DIMEXO
 40
0.0625
  9
$DIMDLI
 40
0.38
  9
$DIMRND
 40
0.0
  9
$DIMDLE
 40
0.0
  9
$DIMEXE
 40
0.18
  9
$DIMTP
 40
0.0
  9
$DIMTM
 40
0.0
  9
$DIMTXT
 40
0.18
  9
$DIMCEN
 40
0.09
  9
$DIMTSZ
 40
0.0
  9
$DIMTOL
 70
     0
  9
$DIMLIM
 70
     0
  9
$DIMTIH
 70
     1
  9
$DIMTOH
 70
     1
  9
$DIMSE1
 70
     0
  9
$DIMSE2
 70
     0
  9
$DIMTAD
 70
     0
  9
$DIMZIN
 70
     0
  9
$DIMBLK
  1

  9
$DIMASO
 70
     1
  9
$DIMSHO
 70
     1
  9
$DIMPOST
  1

  9
$DIMAPOST
  1

  9
$DIMALT
 70
     0
  9
$DIMALTD
 70
     2
  9
$DIMALTF
 40
25.4
  9
$DIMLFAC
 40
1.0
  9
$DIMTOFL
 70
     0
  9
$DIMTVP
 40
0.0
  9
$DIMTIX
 70
     0
  9
$DIMSOXD
 70
     0
  9
$DIMSAH
 70
     0
  9
$DIMBLK1
  1

  9
$DIMBLK2
  1

  9
$DIMSTYLE
  2
Standard
  9
$DIMCLRD
 70
     0
  9
$DIMCLRE
 70
     0
  9
$DIMCLRT
 70
     0
  9
$DIMTFAC
 40
1.0
  9
$DIMGAP
 40
0.09
  9
$DIMJUST
 70
     0
  9
$DIMSD1
 70
     0
  9
$DIMSD2
 70
     0
  9
$DIMTOLJ
 70
     1
  9
$DIMTZIN
 70
     0
  9
$DIMALTZ
 70
     0
  9
$DIMALTTZ
 70
     0
  9
$DIMUPT
 70
     0
  9
$DIMDEC
 70
     4
  9
$DIMTDEC
 70
     4
  9
$DIMALTU
 70
     2
  9
$DIMALTTD
 70
     2
  9
$DIMTXSTY
  7
Standard
  9
$DIMAUNIT
 70
     0
  9
$DIMADEC
 70
     0
  9
$DIMALTRND
 40
0.0
  9
$DIMAZIN
 70
     0
  9
$DIMDSEP
 70
    46
  9
$DIMATFIT
 70
     3
  9
$DIMFRAC
 70
     0
  9
$DIMLDRBLK
  1

  9
$DIMLUNIT
 70
     2
  9
$DIMLWD
 70
    -2
  9
$DIMLWE
 70
    -2
  9
$DIMTMOVE
 70
     0
  9
$DIMFXL
 40
1.0
  9
$DIMFXLON
 70
     0
  9
$DIMJOGANG
 40
0.7853981633974483
  9
$DIMTFILL
 70
     0
  9
$DIMTFILLCLR
 70
     0
  9
$DIMARCSYM
 70
     0
  9
$DIMLTYPE
  6

  9
$DIMLTEX1
  6

  9
$DIMLTEX2
  6

  9
$DIMTXTDIRECTION
 70
     0
  9
$LUNITS
 70
     2
  9
$LUPREC
 70
     4
  9
$SKETCHINC
 40
0.1
  9
$FILLETRAD
 40
0.5
  9
$AUNITS
 70
     0
  9
$AUPREC
 70
     0
  9
$MENU
  1
.
  9
$ELEVATION
 40
0.0
  9
$PELEVATION
 40
0.0
  9
$THICKNESS
 40
0.0
  9
$LIMCHECK
 70
     0
  9
$CHAMFERA
 40
0.0
  9
$CHAMFERB
 40
0.0
  9
$CHAMFERC
 40
0.0
  9
$CHAMFERD
 40
0.0
  9
$SKPOLY
 70
     0
  9
$TDCREATE
 40
2458168.975769826
  9
$TDUCREATE
 40
2458168.93410316
  9
$TDUPDATE
 40
2458168.975770012
  9
$TDUUPDATE
 40
2458168.934103345
  9
$TDINDWG
 40
0.0000000116
  9
$TDUSRTIMER
 40
0.0000000116
  9
$USRTIMER
 70
     1
  9
$ANGBASE
 50
0.0
  9
$ANGDIR
 70
     0
  9
$PDMODE
 70
     0
  9
$PDSIZE
 40
0.0
  9
$PLINEWID
 40
0.0
  9
$SPLFRAME
 70
     0
  9
$SPLINETYPE
 70
     6
  9
$SPLINESEGS
 70
     8
  9
$HANDSEED
  5
199
  9
$SURFTAB1
 70
     6
  9
$SURFTAB2
 70
     6
  9
$SURFTYPE
 70
     6
  9
$SURFU
 70
     6
  9
$SURFV
 70
     6
  9
$UCSBASE
  2

  9
$UCSNAME
  2

  9
$UCSORG
 10
0.0
 20
0.0
 30
0.0
  9
$UCSXDIR
 10
1.0
 20
0.0
 30
0.0
  9
$UCSYDIR
 10
0.0
 20
1.0
 30
0.0
  9
$UCSORTHOREF
  2

  9
$UCSORTHOVIEW
 70
     0
  9
$UCSORGTOP
 10
0.0
 20
0.0
 30
0.0
  9
$UCSORGBOTTOM
 10
0.0
 20
0.0
 30
0.0
  9
$UCSORGLEFT
 10
0.0
 20
0.0
 30
0.0
  9
$UCSORGRIGHT
 10
0.0
 20
0.0
 30
0.0
  9
$UCSORGFRONT
 10
0.0
 20
0.0
 30
0.0
  9
$UCSORGBACK
 10
0.0
 20
0.0
 30
0.0
  9
$PUCSBASE
  2

  9
$PUCSNAME
  2

  9
$PUCSORG
 10
0.0
 20
0.0
 30
0.0
  9
$PUCSXDIR
 10
1.0
 20
0.0
 30
0.0
  9
$PUCSYDIR
 10
0.0
 20
1.0
 30
0.0
  9
$PUCSORTHOREF
  2

  9
$PUCSORTHOVIEW
 70
     0
  9
$PUCSORGTOP
 10
0.0
 20
0.0
 30
0.0
  9
$PUCSORGBOTTOM
 10
0.0
 20
0.0
 30
0.0
  9
$PUCSORGLEFT
 10
0.0
 20
0.0
 30
0.0
  9
$PUCSORGRIGHT
 10
0.0
 20
0.0
 30
0.0
  9
$PUCSORGFRONT
 10
0.0
 20
0.0
 30
0.0
  9
$PUCSORGBACK
 10
0.0
 20
0.0
 30
0.0
  9
$USERI1
 70
     0
  9
$USERI2
 70
     0
  9
$USERI3
 70
     0
  9
$USERI4
 70
     0
  9
$USERI5
 70
     0
  9
$USERR1
 40
0.0
  9
$USERR2
 40
0.0
  9
$USERR3
 40
0.0
  9
$USERR4
 40
0.0
  9
$USERR5
 40
0.0
  9
$WORLDVIEW
 70
     1
  9
$SHADEDGE
 70
     3
  9
$SHADEDIF
 70
    70
  9
$TILEMODE
 70
     1
  9
$MAXACTVP
 70
    64
  9
$PINSBASE
 10
0.0
 20
0.0
 30
0.0
  9
$PLIMCHECK
 70
     0
  9
$PEXTMIN
 10
1.000000000000000E+20
 20
1.000000000000000E+20
 30
1.000000000000000E+20
  9
$PEXTMAX
 10
-1.000000000000000E+20
 20
-1.000000000000000E+20
 30
-1.000000000000000E+20
  9
$PLIMMIN
 10
0.0
 20
0.0
  9
$PLIMMAX
 10
12.0
 20
9.0
  9
$UNITMODE
 70
     0
  9
$VISRETAIN
 70
     1
  9
$PLINEGEN
 70
     0
  9
$PSLTSCALE
 70
     1
  9
$TREEDEPTH
 70
  3020
  9
$CMLSTYLE
  2
Standard
  9
$CMLJUST
 70
     0
  9
$CMLSCALE
 40
1.0
  9
$PROXYGRAPHICS
 70
     1
  9
$MEASUREMENT
 70
     0
  9
$CELWEIGHT
370
    -1
  9
$ENDCAPS
280
     0
  9
$JOINSTYLE
280
     0
  9
$LWDISPLAY
290
     0
  9
$INSUNITS
 70
     1
  9
$HYPERLINKBASE
  1

  9
$STYLESHEET
  1

  9
$XEDIT
290
     1
  9
$CEPSNTYPE
380
     0
  9
$PSTYLEMODE
290
     1
  9
$FINGERPRINTGUID
  2
{4811096E-A936-4DFC-8106-7DD604CF6DA5}
  9
$VERSIONGUID
  2
{FAEB1C32-E019-11D5-929B-00C0DF256EC4}
  9
$EXTNAMES
290
     1
  9
$PSVPSCALE
 40
0.0
  9
$OLESTARTUP
290
     0
  9
$SORTENTS
280
   127
  9
$INDEXCTL
280
     0
  9
$HIDETEXT
280
     1
  9
$XCLIPFRAME
280
     2
  9
$HALOGAP
280
     0
  9
$OBSCOLOR
 70
   257
  9
$OBSLTYPE
280
     0
  9
$INTERSECTIONDISPLAY
280
     0
  9
$INTERSECTIONCOLOR
 70
   257
  9
$DIMASSOC
280
     2
  9
$PROJECTNAME
  1

  9
$CAMERADISPLAY
290
     0
  9
$LENSLENGTH
 40
50.0
  9
$CAMERAHEIGHT
 40
0.0
  9
$STEPSPERSEC
 40
2.0
  9
$STEPSIZE
 40
6.0
  9
$3DDWFPREC
 40
2.0
  9
$PSOLWIDTH
 40
0.25
  9
$PSOLHEIGHT
 40
4.0
  9
$LOFTANG1
 40
1.570796326794897
  9
$LOFTANG2
 40
1.570796326794897
  9
$LOFTMAG1
 40
0.0
  9
$LOFTMAG2
 40
0.0
  9
$LOFTPARAM
 70
     7
  9
$LOFTNORMALS
280
     1
  9
$LATITUDE
 40
37.795
  9
$LONGITUDE
 40
-122.394
  9
$NORTHDIRECTION
 40
0.0
  9
$TIMEZONE
 70
 -8000
  9
$LIGHTGLYPHDISPLAY
280
     1
  9
$TILEMODELIGHTSYNCH
280
     1
  9
$CMATERIAL
347
44
  9
$SOLIDHIST
280
     0
  9
$SHOWHIST
280
     1
  9
$DWFFRAME
280
     2
  9
$DGNFRAME
280
     2
  9
$REALWORLDSCALE
290
     1
  9
$INTERFERECOLOR
 62
   256
  9
$CSHADOW
280
     0
  9
$SHADOWPLANELOCATION
 40
0.0
  0
ENDSEC
  0
SECTION
  2
CLASSES
  0
CLASS
  1
ACDBDICTIONARYWDFLT
  2
AcDbDictionaryWithDefault
  3
ObjectDBX Classes
 90
        0
 91
        4
280
     0
281
     0
  0
CLASS
  1
VISUALSTYLE
  2
AcDbVisualStyle
  3
ObjectDBX Classes
 90
     4095
 91
        4
280
     0
281
     0
  0
CLASS
  1
MATERIAL
  2
AcDbMaterial
  3
ObjectDBX Classes
 90
     1153
 91
        4
280
     0
281
     0
  0
CLASS
  1
SCALE
  2
AcDbScale
  3
ObjectDBX Classes
 90
     1153
 91
        4
280
     0
281
     0
  0
CLASS
  1
TABLESTYLE
  2
AcDbTableStyle
  3
ObjectDBX Classes
 90
     4095
 91
        4
280
     0
281
     0
  0
CLASS
  1
MLEADERSTYLE
  2
AcDbMLeaderStyle
  3
ACDB_MLEADERSTYLE_CLASS
 90
     4095
 91
        4
280
     0
281
     0
  0
CLASS
  1
SUN
  2
AcDbSun
  3
SCENEOE
 90
     1153
 91
        4
280
     0
281
     0
  0
CLASS
  1
DICTIONARYVAR
  2
AcDbDictionaryVar
  3
ObjectDBX Classes
 90
        0
 91
        4
280
     0
281
     0
  0
CLASS
  1
CELLSTYLEMAP
  2
AcDbCellStyleMap
  3
ObjectDBX Classes
 90
     1152
 91
        4
280
     0
281
     0
  0
ENDSEC
  0
SECTION
  2
TABLES
  0
TABLE
  2
VPORT
  5
8
330
0
100
AcDbSymbolTable
 70
     1
  0
VPORT
  5
29
330
8
100
AcDbSymbolTableRecord
100
AcDbViewportTableRecord
  2
*Active
 70
     0
 10
0.0
 20
0.0
 11
1.0
 21
1.0
 12
0.1913021203674816
 22
-0.8421750000000001
 13
0.0
 23
0.0
 14
0.5
 24
0.5
 15
0.5
 25
0.5
 16
0.0
 26
0.0
 36
1.0
 17
0.0
 27
0.0
 37
0.0
 40
1.826463
 41
1.542794091941455
 42
50.0
 43
0.0
 44
0.0
 50
0.0
 51
0.0
 71
     0
 72
   100
 73
     1
 74
     3
 75
     0
 76
     0
 77
     0
 78
     0
281
     0
 65
     1
110
0.0
120
0.0
130
0.0
111
1.0
121
0.0
131
0.0
112
0.0
122
1.0
132
0.0
 79
     0
146
0.0
348
2F
 60
     3
 61
     5
292
     1
282
     1
141
0.0
142
0.0
 63
   250
361
6D
  0
ENDTAB
  0
TABLE
  2
LTYPE
  5
5
330
0
100
AcDbSymbolTable
 70
     3
  0
LTYPE
  5
14
330
5
100
AcDbSymbolTableRecord
100
AcDbLinetypeTableRecord
  2
ByBlock
 70
     0
  3

 72
    65
 73
     0
 40
0.0
  0
LTYPE
  5
15
330
5
100
AcDbSymbolTableRecord
100
AcDbLinetypeTableRecord
  2
ByLayer
 70
     0
  3

 72
    65
 73
     0
 40
0.0
  0
LTYPE
  5
16
330
5
100
AcDbSymbolTableRecord
100
AcDbLinetypeTableRecord
  2
Continuous
 70
     0
  3
Solid line
 72
    65
 73
     0
 40
0.0
  0
LTYPE
  5
95
330
5
100
AcDbSymbolTableRecord
100
AcDbLinetypeTableRecord
  2
Dashed
 70
     0
  3

 72
    65
 73
     2
 40
2.0
 49
1.0
 74
     0
 49
-1.0
 74
     0
  0
LTYPE
  5
170
330
5
100
AcDbSymbolTableRecord
100
AcDbLinetypeTableRecord
  2
Center
 70
     0
  3

 72
    65
 73
     4
 40
1.5
 49
0.45
 74
     0
 49
-0.5
 74
     0
 49
0.05
 74
     0
 49
-0.5
 74
     0
  0
ENDTAB
  0
TABLE
  2
LAYER
  5
2
330
0
100
AcDbSymbolTable
 70
     6
  0
LAYER
  5
10
330
2
100
AcDbSymbolTableRecord
100
AcDbLayerTableRecord
  2
0
 70
     0
 62
     7
  6
Continuous
370
    -3
390
F
347
46
348
0
  0
LAYER
  5
72
330
2
100
AcDbSymbolTableRecord
100
AcDbLayerTableRecord
  2
AM_6
 70
     0
 62
    -2
  6
Continuous
370
    35
390
F
347
46
348
0
  0
LAYER
  5
96
330
2
100
AcDbSymbolTableRecord
100
AcDbLayerTableRecord
  2
AM_9
 70
     0
 62
     6
  6
Dashed
370
    25
390
F
347
46
348
0
  0
LAYER
  5
B6
330
2
100
AcDbSymbolTableRecord
100
AcDbLayerTableRecord
  2
AM_4
 70
     0
 62
     7
  6
Continuous
370
    50
390
F
347
46
348
0
  0
LAYER
  5
171
330
2
100
AcDbSymbolTableRecord
100
AcDbLayerTableRecord
  2
AM_7
 70
     0
 62
     7
  6
Center
370
    25
390
F
347
46
348
0
  0
LAYER
  5
18A
330
2
100
AcDbSymbolTableRecord
100
AcDbLayerTableRecord
  2
ConnectionPoints
 70
     0
 62
     7
  6
Continuous
370
    50
390
F
347
46
348
0
  0
ENDTAB
  0
TABLE
  2
STYLE
  5
3
330
0
100
AcDbSymbolTable
 70
     1
  0
STYLE
  5
11
330
3
100
AcDbSymbolTableRecord
100
AcDbTextStyleTableRecord
  2
Standard
 70
     0
 40
0.0
 41
1.0
 50
0.0
 71
     0
 42
0.2
  3
txt
  4

  0
ENDTAB
  0
TABLE
  2
VIEW
  5
6
330
0
100
AcDbSymbolTable
 70
     0
  0
ENDTAB
  0
TABLE
  2
UCS
  5
7
330
0
100
AcDbSymbolTable
 70
     0
  0
ENDTAB
  0
TABLE
  2
APPID
  5
9
330
0
100
AcDbSymbolTable
 70
     1
  0
APPID
  5
12
330
9
100
AcDbSymbolTableRecord
100
AcDbRegAppTableRecord
  2
ACAD
 70
     0
  0
ENDTAB
  0
TABLE
  2
DIMSTYLE
  5
A
330
0
100
AcDbSymbolTable
 70
     1
100
AcDbDimStyleTable
  0
DIMSTYLE
105
27
330
A
100
AcDbSymbolTableRecord
100
AcDbDimStyleTableRecord
  2
Standard
 70
     0
178
     0
340
11
  0
ENDTAB
  0
TABLE
  2
BLOCK_RECORD
  5
1
330
0
100
AcDbSymbolTable
 70
     5
  0
BLOCK_RECORD
  5
1F
330
1
100
AcDbSymbolTableRecord
100
AcDbBlockTableRecord
  2
*Model_Space
340
22
 70
     0
280
     1
281
     0
  0
BLOCK_RECORD
  5
1B
330
1
100
AcDbSymbolTableRecord
100
AcDbBlockTableRecord
  2
*Paper_Space
340
1E
 70
     0
280
     1
281
     0
  0
BLOCK_RECORD
  5
23
330
1
100
AcDbSymbolTableRecord
100
AcDbBlockTableRecord
  2
*Paper_Space0
340
26
 70
     0
280
     1
281
     0
  0
BLOCK_RECORD
  5
6E
330
1
100
AcDbSymbolTableRecord
100
AcDbBlockTableRecord
  2
1_131054_4
340
0
102
{BLKREFS
331
6F
102
}
 70
     0
280
     1
281
     0
  0
BLOCK_RECORD
  5
89
330
1
100
AcDbSymbolTableRecord
100
AcDbBlockTableRecord
  2
2_405015E_Inch_0_in_131054_4
340
0
102
{BLKREFS
331
8A
102
}
 70
     0
280
     1
281
     0
  0
BLOCK_RECORD
  5
D9
330
1
100
AcDbSymbolTableRecord
100
AcDbBlockTableRecord
  2
3_131904_0_in_131054_4
340
0
102
{BLKREFS
331
DA
102
}
 70
     0
280
     1
281
     0
  0
BLOCK_RECORD
  5
138
330
1
100
AcDbSymbolTableRecord
100
AcDbBlockTableRecord
  2
4_131054H_0_in_131054_4
340
0
102
{BLKREFS
331
139
102
}
 70
     0
280
     1
281
     0
  0
ENDTAB
  0
ENDSEC
  0
SECTION
  2
BLOCKS
  0
BLOCK
  5
20
330
1F
100
AcDbEntity
  8
0
100
AcDbBlockBegin
  2
*Model_Space
 70
     0
 10
0.0
 20
0.0
 30
0.0
  3
*Model_Space
  1

  0
ENDBLK
  5
21
330
1F
100
AcDbEntity
  8
0
100
AcDbBlockEnd
  0
BLOCK
  5
1C
330
1B
100
AcDbEntity
 67
     1
  8
0
100
AcDbBlockBegin
  2
*Paper_Space
 70
     0
 10
0.0
 20
0.0
 30
0.0
  3
*Paper_Space
  1

  0
ENDBLK
  5
1D
330
1B
100
AcDbEntity
 67
     1
  8
0
100
AcDbBlockEnd
  0
BLOCK
  5
24
330
23
100
AcDbEntity
  8
0
100
AcDbBlockBegin
  2
*Paper_Space0
 70
     0
 10
0.0
 20
0.0
 30
0.0
  3
*Paper_Space0
  1

  0
ENDBLK
  5
25
330
23
100
AcDbEntity
  8
0
100
AcDbBlockEnd
  0
BLOCK
  5
70
330
6E
100
AcDbEntity
  8
0
100
AcDbBlockBegin
  2
1_131054_4
 70
     2
 10
0.0
 20
0.0
 30
0.0
  3
1_131054_4
  1

  0
ATTDEF
  5
73
330
6E
100
AcDbEntity
  8
AM_6
100
AcDbText
 10
6.572604240734965
 20
0.05315
 30
0.0
 40
0.5
  1
Eccentric Collar Two-Bolt Flange Inch Bore
100
AcDbAttributeDefinition
  3

  2
NN
 70
     8
280
     0
  0
ATTDEF
  5
74
330
6E
100
AcDbEntity
  8
AM_6
100
AcDbText
 10
6.572604240734965
 20
-0.44685
 30
0.0
 40
0.5
  1
Eccentric Collar 2 Bolt Flange Bearings -(Normal Duty)
100
AcDbAttributeDefinition
  3

  2
NT
 70
     8
280
     0
  0
ATTDEF
  5
75
330
6E
100
AcDbEntity
  8
AM_6
100
AcDbText
 10
6.572604240734965
 20
-0.94685
 30
0.0
 40
0.5
  1
131054
100
AcDbAttributeDefinition
  3

  2
NB
 70
     8
280
     0
  0
ATTDEF
  5
76
330
6E
100
AcDbEntity
  8
AM_6
100
AcDbText
 10
6.572604240734965
 20
-1.44685
 30
0.0
 40
0.5
  1
$PN.
100
AcDbAttributeDefinition
  3

  2
NBSYN
 70
     8
280
     0
  0
ATTDEF
  5
77
330
6E
100
AcDbEntity
  8
AM_6
100
AcDbText
 10
6.572604240734965
 20
-1.94685
 30
0.0
 40
0.5
  1
131054
100
AcDbAttributeDefinition
  3

  2
LINA
 70
     8
280
     0
  0
ATTDEF
  5
78
330
6E
100
AcDbEntity
  8
AM_6
100
AcDbText
 10
6.572604240734965
 20
-2.44685
 30
0.0
 40
0.5
  1
204
100
AcDbAttributeDefinition
  3

  2
SERIES
 70
     8
280
     0
  0
ATTDEF
  5
79
330
6E
100
AcDbEntity
  8
AM_6
100
AcDbText
 10
6.572604240734965
 20
-2.94685
 30
0.0
 40
0.5
  1
3/4
100
AcDbAttributeDefinition
  3

  2
SS
 70
     8
280
     0
  0
ATTDEF
  5
7A
330
6E
100
AcDbEntity
  8
AM_6
100
AcDbText
 10
6.572604240734965
 20
-3.44685
 30
0.0
 40
0.5
  1
131054
100
AcDbAttributeDefinition
  3

  2
PN
 70
     8
280
     0
  0
ATTDEF
  5
7B
330
6E
100
AcDbEntity
  8
AM_6
100
AcDbText
 10
6.572604240734965
 20
-3.94685
 30
0.0
 40
0.5
  1
F2B-SXR-012
100
AcDbAttributeDefinition
  3

  2
DESCRIPTION
 70
     8
280
     0
  0
ATTDEF
  5
7C
330
6E
100
AcDbEntity
  8
AM_6
100
AcDbText
 10
6.572604240734965
 20
-4.44685
 30
0.0
 40
0.5
  1
RE-LUBE
100
AcDbAttributeDefinition
  3

  2
LF
 70
     8
280
     0
  0
ATTDEF
  5
7D
330
6E
100
AcDbEntity
  8
AM_6
100
AcDbText
 10
6.572604240734965
 20
-4.94685
 30
0.0
 40
0.5
  1
1.2
100
AcDbAttributeDefinition
  3

  2
W
 70
     8
280
     0
  0
ATTDEF
  5
7E
330
6E
100
AcDbEntity
  8
AM_6
100
AcDbText
 10
6.572604240734965
 20
-5.44685
 30
0.0
 40
0.5
  1
1.55
100
AcDbAttributeDefinition
  3

  2
A
 70
     8
280
     0
  0
ATTDEF
  5
7F
330
6E
100
AcDbEntity
  8
AM_6
100
AcDbText
 10
6.572604240734965
 20
-5.94685
 30
0.0
 40
0.5
  1
4.41
100
AcDbAttributeDefinition
  3

  2
B
 70
     8
280
     0
  0
ATTDEF
  5
80
330
6E
100
AcDbEntity
  8
AM_6
100
AcDbText
 10
6.572604240734965
 20
-6.44685
 30
0.0
 40
0.5
  1
1.66
100
AcDbAttributeDefinition
  3

  2
C
 70
     8
280
     0
  0
ATTDEF
  5
81
330
6E
100
AcDbEntity
  8
AM_6
100
AcDbText
 10
6.572604240734965
 20
-6.94685
 30
0.0
 40
0.5
  1
3.53
100
AcDbAttributeDefinition
  3

  2
D
 70
     8
280
     0
  0
ATTDEF
  5
82
330
6E
100
AcDbEntity
  8
AM_6
100
AcDbText
 10
6.572604240734965
 20
-7.44685
 30
0.0
 40
0.5
  1
3/8
100
AcDbAttributeDefinition
  3

  2
F
 70
     8
280
     0
  0
ATTDEF
  5
83
330
6E
100
AcDbEntity
  8
AM_6
100
AcDbText
 10
6.572604240734965
 20
-7.94685
 30
0.0
 40
0.5
  1
0.50
100
AcDbAttributeDefinition
  3

  2
H
 70
     8
280
     0
  0
ATTDEF
  5
84
330
6E
100
AcDbEntity
  8
AM_6
100
AcDbText
 10
6.572604240734965
 20
-8.44685
 30
0.0
 40
0.5
  1
0.68
100
AcDbAttributeDefinition
  3

  2
J
 70
     8
280
     0
  0
ATTDEF
  5
85
330
6E
100
AcDbEntity
  8
AM_6
100
AcDbText
 10
6.572604240734965
 20
-8.94685
 30
0.0
 40
0.5
  1
1.31
100
AcDbAttributeDefinition
  3

  2
L
 70
     8
280
     0
  0
ATTDEF
  5
86
330
6E
100
AcDbEntity
  8
AM_6
100
AcDbText
 10
6.572604240734965
 20
-9.44685
 30
0.0
 40
0.5
  1
2.38
100
AcDbAttributeDefinition
  3

  2
M
 70
     8
280
     0
  0
ATTDEF
  5
87
330
6E
100
AcDbEntity
  8
AM_6
100
AcDbText
 10
6.572604240734965
 20
-9.94685
 30
0.0
 40
0.5
  1
1.50
100
AcDbAttributeDefinition
  3

  2
N
 70
     8
280
     0
  0
ATTDEF
  5
88
330
6E
100
AcDbEntity
  8
AM_6
100
AcDbText
 10
6.572604240734965
 20
-10.44685
 30
0.0
 40
0.5
  1
baldor
100
AcDbAttributeDefinition
  3

  2
COMPANY
 70
     8
280
     0
  0
INSERT
  5
8A
330
6E
100
AcDbEntity
  8
0
100
AcDbBlockReference
  2
2_405015E_Inch_0_in_131054_4
 10
0.0
 20
0.0
 30
0.0
  0
INSERT
  5
DA
330
6E
100
AcDbEntity
  8
0
100
AcDbBlockReference
  2
3_131904_0_in_131054_4
 10
0.0
 20
0.0
 30
0.0
  0
INSERT
  5
139
330
6E
100
AcDbEntity
  8
0
100
AcDbBlockReference
  2
4_131054H_0_in_131054_4
 10
0.0
 20
0.0
 30
0.0
  0
ENDBLK
  5
71
330
6E
100
AcDbEntity
  8
0
100
AcDbBlockEnd
  0
BLOCK
  5
8B
330
89
100
AcDbEntity
  8
0
100
AcDbBlockBegin
  2
2_405015E_Inch_0_in_131054_4
 70
     2
 10
0.0
 20
0.0
 30
0.0
  3
2_405015E_Inch_0_in_131054_4
  1

  0
ATTDEF
  5
8D
330
89
100
AcDbEntity
  8
AM_6
100
AcDbText
 10
6.572604240734965
 20
-0.4874092572295387
 30
0.0
 40
0.5
  1
405015E -Inch
100
AcDbAttributeDefinition
  3

  2
NN
 70
     8
280
     0
  0
ATTDEF
  5
8E
330
89
100
AcDbEntity
  8
AM_6
100
AcDbText
 10
6.572604240734965
 20
-0.9874092572295388
 30
0.0
 40
0.5
  1
Grease Fitting
100
AcDbAttributeDefinition
  3

  2
NT
 70
     8
280
     0
  0
ATTDEF
  5
8F
330
89
100
AcDbEntity
  8
AM_6
100
AcDbText
 10
6.572604240734965
 20
-1.487409257229539
 30
0.0
 40
0.5
  1
405015E-Inch
100
AcDbAttributeDefinition
  3

  2
NB
 70
     8
280
     0
  0
ATTDEF
  5
90
330
89
100
AcDbEntity
  8
AM_6
100
AcDbText
 10
6.572604240734965
 20
-1.987409257229539
 30
0.0
 40
0.5
  1
$MN.-Inch
100
AcDbAttributeDefinition
  3

  2
NBSYN
 70
     8
280
     0
  0
ATTDEF
  5
91
330
89
100
AcDbEntity
  8
AM_6
100
AcDbText
 10
6.572604240734965
 20
-2.487409257229539
 30
0.0
 40
0.5
  1
405015E
100
AcDbAttributeDefinition
  3

  2
LINA
 70
     8
280
     0
  0
ATTDEF
  5
92
330
89
100
AcDbEntity
  8
AM_6
100
AcDbText
 10
6.572604240734965
 20
-2.987409257229539
 30
0.0
 40
0.5
  1
405015E
100
AcDbAttributeDefinition
  3

  2
MN
 70
     8
280
     0
  0
ATTDEF
  5
93
330
89
100
AcDbEntity
  8
AM_6
100
AcDbText
 10
6.572604240734965
 20
-3.487409257229539
 30
0.0
 40
0.5
  1
1/8 x 27PTF
100
AcDbAttributeDefinition
  3

  2
T
 70
     8
280
     0
  0
ATTDEF
  5
94
330
89
100
AcDbEntity
  8
AM_6
100
AcDbText
 10
6.572604240734965
 20
-3.987409257229539
 30
0.0
 40
0.5
  1
baldor
100
AcDbAttributeDefinition
  3

  2
COMPANY
 70
     8
280
     0
  0
LINE
  5
97
330
89
100
AcDbEntity
  8
AM_9
100
AcDbLine
 10
1.453813482323696
 20
-0.8662953713852305
 30
0.0
 11
1.395926326674164
 21
-0.8662953713852305
 31
0.0
  0
LINE
  5
98
330
89
100
AcDbEntity
  8
AM_9
100
AcDbLine
 10
1.453813482323696
 20
-0.6137046286147693
 30
0.0
 11
1.395926326674164
 21
-0.6137046286147693
 31
0.0
  0
LWPOLYLINE
  5
99
330
89
100
AcDbEntity
  8
AM_9
100
AcDbPolyline
 90
        3
 70
     0
 43
0.0
 10
1.395926326674164
 20
-0.6137046286147693
 10
1.391221892404823
 20
-0.6765683853085632
 10
1.389514565439602
 20
-0.7399999999999999
  0
LWPOLYLINE
  5
9A
330
89
100
AcDbEntity
  8
AM_9
100
AcDbPolyline
 90
        4
 70
     0
 43
0.0
 10
1.389514565439602
 20
-0.7399999999999999
 10
1.390516932235434
 20
-0.7883998160558988
 10
1.393391216508232
 20
-0.8367996321117976
 10
1.395926326674164
 20
-0.8662953713852305
  0
ELLIPSE
  5
9B
330
89
100
AcDbEntity
  8
AM_9
100
AcDbEllipse
 10
1.04745166004061
 20
-0.7399999999999999
 30
0.0
 11
9.913691727296317E-18
 21
0.161902872472269
 31
0.0
210
0.0
220
0.0
230
1.0
 40
0.7071067811865478
 41
0.0
 42
6.283185307179586
  0
LWPOLYLINE
  5
9C
330
89
100
AcDbEntity
  8
AM_9
100
AcDbPolyline
 90
        3
 70
     0
 43
0.0
 10
1.395926326674164
 20
-0.8662953713852305
 10
1.352725860601256
 20
-0.8977272497321275
 10
1.312174761247324
 20
-0.9294430570778459
  0
LWPOLYLINE
  5
9D
330
89
100
AcDbEntity
  8
AM_9
100
AcDbPolyline
 90
        3
 70
     0
 43
0.0
 10
1.312174761247324
 20
-0.550556942922154
 10
1.352537039126523
 20
-0.5821307857684616
 10
1.395926326674164
 20
-0.6137046286147693
  0
LINE
  5
9E
330
89
100
AcDbEntity
  8
AM_9
100
AcDbLine
 10
1.453813482323696
 20
-0.6137046286147693
 30
0.0
 11
1.444847877623176
 21
-0.6051272127194302
 31
0.0
  0
LWPOLYLINE
  5
9F
330
89
100
AcDbEntity
  8
AM_9
100
AcDbPolyline
 90
        3
 70
     0
 43
0.0
 10
1.460225243558257
 20
-0.7399999999999999
 10
1.458532867775198
 20
-0.6768523143073847
 10
1.453813482323696
 20
-0.6137046286147693
  0
LINE
  5
A0
330
89
100
AcDbEntity
  8
AM_9
100
AcDbLine
 10
1.445003306884757
 20
-0.8747255149955742
 30
0.0
 11
1.453813482323696
 21
-0.8662953713852305
 31
0.0
  0
LWPOLYLINE
  5
A1
330
89
100
AcDbEntity
  8
AM_9
100
AcDbPolyline
 90
        4
 70
     0
 43
0.0
 10
1.453813482323696
 20
-0.8662953713852305
 10
1.456348592489628
 20
-0.8367996321117976
 10
1.459217030738774
 20
-0.7885424412477542
 10
1.460225243558257
 20
-0.7399999999999999
  0
LWPOLYLINE
  5
A2
330
89
100
AcDbEntity
  8
AM_9
100
AcDbPolyline
 90
        3
 70
     0
 43
0.0
 10
1.241246718289606
 20
-0.4874092572295387
 10
1.275038315823832
 20
-0.5188411355764356
 10
1.312174761247324
 20
-0.550556942922154
  0
LWPOLYLINE
  5
A3
330
89
100
AcDbEntity
  8
AM_9
100
AcDbPolyline
 90
        3
 70
     0
 43
0.0
 10
1.312174761247324
 20
-0.9294430570778459
 10
1.275197234934244
 20
-0.9610168999241535
 10
1.241246718289606
 20
-0.992590742770461
  0
LINE
  5
A4
330
89
100
AcDbEntity
  8
AM_9
100
AcDbLine
 10
1.069023821489037
 20
-0.9385206121313387
 30
0.0
 11
1.230288212289695
 21
-0.9456513978434624
 31
0.0
  0
LINE
  5
A5
330
89
100
AcDbEntity
  8
AM_9
100
AcDbLine
 10
1.230288212289695
 20
-0.5343486021565373
 30
0.0
 11
1.069023821489037
 21
-0.541479387868661
 31
0.0
  0
ELLIPSE
  5
A6
330
89
100
AcDbEntity
  8
AM_9
100
AcDbEllipse
 10
1.305545635173702
 20
-0.7399999999999999
 30
0.0
 11
-4.018372309702242E-17
 21
-0.2187499999999994
 31
0.0
210
0.0
220
0.0
230
1.0
 40
0.7071067811865428
 41
0.9156936017147164
 42
2.225899051875093
  0
LINE
  5
A7
330
89
100
AcDbEntity
  8
AM_9
100
AcDbLine
 10
1.411611652351682
 20
-0.6451316701949485
 30
0.0
 11
1.392997785922617
 21
-0.6326451089971009
 31
0.0
  0
LINE
  5
A8
330
89
100
AcDbEntity
  8
AM_9
100
AcDbLine
 10
1.392997785922617
 20
-0.8473548910028988
 30
0.0
 11
1.411611652351682
 21
-0.8348683298050513
 31
0.0
  0
ELLIPSE
  5
A9
330
89
100
AcDbEntity
  8
AM_9
100
AcDbEllipse
 10
1.379791847198287
 20
-0.74
 30
0.0
 11
-1.928818708657083E-17
 21
-0.1050000000000001
 31
0.0
210
0.0
220
0.0
230
1.0
 40
0.7071067811865489
 41
0.0
 42
3.141592653589793
  0
ELLIPSE
  5
AA
330
89
100
AcDbEntity
  8
AM_9
100
AcDbEllipse
 10
1.356989860822673
 20
-0.7400000000000246
 30
0.0
 11
-2.182689656893863E-17
 21
-0.1188200907349252
 31
0.0
210
0.0
220
0.0
230
1.0
 40
0.7071067811865744
 41
0.3762206261010803
 42
2.765372027488867
  0
ELLIPSE
  5
AB
330
89
100
AcDbEntity
  8
AM_9
100
AcDbEllipse
 10
1.3055456351737
 20
-0.7399999999999998
 30
0.0
 11
-3.926523799766191E-17
 21
-0.2137499999999994
 31
0.0
210
0.0
220
0.0
230
1.0
 40
0.7071067811865483
 41
0.9036552188400098
 42
2.237937434749593
  0
LINE
  5
AC
330
89
100
AcDbEntity
  8
AM_9
100
AcDbLine
 10
1.381110838080826
 20
-0.8449999999999999
 30
0.0
 11
1.401005050633884
 21
-0.8449999999999999
 31
0.0
  0
LINE
  5
AD
330
89
100
AcDbEntity
  8
AM_9
100
AcDbLine
 10
1.401005050633884
 20
-0.6349999999999999
 30
0.0
 11
1.381110838080826
 21
-0.6349999999999999
 31
0.0
  0
ELLIPSE
  5
AE
330
89
100
AcDbEntity
  8
AM_9
100
AcDbEllipse
 10
1.401005050633884
 20
-0.7399999999999999
 30
0.0
 11
-1.928818708657081E-17
 21
-0.105
 31
0.0
210
0.0
220
0.0
230
1.0
 40
0.7071067811865476
 41
5.759586531581283
 42
9.948376736367683
  0
LINE
  5
AF
330
89
100
AcDbEntity
  8
AM_9
100
AcDbLine
 10
1.43989557414236
 20
-0.7207256813308475
 30
0.0
 11
1.438882733951369
 21
-0.7120125081230841
 31
0.0
  0
LINE
  5
B0
330
89
100
AcDbEntity
  8
AM_9
100
AcDbLine
 10
1.438882733951369
 20
-0.7679874918769157
 30
0.0
 11
1.43989557414236
 21
-0.7592743186691522
 31
0.0
  0
ELLIPSE
  5
B1
330
89
100
AcDbEntity
  8
AM_9
100
AcDbEllipse
 10
1.318498557581079
 20
-0.7400000000000007
 30
0.0
 11
-3.169399141454494E-17
 21
-0.1725340532830175
 31
0.0
210
0.0
220
0.0
230
1.0
 40
0.7071067811865427
 41
0.7772913431416608
 42
2.364301310447938
  0
ELLIPSE
  5
B2
330
89
100
AcDbEntity
  8
AM_9
100
AcDbEllipse
 10
1.443431457505077
 20
-0.7399999999999999
 30
0.0
 11
-2.479909768273388E-17
 21
-0.1349999999999999
 31
0.0
210
0.0
220
0.0
230
1.0
 40
0.7071067811865486
 41
0.4159140521025453
 42
2.725678601487248
  0
ELLIPSE
  5
B3
330
89
100
AcDbEntity
  8
AM_9
100
AcDbEllipse
 10
1.234834957055045
 20
-0.74
 30
0.0
 11
-4.018372309702256E-17
 21
-0.2187500000000002
 31
0.0
210
0.0
220
0.0
230
1.0
 40
0.7071067811865424
 41
0.0
 42
6.283185307179586
  0
ELLIPSE
  5
B4
330
89
100
AcDbEntity
  8
AM_9
100
AcDbEllipse
 10
1.234834957055038
 20
-0.7399999999994399
 30
0.0
 11
-3.779601035280622E-17
 21
-0.2057518972225095
 31
0.0
210
0.0
220
0.0
230
1.0
 40
0.7071067811865478
 41
0.0
 42
6.283185307179586
  0
ELLIPSE
  5
B5
330
89
100
AcDbEntity
  8
AM_9
100
AcDbEllipse
 10
1.073412911782512
 20
-0.7399999999996247
 30
0.0
 11
-3.648546613370993E-17
 21
-0.1986176267808402
 31
0.0
210
0.0
220
0.0
230
1.0
 40
0.7071067811865656
 41
0.0
 42
6.283185307179586
  0
LWPOLYLINE
  5
B7
330
89
100
AcDbEntity
  8
AM_4
100
AcDbPolyline
 90
        3
 70
     0
 43
0.0
 10
1.444144082772852
 20
-0.6044609917951782
 10
1.42002188478947
 20
-0.5822727502678723
 10
1.382885439365979
 20
-0.550556942922154
  0
LWPOLYLINE
  5
B8
330
89
100
AcDbEntity
  8
AM_4
100
AcDbPolyline
 90
        3
 70
     0
 43
0.0
 10
1.382885439365979
 20
-0.9294430570778459
 10
1.419862965679058
 20
-0.8978692142315382
 10
1.445003306884757
 20
-0.8747255149955742
  0
LWPOLYLINE
  5
B9
330
89
100
AcDbEntity
  8
AM_4
100
AcDbPolyline
 90
        3
 70
     0
 43
0.0
 10
1.382885439365979
 20
-0.550556942922154
 10
1.34252316148678
 20
-0.5189831000758464
 10
1.299133873939139
 20
-0.4874092572295387
  0
LWPOLYLINE
  5
BA
330
89
100
AcDbEntity
  8
AM_4
100
AcDbPolyline
 90
        3
 70
     0
 43
0.0
 10
1.299133873939139
 20
-0.992590742770461
 10
1.342334340012046
 20
-0.9611588644235642
 10
1.382885439365979
 20
-0.9294430570778459
  0
ELLIPSE
  5
BB
330
89
100
AcDbEntity
  8
AM_4
100
AcDbEllipse
 10
1.3055456351737
 20
-0.7399999999999998
 30
0.0
 11
-4.018372309702259E-17
 21
-0.2187500000000003
 31
0.0
210
0.0
220
0.0
230
1.0
 40
0.707106781186546
 41
2.225899051875089
 42
7.198878908894308
  0
LINE
  5
BC
330
89
100
AcDbEntity
  8
AM_4
100
AcDbLine
 10
1.299133873939139
 20
-0.992590742770461
 30
0.0
 11
1.241246718289606
 21
-0.992590742770461
 31
0.0
  0
LWPOLYLINE
  5
BD
330
89
100
AcDbEntity
  8
AM_4
100
AcDbPolyline
 90
        3
 70
     0
 43
0.0
 10
1.228205830981421
 20
-0.9294430570778459
 10
1.265183357294501
 20
-0.9610168999241535
 10
1.299133873939139
 20
-0.992590742770461
  0
LWPOLYLINE
  5
BE
330
89
100
AcDbEntity
  8
AM_4
100
AcDbPolyline
 90
        3
 70
     0
 43
0.0
 10
1.144454265554582
 20
-0.8662953713852305
 10
1.187654731627489
 20
-0.8977272497321275
 10
1.228205830981421
 20
-0.9294430570778459
  0
LWPOLYLINE
  5
BF
330
89
100
AcDbEntity
  8
AM_4
100
AcDbPolyline
 90
        3
 70
     0
 43
0.0
 10
1.157495152862767
 20
-0.9294430570778459
 10
1.120517626549687
 20
-0.8978692142315382
 10
1.086567109905049
 20
-0.8662953713852305
  0
LWPOLYLINE
  5
C0
330
89
100
AcDbEntity
  8
AM_4
100
AcDbPolyline
 90
        3
 70
     0
 43
0.0
 10
1.241246718289606
 20
-0.992590742770461
 10
1.198046252216699
 20
-0.9611588644235641
 10
1.157495152862767
 20
-0.9294430570778459
  0
LWPOLYLINE
  5
C1
330
89
100
AcDbEntity
  8
AM_4
100
AcDbPolyline
 90
        3
 70
     0
 43
0.0
 10
1.228205830981421
 20
-0.550556942922154
 10
1.187843553102222
 20
-0.5821307857684616
 10
1.144454265554582
 20
-0.6137046286147693
  0
LWPOLYLINE
  5
C2
330
89
100
AcDbEntity
  8
AM_4
100
AcDbPolyline
 90
        3
 70
     0
 43
0.0
 10
1.299133873939139
 20
-0.4874092572295387
 10
1.265342276404913
 20
-0.5188411355764355
 10
1.228205830981421
 20
-0.550556942922154
  0
LINE
  5
C3
330
89
100
AcDbEntity
  8
AM_4
100
AcDbLine
 10
1.299133873939139
 20
-0.4874092572295387
 30
0.0
 11
1.241246718289606
 21
-0.4874092572295387
 31
0.0
  0
LWPOLYLINE
  5
C4
330
89
100
AcDbEntity
  8
AM_4
100
AcDbPolyline
 90
        3
 70
     0
 43
0.0
 10
1.157495152862767
 20
-0.550556942922154
 10
1.197857430741965
 20
-0.5189831000758464
 10
1.241246718289606
 20
-0.4874092572295387
  0
LWPOLYLINE
  5
C5
330
89
100
AcDbEntity
  8
AM_4
100
AcDbPolyline
 90
        3
 70
     0
 43
0.0
 10
1.086567109905049
 20
-0.6137046286147693
 10
1.120358707439275
 20
-0.5822727502678723
 10
1.157495152862767
 20
-0.550556942922154
  0
LINE
  5
C6
330
89
100
AcDbEntity
  8
AM_4
100
AcDbLine
 10
1.144454265554582
 20
-0.8662953713852305
 30
0.0
 11
1.086567109905049
 21
-0.8662953713852305
 31
0.0
  0
LWPOLYLINE
  5
C7
330
89
100
AcDbEntity
  8
AM_4
100
AcDbPolyline
 90
        4
 70
     0
 43
0.0
 10
1.150866026789143
 20
-0.7399999999999999
 10
1.149863659993311
 20
-0.7883998160558988
 10
1.146989375720513
 20
-0.8367996321117976
 10
1.144454265554582
 20
-0.8662953713852305
  0
LWPOLYLINE
  5
C8
330
89
100
AcDbEntity
  8
AM_4
100
AcDbPolyline
 90
        3
 70
     0
 43
0.0
 10
1.144454265554582
 20
-0.6137046286147693
 10
1.149158699823922
 20
-0.6765683853085631
 10
1.150866026789143
 20
-0.7399999999999999
  0
LINE
  5
C9
330
89
100
AcDbEntity
  8
AM_4
100
AcDbLine
 10
1.144454265554582
 20
-0.6137046286147693
 30
0.0
 11
1.086567109905049
 21
-0.6137046286147693
 31
0.0
  0
LWPOLYLINE
  5
CA
330
89
100
AcDbEntity
  8
AM_4
100
AcDbPolyline
 90
        3
 70
     0
 43
0.0
 10
1.080155348670488
 20
-0.7399999999999999
 10
1.081847724453548
 20
-0.6768523143073845
 10
1.086567109905049
 20
-0.6137046286147693
  0
LWPOLYLINE
  5
CB
330
89
100
AcDbEntity
  8
AM_4
100
AcDbPolyline
 90
        4
 70
     0
 43
0.0
 10
1.086567109905049
 20
-0.8662953713852305
 10
1.084031999739117
 20
-0.8367996321117976
 10
1.081163561489972
 20
-0.7885424412477542
 10
1.080155348670488
 20
-0.7399999999999999
  0
ELLIPSE
  5
CC
330
89
100
AcDbEntity
  8
AM_4
100
AcDbEllipse
 10
1.356989860822685
 20
-0.7400000000000032
 30
0.0
 11
-2.182689656893416E-17
 21
-0.1188200907349009
 31
0.0
210
0.0
220
0.0
230
1.0
 40
0.7071067811865398
 41
2.765372027488912
 42
6.659405933280487
  0
ELLIPSE
  5
CD
330
89
100
AcDbEntity
  8
AM_4
100
AcDbEllipse
 10
1.3055456351737
 20
-0.7399999999999989
 30
0.0
 11
-3.926523799766185E-17
 21
-0.2137499999999991
 31
0.0
210
0.0
220
0.0
230
1.0
 40
0.7071067811865472
 41
2.237937434749588
 42
7.186840526019596
  0
ELLIPSE
  5
CE
330
89
100
AcDbEntity
  8
AM_4
100
AcDbEllipse
 10
1.379791847198287
 20
-0.7399999999999999
 30
0.0
 11
-1.928818708657081E-17
 21
-0.105
 31
0.0
210
0.0
220
0.0
230
1.0
 40
0.7071067811865476
 41
3.141592653589793
 42
6.283185307179586
  0
LINE
  5
CF
330
89
100
AcDbEntity
  8
AM_4
100
AcDbLine
 10
1.379791847198288
 20
-0.8449999999999999
 30
0.0
 11
1.381110838080826
 21
-0.8449999999999999
 31
0.0
  0
LINE
  5
D0
330
89
100
AcDbEntity
  8
AM_4
100
AcDbLine
 10
1.381110838080826
 20
-0.6349999999999999
 30
0.0
 11
1.379791847198288
 21
-0.6349999999999999
 31
0.0
  0
ELLIPSE
  5
D1
330
89
100
AcDbEntity
  8
AM_4
100
AcDbEllipse
 10
1.318498557581079
 20
-0.7399999999999999
 30
0.0
 11
-3.169399141454455E-17
 21
-0.1725340532830154
 31
0.0
210
0.0
220
0.0
230
1.0
 40
0.7071067811865475
 41
2.36430131044794
 42
7.060476650321237
  0
LINE
  5
D2
330
89
100
AcDbEntity
  8
AM_4
100
AcDbLine
 10
1.36388194462159
 20
-0.8309326673973659
 30
0.0
 11
1.395701749774985
 21
-0.8569134295108991
 31
0.0
  0
LINE
  5
D3
330
89
100
AcDbEntity
  8
AM_4
100
AcDbLine
 10
1.395701749774985
 20
-0.6230865704891007
 30
0.0
 11
1.36388194462159
 21
-0.6490673326026338
 31
0.0
  0
ELLIPSE
  5
D4
330
89
100
AcDbEntity
  8
AM_4
100
AcDbEllipse
 10
1.443431457505077
 20
-0.7399999999999999
 30
0.0
 11
-2.479909768273388E-17
 21
-0.1349999999999999
 31
0.0
210
0.0
220
0.0
230
1.0
 40
0.707106781186547
 41
2.725678601487244
 42
6.699099359282136
  0
ELLIPSE
  5
D5
330
89
100
AcDbEntity
  8
AM_4
100
AcDbEllipse
 10
1.401005050633884
 20
-0.7399999999999999
 30
0.0
 11
-1.928818708657083E-17
 21
-0.1050000000000001
 31
0.0
210
0.0
220
0.0
230
1.0
 40
0.7071067811865447
 41
3.665191429188095
 42
5.759586531581284
  0
LINE
  5
D6
330
89
100
AcDbEntity
  8
AM_4
100
AcDbLine
 10
1.529334017363775
 20
-0.6460756559990711
 30
0.0
 11
1.481999564853885
 21
-0.6165091007763663
 31
0.0
  0
LINE
  5
D7
330
89
100
AcDbEntity
  8
AM_4
100
AcDbLine
 10
1.481999564853885
 20
-0.8634908992236333
 30
0.0
 11
1.529334017363775
 21
-0.8339243440009285
 31
0.0
  0
ELLIPSE
  5
D8
330
89
100
AcDbEntity
  8
AM_4
100
AcDbEllipse
 10
1.500000000000001
 20
-0.7399999999999998
 30
0.0
 11
-1.886162459184660E-17
 21
-0.1026779019331876
 31
0.0
210
0.0
220
0.0
230
1.0
 40
0.7071067811865435
 41
0.0
 42
6.283185307179586
  0
ENDBLK
  5
8C
330
89
100
AcDbEntity
  8
0
100
AcDbBlockEnd
  0
BLOCK
  5
DB
330
D9
100
AcDbEntity
  8
0
100
AcDbBlockBegin
  2
3_131904_0_in_131054_4
 70
     2
 10
0.0
 20
0.0
 30
0.0
  3
3_131904_0_in_131054_4
  1

  0
ATTDEF
  5
DD
330
D9
100
AcDbEntity
  8
AM_6
100
AcDbText
 10
5.924381337025231
 20
-0.1099999999999998
 30
0.0
 40
0.5
  1
Eccentric Collar Insert Inch Bore
100
AcDbAttributeDefinition
  3

  2
NN
 70
     8
280
     0
  0
ATTDEF
  5
DE
330
D9
100
AcDbEntity
  8
AM_6
100
AcDbText
 10
5.924381337025231
 20
-0.6099999999999999
 30
0.0
 40
0.5
  1
SXR Normal Duty Bearing Inserts
100
AcDbAttributeDefinition
  3

  2
NT
 70
     8
280
     0
  0
ATTDEF
  5
DF
330
D9
100
AcDbEntity
  8
AM_6
100
AcDbText
 10
5.924381337025231
 20
-1.11
 30
0.0
 40
0.5
  1
131904
100
AcDbAttributeDefinition
  3

  2
NB
 70
     8
280
     0
  0
ATTDEF
  5
E0
330
D9
100
AcDbEntity
  8
AM_6
100
AcDbText
 10
5.924381337025231
 20
-1.61
 30
0.0
 40
0.5
  1
$PN.
100
AcDbAttributeDefinition
  3

  2
NBSYN
 70
     8
280
     0
  0
ATTDEF
  5
E1
330
D9
100
AcDbEntity
  8
AM_6
100
AcDbText
 10
5.924381337025231
 20
-2.11
 30
0.0
 40
0.5
  1
131904
100
AcDbAttributeDefinition
  3

  2
LINA
 70
     8
280
     0
  0
ATTDEF
  5
E2
330
D9
100
AcDbEntity
  8
AM_6
100
AcDbText
 10
5.924381337025231
 20
-2.61
 30
0.0
 40
0.5
  1
204
100
AcDbAttributeDefinition
  3

  2
SERIES
 70
     8
280
     0
  0
ATTDEF
  5
E3
330
D9
100
AcDbEntity
  8
AM_6
100
AcDbText
 10
5.924381337025231
 20
-3.11
 30
0.0
 40
0.5
  1
3/4
100
AcDbAttributeDefinition
  3

  2
SS
 70
     8
280
     0
  0
ATTDEF
  5
E4
330
D9
100
AcDbEntity
  8
AM_6
100
AcDbText
 10
5.924381337025231
 20
-3.61
 30
0.0
 40
0.5
  1
131904
100
AcDbAttributeDefinition
  3

  2
PN
 70
     8
280
     0
  0
ATTDEF
  5
E5
330
D9
100
AcDbEntity
  8
AM_6
100
AcDbText
 10
5.924381337025231
 20
-4.109999999999999
 30
0.0
 40
0.5
  1
INS-SXR-012
100
AcDbAttributeDefinition
  3

  2
DESCRIPTION
 70
     8
280
     0
  0
ATTDEF
  5
E6
330
D9
100
AcDbEntity
  8
AM_6
100
AcDbText
 10
5.924381337025231
 20
-4.609999999999999
 30
0.0
 40
0.5
  1
0.5
100
AcDbAttributeDefinition
  3

  2
WEIGHT
 70
     8
280
     0
  0
ATTDEF
  5
E7
330
D9
100
AcDbEntity
  8
AM_6
100
AcDbText
 10
5.924381337025231
 20
-5.109999999999999
 30
0.0
 40
0.5
  1
1.55
100
AcDbAttributeDefinition
  3

  2
A
 70
     8
280
     0
  0
ATTDEF
  5
E8
330
D9
100
AcDbEntity
  8
AM_6
100
AcDbText
 10
5.924381337025231
 20
-5.609999999999999
 30
0.0
 40
0.5
  1
0.58
100
AcDbAttributeDefinition
  3

  2
C
 70
     8
280
     0
  0
ATTDEF
  5
E9
330
D9
100
AcDbEntity
  8
AM_6
100
AcDbText
 10
5.924381337025231
 20
-6.109999999999999
 30
0.0
 40
0.5
  1
1.8504
100
AcDbAttributeDefinition
  3

  2
D
 70
     8
280
     0
  0
ATTDEF
  5
EA
330
D9
100
AcDbEntity
  8
AM_6
100
AcDbText
 10
5.924381337025231
 20
-6.609999999999999
 30
0.0
 40
0.5
  1
0.15
100
AcDbAttributeDefinition
  3

  2
J
 70
     8
280
     0
  0
ATTDEF
  5
EB
330
D9
100
AcDbEntity
  8
AM_6
100
AcDbText
 10
5.924381337025231
 20
-7.109999999999999
 30
0.0
 40
0.5
  1
1.31
100
AcDbAttributeDefinition
  3

  2
L
 70
     8
280
     0
  0
ATTDEF
  5
EC
330
D9
100
AcDbEntity
  8
AM_6
100
AcDbText
 10
5.924381337025231
 20
-7.609999999999999
 30
0.0
 40
0.5
  1
1/4 - 28
100
AcDbAttributeDefinition
  3

  2
N
 70
     8
280
     0
  0
ATTDEF
  5
ED
330
D9
100
AcDbEntity
  8
AM_6
100
AcDbText
 10
5.924381337025231
 20
-8.11
 30
0.0
 40
0.5
  1
0.50
100
AcDbAttributeDefinition
  3

  2
W
 70
     8
280
     0
  0
ATTDEF
  5
EE
330
D9
100
AcDbEntity
  8
AM_6
100
AcDbText
 10
5.924381337025231
 20
-8.61
 30
0.0
 40
0.5
  1
1.05
100
AcDbAttributeDefinition
  3

  2
Y
 70
     8
280
     0
  0
ATTDEF
  5
EF
330
D9
100
AcDbEntity
  8
AM_6
100
AcDbText
 10
5.924381337025231
 20
-9.11
 30
0.0
 40
0.5
  1
1.12
100
AcDbAttributeDefinition
  3

  2
Z
 70
     8
280
     0
  0
ATTDEF
  5
F0
330
D9
100
AcDbEntity
  8
AM_6
100
AcDbText
 10
5.924381337025231
 20
-9.61
 30
0.0
 40
0.5
  1
baldor
100
AcDbAttributeDefinition
  3

  2
COMPANY
 70
     8
280
     0
  0
LINE
  5
F1
330
D9
100
AcDbEntity
  8
AM_9
100
AcDbLine
 10
0.3622221848584006
 20
-1.5806
 30
0.0
 11
0.6235649080339384
 21
-1.5806
 31
0.0
  0
LINE
  5
F2
330
D9
100
AcDbEntity
  8
AM_9
100
AcDbLine
 10
0.6235649080339384
 20
-1.3644
 30
0.0
 11
0.3621840204197369
 21
-1.3644
 31
0.0
  0
LWPOLYLINE
  5
F3
330
D9
100
AcDbEntity
  8
AM_9
100
AcDbPolyline
 90
       21
 70
     0
 43
0.0
 10
0.3622198953484316
 20
-1.364400000361908
 10
0.3617270352461582
 20
-1.364416615175456
 10
0.3565440548711417
 20
-1.36625789981439
 10
0.3510229887804372
 20
-1.370781483562299
 10
0.3450005518597947
 20
-1.378097996979242
 10
0.338956477012075
 20
-1.387843135893556
 10
0.3330309719457055
 20
-1.400143667101454
 10
0.3277221198029673
 20
-1.414528307870646
 10
0.3233056681567246
 20
-1.43106658605346
 10
0.3203684781459344
 20
-1.448267756398083
 10
0.3189511852097334
 20
-1.466765918894878
 10
0.3192160568119396
 20
-1.484200930616475
 10
0.3210684513566883
 20
-1.501805285809114
 10
0.3242249199517062
 20
-1.517937341369386
 10
0.3286353529103821
 20
-1.533258838421159
 10
0.3339700135924833
 20
-1.547023961488036
 10
0.3400366004644625
 20
-1.559085815848436
 10
0.3463132304584409
 20
-1.568696512079273
 10
0.352641559074594
 20
-1.575775745982007
 10
0.3576444277607121
 20
-1.579355565100249
 10
0.3622221848584006
 20
-1.5806
  0
LINE
  5
F4
330
D9
100
AcDbEntity
  8
AM_9
100
AcDbLine
 10
0.6160681347534568
 20
-1.576647112056647
 30
0.0
 11
0.6236899979784271
 21
-1.584837337102672
 31
0.0
  0
LINE
  5
F5
330
D9
100
AcDbEntity
  8
AM_9
100
AcDbLine
 10
0.6236780604149645
 20
-1.360175490644084
 30
0.0
 11
0.6160681347534568
 21
-1.368352887943353
 31
0.0
  0
ELLIPSE
  5
F6
330
D9
100
AcDbEntity
  8
AM_9
100
AcDbEllipse
 10
0.6235649080339528
 20
-1.472499999999981
 30
0.0
 11
-1.985764784817785E-17
 21
-0.1081000000000192
 31
0.0
210
0.0
220
0.0
230
1.0
 40
0.2588190451025461
 41
3.284458128657199
 42
6.12883962272705
  0
LWPOLYLINE
  5
F7
330
D9
100
AcDbEntity
  8
AM_9
100
AcDbPolyline
 90
        8
 70
     0
 43
0.0
 10
0.3622221848584006
 20
-1.5806
 10
0.3663531659280447
 20
-1.57917693524709
 10
0.3696938660726772
 20
-1.574789022161948
 10
0.3720517986512542
 20
-1.567833094635228
 10
0.3736477319964108
 20
-1.558133552688157
 10
0.3745457592901492
 20
-1.546162815489919
 10
0.3749369026388366
 20
-1.531779974432352
 10
0.3749999196566154
 20
-1.519610960888424
  0
LINE
  5
F8
330
D9
100
AcDbEntity
  8
AM_9
100
AcDbLine
 10
-0.3750000000000001
 20
-1.293202438661764
 30
0.0
 11
-0.3750000000000001
 21
-1.6484
 31
0.0
  0
LINE
  5
F9
330
D9
100
AcDbEntity
  8
AM_9
100
AcDbLine
 10
0.3750000000000001
 20
-1.6484
 30
0.0
 11
0.3750000000000001
 21
-1.293202438661764
 31
0.0
  0
LWPOLYLINE
  5
FA
330
D9
100
AcDbEntity
  8
AM_9
100
AcDbPolyline
 90
        8
 70
     0
 43
0.0
 10
0.3749999468077089
 20
-1.425297920821386
 10
0.3749363387097829
 20
-1.413174654327148
 10
0.3745608170346287
 20
-1.39916247460549
 10
0.3736653266575178
 20
-1.387024612472689
 10
0.3720091940539478
 20
-1.376987998708629
 10
0.3695211972270975
 20
-1.369868781159127
 10
0.365966680547689
 20
-1.365545257800719
 10
0.3622198953484316
 20
-1.364400000361908
  0
LINE
  5
FB
330
D9
100
AcDbEntity
  8
AM_9
100
AcDbLine
 10
0.3749999999999999
 20
-1.276797561338236
 30
0.0
 11
0.3749999999999999
 21
-0.1215999999999999
 31
0.0
  0
LINE
  5
FC
330
D9
100
AcDbEntity
  8
AM_9
100
AcDbLine
 10
-0.3749999999999999
 20
-0.1215999999999999
 30
0.0
 11
-0.3749999999999999
 21
-1.276797561338236
 31
0.0
  0
LINE
  5
FD
330
D9
100
AcDbEntity
  8
AM_9
100
AcDbLine
 10
-0.3750000000000001
 20
-1.276797561338236
 30
0.0
 11
0.3749999999999999
 21
-1.276797561338236
 31
0.0
  0
LINE
  5
FE
330
D9
100
AcDbEntity
  8
AM_9
100
AcDbLine
 10
-0.3750000000000001
 20
-1.276797561338236
 30
0.0
 11
-0.3832024386617639
 21
-1.285
 31
0.0
  0
LINE
  5
FF
330
D9
100
AcDbEntity
  8
AM_9
100
AcDbLine
 10
0.3832024386617639
 20
-1.285
 30
0.0
 11
0.3749999999999999
 21
-1.276797561338236
 31
0.0
  0
LINE
  5
100
330
D9
100
AcDbEntity
  8
AM_9
100
AcDbLine
 10
-0.3832024386617639
 20
-1.285
 30
0.0
 11
0.3832024386617639
 21
-1.285
 31
0.0
  0
LINE
  5
101
330
D9
100
AcDbEntity
  8
AM_9
100
AcDbLine
 10
-0.3749999999999999
 20
-1.293202438661764
 30
0.0
 11
0.3750000000000001
 21
-1.293202438661764
 31
0.0
  0
LINE
  5
102
330
D9
100
AcDbEntity
  8
AM_9
100
AcDbLine
 10
0.3750000000000001
 20
-1.293202438661764
 30
0.0
 11
0.3832024386617639
 21
-1.285
 31
0.0
  0
LINE
  5
103
330
D9
100
AcDbEntity
  8
AM_9
100
AcDbLine
 10
-0.3832024386617639
 20
-1.285
 30
0.0
 11
-0.3749999999999999
 21
-1.293202438661764
 31
0.0
  0
LINE
  5
104
330
D9
100
AcDbEntity
  8
AM_9
100
AcDbLine
 10
0.3749999999999999
 20
-0.1215999999999999
 30
0.0
 11
0.3866
 21
-0.1099999999999998
 31
0.0
  0
LINE
  5
105
330
D9
100
AcDbEntity
  8
AM_9
100
AcDbLine
 10
-0.3866
 20
-0.1099999999999998
 30
0.0
 11
-0.3749999999999999
 21
-0.1215999999999999
 31
0.0
  0
LINE
  5
106
330
D9
100
AcDbEntity
  8
AM_9
100
AcDbLine
 10
-0.3750000000000001
 20
-1.6484
 30
0.0
 11
0.3750000000000001
 21
-1.6484
 31
0.0
  0
LINE
  5
107
330
D9
100
AcDbEntity
  8
AM_9
100
AcDbLine
 10
-0.3750000000000001
 20
-1.6484
 30
0.0
 11
-0.3866000000000001
 21
-1.66
 31
0.0
  0
LINE
  5
108
330
D9
100
AcDbEntity
  8
AM_9
100
AcDbLine
 10
0.3866000000000001
 20
-1.66
 30
0.0
 11
0.3750000000000001
 21
-1.6484
 31
0.0
  0
LINE
  5
109
330
D9
100
AcDbEntity
  8
AM_9
100
AcDbLine
 10
0.5599999999999999
 20
-0.9799999999999996
 30
0.0
 11
0.5599999999999999
 21
-0.8999999999999999
 31
0.0
  0
LINE
  5
10A
330
D9
100
AcDbEntity
  8
AM_9
100
AcDbLine
 10
-0.5599999999999999
 20
-0.8999999999999999
 30
0.0
 11
-0.5599999999999999
 21
-0.98
 31
0.0
  0
LINE
  5
10B
330
D9
100
AcDbEntity
  8
AM_9
100
AcDbLine
 10
-0.5484000000000001
 20
-0.1099999999999998
 30
0.0
 11
0.5484
 21
-0.1099999999999998
 31
0.0
  0
LINE
  5
10C
330
D9
100
AcDbEntity
  8
AM_9
100
AcDbLine
 10
-0.5484000000000001
 20
-0.1099999999999998
 30
0.0
 11
-0.56
 21
-0.1215999999999999
 31
0.0
  0
LINE
  5
10D
330
D9
100
AcDbEntity
  8
AM_9
100
AcDbLine
 10
0.56
 20
-0.1215999999999999
 30
0.0
 11
0.5484
 21
-0.1099999999999998
 31
0.0
  0
LINE
  5
10E
330
D9
100
AcDbEntity
  8
AM_9
100
AcDbLine
 10
-0.5599999999999999
 20
-0.1215999999999999
 30
0.0
 11
0.5599999999999999
 21
-0.1215999999999999
 31
0.0
  0
LINE
  5
10F
330
D9
100
AcDbEntity
  8
AM_9
100
AcDbLine
 10
0.5599999999999999
 20
-0.3199999999999998
 30
0.0
 11
0.5599999999999999
 21
-0.1215999999999999
 31
0.0
  0
LINE
  5
110
330
D9
100
AcDbEntity
  8
AM_9
100
AcDbLine
 10
-0.5599999999999999
 20
-0.1215999999999999
 30
0.0
 11
-0.5599999999999999
 21
-0.3199999999999998
 31
0.0
  0
LINE
  5
111
330
D9
100
AcDbEntity
  8
AM_9
100
AcDbLine
 10
0.8811428571428567
 20
-0.7899999999999998
 30
0.0
 11
0.8811428571428567
 21
-0.7299999999999999
 31
0.0
  0
LINE
  5
112
330
D9
100
AcDbEntity
  8
AM_9
100
AcDbLine
 10
-0.8811428571428567
 20
-0.7299999999999999
 30
0.0
 11
-0.8811428571428567
 21
-0.7899999999999998
 31
0.0
  0
LINE
  5
113
330
D9
100
AcDbEntity
  8
AM_9
100
AcDbLine
 10
-0.8616389963319904
 20
-0.8999999999999999
 30
0.0
 11
0.8616389963319904
 21
-0.8999999999999999
 31
0.0
  0
ARC
  5
114
330
D9
100
AcDbEntity
  8
AM_9
100
AcDbCircle
 10
0.8616389963319907
 20
-0.8768
 30
0.0
 40
0.0231999999999998
100
AcDbArc
 50
270.0
 51
342.7952562926718
  0
ARC
  5
115
330
D9
100
AcDbEntity
  8
AM_9
100
AcDbCircle
 10
-0.8616389963319907
 20
-0.8768
 30
0.0
 40
0.0231999999999998
100
AcDbArc
 50
197.2047437073282
 51
270.0
  0
LINE
  5
116
330
D9
100
AcDbEntity
  8
AM_9
100
AcDbLine
 10
-0.8616389963319905
 20
-0.3199999999999998
 30
0.0
 11
0.8616389963319905
 21
-0.3199999999999998
 31
0.0
  0
ARC
  5
117
330
D9
100
AcDbEntity
  8
AM_9
100
AcDbCircle
 10
0.8616389963319907
 20
-0.3431999999999996
 30
0.0
 40
0.0231999999999998
100
AcDbArc
 50
17.20474370732737
 51
90.0
  0
ARC
  5
118
330
D9
100
AcDbEntity
  8
AM_9
100
AcDbCircle
 10
-0.8616389963319907
 20
-0.3431999999999996
 30
0.0
 40
0.0231999999999998
100
AcDbArc
 50
90.0
 51
162.7952562926727
  0
LINE
  5
119
330
D9
100
AcDbEntity
  8
AM_9
100
AcDbLine
 10
-0.9075213716491041
 20
-0.7899999999999998
 30
0.0
 11
0.9075213716491739
 21
-0.7899999999999998
 31
0.0
  0
LINE
  5
11A
330
D9
100
AcDbEntity
  8
AM_9
100
AcDbLine
 10
-0.8838008862597493
 20
-0.8836622616407983
 30
0.0
 11
0.8838008862598191
 21
-0.8836622616407983
 31
0.0
  0
ARC
  5
11B
330
D9
100
AcDbEntity
  8
AM_9
100
AcDbCircle
 10
0.0000000000489878
 20
-0.609999999987614
 30
0.0
 40
0.9252000000503918
100
AcDbArc
 50
191.2185847846734
 51
197.2047437071646
  0
ARC
  5
11C
330
D9
100
AcDbEntity
  8
AM_9
100
AcDbCircle
 10
-0.0000000000008505
 20
-0.6099999999997874
 30
0.0
 40
0.9252000000008745
100
AcDbArc
 50
342.795256292675
 51
348.7814152154869
  0
LINE
  5
11D
330
D9
100
AcDbEntity
  8
AM_9
100
AcDbLine
 10
-0.9173848919619307
 20
-0.7299999999999999
 30
0.0
 11
0.9173848919619289
 21
-0.7299999999999999
 31
0.0
  0
ELLIPSE
  5
11E
330
D9
100
AcDbEntity
  8
AM_9
100
AcDbEllipse
 10
0.2352137870807077
 20
-0.4549799746207783
 30
0.0
 11
-0.04281405036865889
 21
0.06496228408453286
 31
0.0
210
0.0
220
0.0
230
1.0
 40
0.9521726495347629
 41
0.0
 42
6.283185307179586
  0
ARC
  5
11F
330
D9
100
AcDbEntity
  8
AM_9
100
AcDbCircle
 10
0.0000000000000032
 20
-0.6099999999999994
 30
0.0
 40
0.9251999999999968
100
AcDbArc
 50
352.5476457553004
 51
17.20474370732797
  0
ARC
  5
120
330
D9
100
AcDbEntity
  8
AM_9
100
AcDbCircle
 10
0.0000000000000654
 20
-0.6100000000000056
 30
0.0
 40
0.9252000000000659
100
AcDbArc
 50
162.795256292673
 51
187.4523542446986
  0
LINE
  5
121
330
D9
100
AcDbEntity
  8
AM_9
100
AcDbLine
 10
-0.8838008862598218
 20
-0.3363377383592017
 30
0.0
 11
0.88380088625982
 21
-0.3363377383592017
 31
0.0
  0
ELLIPSE
  5
122
330
D9
100
AcDbEntity
  8
AM_4
100
AcDbEllipse
 10
0.6235649080339302
 20
-1.472499999999998
 30
0.0
 11
-1.985764784817398E-17
 21
-0.1080999999999981
 31
0.0
210
0.0
220
0.0
230
1.0
 40
0.2588190451025103
 41
6.128839622727805
 42
9.567643435835981
  0
LWPOLYLINE
  5
123
330
D9
100
AcDbEntity
  8
AM_4
100
AcDbPolyline
 90
       24
 70
     0
 43
0.0
 10
0.6238525531225714
 20
-1.359987988560196
 10
0.6277516952746223
 20
-1.356619299060364
 10
0.6324558347838473
 20
-1.354979303191497
 10
0.6367335849525196
 20
-1.356323215022422
 10
0.6403198578180946
 20
-1.360408273736034
 10
0.6433619663669
 20
-1.367023607754848
 10
0.6459128343514999
 20
-1.376252899495178
 10
0.6479211814354131
 20
-1.387597433082285
 10
0.6495386774528612
 20
-1.401796576125447
 10
0.6506839818314394
 20
-1.417642806181093
 10
0.6514824904792383
 20
-1.436093941388551
 10
0.6519097132403253
 20
-1.45547592357303
 10
0.6520176782174266
 20
-1.476218114567534
 10
0.6517888931378607
 20
-1.496857788631092
 10
0.6511853086201137
 20
-1.517066240055486
 10
0.6501277299838262
 20
-1.535983418252848
 10
0.6485352520830108
 20
-1.552720628541528
 10
0.6462772182501307
 20
-1.567041287474298
 10
0.643423724051636
 20
-1.577773912135736
 10
0.6398233435415412
 20
-1.585373463355061
 10
0.6358666091943224
 20
-1.589199875425716
 10
0.6313615565866256
 20
-1.589911218757026
 10
0.6267422499286691
 20
-1.587660971391659
 10
0.6238538685948712
 20
-1.585013425877434
  0
LWPOLYLINE
  5
124
330
D9
100
AcDbEntity
  8
AM_4
100
AcDbPolyline
 90
       14
 70
     0
 43
0.0
 10
0.6238538685948712
 20
-1.585013425877434
 10
0.6219112717616699
 20
-1.582727239846474
 10
0.6170142169238758
 20
-1.575215412586146
 10
0.6122719449173558
 20
-1.565451001365777
 10
0.6076022660994195
 20
-1.55290206609742
 10
0.6035107521916261
 20
-1.538529262994267
 10
0.5999452123984748
 20
-1.521363654253468
 10
0.597422936361878
 20
-1.502987584007462
 10
0.5960431381764288
 20
-1.482728264776972
 10
0.5960395427530407
 20
-1.462193019728122
 10
0.5974860992942457
 20
-1.441471615587441
 10
0.6002924184659517
 20
-1.421635530232371
 10
0.6036800148258681
 20
-1.405802590216152
 10
0.6078144964060413
 20
-1.391440689174703
  0
LINE
  5
125
330
D9
100
AcDbEntity
  8
AM_4
100
AcDbLine
 10
0.5333333333333333
 20
-1.235
 30
0.0
 11
0.5333333333333333
 21
-1.21
 31
0.0
  0
LINE
  5
126
330
D9
100
AcDbEntity
  8
AM_4
100
AcDbLine
 10
-0.5333333333333333
 20
-1.21
 30
0.0
 11
-0.5333333333333333
 21
-1.235
 31
0.0
  0
LINE
  5
127
330
D9
100
AcDbEntity
  8
AM_4
100
AcDbLine
 10
-0.5484
 20
-1.21
 30
0.0
 11
0.5484000000000001
 21
-1.21
 31
0.0
  0
LINE
  5
128
330
D9
100
AcDbEntity
  8
AM_4
100
AcDbLine
 10
0.5484000000000001
 20
-1.21
 30
0.0
 11
0.56
 21
-1.1984
 31
0.0
  0
LINE
  5
129
330
D9
100
AcDbEntity
  8
AM_4
100
AcDbLine
 10
-0.56
 20
-1.1984
 30
0.0
 11
-0.5484
 21
-1.21
 31
0.0
  0
LINE
  5
12A
330
D9
100
AcDbEntity
  8
AM_4
100
AcDbLine
 10
-0.5599999999999999
 20
-1.1984
 30
0.0
 11
0.5599999999999999
 21
-1.1984
 31
0.0
  0
LINE
  5
12B
330
D9
100
AcDbEntity
  8
AM_4
100
AcDbLine
 10
0.5599999999999999
 20
-1.1984
 30
0.0
 11
0.5599999999999999
 21
-0.9799999999999996
 31
0.0
  0
LINE
  5
12C
330
D9
100
AcDbEntity
  8
AM_4
100
AcDbLine
 10
-0.5599999999999999
 20
-0.98
 30
0.0
 11
-0.5599999999999999
 21
-1.1984
 31
0.0
  0
LINE
  5
12D
330
D9
100
AcDbEntity
  8
AM_4
100
AcDbLine
 10
-0.62375
 20
-1.66
 30
0.0
 11
0.62375
 21
-1.66
 31
0.0
  0
ARC
  5
12E
330
D9
100
AcDbEntity
  8
AM_4
100
AcDbCircle
 10
0.6237500000000002
 20
-1.62875
 30
0.0
 40
0.03125
100
AcDbArc
 50
270.0
 51
0.0
  0
ARC
  5
12F
330
D9
100
AcDbEntity
  8
AM_4
100
AcDbCircle
 10
-0.6237500000000002
 20
-1.62875
 30
0.0
 40
0.0312499999999998
100
AcDbArc
 50
180.0
 51
270.0
  0
LINE
  5
130
330
D9
100
AcDbEntity
  8
AM_4
100
AcDbLine
 10
-0.62375
 20
-1.235
 30
0.0
 11
0.62375
 21
-1.235
 31
0.0
  0
ARC
  5
131
330
D9
100
AcDbEntity
  8
AM_4
100
AcDbCircle
 10
0.6237499999999999
 20
-1.26625
 30
0.0
 40
0.0312500000000001
100
AcDbArc
 50
0.0
 51
90.0
  0
ARC
  5
132
330
D9
100
AcDbEntity
  8
AM_4
100
AcDbCircle
 10
-0.6237499999999999
 20
-1.26625
 30
0.0
 40
0.03125
100
AcDbArc
 50
90.0
 51
180.0
  0
LINE
  5
133
330
D9
100
AcDbEntity
  8
AM_4
100
AcDbLine
 10
-0.655
 20
-1.62875
 30
0.0
 11
0.655
 21
-1.62875
 31
0.0
  0
LWPOLYLINE
  5
134
330
D9
100
AcDbEntity
  8
AM_4
100
AcDbPolyline
 90
        5
 70
     0
 43
0.0
 10
0.6078144964060413
 20
-1.391440689174703
 10
0.6121873742128056
 20
-1.379755230501965
 10
0.6168958518860173
 20
-1.369989946834425
 10
0.6223551375095734
 20
-1.361728510300261
 10
0.6238525531225714
 20
-1.359987988560196
  0
LINE
  5
135
330
D9
100
AcDbEntity
  8
AM_4
100
AcDbLine
 10
-0.655
 20
-1.26625
 30
0.0
 11
0.655
 21
-1.26625
 31
0.0
  0
LINE
  5
136
330
D9
100
AcDbEntity
  8
AM_4
100
AcDbLine
 10
0.655
 20
-1.62875
 30
0.0
 11
0.655
 21
-1.26625
 31
0.0
  0
LINE
  5
137
330
D9
100
AcDbEntity
  8
AM_4
100
AcDbLine
 10
-0.655
 20
-1.26625
 30
0.0
 11
-0.655
 21
-1.62875
 31
0.0
  0
ENDBLK
  5
DC
330
D9
100
AcDbEntity
  8
0
100
AcDbBlockEnd
  0
BLOCK
  5
13A
330
138
100
AcDbEntity
  8
0
100
AcDbBlockBegin
  2
4_131054H_0_in_131054_4
 70
     2
 10
0.0
 20
0.0
 30
0.0
  3
4_131054H_0_in_131054_4
  1

  0
ATTDEF
  5
13C
330
138
100
AcDbEntity
  8
AM_6
100
AcDbText
 10
6.439486760670654
 20
0.05315
 30
0.0
 40
0.5
  1
F2B-SXR -Inch - housing
100
AcDbAttributeDefinition
  3

  2
NN
 70
     8
280
     0
  0
ATTDEF
  5
13D
330
138
100
AcDbEntity
  8
AM_6
100
AcDbText
 10
6.439486760670654
 20
-0.44685
 30
0.0
 40
0.5
  1
Eccentric Collar 2 Bolt Flange Bearings -(Normal Duty)
100
AcDbAttributeDefinition
  3

  2
NT
 70
     8
280
     0
  0
ATTDEF
  5
13E
330
138
100
AcDbEntity
  8
AM_6
100
AcDbText
 10
6.439486760670654
 20
-0.94685
 30
0.0
 40
0.5
  1
131054H
100
AcDbAttributeDefinition
  3

  2
NB
 70
     8
280
     0
  0
ATTDEF
  5
13F
330
138
100
AcDbEntity
  8
AM_6
100
AcDbText
 10
6.439486760670654
 20
-1.44685
 30
0.0
 40
0.5
  1
$PN.H
100
AcDbAttributeDefinition
  3

  2
NBSYN
 70
     8
280
     0
  0
ATTDEF
  5
140
330
138
100
AcDbEntity
  8
AM_6
100
AcDbText
 10
6.439486760670654
 20
-1.94685
 30
0.0
 40
0.5
  1
131054
100
AcDbAttributeDefinition
  3

  2
LINA
 70
     8
280
     0
  0
ATTDEF
  5
141
330
138
100
AcDbEntity
  8
AM_6
100
AcDbText
 10
6.439486760670654
 20
-2.44685
 30
0.0
 40
0.5
  1
204
100
AcDbAttributeDefinition
  3

  2
SERIES
 70
     8
280
     0
  0
ATTDEF
  5
142
330
138
100
AcDbEntity
  8
AM_6
100
AcDbText
 10
6.439486760670654
 20
-2.94685
 30
0.0
 40
0.5
  1
3/4
100
AcDbAttributeDefinition
  3

  2
SS
 70
     8
280
     0
  0
ATTDEF
  5
143
330
138
100
AcDbEntity
  8
AM_6
100
AcDbText
 10
6.439486760670654
 20
-3.44685
 30
0.0
 40
0.5
  1
131054
100
AcDbAttributeDefinition
  3

  2
PN
 70
     8
280
     0
  0
ATTDEF
  5
144
330
138
100
AcDbEntity
  8
AM_6
100
AcDbText
 10
6.439486760670654
 20
-3.94685
 30
0.0
 40
0.5
  1
F2B-SXR-012
100
AcDbAttributeDefinition
  3

  2
DESCRIPTION
 70
     8
280
     0
  0
ATTDEF
  5
145
330
138
100
AcDbEntity
  8
AM_6
100
AcDbText
 10
6.439486760670654
 20
-4.44685
 30
0.0
 40
0.5
  1
RE-LUBE
100
AcDbAttributeDefinition
  3

  2
LF
 70
     8
280
     0
  0
ATTDEF
  5
146
330
138
100
AcDbEntity
  8
AM_6
100
AcDbText
 10
6.439486760670654
 20
-4.94685
 30
0.0
 40
0.5
  1
1.2
100
AcDbAttributeDefinition
  3

  2
W
 70
     8
280
     0
  0
ATTDEF
  5
147
330
138
100
AcDbEntity
  8
AM_6
100
AcDbText
 10
6.439486760670654
 20
-5.44685
 30
0.0
 40
0.5
  1
1.55
100
AcDbAttributeDefinition
  3

  2
A
 70
     8
280
     0
  0
ATTDEF
  5
148
330
138
100
AcDbEntity
  8
AM_6
100
AcDbText
 10
6.439486760670654
 20
-5.94685
 30
0.0
 40
0.5
  1
4.41
100
AcDbAttributeDefinition
  3

  2
B
 70
     8
280
     0
  0
ATTDEF
  5
149
330
138
100
AcDbEntity
  8
AM_6
100
AcDbText
 10
6.439486760670654
 20
-6.44685
 30
0.0
 40
0.5
  1
1.66
100
AcDbAttributeDefinition
  3

  2
C
 70
     8
280
     0
  0
ATTDEF
  5
14A
330
138
100
AcDbEntity
  8
AM_6
100
AcDbText
 10
6.439486760670654
 20
-6.94685
 30
0.0
 40
0.5
  1
3.53
100
AcDbAttributeDefinition
  3

  2
D
 70
     8
280
     0
  0
ATTDEF
  5
14B
330
138
100
AcDbEntity
  8
AM_6
100
AcDbText
 10
6.439486760670654
 20
-7.44685
 30
0.0
 40
0.5
  1
3/8
100
AcDbAttributeDefinition
  3

  2
F
 70
     8
280
     0
  0
ATTDEF
  5
14C
330
138
100
AcDbEntity
  8
AM_6
100
AcDbText
 10
6.439486760670654
 20
-7.94685
 30
0.0
 40
0.5
  1
0.50
100
AcDbAttributeDefinition
  3

  2
H
 70
     8
280
     0
  0
ATTDEF
  5
14D
330
138
100
AcDbEntity
  8
AM_6
100
AcDbText
 10
6.439486760670654
 20
-8.44685
 30
0.0
 40
0.5
  1
0.68
100
AcDbAttributeDefinition
  3

  2
J
 70
     8
280
     0
  0
ATTDEF
  5
14E
330
138
100
AcDbEntity
  8
AM_6
100
AcDbText
 10
6.439486760670654
 20
-8.94685
 30
0.0
 40
0.5
  1
1.31
100
AcDbAttributeDefinition
  3

  2
L
 70
     8
280
     0
  0
ATTDEF
  5
14F
330
138
100
AcDbEntity
  8
AM_6
100
AcDbText
 10
6.439486760670654
 20
-9.44685
 30
0.0
 40
0.5
  1
2.38
100
AcDbAttributeDefinition
  3

  2
M
 70
     8
280
     0
  0
ATTDEF
  5
150
330
138
100
AcDbEntity
  8
AM_6
100
AcDbText
 10
6.439486760670654
 20
-9.94685
 30
0.0
 40
0.5
  1
1.50
100
AcDbAttributeDefinition
  3

  2
N
 70
     8
280
     0
  0
ATTDEF
  5
151
330
138
100
AcDbEntity
  8
AM_6
100
AcDbText
 10
6.439486760670654
 20
-10.44685
 30
0.0
 40
0.5
  1
1390
100
AcDbAttributeDefinition
  3

  2
CAPS
 70
     8
280
     0
  0
ATTDEF
  5
152
330
138
100
AcDbEntity
  8
AM_6
100
AcDbText
 10
6.439486760670654
 20
-10.94685
 30
0.0
 40
0.5
  1
2899
100
AcDbAttributeDefinition
  3

  2
CAPD
 70
     8
280
     0
  0
ATTDEF
  5
153
330
138
100
AcDbEntity
  8
AM_6
100
AcDbText
 10
6.439486760670654
 20
-11.44685
 30
0.0
 40
0.5
  1
baldor
100
AcDbAttributeDefinition
  3

  2
COMPANY
 70
     8
280
     0
  0
LINE
  5
154
330
138
100
AcDbEntity
  8
AM_9
100
AcDbLine
 10
0.4820984515979473
 20
-0.6369999999999999
 30
0.0
 11
0.4820984515979473
 21
-0.0000000000000001
 31
0.0
  0
LINE
  5
155
330
138
100
AcDbEntity
  8
AM_9
100
AcDbLine
 10
-0.0008644615465866
 20
-0.6369999999999999
 30
0.0
 11
-0.0008644615465866
 21
-0.0000000000000001
 31
0.0
  0
LINE
  5
156
330
138
100
AcDbEntity
  8
AM_9
100
AcDbLine
 10
1.102355784341792
 20
-0.9799999999999998
 30
0.0
 11
1.102355784341792
 21
0.0
 31
0.0
  0
LINE
  5
157
330
138
100
AcDbEntity
  8
AM_9
100
AcDbLine
 10
1.073066462460447
 20
0.0
 30
0.0
 11
1.073066462460447
 21
-0.9799999999999998
 31
0.0
  0
LINE
  5
158
330
138
100
AcDbEntity
  8
AM_9
100
AcDbLine
 10
-0.4820984515979475
 20
-0.6369999999999999
 30
0.0
 11
-0.4820984515979475
 21
0.0000000000000001
 31
0.0
  0
LINE
  5
159
330
138
100
AcDbEntity
  8
AM_9
100
AcDbLine
 10
0.010929751326946
 20
-0.6369999999999999
 30
0.0
 11
0.010929751326946
 21
0.0000000000000001
 31
0.0
  0
LINE
  5
15A
330
138
100
AcDbEntity
  8
AM_9
100
AcDbLine
 10
-0.472033161817588
 20
0.0
 30
0.0
 11
-0.472033161817588
 21
-0.6369999999999999
 31
0.0
  0
LINE
  5
15B
330
138
100
AcDbEntity
  8
AM_9
100
AcDbLine
 10
0.472033161817588
 20
0.0
 30
0.0
 11
0.472033161817588
 21
-0.6369999999999999
 31
0.0
  0
LINE
  5
15C
330
138
100
AcDbEntity
  8
AM_9
100
AcDbLine
 10
-0.010929751326946
 20
-0.6369999999999999
 30
0.0
 11
-0.010929751326946
 21
-0.0000000000000001
 31
0.0
  0
LINE
  5
15D
330
138
100
AcDbEntity
  8
AM_9
100
AcDbLine
 10
0.9252
 20
-0.9799999999999998
 30
0.0
 11
0.9252
 21
0.0
 31
0.0
  0
LINE
  5
15E
330
138
100
AcDbEntity
  8
AM_9
100
AcDbLine
 10
-0.9252
 20
0.0
 30
0.0
 11
-0.9252
 21
-0.9799999999999998
 31
0.0
  0
LINE
  5
15F
330
138
100
AcDbEntity
  8
AM_9
100
AcDbLine
 10
0.0008644615465866
 20
-0.6369999999999999
 30
0.0
 11
0.0008644615465866
 21
0.0000000000000001
 31
0.0
  0
LINE
  5
160
330
138
100
AcDbEntity
  8
AM_9
100
AcDbLine
 10
0.4820984515979473
 20
-0.6369999999999999
 30
0.0
 11
-0.4820984515979475
 21
-0.6369999999999999
 31
0.0
  0
LINE
  5
161
330
138
100
AcDbEntity
  8
AM_9
100
AcDbLine
 10
1.439486760670654
 20
-0.8796191644429541
 30
0.0
 11
1.439486760670654
 21
-0.6003783639523135
 31
0.0
  0
LINE
  5
162
330
138
100
AcDbEntity
  8
AM_9
100
AcDbLine
 10
0.5997119089572573
 20
-0.5000000000000001
 30
0.0
 11
0.5876192751771921
 21
-0.5
 31
0.0
  0
LINE
  5
163
330
138
100
AcDbEntity
  8
AM_9
100
AcDbLine
 10
0.5997119089572573
 20
-0.4500000000000001
 30
0.0
 11
0.5997119089572573
 21
-0.5000000000000001
 31
0.0
  0
LINE
  5
164
330
138
100
AcDbEntity
  8
AM_9
100
AcDbLine
 10
1.077219651329437
 20
-0.45
 30
0.0
 11
0.736508313518946
 21
-0.45
 31
0.0
  0
LINE
  5
165
330
138
100
AcDbEntity
  8
AM_9
100
AcDbLine
 10
1.077219651329437
 20
-0.45
 30
0.0
 11
1.077219651329437
 21
0.0
 31
0.0
  0
LINE
  5
166
330
138
100
AcDbEntity
  8
AM_9
100
AcDbLine
 10
1.082131077773591
 20
-0.9799999999999998
 30
0.0
 11
1.082131077773591
 21
0.0
 31
0.0
  0
LINE
  5
167
330
138
100
AcDbEntity
  8
AM_9
100
AcDbLine
 10
1.189999999999998
 20
-0.9799999999999998
 30
0.0
 11
1.189999999999998
 21
0.0
 31
0.0
  0
LINE
  5
168
330
138
100
AcDbEntity
  8
AM_9
100
AcDbLine
 10
1.233420743492672
 20
-0.94
 30
0.0
 11
1.234834957055045
 21
-0.94
 31
0.0
  0
LINE
  5
169
330
138
100
AcDbEntity
  8
AM_9
100
AcDbLine
 10
1.234834957055045
 20
-0.5399999999999999
 30
0.0
 11
1.233420743492672
 21
-0.5399999999999999
 31
0.0
  0
LINE
  5
16A
330
138
100
AcDbEntity
  8
AM_9
100
AcDbLine
 10
1.316438788073922
 20
-0.9799999999999998
 30
0.0
 11
1.223941804154823
 21
-0.9799999999999998
 31
0.0
  0
LINE
  5
16B
330
138
100
AcDbEntity
  8
AM_9
100
AcDbLine
 10
1.410197438789309
 20
-0.9061222764958946
 30
0.0
 11
1.410197438789309
 21
-0.5738823339782605
 31
0.0
  0
LINE
  5
16C
330
138
100
AcDbEntity
  8
AM_9
100
AcDbLine
 10
0.1875
 20
-0.4999999999999998
 30
0.0
 11
0.1875
 21
0.0000000000000001
 31
0.0
  0
LINE
  5
16D
330
138
100
AcDbEntity
  8
AM_9
100
AcDbLine
 10
-0.1875
 20
0.0000000000000001
 30
0.0
 11
-0.1875
 21
-0.4999999999999998
 31
0.0
  0
ELLIPSE
  5
16E
330
138
100
AcDbEntity
  8
AM_9
100
AcDbEllipse
 10
1.234834957055045
 20
-0.7399999999999999
 30
0.0
 11
-3.673940397442064E-17
 21
-0.2000000000000003
 31
0.0
210
0.0
220
0.0
230
1.0
 40
0.7071067811865462
 41
0.0
 42
6.283185307179586
  0
ELLIPSE
  5
16F
330
138
100
AcDbEntity
  8
AM_9
100
AcDbEllipse
 10
1.233420743492672
 20
-0.7399999999999999
 30
0.0
 11
-3.673940397442058E-17
 21
-0.2
 31
0.0
210
0.0
220
0.0
230
1.0
 40
0.7071067811865474
 41
0.0
 42
6.283185307179586
  0
LINE
  5
172
330
138
100
AcDbEntity
  8
AM_7
100
AcDbLine
 10
0.0
 20
0.05315
 30
0.0
 11
0.0
 21
-1.7375
 31
0.0
  0
LINE
  5
173
330
138
100
AcDbEntity
  8
AM_4
100
AcDbLine
 10
1.439486760670654
 20
-0.6003783639523135
 30
0.0
 11
1.439486760670654
 21
0.0000000000000001
 31
0.0
  0
LINE
  5
174
330
138
100
AcDbEntity
  8
AM_4
100
AcDbLine
 10
1.439486760670654
 20
-0.9799999999999998
 30
0.0
 11
1.439486760670654
 21
-0.8796191644429541
 31
0.0
  0
LINE
  5
175
330
138
100
AcDbEntity
  8
AM_4
100
AcDbLine
 10
1.439486760670654
 20
-0.9799999999999998
 30
0.0
 11
1.316438788073922
 21
-0.9799999999999998
 31
0.0
  0
LINE
  5
176
330
138
100
AcDbEntity
  8
AM_4
100
AcDbLine
 10
0.4950680059512708
 20
-0.9799999999999998
 30
0.0
 11
0.4950680059512708
 21
-0.4999999999999999
 31
0.0
  0
LINE
  5
177
330
138
100
AcDbEntity
  8
AM_4
100
AcDbLine
 10
-1.19
 20
0.0
 30
0.0
 11
-1.19
 21
-0.9799999999999998
 31
0.0
  0
LINE
  5
178
330
138
100
AcDbEntity
  8
AM_4
100
AcDbLine
 10
1.410197438789309
 20
-0.5738823339782605
 30
0.0
 11
1.410197438789309
 21
0.0000000000000001
 31
0.0
  0
LINE
  5
179
330
138
100
AcDbEntity
  8
AM_4
100
AcDbLine
 10
1.410197438789309
 20
-0.9799999999999998
 30
0.0
 11
1.410197438789309
 21
-0.9061222764958946
 31
0.0
  0
LINE
  5
17A
330
138
100
AcDbEntity
  8
AM_4
100
AcDbLine
 10
1.223941804154823
 20
-0.9799999999999998
 30
0.0
 11
-1.19
 21
-0.9799999999999998
 31
0.0
  0
LINE
  5
17B
330
138
100
AcDbEntity
  8
AM_4
100
AcDbLine
 10
0.607381037511209
 20
-0.9799999999999998
 30
0.0
 11
0.607381037511209
 21
-0.4499999999999999
 31
0.0
  0
LINE
  5
17C
330
138
100
AcDbEntity
  8
AM_4
100
AcDbLine
 10
0.9152226919587254
 20
-0.9799999999999996
 30
0.0
 11
0.9152226919587254
 21
0.0000000000000001
 31
0.0
  0
LINE
  5
17D
330
138
100
AcDbEntity
  8
AM_4
100
AcDbLine
 10
1.056644048196035
 20
-0.9799999999999996
 30
0.0
 11
1.056644048196035
 21
0.0000000000000001
 31
0.0
  0
LINE
  5
17E
330
138
100
AcDbEntity
  8
AM_4
100
AcDbLine
 10
-0.5997119089572532
 20
-0.4499999999999999
 30
0.0
 11
-0.5997119089572531
 21
-0.4999999999999999
 31
0.0
  0
LINE
  5
17F
330
138
100
AcDbEntity
  8
AM_4
100
AcDbLine
 10
0.5876192751771921
 20
-0.4999999999999999
 30
0.0
 11
-0.5997119089572531
 21
-0.4999999999999999
 31
0.0
  0
LINE
  5
180
330
138
100
AcDbEntity
  8
AM_4
100
AcDbLine
 10
0.5876192751771921
 20
-0.4499999999999999
 30
0.0
 11
0.5876192751771921
 21
-0.4999999999999999
 31
0.0
  0
LINE
  5
181
330
138
100
AcDbEntity
  8
AM_4
100
AcDbLine
 10
-0.3982997030125652
 20
-0.4499999999999998
 30
0.0
 11
-1.077219651329437
 21
-0.45
 31
0.0
  0
LINE
  5
182
330
138
100
AcDbEntity
  8
AM_4
100
AcDbLine
 10
-1.077219651329437
 20
-0.45
 30
0.0
 11
-1.077219651329437
 21
0.0
 31
0.0
  0
LINE
  5
183
330
138
100
AcDbEntity
  8
AM_4
100
AcDbLine
 10
1.439486760670654
 20
0.0000000000000001
 30
0.0
 11
-1.19
 21
0.0
 31
0.0
  0
LINE
  5
184
330
138
100
AcDbEntity
  8
AM_4
100
AcDbLine
 10
0.736508313518946
 20
-0.4499999999999999
 30
0.0
 11
0.3982997030125651
 21
-0.4499999999999998
 31
0.0
  0
LINE
  5
185
330
138
100
AcDbEntity
  8
AM_4
100
AcDbLine
 10
0.7365083135189461
 20
0.0000000000000001
 30
0.0
 11
0.736508313518946
 21
-0.4499999999999999
 31
0.0
  0
LINE
  5
186
330
138
100
AcDbEntity
  8
AM_4
100
AcDbLine
 10
0.4310932242297592
 20
-0.4499999999999998
 30
0.0
 11
0.4310932242297592
 21
-0.4999999999999998
 31
0.0
  0
LINE
  5
187
330
138
100
AcDbEntity
  8
AM_4
100
AcDbLine
 10
0.3982997030125651
 20
-0.4499999999999998
 30
0.0
 11
0.3982997030125651
 21
0.0000000000000001
 31
0.0
  0
LINE
  5
188
330
138
100
AcDbEntity
  8
AM_4
100
AcDbLine
 10
-0.3982997030125652
 20
-0.4499999999999998
 30
0.0
 11
-0.3982997030125652
 21
0.0000000000000001
 31
0.0
  0
LINE
  5
189
330
138
100
AcDbEntity
  8
AM_4
100
AcDbLine
 10
-0.4310932242297592
 20
-0.4499999999999998
 30
0.0
 11
-0.4310932242297592
 21
-0.4999999999999998
 31
0.0
  0
ENDBLK
  5
13B
330
138
100
AcDbEntity
  8
0
100
AcDbBlockEnd
  0
ENDSEC
  0
SECTION
  2
ENTITIES
  0
INSERT
  5
6F
330
1F
100
AcDbEntity
  8
0
100
AcDbBlockReference
  2
1_131054_4
 10
0.0
 20
0.0
 30
0.0
  0
POINT
  5
18B
330
1F
100
AcDbEntity
  8
ConnectionPoints
100
AcDbPoint
 10
0.0
 20
-0.6099999999999999
 30
0.0
  0
POINT
  5
18C
330
1F
100
AcDbEntity
  8
ConnectionPoints
100
AcDbPoint
 10
0.0
 20
-1.66
 30
0.0000000000000001
  0
POINT
  5
18D
330
1F
100
AcDbEntity
  8
ConnectionPoints
100
AcDbPoint
 10
1.060660171779821
 20
-0.7399999999999999
 30
1.060660171779821
  0
POINT
  5
18E
330
1F
100
AcDbEntity
  8
ConnectionPoints
100
AcDbPoint
 10
1.234834957055045
 20
-0.7399999999999999
 30
1.234834957055045
  0
POINT
  5
18F
330
1F
100
AcDbEntity
  8
ConnectionPoints
100
AcDbPoint
 10
0.0
 20
-1.66
 30
0.0000000000000001
  0
ENDSEC
  0
SECTION
  2
OBJECTS
  0
DICTIONARY
  5
C
330
0
100
AcDbDictionary
281
     1
  3
ACAD_DETAILVIEWSTYLE
350
197
  3
ACAD_GROUP
350
D
  3
ACAD_LAYOUT
350
1A
  3
ACAD_MATERIAL
350
43
  3
ACAD_MLEADERSTYLE
350
6B
  3
ACAD_MLINESTYLE
350
17
  3
ACAD_PLOTSETTINGS
350
19
  3
ACAD_PLOTSTYLENAME
350
E
  3
ACAD_SCALELIST
350
47
  3
ACAD_SECTIONVIEWSTYLE
350
198
  3
ACAD_TABLESTYLE
350
69
  3
ACAD_VISUALSTYLE
350
2A
  3
ACDB_RECOMPOSE_DATA
350
194
  3
AcDbVariableDictionary
350
190
  0
SUN
  5
6D
330
29
100
AcDbSun
 90
        1
290
     0
 63
     7
421
 16777215
 40
1.0
291
     1
 91
  2455826
 92
 54000000
292
     0
 70
     2
 71
   256
280
     1
  0
DICTIONARY
  5
197
102
{ACAD_REACTORS
330
C
102
}
330
C
100
AcDbDictionary
281
     1
  0
DICTIONARY
  5
D
102
{ACAD_REACTORS
330
C
102
}
330
C
100
AcDbDictionary
281
     1
  0
DICTIONARY
  5
1A
102
{ACAD_REACTORS
330
C
102
}
330
C
100
AcDbDictionary
281
     1
  3
Layout1
350
1E
  3
Layout2
350
26
  3
Model
350
22
  0
DICTIONARY
  5
43
102
{ACAD_REACTORS
330
C
102
}
330
C
100
AcDbDictionary
281
     1
  3
ByBlock
350
45
  3
ByLayer
350
44
  3
Global
350
46
  0
DICTIONARY
  5
6B
102
{ACAD_REACTORS
330
C
102
}
330
C
100
AcDbDictionary
281
     1
  3
Standard
350
6C
  0
DICTIONARY
  5
17
102
{ACAD_REACTORS
330
C
102
}
330
C
100
AcDbDictionary
281
     1
  3
Standard
350
18
  0
DICTIONARY
  5
19
102
{ACAD_REACTORS
330
C
102
}
330
C
100
AcDbDictionary
281
     1
  0
ACDBDICTIONARYWDFLT
  5
E
102
{ACAD_REACTORS
330
C
102
}
330
C
100
AcDbDictionary
281
     1
  3
Normal
350
F
100
AcDbDictionaryWithDefault
340
F
  0
DICTIONARY
  5
47
102
{ACAD_REACTORS
330
C
102
}
330
C
100
AcDbDictionary
281
     1
  3
A0
350
48
  3
A1
350
49
  3
A2
350
4A
  3
A3
350
4B
  3
A4
350
4C
  3
A5
350
4D
  3
A6
350
4E
  3
A7
350
4F
  3
A8
350
50
  3
A9
350
51
  3
B0
350
52
  3
B1
350
53
  3
B2
350
54
  3
B3
350
55
  3
B4
350
56
  3
B5
350
57
  3
B6
350
58
  3
B7
350
59
  3
B8
350
5A
  3
B9
350
5B
  3
C0
350
5C
  3
C1
350
5D
  3
C2
350
5E
  3
C3
350
5F
  3
C4
350
60
  3
C5
350
61
  3
C6
350
62
  3
C7
350
63
  3
C8
350
64
  3
C9
350
65
  3
D0
350
66
  3
D1
350
67
  3
D2
350
68
  0
DICTIONARY
  5
198
102
{ACAD_REACTORS
330
C
102
}
330
C
100
AcDbDictionary
281
     1
  0
DICTIONARY
  5
69
102
{ACAD_REACTORS
330
C
102
}
330
C
100
AcDbDictionary
281
     1
  3
Standard
350
6A
  0
DICTIONARY
  5
2A
102
{ACAD_REACTORS
330
C
102
}
330
C
100
AcDbDictionary
281
     1
  3
2dWireframe
350
2F
  3
Basic
350
32
  3
Brighten
350
36
  3
ColorChange
350
3A
  3
Conceptual
350
34
  3
Dim
350
35
  3
EdgeColorOff
350
3D
  3
Facepattern
350
39
  3
Flat
350
2B
  3
FlatWithEdges
350
2C
  3
Gouraud
350
2D
  3
GouraudWithEdges
350
2E
  3
Hidden
350
31
  3
JitterOff
350
3B
  3
Linepattern
350
38
  3
OverhangOff
350
3C
  3
Realistic
350
33
  3
Shaded
350
42
  3
Shaded with edges
350
41
  3
Shades of Gray
350
3E
  3
Sketchy
350
3F
  3
Thicken
350
37
  3
Wireframe
350
30
  3
X-Ray
350
40
  0
XRECORD
  5
194
102
{ACAD_REACTORS
330
C
102
}
330
C
100
AcDbXrecord
280
     1
 90
        1
330
6A
  0
DICTIONARY
  5
190
102
{ACAD_REACTORS
330
C
102
}
330
C
100
AcDbDictionary
281
     1
  3
CANNOSCALE
350
191
  3
CMLEADERSTYLE
350
196
  3
CTABLESTYLE
350
195
  0
LAYOUT
  5
1E
102
{ACAD_REACTORS
330
1A
102
}
330
1A
100
AcDbPlotSettings
  1

  2
none_device
  4

  6

 40
0.0
 41
0.0
 42
0.0
 43
0.0
 44
0.0
 45
0.0
 46
0.0
 47
0.0
 48
0.0
 49
0.0
140
0.0
141
0.0
142
1.0
143
1.0
 70
   688
 72
     0
 73
     0
 74
     5
  7

 75
    16
 76
     0
 77
     2
 78
   300
147
1.0
148
0.0
149
0.0
100
AcDbLayout
  1
Layout1
 70
     1
 71
     1
 10
0.0
 20
0.0
 11
12.0
 21
9.0
 12
0.0
 22
0.0
 32
0.0
 14
1.000000000000000E+20
 24
1.000000000000000E+20
 34
1.000000000000000E+20
 15
-1.000000000000000E+20
 25
-1.000000000000000E+20
 35
-1.000000000000000E+20
146
0.0
 13
0.0
 23
0.0
 33
0.0
 16
1.0
 26
0.0
 36
0.0
 17
0.0
 27
1.0
 37
0.0
 76
     0
330
1B
  0
LAYOUT
  5
26
102
{ACAD_REACTORS
330
1A
102
}
330
1A
100
AcDbPlotSettings
  1

  2
none_device
  4

  6

 40
0.0
 41
0.0
 42
0.0
 43
0.0
 44
0.0
 45
0.0
 46
0.0
 47
0.0
 48
0.0
 49
0.0
140
0.0
141
0.0
142
1.0
143
1.0
 70
   688
 72
     0
 73
     0
 74
     5
  7

 75
    16
 76
     0
 77
     2
 78
   300
147
1.0
148
0.0
149
0.0
100
AcDbLayout
  1
Layout2
 70
     1
 71
     2
 10
0.0
 20
0.0
 11
0.0
 21
0.0
 12
0.0
 22
0.0
 32
0.0
 14
0.0
 24
0.0
 34
0.0
 15
0.0
 25
0.0
 35
0.0
146
0.0
 13
0.0
 23
0.0
 33
0.0
 16
1.0
 26
0.0
 36
0.0
 17
0.0
 27
1.0
 37
0.0
 76
     0
330
23
  0
LAYOUT
  5
22
102
{ACAD_REACTORS
330
1A
102
}
330
1A
100
AcDbPlotSettings
  1

  2
none_device
  4
Letter_(8.50_x_11.00_Inches)
  6

 40
6.35
 41
6.35
 42
6.35000508
 43
6.35000508
 44
215.9
 45
279.4
 46
0.0
 47
0.0
 48
0.0
 49
0.0
140
0.0
141
0.0
142
1.0
143
1.0
 70
  1712
 72
     0
 73
     0
 74
     0
  7

 75
     0
 76
     0
 77
     2
 78
   300
147
1.0
148
0.0
149
0.0
100
AcDbLayout
  1
Model
 70
     1
 71
     0
 10
0.0
 20
0.0
 11
12.0
 21
9.0
 12
0.0
 22
0.0
 32
0.0
 14
1.000000000000000E+20
 24
1.000000000000000E+20
 34
1.000000000000000E+20
 15
-1.000000000000000E+20
 25
-1.000000000000000E+20
 35
-1.000000000000000E+20
146
0.0
 13
0.0
 23
0.0
 33
0.0
 16
1.0
 26
0.0
 36
0.0
 17
0.0
 27
1.0
 37
0.0
 76
     0
330
1F
331
29
  0
MATERIAL
  5
45
102
{ACAD_REACTORS
330
43
102
}
330
43
100
AcDbMaterial
  1
ByBlock
 72
     1
 94
      127
  0
MATERIAL
  5
44
102
{ACAD_REACTORS
330
43
102
}
330
43
100
AcDbMaterial
  1
ByLayer
 72
     1
 94
      127
  0
MATERIAL
  5
46
102
{ACAD_REACTORS
330
43
102
}
330
43
100
AcDbMaterial
  1
Global
 72
     1
 94
      127
  0
MLEADERSTYLE
  5
6C
102
{ACAD_REACTORS
330
6B
102
}
330
6B
100
AcDbMLeaderStyle
179
     2
170
     2
171
     1
172
     0
 90
        2
 40
0.0
 41
0.0
173
     1
 91
-1056964608
340
14
 92
       -2
290
     1
 42
0.09
291
     1
 43
0.36
  3
Standard
341
0
 44
0.18
300

342
11
174
     1
178
     6
175
     1
176
     0
 93
-1056964608
 45
0.18
292
     0
297
     0
 46
0.18
343
0
 94
-1056964608
 47
1.0
 49
1.0
140
1.0
293
     1
141
0.0
294
     1
177
     0
142
1.0
295
     0
296
     0
143
0.125
271
     0
272
     9
273
     9
298
     0
  0
MLINESTYLE
  5
18
102
{ACAD_REACTORS
330
17
102
}
330
17
100
AcDbMlineStyle
  2
Standard
 70
     0
  3

 62
   256
 51
90.0
 52
90.0
 71
     2
 49
0.5
 62
   256
  6
BYLAYER
 49
-0.5
 62
   256
  6
BYLAYER
  0
ACDBPLACEHOLDER
  5
F
102
{ACAD_REACTORS
330
E
102
}
330
E
  0
SCALE
  5
48
102
{ACAD_REACTORS
330
47
102
}
330
47
100
AcDbScale
 70
     0
300
1:1
140
1.0
141
1.0
290
     1
  0
SCALE
  5
49
102
{ACAD_REACTORS
330
47
102
}
330
47
100
AcDbScale
 70
     0
300
1:2
140
1.0
141
2.0
290
     0
  0
SCALE
  5
4A
102
{ACAD_REACTORS
330
47
102
}
330
47
100
AcDbScale
 70
     0
300
1:4
140
1.0
141
4.0
290
     0
  0
SCALE
  5
4B
102
{ACAD_REACTORS
330
47
102
}
330
47
100
AcDbScale
 70
     0
300
1:5
140
1.0
141
5.0
290
     0
  0
SCALE
  5
4C
102
{ACAD_REACTORS
330
47
102
}
330
47
100
AcDbScale
 70
     0
300
1:8
140
1.0
141
8.0
290
     0
  0
SCALE
  5
4D
102
{ACAD_REACTORS
330
47
102
}
330
47
100
AcDbScale
 70
     0
300
1:10
140
1.0
141
10.0
290
     0
  0
SCALE
  5
4E
102
{ACAD_REACTORS
330
47
102
}
330
47
100
AcDbScale
 70
     0
300
1:16
140
1.0
141
16.0
290
     0
  0
SCALE
  5
4F
102
{ACAD_REACTORS
330
47
102
}
330
47
100
AcDbScale
 70
     0
300
1:20
140
1.0
141
20.0
290
     0
  0
SCALE
  5
50
102
{ACAD_REACTORS
330
47
102
}
330
47
100
AcDbScale
 70
     0
300
1:30
140
1.0
141
30.0
290
     0
  0
SCALE
  5
51
102
{ACAD_REACTORS
330
47
102
}
330
47
100
AcDbScale
 70
     0
300
1:40
140
1.0
141
40.0
290
     0
  0
SCALE
  5
52
102
{ACAD_REACTORS
330
47
102
}
330
47
100
AcDbScale
 70
     0
300
1:50
140
1.0
141
50.0
290
     0
  0
SCALE
  5
53
102
{ACAD_REACTORS
330
47
102
}
330
47
100
AcDbScale
 70
     0
300
1:100
140
1.0
141
100.0
290
     0
  0
SCALE
  5
54
102
{ACAD_REACTORS
330
47
102
}
330
47
100
AcDbScale
 70
     0
300
2:1
140
2.0
141
1.0
290
     0
  0
SCALE
  5
55
102
{ACAD_REACTORS
330
47
102
}
330
47
100
AcDbScale
 70
     0
300
4:1
140
4.0
141
1.0
290
     0
  0
SCALE
  5
56
102
{ACAD_REACTORS
330
47
102
}
330
47
100
AcDbScale
 70
     0
300
8:1
140
8.0
141
1.0
290
     0
  0
SCALE
  5
57
102
{ACAD_REACTORS
330
47
102
}
330
47
100
AcDbScale
 70
     0
300
10:1
140
10.0
141
1.0
290
     0
  0
SCALE
  5
58
102
{ACAD_REACTORS
330
47
102
}
330
47
100
AcDbScale
 70
     0
300
100:1
140
100.0
141
1.0
290
     0
  0
SCALE
  5
59
102
{ACAD_REACTORS
330
47
102
}
330
47
100
AcDbScale
 70
     0
300
1/128" = 1'-0"
140
0.0078125
141
12.0
290
     0
  0
SCALE
  5
5A
102
{ACAD_REACTORS
330
47
102
}
330
47
100
AcDbScale
 70
     0
300
1/64" = 1'-0"
140
0.015625
141
12.0
290
     0
  0
SCALE
  5
5B
102
{ACAD_REACTORS
330
47
102
}
330
47
100
AcDbScale
 70
     0
300
1/32" = 1'-0"
140
0.03125
141
12.0
290
     0
  0
SCALE
  5
5C
102
{ACAD_REACTORS
330
47
102
}
330
47
100
AcDbScale
 70
     0
300
1/16" = 1'-0"
140
0.0625
141
12.0
290
     0
  0
SCALE
  5
5D
102
{ACAD_REACTORS
330
47
102
}
330
47
100
AcDbScale
 70
     0
300
3/32" = 1'-0"
140
0.09375
141
12.0
290
     0
  0
SCALE
  5
5E
102
{ACAD_REACTORS
330
47
102
}
330
47
100
AcDbScale
 70
     0
300
1/8" = 1'-0"
140
0.125
141
12.0
290
     0
  0
SCALE
  5
5F
102
{ACAD_REACTORS
330
47
102
}
330
47
100
AcDbScale
 70
     0
300
3/16" = 1'-0"
140
0.1875
141
12.0
290
     0
  0
SCALE
  5
60
102
{ACAD_REACTORS
330
47
102
}
330
47
100
AcDbScale
 70
     0
300
1/4" = 1'-0"
140
0.25
141
12.0
290
     0
  0
SCALE
  5
61
102
{ACAD_REACTORS
330
47
102
}
330
47
100
AcDbScale
 70
     0
300
3/8" = 1'-0"
140
0.375
141
12.0
290
     0
  0
SCALE
  5
62
102
{ACAD_REACTORS
330
47
102
}
330
47
100
AcDbScale
 70
     0
300
1/2" = 1'-0"
140
0.5
141
12.0
290
     0
  0
SCALE
  5
63
102
{ACAD_REACTORS
330
47
102
}
330
47
100
AcDbScale
 70
     0
300
3/4" = 1'-0"
140
0.75
141
12.0
290
     0
  0
SCALE
  5
64
102
{ACAD_REACTORS
330
47
102
}
330
47
100
AcDbScale
 70
     0
300
1" = 1'-0"
140
1.0
141
12.0
290
     0
  0
SCALE
  5
65
102
{ACAD_REACTORS
330
47
102
}
330
47
100
AcDbScale
 70
     0
300
1-1/2" = 1'-0"
140
1.5
141
12.0
290
     0
  0
SCALE
  5
66
102
{ACAD_REACTORS
330
47
102
}
330
47
100
AcDbScale
 70
     0
300
3" = 1'-0"
140
3.0
141
12.0
290
     0
  0
SCALE
  5
67
102
{ACAD_REACTORS
330
47
102
}
330
47
100
AcDbScale
 70
     0
300
6" = 1'-0"
140
6.0
141
12.0
290
     0
  0
SCALE
  5
68
102
{ACAD_REACTORS
330
47
102
}
330
47
100
AcDbScale
 70
     0
300
1'-0" = 1'-0"
140
12.0
141
12.0
290
     0
  0
TABLESTYLE
  5
6A
102
{ACAD_REACTORS
330
69
102
}
102
{ACAD_XDICTIONARY
360
192
102
}
330
69
100
AcDbTableStyle
  3
Standard
 70
     0
 71
     0
 40
0.06
 41
0.06
280
     0
281
     0
  7
Standard
140
0.18
170
     2
 62
     0
 63
   257
283
     0
 90
        4
 91
        0
  1

274
    -2
284
     1
 64
     0
275
    -2
285
     1
 65
     0
276
    -2
286
     1
 66
     0
277
    -2
287
     1
 67
     0
278
    -2
288
     1
 68
     0
279
    -2
289
     1
 69
     0
  7
Standard
140
0.25
170
     5
 62
     0
 63
   257
283
     0
 90
        4
 91
        0
  1

274
    -2
284
     1
 64
     0
275
    -2
285
     1
 65
     0
276
    -2
286
     1
 66
     0
277
    -2
287
     1
 67
     0
278
    -2
288
     1
 68
     0
279
    -2
289
     1
 69
     0
  7
Standard
140
0.18
170
     5
 62
     0
 63
   257
283
     0
 90
        4
 91
        0
  1

274
    -2
284
     1
 64
     0
275
    -2
285
     1
 65
     0
276
    -2
286
     1
 66
     0
277
    -2
287
     1
 67
     0
278
    -2
288
     1
 68
     0
279
    -2
289
     1
 69
     0
  0
VISUALSTYLE
  5
2F
102
{ACAD_REACTORS
330
2A
102
}
330
2A
100
AcDbVisualStyle
  2
2dWireframe
 70
     4
177
     3
291
     0
 70
    58
 90
        0
176
     1
 90
        2
176
     1
 90
        0
176
     1
 90
        0
176
     1
 40
0.6
176
     1
 40
30.0
176
     1
 62
     7
420
 16777215
176
     1
 90
        1
176
     1
 90
        4
176
     1
 62
     7
176
     1
 62
   257
176
     1
 90
        1
176
     1
 90
        1
176
     1
 40
1.0
176
     1
 90
        0
176
     1
 62
   257
176
     1
 40
1.0
176
     1
 90
        1
176
     1
 90
        6
176
     1
 90
        2
176
     1
 62
     7
176
     1
 90
        5
176
     1
 90
        0
176
     1
 90
        0
176
     1
290
     0
176
     1
 90
        1
176
     1
 40
0.0
176
     1
 90
        0
176
     1
290
     1
176
     1
290
     1
176
     1
290
     0
176
     1
290
     0
176
     1
290
     0
176
     1
290
     0
176
     1
290
     0
176
     1
290
     0
176
     1
290
     0
176
     1
 90
       50
176
     1
 40
0.0
176
     1
 40
1.0
176
     1
 90
        0
176
     1
 62
    18
420
        0
176
     1
 90
       50
176
     1
 90
        3
176
     1
 62
     5
420
      255
176
     1
290
     0
176
     1
 90
       50
176
     1
 90
       50
176
     1
 90
       50
176
     1
290
     0
176
     1
 90
       50
176
     1
 62
   256
176
     0
 40
1.0
176
     0
 90
        2
176
     1
  1
strokes_ogs.tif
176
     1
290
     0
176
     1
 40
1.0
176
     1
 40
1.0
176
     1
  0
VISUALSTYLE
  5
32
102
{ACAD_REACTORS
330
2A
102
}
330
2A
100
AcDbVisualStyle
  2
Basic
 70
     7
177
     3
291
     1
 70
    58
 90
        1
176
     1
 90
        0
176
     1
 90
        1
176
     1
 90
        0
176
     1
 40
0.6
176
     1
 40
30.0
176
     1
 62
     7
420
 16777215
176
     1
 90
        0
176
     1
 90
        4
176
     1
 62
     7
176
     1
 62
   257
176
     1
 90
        1
176
     1
 90
        1
176
     1
 40
1.0
176
     1
 90
        8
176
     1
 62
     7
176
     1
 40
1.0
176
     1
 90
        1
176
     1
 90
        6
176
     1
 90
        2
176
     1
 62
     7
176
     1
 90
        5
176
     1
 90
        0
176
     1
 90
        0
176
     1
290
     0
176
     1
 90
        1
176
     1
 40
0.0
176
     1
 90
        0
176
     1
290
     0
176
     1
290
     1
176
     1
290
     1
176
     1
290
     0
176
     1
290
     0
176
     1
290
     0
176
     1
290
     0
176
     1
290
     0
176
     1
290
     0
176
     1
 90
       50
176
     1
 40
0.0
176
     1
 40
1.0
176
     1
 90
        0
176
     1
 62
    18
420
        0
176
     1
 90
       50
176
     1
 90
        3
176
     1
 62
     5
420
      255
176
     1
290
     0
176
     1
 90
       50
176
     1
 90
       50
176
     1
 90
       50
176
     1
290
     0
176
     1
 90
       50
176
     1
 62
   256
176
     0
 40
1.0
176
     0
 90
        2
176
     1
  1
strokes_ogs.tif
176
     1
290
     0
176
     1
 40
1.0
176
     1
 40
1.0
176
     1
  0
VISUALSTYLE
  5
36
102
{ACAD_REACTORS
330
2A
102
}
330
2A
100
AcDbVisualStyle
  2
Brighten
 70
    12
177
     3
291
     1
 70
    58
 90
        2
176
     1
 90
        2
176
     1
 90
        0
176
     1
 90
        0
176
     1
 40
0.6
176
     1
 40
30.0
176
     1
 62
     7
420
 16777215
176
     1
 90
        1
176
     1
 90
        4
176
     1
 62
     7
176
     1
 62
   257
176
     1
 90
        1
176
     1
 90
        1
176
     1
 40
1.0
176
     1
 90
        8
176
     1
 62
     7
176
     1
 40
1.0
176
     1
 90
        1
176
     1
 90
        6
176
     1
 90
        2
176
     1
 62
     7
176
     1
 90
        5
176
     1
 90
        0
176
     1
 90
        0
176
     1
290
     0
176
     1
 90
        1
176
     1
 40
50.0
176
     1
 90
        0
176
     1
290
     0
176
     1
290
     1
176
     1
290
     1
176
     1
290
     0
176
     1
290
     0
176
     1
290
     0
176
     1
290
     0
176
     1
290
     0
176
     1
290
     0
176
     1
 90
       50
176
     1
 40
0.0
176
     1
 40
1.0
176
     1
 90
        0
176
     1
 62
    18
420
        0
176
     1
 90
       50
176
     1
 90
        3
176
     1
 62
     5
420
      255
176
     1
290
     0
176
     1
 90
       50
176
     1
 90
       50
176
     1
 90
       50
176
     1
290
     0
176
     1
 90
       50
176
     1
 62
   256
176
     0
 40
1.0
176
     0
 90
        2
176
     1
  1
strokes_ogs.tif
176
     1
290
     0
176
     1
 40
1.0
176
     1
 40
1.0
176
     1
  0
VISUALSTYLE
  5
3A
102
{ACAD_REACTORS
330
2A
102
}
330
2A
100
AcDbVisualStyle
  2
ColorChange
 70
    16
177
     3
291
     1
 70
    58
 90
        2
176
     1
 90
        2
176
     1
 90
        3
176
     1
 90
        0
176
     1
 40
0.6
176
     1
 40
30.0
176
     1
 62
     8
420
  8421504
176
     1
 90
        1
176
     1
 90
        4
176
     1
 62
     7
176
     1
 62
   257
176
     1
 90
        1
176
     1
 90
        1
176
     1
 40
1.0
176
     1
 90
        8
176
     1
 62
     8
420
  8421504
176
     1
 40
1.0
176
     1
 90
        1
176
     1
 90
        6
176
     1
 90
        2
176
     1
 62
     7
176
     1
 90
        5
176
     1
 90
        0
176
     1
 90
        0
176
     1
290
     0
176
     1
 90
        1
176
     1
 40
0.0
176
     1
 90
        0
176
     1
290
     0
176
     1
290
     1
176
     1
290
     1
176
     1
290
     0
176
     1
290
     0
176
     1
290
     0
176
     1
290
     0
176
     1
290
     0
176
     1
290
     0
176
     1
 90
       50
176
     1
 40
0.0
176
     1
 40
1.0
176
     1
 90
        0
176
     1
 62
    18
420
        0
176
     1
 90
       50
176
     1
 90
        3
176
     1
 62
     5
420
      255
176
     1
290
     0
176
     1
 90
       50
176
     1
 90
       50
176
     1
 90
       50
176
     1
290
     0
176
     1
 90
       50
176
     1
 62
   256
176
     0
 40
1.0
176
     0
 90
        2
176
     1
  1
strokes_ogs.tif
176
     1
290
     0
176
     1
 40
1.0
176
     1
 40
1.0
176
     1
  0
VISUALSTYLE
  5
34
102
{ACAD_REACTORS
330
2A
102
}
330
2A
100
AcDbVisualStyle
  2
Conceptual
 70
     9
177
     3
291
     0
 70
    58
 90
        3
176
     1
 90
        2
176
     1
 90
        0
176
     1
 90
        0
176
     1
 40
0.6
176
     1
 40
30.0
176
     1
 62
     7
420
 16777215
176
     1
 90
        2
176
     1
 90
        2
176
     1
 62
     7
176
     1
 62
   257
176
     1
 90
        1
176
     1
 90
        1
176
     1
 40
179.0
176
     1
 90
        8
176
     1
 62
     7
176
     1
 40
1.0
176
     1
 90
        1
176
     1
 90
        6
176
     1
 90
        2
176
     1
 62
     7
176
     1
 90
        3
176
     1
 90
        0
176
     1
 90
        0
176
     1
290
     0
176
     1
 90
        1
176
     1
 40
0.0
176
     1
 90
        0
176
     1
290
     0
176
     1
290
     1
176
     1
290
     1
176
     1
290
     0
176
     1
290
     0
176
     1
290
     0
176
     1
290
     0
176
     1
290
     0
176
     1
290
     0
176
     1
 90
       50
176
     1
 40
0.0
176
     1
 40
1.0
176
     1
 90
        0
176
     1
 62
    18
420
        0
176
     1
 90
       50
176
     1
 90
        3
176
     1
 62
     5
420
      255
176
     1
290
     0
176
     1
 90
       50
176
     1
 90
       50
176
     1
 90
       50
176
     1
290
     0
176
     1
 90
       50
176
     1
 62
   256
176
     0
 40
1.0
176
     0
 90
        2
176
     1
  1
strokes_ogs.tif
176
     1
290
     0
176
     1
 40
1.0
176
     1
 40
1.0
176
     1
  0
VISUALSTYLE
  5
35
102
{ACAD_REACTORS
330
2A
102
}
330
2A
100
AcDbVisualStyle
  2
Dim
 70
    11
177
     3
291
     1
 70
    58
 90
        2
176
     1
 90
        2
176
     1
 90
        0
176
     1
 90
        0
176
     1
 40
0.6
176
     1
 40
30.0
176
     1
 62
     7
420
 16777215
176
     1
 90
        1
176
     1
 90
        4
176
     1
 62
     7
176
     1
 62
   257
176
     1
 90
        1
176
     1
 90
        1
176
     1
 40
1.0
176
     1
 90
        8
176
     1
 62
     7
176
     1
 40
1.0
176
     1
 90
        1
176
     1
 90
        6
176
     1
 90
        2
176
     1
 62
     7
176
     1
 90
        5
176
     1
 90
        0
176
     1
 90
        0
176
     1
290
     0
176
     1
 90
        1
176
     1
 40
-50.0
176
     1
 90
        0
176
     1
290
     0
176
     1
290
     1
176
     1
290
     1
176
     1
290
     0
176
     1
290
     0
176
     1
290
     0
176
     1
290
     0
176
     1
290
     0
176
     1
290
     0
176
     1
 90
       50
176
     1
 40
0.0
176
     1
 40
1.0
176
     1
 90
        0
176
     1
 62
    18
420
        0
176
     1
 90
       50
176
     1
 90
        3
176
     1
 62
     5
420
      255
176
     1
290
     0
176
     1
 90
       50
176
     1
 90
       50
176
     1
 90
       50
176
     1
290
     0
176
     1
 90
       50
176
     1
 62
   256
176
     0
 40
1.0
176
     0
 90
        2
176
     1
  1
strokes_ogs.tif
176
     1
290
     0
176
     1
 40
1.0
176
     1
 40
1.0
176
     1
  0
VISUALSTYLE
  5
3D
102
{ACAD_REACTORS
330
2A
102
}
330
2A
100
AcDbVisualStyle
  2
EdgeColorOff
 70
    22
177
     3
291
     1
 70
    58
 90
        2
176
     0
 90
        2
176
     0
 90
        0
176
     0
 90
        0
176
     0
 40
0.6
176
     0
 40
30.0
176
     0
 62
     7
420
 16777215
176
     0
 90
        1
176
     0
 90
        4
176
     0
 62
     7
176
     0
 62
   257
176
     0
 90
        1
176
     0
 90
        1
176
     0
 40
1.0
176
     0
 90
        8
176
     2
 62
     7
176
     0
 40
1.0
176
     0
 90
        1
176
     0
 90
        6
176
     0
 90
        2
176
     0
 62
     7
176
     0
 90
        5
176
     0
 90
        0
176
     0
 90
        0
176
     0
290
     0
176
     0
 90
        1
176
     0
 40
0.0
176
     0
 90
        0
176
     0
290
     0
176
     0
290
     1
176
     0
290
     1
176
     0
290
     0
176
     0
290
     0
176
     0
290
     0
176
     0
290
     0
176
     0
290
     0
176
     0
290
     0
176
     0
 90
       50
176
     0
 40
0.0
176
     0
 40
1.0
176
     0
 90
        0
176
     0
 62
    18
420
        0
176
     0
 90
       50
176
     0
 90
        3
176
     0
 62
     5
420
      255
176
     0
290
     0
176
     0
 90
       50
176
     0
 90
       50
176
     0
 90
       50
176
     0
290
     0
176
     0
 90
       50
176
     0
 62
   256
176
     0
 40
1.0
176
     0
 90
        2
176
     0
  1
strokes_ogs.tif
176
     0
290
     0
176
     0
 40
1.0
176
     0
 40
1.0
176
     0
  0
VISUALSTYLE
  5
39
102
{ACAD_REACTORS
330
2A
102
}
330
2A
100
AcDbVisualStyle
  2
Facepattern
 70
    15
177
     3
291
     1
 70
    58
 90
        2
176
     1
 90
        2
176
     1
 90
        0
176
     1
 90
        0
176
     1
 40
0.6
176
     1
 40
30.0
176
     1
 62
     7
420
 16777215
176
     1
 90
        1
176
     1
 90
        4
176
     1
 62
     7
176
     1
 62
   257
176
     1
 90
        1
176
     1
 90
        1
176
     1
 40
1.0
176
     1
 90
        8
176
     1
 62
     7
176
     1
 40
1.0
176
     1
 90
        1
176
     1
 90
        6
176
     1
 90
        2
176
     1
 62
     7
176
     1
 90
        5
176
     1
 90
        0
176
     1
 90
        0
176
     1
290
     0
176
     1
 90
        1
176
     1
 40
0.0
176
     1
 90
        0
176
     1
290
     0
176
     1
290
     1
176
     1
290
     1
176
     1
290
     0
176
     1
290
     0
176
     1
290
     0
176
     1
290
     0
176
     1
290
     0
176
     1
290
     0
176
     1
 90
       50
176
     1
 40
0.0
176
     1
 40
1.0
176
     1
 90
        0
176
     1
 62
    18
420
        0
176
     1
 90
       50
176
     1
 90
        3
176
     1
 62
     5
420
      255
176
     1
290
     0
176
     1
 90
       50
176
     1
 90
       50
176
     1
 90
       50
176
     1
290
     0
176
     1
 90
       50
176
     1
 62
   256
176
     0
 40
1.0
176
     0
 90
        2
176
     1
  1
strokes_ogs.tif
176
     1
290
     0
176
     1
 40
1.0
176
     1
 40
1.0
176
     1
  0
VISUALSTYLE
  5
2B
102
{ACAD_REACTORS
330
2A
102
}
330
2A
100
AcDbVisualStyle
  2
Flat
 70
     0
177
     3
291
     1
 70
    58
 90
        2
176
     1
 90
        1
176
     1
 90
        1
176
     1
 90
        2
176
     1
 40
0.6
176
     1
 40
30.0
176
     1
 62
     7
420
 16777215
176
     1
 90
        0
176
     1
 90
        0
176
     1
 62
     7
176
     1
 62
   257
176
     1
 90
        1
176
     1
 90
        1
176
     1
 40
1.0
176
     1
 90
        8
176
     1
 62
     7
176
     1
 40
1.0
176
     1
 90
        1
176
     1
 90
        6
176
     1
 90
        2
176
     1
 62
     7
176
     1
 90
        5
176
     1
 90
        0
176
     1
 90
        0
176
     1
290
     0
176
     1
 90
       13
176
     1
 40
0.0
176
     1
 90
        0
176
     1
290
     0
176
     1
290
     1
176
     1
290
     1
176
     1
290
     0
176
     1
290
     0
176
     1
290
     0
176
     1
290
     0
176
     1
290
     0
176
     1
290
     0
176
     1
 90
       50
176
     1
 40
0.0
176
     1
 40
1.0
176
     1
 90
        0
176
     1
 62
    18
420
        0
176
     1
 90
       50
176
     1
 90
        3
176
     1
 62
     5
420
      255
176
     1
290
     0
176
     1
 90
       50
176
     1
 90
       50
176
     1
 90
       50
176
     1
290
     0
176
     1
 90
       50
176
     1
 62
   256
176
     0
 40
1.0
176
     0
 90
        2
176
     1
  1
strokes_ogs.tif
176
     1
290
     0
176
     1
 40
1.0
176
     1
 40
1.0
176
     1
  0
VISUALSTYLE
  5
2C
102
{ACAD_REACTORS
330
2A
102
}
330
2A
100
AcDbVisualStyle
  2
FlatWithEdges
 70
     1
177
     3
291
     1
 70
    58
 90
        2
176
     1
 90
        1
176
     1
 90
        1
176
     1
 90
        2
176
     1
 40
0.6
176
     1
 40
30.0
176
     1
 62
     7
420
 16777215
176
     1
 90
        1
176
     1
 90
        0
176
     1
 62
     7
176
     1
 62
   257
176
     1
 90
        1
176
     1
 90
        1
176
     1
 40
1.0
176
     1
 90
        0
176
     1
 62
   257
176
     1
 40
1.0
176
     1
 90
        1
176
     1
 90
        6
176
     1
 90
        2
176
     1
 62
     7
176
     1
 90
        5
176
     1
 90
        0
176
     1
 90
        0
176
     1
290
     0
176
     1
 90
       13
176
     1
 40
0.0
176
     1
 90
        0
176
     1
290
     0
176
     1
290
     1
176
     1
290
     1
176
     1
290
     0
176
     1
290
     0
176
     1
290
     0
176
     1
290
     0
176
     1
290
     0
176
     1
290
     0
176
     1
 90
       50
176
     1
 40
0.0
176
     1
 40
1.0
176
     1
 90
        0
176
     1
 62
    18
420
        0
176
     1
 90
       50
176
     1
 90
        3
176
     1
 62
     5
420
      255
176
     1
290
     0
176
     1
 90
       50
176
     1
 90
       50
176
     1
 90
       50
176
     1
290
     0
176
     1
 90
       50
176
     1
 62
   256
176
     0
 40
1.0
176
     0
 90
        2
176
     1
  1
strokes_ogs.tif
176
     1
290
     0
176
     1
 40
1.0
176
     1
 40
1.0
176
     1
  0
VISUALSTYLE
  5
2D
102
{ACAD_REACTORS
330
2A
102
}
330
2A
100
AcDbVisualStyle
  2
Gouraud
 70
     2
177
     3
291
     1
 70
    58
 90
        2
176
     1
 90
        2
176
     1
 90
        1
176
     1
 90
        2
176
     1
 40
0.6
176
     1
 40
30.0
176
     1
 62
     7
420
 16777215
176
     1
 90
        0
176
     1
 90
        0
176
     1
 62
     7
176
     1
 62
   257
176
     1
 90
        1
176
     1
 90
        1
176
     1
 40
1.0
176
     1
 90
        0
176
     1
 62
     7
176
     1
 40
1.0
176
     1
 90
        1
176
     1
 90
        6
176
     1
 90
        2
176
     1
 62
     7
176
     1
 90
        5
176
     1
 90
        0
176
     1
 90
        0
176
     1
290
     0
176
     1
 90
       13
176
     1
 40
0.0
176
     1
 90
        0
176
     1
290
     0
176
     1
290
     1
176
     1
290
     1
176
     1
290
     0
176
     1
290
     0
176
     1
290
     0
176
     1
290
     0
176
     1
290
     0
176
     1
290
     0
176
     1
 90
       50
176
     1
 40
0.0
176
     1
 40
1.0
176
     1
 90
        0
176
     1
 62
    18
420
        0
176
     1
 90
       50
176
     1
 90
        3
176
     1
 62
     5
420
      255
176
     1
290
     0
176
     1
 90
       50
176
     1
 90
       50
176
     1
 90
       50
176
     1
290
     0
176
     1
 90
       50
176
     1
 62
   256
176
     0
 40
1.0
176
     0
 90
        2
176
     1
  1
strokes_ogs.tif
176
     1
290
     0
176
     1
 40
1.0
176
     1
 40
1.0
176
     1
  0
VISUALSTYLE
  5
2E
102
{ACAD_REACTORS
330
2A
102
}
330
2A
100
AcDbVisualStyle
  2
GouraudWithEdges
 70
     3
177
     3
291
     1
 70
    58
 90
        2
176
     1
 90
        2
176
     1
 90
        1
176
     1
 90
        2
176
     1
 40
0.6
176
     1
 40
30.0
176
     1
 62
     7
420
 16777215
176
     1
 90
        1
176
     1
 90
        0
176
     1
 62
     7
176
     1
 62
   257
176
     1
 90
        1
176
     1
 90
        1
176
     1
 40
1.0
176
     1
 90
        0
176
     1
 62
   257
176
     1
 40
1.0
176
     1
 90
        1
176
     1
 90
        6
176
     1
 90
        2
176
     1
 62
     7
176
     1
 90
        5
176
     1
 90
        0
176
     1
 90
        0
176
     1
290
     0
176
     1
 90
       13
176
     1
 40
0.0
176
     1
 90
        0
176
     1
290
     0
176
     1
290
     1
176
     1
290
     1
176
     1
290
     0
176
     1
290
     0
176
     1
290
     0
176
     1
290
     0
176
     1
290
     0
176
     1
290
     0
176
     1
 90
       50
176
     1
 40
0.0
176
     1
 40
1.0
176
     1
 90
        0
176
     1
 62
    18
420
        0
176
     1
 90
       50
176
     1
 90
        3
176
     1
 62
     5
420
      255
176
     1
290
     0
176
     1
 90
       50
176
     1
 90
       50
176
     1
 90
       50
176
     1
290
     0
176
     1
 90
       50
176
     1
 62
   256
176
     0
 40
1.0
176
     0
 90
        2
176
     1
  1
strokes_ogs.tif
176
     1
290
     0
176
     1
 40
1.0
176
     1
 40
1.0
176
     1
  0
VISUALSTYLE
  5
31
102
{ACAD_REACTORS
330
2A
102
}
330
2A
100
AcDbVisualStyle
  2
Hidden
 70
     6
177
     3
291
     0
 70
    58
 90
        1
176
     1
 90
        2
176
     1
 90
        2
176
     1
 90
        0
176
     1
 40
0.6
176
     1
 40
30.0
176
     1
 62
     7
420
 16777215
176
     1
 90
        2
176
     1
 90
        2
176
     1
 62
     7
176
     1
 62
   257
176
     1
 90
        2
176
     1
 90
        1
176
     1
 40
40.0
176
     1
 90
        0
176
     1
 62
   257
176
     1
 40
1.0
176
     1
 90
        1
176
     1
 90
        6
176
     1
 90
        2
176
     1
 62
     7
176
     1
 90
        3
176
     1
 90
        0
176
     1
 90
        0
176
     1
290
     0
176
     1
 90
        1
176
     1
 40
0.0
176
     1
 90
        0
176
     1
290
     0
176
     1
290
     1
176
     1
290
     1
176
     1
290
     0
176
     1
290
     0
176
     1
290
     0
176
     1
290
     0
176
     1
290
     0
176
     1
290
     0
176
     1
 90
       50
176
     1
 40
0.0
176
     1
 40
1.0
176
     1
 90
        0
176
     1
 62
    18
420
        0
176
     1
 90
       50
176
     1
 90
        3
176
     1
 62
     5
420
      255
176
     1
290
     0
176
     1
 90
       50
176
     1
 90
       50
176
     1
 90
       50
176
     1
290
     0
176
     1
 90
       50
176
     1
 62
   256
176
     0
 40
1.0
176
     0
 90
        2
176
     1
  1
strokes_ogs.tif
176
     1
290
     0
176
     1
 40
1.0
176
     1
 40
1.0
176
     1
  0
VISUALSTYLE
  5
3B
102
{ACAD_REACTORS
330
2A
102
}
330
2A
100
AcDbVisualStyle
  2
JitterOff
 70
    20
177
     3
291
     1
 70
    58
 90
        2
176
     0
 90
        2
176
     0
 90
        0
176
     0
 90
        0
176
     0
 40
0.6
176
     0
 40
30.0
176
     0
 62
     7
420
 16777215
176
     0
 90
        1
176
     0
 90
        4
176
     0
 62
     7
176
     0
 62
   257
176
     0
 90
        1
176
     0
 90
        1
176
     0
 40
1.0
176
     0
 90
       10
176
     2
 62
     7
176
     0
 40
1.0
176
     0
 90
        1
176
     0
 90
        6
176
     0
 90
        2
176
     0
 62
     7
176
     0
 90
        5
176
     0
 90
        0
176
     0
 90
        0
176
     0
290
     0
176
     0
 90
        1
176
     0
 40
0.0
176
     0
 90
        0
176
     0
290
     0
176
     0
290
     1
176
     0
290
     1
176
     0
290
     0
176
     0
290
     0
176
     0
290
     0
176
     0
290
     0
176
     0
290
     0
176
     0
290
     0
176
     0
 90
       50
176
     0
 40
0.0
176
     0
 40
1.0
176
     0
 90
        0
176
     0
 62
    18
420
        0
176
     0
 90
       50
176
     0
 90
        3
176
     0
 62
     5
420
      255
176
     0
290
     0
176
     0
 90
       50
176
     0
 90
       50
176
     0
 90
       50
176
     0
290
     0
176
     0
 90
       50
176
     0
 62
   256
176
     0
 40
1.0
176
     0
 90
        2
176
     0
  1
strokes_ogs.tif
176
     0
290
     0
176
     0
 40
1.0
176
     0
 40
1.0
176
     0
  0
VISUALSTYLE
  5
38
102
{ACAD_REACTORS
330
2A
102
}
330
2A
100
AcDbVisualStyle
  2
Linepattern
 70
    14
177
     3
291
     1
 70
    58
 90
        2
176
     1
 90
        2
176
     1
 90
        0
176
     1
 90
        0
176
     1
 40
0.6
176
     1
 40
30.0
176
     1
 62
     7
420
 16777215
176
     1
 90
        1
176
     1
 90
        4
176
     1
 62
     7
176
     1
 62
   257
176
     1
 90
        7
176
     1
 90
        7
176
     1
 40
1.0
176
     1
 90
        8
176
     1
 62
     7
176
     1
 40
1.0
176
     1
 90
        1
176
     1
 90
        6
176
     1
 90
        2
176
     1
 62
     7
176
     1
 90
        5
176
     1
 90
        0
176
     1
 90
        0
176
     1
290
     0
176
     1
 90
        1
176
     1
 40
0.0
176
     1
 90
        0
176
     1
290
     0
176
     1
290
     1
176
     1
290
     1
176
     1
290
     0
176
     1
290
     0
176
     1
290
     0
176
     1
290
     0
176
     1
290
     0
176
     1
290
     0
176
     1
 90
       50
176
     1
 40
0.0
176
     1
 40
1.0
176
     1
 90
        0
176
     1
 62
    18
420
        0
176
     1
 90
       50
176
     1
 90
        3
176
     1
 62
     5
420
      255
176
     1
290
     0
176
     1
 90
       50
176
     1
 90
       50
176
     1
 90
       50
176
     1
290
     0
176
     1
 90
       50
176
     1
 62
   256
176
     0
 40
1.0
176
     0
 90
        2
176
     1
  1
strokes_ogs.tif
176
     1
290
     0
176
     1
 40
1.0
176
     1
 40
1.0
176
     1
  0
VISUALSTYLE
  5
3C
102
{ACAD_REACTORS
330
2A
102
}
330
2A
100
AcDbVisualStyle
  2
OverhangOff
 70
    21
177
     3
291
     1
 70
    58
 90
        2
176
     0
 90
        2
176
     0
 90
        0
176
     0
 90
        0
176
     0
 40
0.6
176
     0
 40
30.0
176
     0
 62
     7
420
 16777215
176
     0
 90
        1
176
     0
 90
        4
176
     0
 62
     7
176
     0
 62
   257
176
     0
 90
        1
176
     0
 90
        1
176
     0
 40
1.0
176
     0
 90
        9
176
     2
 62
     7
176
     0
 40
1.0
176
     0
 90
        1
176
     0
 90
        6
176
     0
 90
        2
176
     0
 62
     7
176
     0
 90
        5
176
     0
 90
        0
176
     0
 90
        0
176
     0
290
     0
176
     0
 90
        1
176
     0
 40
0.0
176
     0
 90
        0
176
     0
290
     0
176
     0
290
     1
176
     0
290
     1
176
     0
290
     0
176
     0
290
     0
176
     0
290
     0
176
     0
290
     0
176
     0
290
     0
176
     0
290
     0
176
     0
 90
       50
176
     0
 40
0.0
176
     0
 40
1.0
176
     0
 90
        0
176
     0
 62
    18
420
        0
176
     0
 90
       50
176
     0
 90
        3
176
     0
 62
     5
420
      255
176
     0
290
     0
176
     0
 90
       50
176
     0
 90
       50
176
     0
 90
       50
176
     0
290
     0
176
     0
 90
       50
176
     0
 62
   256
176
     0
 40
1.0
176
     0
 90
        2
176
     0
  1
strokes_ogs.tif
176
     0
290
     0
176
     0
 40
1.0
176
     0
 40
1.0
176
     0
  0
VISUALSTYLE
  5
33
102
{ACAD_REACTORS
330
2A
102
}
330
2A
100
AcDbVisualStyle
  2
Realistic
 70
     8
177
     3
291
     0
 70
    58
 90
        2
176
     1
 90
        3
176
     1
 90
        0
176
     1
 90
        2
176
     1
 40
0.6
176
     1
 40
30.0
176
     1
 62
     7
420
 16777215
176
     1
 90
        0
176
     1
 90
        0
176
     1
 62
     7
176
     1
 62
   257
176
     1
 90
        1
176
     1
 90
        1
176
     1
 40
1.0
176
     1
 90
        8
176
     1
 62
   257
176
     1
 40
1.0
176
     1
 90
        1
176
     1
 90
        6
176
     1
 90
        2
176
     1
 62
     7
176
     1
 90
        3
176
     1
 90
        0
176
     1
 90
        0
176
     1
290
     0
176
     1
 90
       13
176
     1
 40
0.0
176
     1
 90
        0
176
     1
290
     0
176
     1
290
     1
176
     1
290
     1
176
     1
290
     0
176
     1
290
     0
176
     1
290
     0
176
     1
290
     0
176
     1
290
     0
176
     1
290
     0
176
     1
 90
       50
176
     1
 40
0.0
176
     1
 40
1.0
176
     1
 90
        0
176
     1
 62
    18
420
        0
176
     1
 90
       50
176
     1
 90
        3
176
     1
 62
     5
420
      255
176
     1
290
     0
176
     1
 90
       50
176
     1
 90
       50
176
     1
 90
       50
176
     1
290
     0
176
     1
 90
       50
176
     1
 62
   256
176
     0
 40
1.0
176
     0
 90
        2
176
     1
  1
strokes_ogs.tif
176
     1
290
     0
176
     1
 40
1.0
176
     1
 40
1.0
176
     1
  0
VISUALSTYLE
  5
42
102
{ACAD_REACTORS
330
2A
102
}
330
2A
100
AcDbVisualStyle
  2
Shaded
 70
    27
177
     3
291
     0
 70
    58
 90
        2
176
     1
 90
        2
176
     1
 90
        1
176
     1
 90
        2
176
     1
 40
0.6
176
     1
 40
30.0
176
     1
 62
     7
420
 16777215
176
     1
 90
        0
176
     1
 90
        4
176
     1
 62
     7
176
     1
 62
   257
176
     1
 90
        1
176
     1
 90
        1
176
     1
 40
1.0
176
     1
 90
        8
176
     1
 62
   257
176
     1
 40
1.0
176
     1
 90
        1
176
     1
 90
        6
176
     1
 90
        2
176
     1
 62
     8
420
  7895160
176
     1
 90
        3
176
     1
 90
        0
176
     1
 90
        0
176
     1
290
     0
176
     1
 90
        5
176
     1
 40
0.0
176
     1
 90
        0
176
     1
290
     0
176
     1
290
     1
176
     1
290
     1
176
     1
290
     0
176
     1
290
     0
176
     1
290
     0
176
     1
290
     0
176
     1
290
     0
176
     1
290
     0
176
     1
 90
       50
176
     1
 40
0.0
176
     1
 40
1.0
176
     1
 90
        0
176
     1
 62
    18
420
        0
176
     1
 90
       50
176
     1
 90
        3
176
     1
 62
     5
420
      255
176
     1
290
     0
176
     1
 90
       50
176
     1
 90
       50
176
     1
 90
       50
176
     1
290
     0
176
     1
 90
       50
176
     1
 62
   256
176
     0
 40
1.0
176
     0
 90
        2
176
     1
  1
strokes_ogs.tif
176
     1
290
     0
176
     1
 40
1.0
176
     1
 40
1.0
176
     1
  0
VISUALSTYLE
  5
41
102
{ACAD_REACTORS
330
2A
102
}
330
2A
100
AcDbVisualStyle
  2
Shaded with edges
 70
    26
177
     3
291
     0
 70
    58
 90
        2
176
     1
 90
        2
176
     1
 90
        1
176
     1
 90
        2
176
     1
 40
0.6
176
     1
 40
30.0
176
     1
 62
     7
420
 16777215
176
     1
 90
        1
176
     1
 90
       10
176
     1
 62
     7
176
     1
 62
   257
176
     1
 90
        2
176
     1
 90
        1
176
     1
 40
1.0
176
     1
 90
        8
176
     1
 62
   257
176
     1
 40
1.0
176
     1
 90
        1
176
     1
 90
        6
176
     1
 90
        2
176
     1
 62
     7
176
     1
 90
        3
176
     1
 90
        0
176
     1
 90
        0
176
     1
290
     0
176
     1
 90
        5
176
     1
 40
0.0
176
     1
 90
        0
176
     1
290
     0
176
     1
290
     1
176
     1
290
     1
176
     1
290
     0
176
     1
290
     0
176
     1
290
     0
176
     1
290
     0
176
     1
290
     0
176
     1
290
     0
176
     1
 90
       50
176
     1
 40
0.0
176
     1
 40
1.0
176
     1
 90
        0
176
     1
 62
    18
420
        0
176
     1
 90
       50
176
     1
 90
        3
176
     1
 62
     5
420
      255
176
     1
290
     0
176
     1
 90
       50
176
     1
 90
       50
176
     1
 90
       50
176
     1
290
     0
176
     1
 90
       50
176
     1
 62
   256
176
     0
 40
1.0
176
     0
 90
        2
176
     1
  1
strokes_ogs.tif
176
     1
290
     0
176
     1
 40
1.0
176
     1
 40
1.0
176
     1
  0
VISUALSTYLE
  5
3E
102
{ACAD_REACTORS
330
2A
102
}
330
2A
100
AcDbVisualStyle
  2
Shades of Gray
 70
    23
177
     3
291
     0
 70
    58
 90
        2
176
     1
 90
        2
176
     1
 90
        3
176
     1
 90
        0
176
     1
 40
0.6
176
     1
 40
30.0
176
     1
 62
     7
420
 16777215
176
     1
 90
        2
176
     1
 90
        2
176
     1
 62
     7
176
     1
 62
     7
176
     1
 90
        1
176
     1
 90
        1
176
     1
 40
40.0
176
     1
 90
        8
176
     1
 62
     7
176
     1
 40
1.0
176
     1
 90
        1
176
     1
 90
        6
176
     1
 90
        2
176
     1
 62
     7
176
     1
 90
        3
176
     1
 90
        0
176
     1
 90
        0
176
     1
290
     0
176
     1
 90
        1
176
     1
 40
0.0
176
     1
 90
        0
176
     1
290
     0
176
     1
290
     1
176
     1
290
     1
176
     1
290
     0
176
     1
290
     0
176
     1
290
     0
176
     1
290
     0
176
     1
290
     0
176
     1
290
     0
176
     1
 90
       50
176
     1
 40
0.0
176
     1
 40
1.0
176
     1
 90
        0
176
     1
 62
    18
420
        0
176
     1
 90
       50
176
     1
 90
        3
176
     1
 62
     5
420
      255
176
     1
290
     0
176
     1
 90
       50
176
     1
 90
       50
176
     1
 90
       50
176
     1
290
     0
176
     1
 90
       50
176
     1
 62
   256
176
     0
 40
1.0
176
     0
 90
        2
176
     1
  1
strokes_ogs.tif
176
     1
290
     0
176
     1
 40
1.0
176
     1
 40
1.0
176
     1
  0
VISUALSTYLE
  5
3F
102
{ACAD_REACTORS
330
2A
102
}
330
2A
100
AcDbVisualStyle
  2
Sketchy
 70
    24
177
     3
291
     0
 70
    58
 90
        1
176
     1
 90
        2
176
     1
 90
        2
176
     1
 90
        0
176
     1
 40
0.6
176
     1
 40
30.0
176
     1
 62
     7
420
 16777215
176
     1
 90
        2
176
     1
 90
        2
176
     1
 62
     7
176
     1
 62
     7
176
     1
 90
        1
176
     1
 90
        1
176
     1
 40
40.0
176
     1
 90
       11
176
     1
 62
     7
176
     1
 40
1.0
176
     1
 90
        1
176
     1
 90
        6
176
     1
 90
        2
176
     1
 62
     7
176
     1
 90
        6
176
     1
 90
        0
176
     1
 90
        0
176
     1
290
     0
176
     1
 90
        1
176
     1
 40
0.0
176
     1
 90
        0
176
     1
290
     0
176
     1
290
     1
176
     1
290
     1
176
     1
290
     0
176
     1
290
     0
176
     1
290
     0
176
     1
290
     0
176
     1
290
     0
176
     1
290
     0
176
     1
 90
       50
176
     1
 40
0.0
176
     1
 40
1.0
176
     1
 90
        0
176
     1
 62
    18
420
        0
176
     1
 90
       50
176
     1
 90
        3
176
     1
 62
     5
420
      255
176
     1
290
     0
176
     1
 90
       50
176
     1
 90
       50
176
     1
 90
       50
176
     1
290
     0
176
     1
 90
       50
176
     1
 62
   256
176
     0
 40
1.0
176
     0
 90
        2
176
     1
  1
strokes_ogs.tif
176
     1
290
     0
176
     1
 40
1.0
176
     1
 40
1.0
176
     1
  0
VISUALSTYLE
  5
37
102
{ACAD_REACTORS
330
2A
102
}
330
2A
100
AcDbVisualStyle
  2
Thicken
 70
    13
177
     3
291
     1
 70
    58
 90
        2
176
     1
 90
        2
176
     1
 90
        0
176
     1
 90
        0
176
     1
 40
0.6
176
     1
 40
30.0
176
     1
 62
     7
420
 16777215
176
     1
 90
        1
176
     1
 90
        4
176
     1
 62
     7
176
     1
 62
   257
176
     1
 90
        1
176
     1
 90
        1
176
     1
 40
1.0
176
     1
 90
       12
176
     1
 62
     7
176
     1
 40
1.0
176
     1
 90
        1
176
     1
 90
        6
176
     1
 90
        2
176
     1
 62
     7
176
     1
 90
        5
176
     1
 90
        0
176
     1
 90
        0
176
     1
290
     0
176
     1
 90
        1
176
     1
 40
0.0
176
     1
 90
        0
176
     1
290
     0
176
     1
290
     1
176
     1
290
     1
176
     1
290
     0
176
     1
290
     0
176
     1
290
     0
176
     1
290
     0
176
     1
290
     0
176
     1
290
     0
176
     1
 90
       50
176
     1
 40
0.0
176
     1
 40
1.0
176
     1
 90
        0
176
     1
 62
    18
420
        0
176
     1
 90
       50
176
     1
 90
        3
176
     1
 62
     5
420
      255
176
     1
290
     0
176
     1
 90
       50
176
     1
 90
       50
176
     1
 90
       50
176
     1
290
     0
176
     1
 90
       50
176
     1
 62
   256
176
     0
 40
1.0
176
     0
 90
        2
176
     1
  1
strokes_ogs.tif
176
     1
290
     0
176
     1
 40
1.0
176
     1
 40
1.0
176
     1
  0
VISUALSTYLE
  5
30
102
{ACAD_REACTORS
330
2A
102
}
330
2A
100
AcDbVisualStyle
  2
Wireframe
 70
     5
177
     3
291
     0
 70
    58
 90
        0
176
     1
 90
        2
176
     1
 90
        0
176
     1
 90
        0
176
     1
 40
0.6
176
     1
 40
30.0
176
     1
 62
     7
420
 16777215
176
     1
 90
        1
176
     1
 90
        4
176
     1
 62
     7
176
     1
 62
   257
176
     1
 90
        1
176
     1
 90
        1
176
     1
 40
1.0
176
     1
 90
        0
176
     1
 62
   257
176
     1
 40
1.0
176
     1
 90
        1
176
     1
 90
        6
176
     1
 90
        2
176
     1
 62
     7
176
     1
 90
        3
176
     1
 90
        0
176
     1
 90
        0
176
     1
290
     0
176
     1
 90
        1
176
     1
 40
0.0
176
     1
 90
        0
176
     1
290
     0
176
     1
290
     1
176
     1
290
     1
176
     1
290
     0
176
     1
290
     0
176
     1
290
     0
176
     1
290
     0
176
     1
290
     0
176
     1
290
     0
176
     1
 90
       50
176
     1
 40
0.0
176
     1
 40
1.0
176
     1
 90
        0
176
     1
 62
    18
420
        0
176
     1
 90
       50
176
     1
 90
        3
176
     1
 62
     5
420
      255
176
     1
290
     0
176
     1
 90
       50
176
     1
 90
       50
176
     1
 90
       50
176
     1
290
     0
176
     1
 90
       50
176
     1
 62
   256
176
     0
 40
1.0
176
     0
 90
        2
176
     1
  1
strokes_ogs.tif
176
     1
290
     0
176
     1
 40
1.0
176
     1
 40
1.0
176
     1
  0
VISUALSTYLE
  5
40
102
{ACAD_REACTORS
330
2A
102
}
330
2A
100
AcDbVisualStyle
  2
X-Ray
 70
    25
177
     3
291
     0
 70
    58
 90
        2
176
     1
 90
        2
176
     1
 90
        1
176
     1
 90
        1
176
     1
 40
0.5
176
     1
 40
30.0
176
     1
 62
     7
420
 16777215
176
     1
 90
        1
176
     1
 90
        0
176
     1
 62
     7
176
     1
 62
   257
176
     1
 90
        1
176
     1
 90
        1
176
     1
 40
1.0
176
     1
 90
        8
176
     1
 62
     7
176
     1
 40
1.0
176
     1
 90
        1
176
     1
 90
        6
176
     1
 90
        2
176
     1
 62
     7
176
     1
 90
        3
176
     1
 90
        0
176
     1
 90
        0
176
     1
290
     0
176
     1
 90
       13
176
     1
 40
0.0
176
     1
 90
        0
176
     1
290
     0
176
     1
290
     1
176
     1
290
     1
176
     1
290
     0
176
     1
290
     0
176
     1
290
     0
176
     1
290
     0
176
     1
290
     0
176
     1
290
     0
176
     1
 90
       50
176
     1
 40
0.0
176
     1
 40
1.0
176
     1
 90
        0
176
     1
 62
    18
420
        0
176
     1
 90
       50
176
     1
 90
        3
176
     1
 62
     5
420
      255
176
     1
290
     0
176
     1
 90
       50
176
     1
 90
       50
176
     1
 90
       50
176
     1
290
     0
176
     1
 90
       50
176
     1
 62
   256
176
     0
 40
1.0
176
     0
 90
        2
176
     1
  1
strokes_ogs.tif
176
     1
290
     0
176
     1
 40
1.0
176
     1
 40
1.0
176
     1
  0
DICTIONARYVAR
  5
191
102
{ACAD_REACTORS
330
190
102
}
330
190
100
DictionaryVariables
280
     0
  1
1:1
  0
DICTIONARYVAR
  5
196
102
{ACAD_REACTORS
330
190
102
}
330
190
100
DictionaryVariables
280
     0
  1
Standard
  0
DICTIONARYVAR
  5
195
102
{ACAD_REACTORS
330
190
102
}
330
190
100
DictionaryVariables
280
     0
  1
Standard
  0
DICTIONARY
  5
192
330
6A
100
AcDbDictionary
280
     1
281
     1
  3
ACAD_ROUNDTRIP_2008_TABLESTYLE_CELLSTYLEMAP
360
193
  0
CELLSTYLEMAP
  5
193
102
{ACAD_REACTORS
330
192
102
}
330
192
100
AcDbCellStyleMap
 90
        3
300
CELLSTYLE
  1
TABLEFORMAT_BEGIN
 90
        5
170
     1
 91
        0
 92
    32768
 62
   257
 93
        1
300
CONTENTFORMAT
  1
CONTENTFORMAT_BEGIN
 90
        0
 91
        0
 92
        4
 93
        0
300

 40
0.0
140
1.0
 94
        5
 62
     0
340
11
144
0.25
309
CONTENTFORMAT_END
171
     1
301
MARGIN
  1
CELLMARGIN_BEGIN
 40
0.06
 40
0.06
 40
0.06
 40
0.06
 40
0.06
 40
0.06
309
CELLMARGIN_END
 94
        6
 95
        1
302
GRIDFORMAT
  1
GRIDFORMAT_BEGIN
 90
        0
 91
        1
 62
     0
 92
       -2
340
14
 93
        0
 40
0.045
309
GRIDFORMAT_END
 95
        2
302
GRIDFORMAT
  1
GRIDFORMAT_BEGIN
 90
        0
 91
        1
 62
     0
 92
       -2
340
14
 93
        0
 40
0.045
309
GRIDFORMAT_END
 95
        4
302
GRIDFORMAT
  1
GRIDFORMAT_BEGIN
 90
        0
 91
        1
 62
     0
 92
       -2
340
14
 93
        0
 40
0.045
309
GRIDFORMAT_END
 95
        8
302
GRIDFORMAT
  1
GRIDFORMAT_BEGIN
 90
        0
 91
        1
 62
     0
 92
       -2
340
14
 93
        0
 40
0.045
309
GRIDFORMAT_END
 95
       16
302
GRIDFORMAT
  1
GRIDFORMAT_BEGIN
 90
        0
 91
        1
 62
     0
 92
       -2
340
14
 93
        0
 40
0.045
309
GRIDFORMAT_END
 95
       32
302
GRIDFORMAT
  1
GRIDFORMAT_BEGIN
 90
        0
 91
        1
 62
     0
 92
       -2
340
14
 93
        0
 40
0.045
309
GRIDFORMAT_END
309
TABLEFORMAT_END
  1
CELLSTYLE_BEGIN
 90
        1
 91
        1
300
_TITLE
309
CELLSTYLE_END
300
CELLSTYLE
  1
TABLEFORMAT_BEGIN
 90
        5
170
     1
 91
        0
 92
        0
 62
   257
 93
        1
300
CONTENTFORMAT
  1
CONTENTFORMAT_BEGIN
 90
        0
 91
        0
 92
        4
 93
        0
300

 40
0.0
140
1.0
 94
        5
 62
     0
340
11
144
0.18
309
CONTENTFORMAT_END
171
     1
301
MARGIN
  1
CELLMARGIN_BEGIN
 40
0.06
 40
0.06
 40
0.06
 40
0.06
 40
0.06
 40
0.06
309
CELLMARGIN_END
 94
        6
 95
        1
302
GRIDFORMAT
  1
GRIDFORMAT_BEGIN
 90
        0
 91
        1
 62
     0
 92
       -2
340
14
 93
        0
 40
0.045
309
GRIDFORMAT_END
 95
        2
302
GRIDFORMAT
  1
GRIDFORMAT_BEGIN
 90
        0
 91
        1
 62
     0
 92
       -2
340
14
 93
        0
 40
0.045
309
GRIDFORMAT_END
 95
        4
302
GRIDFORMAT
  1
GRIDFORMAT_BEGIN
 90
        0
 91
        1
 62
     0
 92
       -2
340
14
 93
        0
 40
0.045
309
GRIDFORMAT_END
 95
        8
302
GRIDFORMAT
  1
GRIDFORMAT_BEGIN
 90
        0
 91
        1
 62
     0
 92
       -2
340
14
 93
        0
 40
0.045
309
GRIDFORMAT_END
 95
       16
302
GRIDFORMAT
  1
GRIDFORMAT_BEGIN
 90
        0
 91
        1
 62
     0
 92
       -2
340
14
 93
        0
 40
0.045
309
GRIDFORMAT_END
 95
       32
302
GRIDFORMAT
  1
GRIDFORMAT_BEGIN
 90
        0
 91
        1
 62
     0
 92
       -2
340
14
 93
        0
 40
0.045
309
GRIDFORMAT_END
309
TABLEFORMAT_END
  1
CELLSTYLE_BEGIN
 90
        2
 91
        1
300
_HEADER
309
CELLSTYLE_END
300
CELLSTYLE
  1
TABLEFORMAT_BEGIN
 90
        5
170
     1
 91
        0
 92
        0
 62
   257
 93
        1
300
CONTENTFORMAT
  1
CONTENTFORMAT_BEGIN
 90
        0
 91
        0
 92
        4
 93
        0
300

 40
0.0
140
1.0
 94
        2
 62
     0
340
11
144
0.18
309
CONTENTFORMAT_END
171
     1
301
MARGIN
  1
CELLMARGIN_BEGIN
 40
0.06
 40
0.06
 40
0.06
 40
0.06
 40
0.06
 40
0.06
309
CELLMARGIN_END
 94
        6
 95
        1
302
GRIDFORMAT
  1
GRIDFORMAT_BEGIN
 90
        0
 91
        1
 62
     0
 92
       -2
340
14
 93
        0
 40
0.045
309
GRIDFORMAT_END
 95
        2
302
GRIDFORMAT
  1
GRIDFORMAT_BEGIN
 90
        0
 91
        1
 62
     0
 92
       -2
340
14
 93
        0
 40
0.045
309
GRIDFORMAT_END
 95
        4
302
GRIDFORMAT
  1
GRIDFORMAT_BEGIN
 90
        0
 91
        1
 62
     0
 92
       -2
340
14
 93
        0
 40
0.045
309
GRIDFORMAT_END
 95
        8
302
GRIDFORMAT
  1
GRIDFORMAT_BEGIN
 90
        0
 91
        1
 62
     0
 92
       -2
340
14
 93
        0
 40
0.045
309
GRIDFORMAT_END
 95
       16
302
GRIDFORMAT
  1
GRIDFORMAT_BEGIN
 90
        0
 91
        1
 62
     0
 92
       -2
340
14
 93
        0
 40
0.045
309
GRIDFORMAT_END
 95
       32
302
GRIDFORMAT
  1
GRIDFORMAT_BEGIN
 90
        0
 91
        1
 62
     0
 92
       -2
340
14
 93
        0
 40
0.045
309
GRIDFORMAT_END
309
TABLEFORMAT_END
  1
CELLSTYLE_BEGIN
 90
        3
 91
        2
300
_DATA
309
CELLSTYLE_END
  0
ENDSEC
  0
EOF