0
SECTION
  2
HEADER
  9
$ACADVER
  1
AC1027
  9
$ACADMAINTVER
 70
     8
  9
$DWGCODEPAGE
  3
ANSI_1252
  9
$REQUIREDVERSIONS
160
                 0
  9
$COMMENTS
  1
File was created by Cadenas
  9
$CUSTOMPROPERTYTAG
  1
NN
  9
$CUSTOMPROPERTY
  1
Eccentric Collar Wide Slot Take Up Metric Bore
  9
$CUSTOMPROPERTYTAG
  1
NT
  9
$CUSTOMPROPERTY
  1
SXR Normal Duty Wide Slot Take-Up Bearings
  9
$CUSTOMPROPERTYTAG
  1
NB
  9
$CUSTOMPROPERTY
  1
130851
  9
$CUSTOMPROPERTYTAG
  1
NBSYN
  9
$CUSTOMPROPERTY
  1
$PN.
  9
$CUSTOMPROPERTYTAG
  1
LINA
  9
$CUSTOMPROPERTY
  1
130851
  9
$CUSTOMPROPERTYTAG
  1
SERIES
  9
$CUSTOMPROPERTY
  1
210
  9
$CUSTOMPROPERTYTAG
  1
SS
  9
$CUSTOMPROPERTY
  1
50
  9
$CUSTOMPROPERTYTAG
  1
PN
  9
$CUSTOMPROPERTY
  1
130851
  9
$CUSTOMPROPERTYTAG
  1
DESCRIPTION
  9
$CUSTOMPROPERTY
  1
WSTU-SXR-50M
  9
$CUSTOMPROPERTYTAG
  1
W
  9
$CUSTOMPROPERTY
  1
3.1
  9
$CUSTOMPROPERTYTAG
  1
FS
  9
$CUSTOMPROPERTY
  1
WS400
  9
$CUSTOMPROPERTYTAG
  1
A
  9
$CUSTOMPROPERTY
  1
57.2
  9
$CUSTOMPROPERTYTAG
  1
B
  9
$CUSTOMPROPERTY
  1
147.8
  9
$CUSTOMPROPERTYTAG
  1
C
  9
$CUSTOMPROPERTY
  1
17.48
  9
$CUSTOMPROPERTYTAG
  1
D
  9
$CUSTOMPROPERTY
  1
85.9
  9
$CUSTOMPROPERTYTAG
  1
E
  9
$CUSTOMPROPERTY
  1
90.4
  9
$CUSTOMPROPERTYTAG
  1
F
  9
$CUSTOMPROPERTY
  1
25.4
  9
$CUSTOMPROPERTYTAG
  1
G
  9
$CUSTOMPROPERTY
  1
16.0
  9
$CUSTOMPROPERTYTAG
  1
H
  9
$CUSTOMPROPERTY
  1
19.1
  9
$CUSTOMPROPERTYTAG
  1
J
  9
$CUSTOMPROPERTY
  1
82.6
  9
$CUSTOMPROPERTYTAG
  1
K
  9
$CUSTOMPROPERTY
  1
49.3
  9
$CUSTOMPROPERTYTAG
  1
L
  9
$CUSTOMPROPERTY
  1
69.9
  9
$CUSTOMPROPERTYTAG
  1
M
  9
$CUSTOMPROPERTY
  1
101.22/101.98
  9
$CUSTOMPROPERTYTAG
  1
N
  9
$CUSTOMPROPERTY
  1
120.7
  9
$CUSTOMPROPERTYTAG
  1
R
  9
$CUSTOMPROPERTY
  1
19.1
  9
$CUSTOMPROPERTYTAG
  1
S
  9
$CUSTOMPROPERTY
  1
38.1
  9
$CUSTOMPROPERTYTAG
  1
T
  9
$CUSTOMPROPERTY
  1
49.3
  9
$CUSTOMPROPERTYTAG
  1
COMPANY
  9
$CUSTOMPROPERTY
  1
baldor
  9
$INSBASE
 10
0.0
 20
0.0
 30
0.0
  9
$EXTMIN
 10
1.000000000000000E+20
 20
1.000000000000000E+20
 30
1.000000000000000E+20
  9
$EXTMAX
 10
-1.000000000000000E+20
 20
-1.000000000000000E+20
 30
-1.000000000000000E+20
  9
$LIMMIN
 10
0.0
 20
0.0
  9
$LIMMAX
 10
420.0
 20
297.0
  9
$ORTHOMODE
 70
     0
  9
$REGENMODE
 70
     1
  9
$FILLMODE
 70
     1
  9
$QTEXTMODE
 70
     0
  9
$MIRRTEXT
 70
     1
  9
$LTSCALE
 40
1.0
  9
$ATTMODE
 70
     1
  9
$TEXTSIZE
 40
2.5
  9
$TRACEWID
 40
1.0
  9
$TEXTSTYLE
  7
Standard
  9
$CLAYER
  8
0
  9
$CELTYPE
  6
ByLayer
  9
$CECOLOR
 62
   256
  9
$CELTSCALE
 40
1.0
  9
$DISPSILH
 70
     0
  9
$DIMSCALE
 40
1.0
  9
$DIMASZ
 40
2.5
  9
$DIMEXO
 40
0.625
  9
$DIMDLI
 40
3.75
  9
$DIMRND
 40
0.0
  9
$DIMDLE
 40
0.0
  9
$DIMEXE
 40
1.25
  9
$DIMTP
 40
0.0
  9
$DIMTM
 40
0.0
  9
$DIMTXT
 40
2.5
  9
$DIMCEN
 40
2.5
  9
$DIMTSZ
 40
0.0
  9
$DIMTOL
 70
     0
  9
$DIMLIM
 70
     0
  9
$DIMTIH
 70
     0
  9
$DIMTOH
 70
     0
  9
$DIMSE1
 70
     0
  9
$DIMSE2
 70
     0
  9
$DIMTAD
 70
     1
  9
$DIMZIN
 70
     8
  9
$DIMBLK
  1

  9
$DIMASO
 70
     1
  9
$DIMSHO
 70
     1
  9
$DIMPOST
  1

  9
$DIMAPOST
  1

  9
$DIMALT
 70
     0
  9
$DIMALTD
 70
     3
  9
$DIMALTF
 40
0.03937007874016
  9
$DIMLFAC
 40
1.0
  9
$DIMTOFL
 70
     1
  9
$DIMTVP
 40
0.0
  9
$DIMTIX
 70
     0
  9
$DIMSOXD
 70
     0
  9
$DIMSAH
 70
     0
  9
$DIMBLK1
  1

  9
$DIMBLK2
  1

  9
$DIMSTYLE
  2
ISO-25
  9
$DIMCLRD
 70
     0
  9
$DIMCLRE
 70
     0
  9
$DIMCLRT
 70
     0
  9
$DIMTFAC
 40
1.0
  9
$DIMGAP
 40
0.625
  9
$DIMJUST
 70
     0
  9
$DIMSD1
 70
     0
  9
$DIMSD2
 70
     0
  9
$DIMTOLJ
 70
     0
  9
$DIMTZIN
 70
     8
  9
$DIMALTZ
 70
     0
  9
$DIMALTTZ
 70
     0
  9
$DIMUPT
 70
     0
  9
$DIMDEC
 70
     2
  9
$DIMTDEC
 70
     2
  9
$DIMALTU
 70
     2
  9
$DIMALTTD
 70
     3
  9
$DIMTXSTY
  7
Standard
  9
$DIMAUNIT
 70
     0
  9
$DIMADEC
 70
     0
  9
$DIMALTRND
 40
0.0
  9
$DIMAZIN
 70
     0
  9
$DIMDSEP
 70
    44
  9
$DIMATFIT
 70
     3
  9
$DIMFRAC
 70
     0
  9
$DIMLDRBLK
  1

  9
$DIMLUNIT
 70
     2
  9
$DIMLWD
 70
    -2
  9
$DIMLWE
 70
    -2
  9
$DIMTMOVE
 70
     0
  9
$DIMFXL
 40
1.0
  9
$DIMFXLON
 70
     0
  9
$DIMJOGANG
 40
0.7853981633974483
  9
$DIMTFILL
 70
     0
  9
$DIMTFILLCLR
 70
     0
  9
$DIMARCSYM
 70
     0
  9
$DIMLTYPE
  6

  9
$DIMLTEX1
  6

  9
$DIMLTEX2
  6

  9
$DIMTXTDIRECTION
 70
     0
  9
$LUNITS
 70
     2
  9
$LUPREC
 70
     4
  9
$SKETCHINC
 40
1.0
  9
$FILLETRAD
 40
10.0
  9
$AUNITS
 70
     0
  9
$AUPREC
 70
     0
  9
$MENU
  1
.
  9
$ELEVATION
 40
0.0
  9
$PELEVATION
 40
0.0
  9
$THICKNESS
 40
0.0
  9
$LIMCHECK
 70
     0
  9
$CHAMFERA
 40
0.0
  9
$CHAMFERB
 40
0.0
  9
$CHAMFERC
 40
0.0
  9
$CHAMFERD
 40
0.0
  9
$SKPOLY
 70
     0
  9
$TDCREATE
 40
2458168.976454352
  9
$TDUCREATE
 40
2458168.934787685
  9
$TDUPDATE
 40
2458168.976454537
  9
$TDUUPDATE
 40
2458168.93478787
  9
$TDINDWG
 40
0.0000000116
  9
$TDUSRTIMER
 40
0.0000000116
  9
$USRTIMER
 70
     1
  9
$ANGBASE
 50
0.0
  9
$ANGDIR
 70
     0
  9
$PDMODE
 70
     0
  9
$PDSIZE
 40
0.0
  9
$PLINEWID
 40
0.0
  9
$SPLFRAME
 70
     0
  9
$SPLINETYPE
 70
     6
  9
$SPLINESEGS
 70
     8
  9
$HANDSEED
  5
1B3
  9
$SURFTAB1
 70
     6
  9
$SURFTAB2
 70
     6
  9
$SURFTYPE
 70
     6
  9
$SURFU
 70
     6
  9
$SURFV
 70
     6
  9
$UCSBASE
  2

  9
$UCSNAME
  2

  9
$UCSORG
 10
0.0
 20
0.0
 30
0.0
  9
$UCSXDIR
 10
1.0
 20
0.0
 30
0.0
  9
$UCSYDIR
 10
0.0
 20
1.0
 30
0.0
  9
$UCSORTHOREF
  2

  9
$UCSORTHOVIEW
 70
     0
  9
$UCSORGTOP
 10
0.0
 20
0.0
 30
0.0
  9
$UCSORGBOTTOM
 10
0.0
 20
0.0
 30
0.0
  9
$UCSORGLEFT
 10
0.0
 20
0.0
 30
0.0
  9
$UCSORGRIGHT
 10
0.0
 20
0.0
 30
0.0
  9
$UCSORGFRONT
 10
0.0
 20
0.0
 30
0.0
  9
$UCSORGBACK
 10
0.0
 20
0.0
 30
0.0
  9
$PUCSBASE
  2

  9
$PUCSNAME
  2

  9
$PUCSORG
 10
0.0
 20
0.0
 30
0.0
  9
$PUCSXDIR
 10
1.0
 20
0.0
 30
0.0
  9
$PUCSYDIR
 10
0.0
 20
1.0
 30
0.0
  9
$PUCSORTHOREF
  2

  9
$PUCSORTHOVIEW
 70
     0
  9
$PUCSORGTOP
 10
0.0
 20
0.0
 30
0.0
  9
$PUCSORGBOTTOM
 10
0.0
 20
0.0
 30
0.0
  9
$PUCSORGLEFT
 10
0.0
 20
0.0
 30
0.0
  9
$PUCSORGRIGHT
 10
0.0
 20
0.0
 30
0.0
  9
$PUCSORGFRONT
 10
0.0
 20
0.0
 30
0.0
  9
$PUCSORGBACK
 10
0.0
 20
0.0
 30
0.0
  9
$USERI1
 70
     0
  9
$USERI2
 70
     0
  9
$USERI3
 70
     0
  9
$USERI4
 70
     0
  9
$USERI5
 70
     0
  9
$USERR1
 40
0.0
  9
$USERR2
 40
0.0
  9
$USERR3
 40
0.0
  9
$USERR4
 40
0.0
  9
$USERR5
 40
0.0
  9
$WORLDVIEW
 70
     1
  9
$SHADEDGE
 70
     3
  9
$SHADEDIF
 70
    70
  9
$TILEMODE
 70
     1
  9
$MAXACTVP
 70
    64
  9
$PINSBASE
 10
0.0
 20
0.0
 30
0.0
  9
$PLIMCHECK
 70
     0
  9
$PEXTMIN
 10
1.000000000000000E+20
 20
1.000000000000000E+20
 30
1.000000000000000E+20
  9
$PEXTMAX
 10
-1.000000000000000E+20
 20
-1.000000000000000E+20
 30
-1.000000000000000E+20
  9
$PLIMMIN
 10
0.0
 20
0.0
  9
$PLIMMAX
 10
420.0
 20
297.0
  9
$UNITMODE
 70
     0
  9
$VISRETAIN
 70
     1
  9
$PLINEGEN
 70
     0
  9
$PSLTSCALE
 70
     1
  9
$TREEDEPTH
 70
  3020
  9
$CMLSTYLE
  2
Standard
  9
$CMLJUST
 70
     0
  9
$CMLSCALE
 40
20.0
  9
$PROXYGRAPHICS
 70
     1
  9
$MEASUREMENT
 70
     1
  9
$CELWEIGHT
370
    -1
  9
$ENDCAPS
280
     0
  9
$JOINSTYLE
280
     0
  9
$LWDISPLAY
290
     0
  9
$INSUNITS
 70
     4
  9
$HYPERLINKBASE
  1

  9
$STYLESHEET
  1

  9
$XEDIT
290
     1
  9
$CEPSNTYPE
380
     0
  9
$PSTYLEMODE
290
     1
  9
$FINGERPRINTGUID
  2
{9E1DC8A1-58E4-4199-8A07-2D0C698B4316}
  9
$VERSIONGUID
  2
{FAEB1C32-E019-11D5-929B-00C0DF256EC4}
  9
$EXTNAMES
290
     1
  9
$PSVPSCALE
 40
0.0
  9
$OLESTARTUP
290
     0
  9
$SORTENTS
280
   127
  9
$INDEXCTL
280
     0
  9
$HIDETEXT
280
     1
  9
$XCLIPFRAME
280
     2
  9
$HALOGAP
280
     0
  9
$OBSCOLOR
 70
   257
  9
$OBSLTYPE
280
     0
  9
$INTERSECTIONDISPLAY
280
     0
  9
$INTERSECTIONCOLOR
 70
   257
  9
$DIMASSOC
280
     2
  9
$PROJECTNAME
  1

  9
$CAMERADISPLAY
290
     0
  9
$LENSLENGTH
 40
50.0
  9
$CAMERAHEIGHT
 40
0.0
  9
$STEPSPERSEC
 40
2.0
  9
$STEPSIZE
 40
6.0
  9
$3DDWFPREC
 40
2.0
  9
$PSOLWIDTH
 40
5.0
  9
$PSOLHEIGHT
 40
80.0
  9
$LOFTANG1
 40
1.570796326794897
  9
$LOFTANG2
 40
1.570796326794897
  9
$LOFTMAG1
 40
0.0
  9
$LOFTMAG2
 40
0.0
  9
$LOFTPARAM
 70
     7
  9
$LOFTNORMALS
280
     1
  9
$LATITUDE
 40
37.795
  9
$LONGITUDE
 40
-122.394
  9
$NORTHDIRECTION
 40
0.0
  9
$TIMEZONE
 70
 -8000
  9
$LIGHTGLYPHDISPLAY
280
     1
  9
$TILEMODELIGHTSYNCH
280
     1
  9
$CMATERIAL
347
44
  9
$SOLIDHIST
280
     0
  9
$SHOWHIST
280
     1
  9
$DWFFRAME
280
     2
  9
$DGNFRAME
280
     2
  9
$REALWORLDSCALE
290
     1
  9
$INTERFERECOLOR
 62
   256
  9
$CSHADOW
280
     0
  9
$SHADOWPLANELOCATION
 40
0.0
  0
ENDSEC
  0
SECTION
  2
CLASSES
  0
CLASS
  1
ACDBDICTIONARYWDFLT
  2
AcDbDictionaryWithDefault
  3
ObjectDBX Classes
 90
        0
 91
        4
280
     0
281
     0
  0
CLASS
  1
VISUALSTYLE
  2
AcDbVisualStyle
  3
ObjectDBX Classes
 90
     4095
 91
        4
280
     0
281
     0
  0
CLASS
  1
MATERIAL
  2
AcDbMaterial
  3
ObjectDBX Classes
 90
     1153
 91
        4
280
     0
281
     0
  0
CLASS
  1
SCALE
  2
AcDbScale
  3
ObjectDBX Classes
 90
     1153
 91
        4
280
     0
281
     0
  0
CLASS
  1
TABLESTYLE
  2
AcDbTableStyle
  3
ObjectDBX Classes
 90
     4095
 91
        4
280
     0
281
     0
  0
CLASS
  1
MLEADERSTYLE
  2
AcDbMLeaderStyle
  3
ACDB_MLEADERSTYLE_CLASS
 90
     4095
 91
        4
280
     0
281
     0
  0
CLASS
  1
SUN
  2
AcDbSun
  3
SCENEOE
 90
     1153
 91
        4
280
     0
281
     0
  0
CLASS
  1
DICTIONARYVAR
  2
AcDbDictionaryVar
  3
ObjectDBX Classes
 90
        0
 91
        4
280
     0
281
     0
  0
CLASS
  1
CELLSTYLEMAP
  2
AcDbCellStyleMap
  3
ObjectDBX Classes
 90
     1152
 91
        4
280
     0
281
     0
  0
ENDSEC
  0
SECTION
  2
TABLES
  0
TABLE
  2
VPORT
  5
8
330
0
100
AcDbSymbolTable
 70
     1
  0
VPORT
  5
29
330
8
100
AcDbSymbolTableRecord
100
AcDbViewportTableRecord
  2
*Active
 70
     0
 10
0.0
 20
0.0
 11
1.0
 21
1.0
 12
12.51303052906468
 22
0.0
 13
0.0
 23
0.0
 14
10.0
 24
10.0
 15
10.0
 25
10.0
 16
0.0
 26
0.0
 36
1.0
 17
0.0
 27
0.0
 37
0.0
 40
123.114
 41
1.303843736055266
 42
50.0
 43
0.0
 44
0.0
 50
0.0
 51
0.0
 71
     0
 72
   100
 73
     1
 74
     3
 75
     0
 76
     0
 77
     0
 78
     0
281
     0
 65
     1
110
0.0
120
0.0
130
0.0
111
1.0
121
0.0
131
0.0
112
0.0
122
1.0
132
0.0
 79
     0
146
0.0
348
2F
 60
     3
 61
     5
292
     1
282
     1
141
0.0
142
0.0
 63
   250
361
6D
  0
ENDTAB
  0
TABLE
  2
LTYPE
  5
5
330
0
100
AcDbSymbolTable
 70
     3
  0
LTYPE
  5
14
330
5
100
AcDbSymbolTableRecord
100
AcDbLinetypeTableRecord
  2
ByBlock
 70
     0
  3

 72
    65
 73
     0
 40
0.0
  0
LTYPE
  5
15
330
5
100
AcDbSymbolTableRecord
100
AcDbLinetypeTableRecord
  2
ByLayer
 70
     0
  3

 72
    65
 73
     0
 40
0.0
  0
LTYPE
  5
16
330
5
100
AcDbSymbolTableRecord
100
AcDbLinetypeTableRecord
  2
Continuous
 70
     0
  3
Solid line
 72
    65
 73
     0
 40
0.0
  0
LTYPE
  5
A7
330
5
100
AcDbSymbolTableRecord
100
AcDbLinetypeTableRecord
  2
Dashed
 70
     0
  3

 72
    65
 73
     2
 40
2.0
 49
1.0
 74
     0
 49
-1.0
 74
     0
  0
LTYPE
  5
F9
330
5
100
AcDbSymbolTableRecord
100
AcDbLinetypeTableRecord
  2
Center
 70
     0
  3

 72
    65
 73
     4
 40
1.5
 49
0.45
 74
     0
 49
-0.5
 74
     0
 49
0.05
 74
     0
 49
-0.5
 74
     0
  0
ENDTAB
  0
TABLE
  2
LAYER
  5
2
330
0
100
AcDbSymbolTable
 70
     7
  0
LAYER
  5
10
330
2
100
AcDbSymbolTableRecord
100
AcDbLayerTableRecord
  2
0
 70
     0
 62
     7
  6
Continuous
370
    -3
390
F
347
46
348
0
  0
LAYER
  5
72
330
2
100
AcDbSymbolTableRecord
100
AcDbLayerTableRecord
  2
AM_6
 70
     0
 62
    -2
  6
Continuous
370
    35
390
F
347
46
348
0
  0
LAYER
  5
A8
330
2
100
AcDbSymbolTableRecord
100
AcDbLayerTableRecord
  2
AM_9
 70
     0
 62
     6
  6
Dashed
370
    25
390
F
347
46
348
0
  0
LAYER
  5
B7
330
2
100
AcDbSymbolTableRecord
100
AcDbLayerTableRecord
  2
AM_5
 70
     0
 62
     3
  6
Continuous
370
    25
390
F
347
46
348
0
  0
LAYER
  5
BA
330
2
100
AcDbSymbolTableRecord
100
AcDbLayerTableRecord
  2
AM_4
 70
     0
 62
     7
  6
Continuous
370
    50
390
F
347
46
348
0
  0
LAYER
  5
FA
330
2
100
AcDbSymbolTableRecord
100
AcDbLayerTableRecord
  2
AM_7
 70
     0
 62
     7
  6
Center
370
    25
390
F
347
46
348
0
  0
LAYER
  5
1A6
330
2
100
AcDbSymbolTableRecord
100
AcDbLayerTableRecord
  2
ConnectionPoints
 70
     0
 62
     7
  6
Continuous
370
    50
390
F
347
46
348
0
  0
ENDTAB
  0
TABLE
  2
STYLE
  5
3
330
0
100
AcDbSymbolTable
 70
     1
  0
STYLE
  5
11
330
3
100
AcDbSymbolTableRecord
100
AcDbTextStyleTableRecord
  2
Standard
 70
     0
 40
0.0
 41
1.0
 50
0.0
 71
     0
 42
2.5
  3
txt
  4

  0
ENDTAB
  0
TABLE
  2
VIEW
  5
6
330
0
100
AcDbSymbolTable
 70
     0
  0
ENDTAB
  0
TABLE
  2
UCS
  5
7
330
0
100
AcDbSymbolTable
 70
     0
  0
ENDTAB
  0
TABLE
  2
APPID
  5
9
330
0
100
AcDbSymbolTable
 70
     1
  0
APPID
  5
12
330
9
100
AcDbSymbolTableRecord
100
AcDbRegAppTableRecord
  2
ACAD
 70
     0
  0
ENDTAB
  0
TABLE
  2
DIMSTYLE
  5
A
330
0
100
AcDbSymbolTable
 70
     1
100
AcDbDimStyleTable
  0
DIMSTYLE
105
27
330
A
100
AcDbSymbolTableRecord
100
AcDbDimStyleTableRecord
  2
ISO-25
 70
     0
 41
2.5
 42
0.625
 43
3.75
 44
1.25
 73
     0
 74
     0
 77
     1
 78
     8
140
2.5
141
2.5
143
0.03937007874016
147
0.625
171
     3
172
     1
178
     0
271
     2
272
     2
274
     3
278
    44
283
     0
284
     8
340
11
  0
ENDTAB
  0
TABLE
  2
BLOCK_RECORD
  5
1
330
0
100
AcDbSymbolTable
 70
     5
  0
BLOCK_RECORD
  5
1F
330
1
100
AcDbSymbolTableRecord
100
AcDbBlockTableRecord
  2
*Model_Space
340
22
 70
     0
280
     1
281
     0
  0
BLOCK_RECORD
  5
1B
330
1
100
AcDbSymbolTableRecord
100
AcDbBlockTableRecord
  2
*Paper_Space
340
1E
 70
     0
280
     1
281
     0
  0
BLOCK_RECORD
  5
23
330
1
100
AcDbSymbolTableRecord
100
AcDbBlockTableRecord
  2
*Paper_Space0
340
26
 70
     0
280
     1
281
     0
  0
BLOCK_RECORD
  5
6E
330
1
100
AcDbSymbolTableRecord
100
AcDbBlockTableRecord
  2
1_130851_0
340
0
102
{BLKREFS
331
6F
102
}
 70
     0
280
     1
281
     0
  0
BLOCK_RECORD
  5
8F
330
1
100
AcDbSymbolTableRecord
100
AcDbBlockTableRecord
  2
2_125632_0_in_130851_0
340
0
102
{BLKREFS
331
90
102
}
 70
     0
280
     1
281
     0
  0
BLOCK_RECORD
  5
C3
330
1
100
AcDbSymbolTableRecord
100
AcDbBlockTableRecord
  2
3_405016_Metric_0_in_130851_0
340
0
102
{BLKREFS
331
C4
102
}
 70
     0
280
     1
281
     0
  0
BLOCK_RECORD
  5
13B
330
1
100
AcDbSymbolTableRecord
100
AcDbBlockTableRecord
  2
4_130851H_0_in_130851_0
340
0
102
{BLKREFS
331
13C
102
}
 70
     0
280
     1
281
     0
  0
ENDTAB
  0
ENDSEC
  0
SECTION
  2
BLOCKS
  0
BLOCK
  5
20
330
1F
100
AcDbEntity
  8
0
100
AcDbBlockBegin
  2
*Model_Space
 70
     0
 10
0.0
 20
0.0
 30
0.0
  3
*Model_Space
  1

  0
ENDBLK
  5
21
330
1F
100
AcDbEntity
  8
0
100
AcDbBlockEnd
  0
BLOCK
  5
1C
330
1B
100
AcDbEntity
 67
     1
  8
0
100
AcDbBlockBegin
  2
*Paper_Space
 70
     0
 10
0.0
 20
0.0
 30
0.0
  3
*Paper_Space
  1

  0
ENDBLK
  5
1D
330
1B
100
AcDbEntity
 67
     1
  8
0
100
AcDbBlockEnd
  0
BLOCK
  5
24
330
23
100
AcDbEntity
  8
0
100
AcDbBlockBegin
  2
*Paper_Space0
 70
     0
 10
0.0
 20
0.0
 30
0.0
  3
*Paper_Space0
  1

  0
ENDBLK
  5
25
330
23
100
AcDbEntity
  8
0
100
AcDbBlockEnd
  0
BLOCK
  5
70
330
6E
100
AcDbEntity
  8
0
100
AcDbBlockBegin
  2
1_130851_0
 70
     2
 10
0.0
 20
0.0
 30
0.0
  3
1_130851_0
  1

  0
ATTDEF
  5
73
330
6E
100
AcDbEntity
  8
AM_6
100
AcDbText
 10
96.2
 20
60.35
 30
0.0
 40
0.5
  1
Eccentric Collar Wide Slot Take Up Metric Bore
100
AcDbAttributeDefinition
  3

  2
NN
 70
     8
280
     0
  0
ATTDEF
  5
74
330
6E
100
AcDbEntity
  8
AM_6
100
AcDbText
 10
96.2
 20
59.85
 30
0.0
 40
0.5
  1
SXR Normal Duty Wide Slot Take-Up Bearings
100
AcDbAttributeDefinition
  3

  2
NT
 70
     8
280
     0
  0
ATTDEF
  5
75
330
6E
100
AcDbEntity
  8
AM_6
100
AcDbText
 10
96.2
 20
59.35
 30
0.0
 40
0.5
  1
130851
100
AcDbAttributeDefinition
  3

  2
NB
 70
     8
280
     0
  0
ATTDEF
  5
76
330
6E
100
AcDbEntity
  8
AM_6
100
AcDbText
 10
96.2
 20
58.85
 30
0.0
 40
0.5
  1
$PN.
100
AcDbAttributeDefinition
  3

  2
NBSYN
 70
     8
280
     0
  0
ATTDEF
  5
77
330
6E
100
AcDbEntity
  8
AM_6
100
AcDbText
 10
96.2
 20
58.35
 30
0.0
 40
0.5
  1
130851
100
AcDbAttributeDefinition
  3

  2
LINA
 70
     8
280
     0
  0
ATTDEF
  5
78
330
6E
100
AcDbEntity
  8
AM_6
100
AcDbText
 10
96.2
 20
57.85
 30
0.0
 40
0.5
  1
210
100
AcDbAttributeDefinition
  3

  2
SERIES
 70
     8
280
     0
  0
ATTDEF
  5
79
330
6E
100
AcDbEntity
  8
AM_6
100
AcDbText
 10
96.2
 20
57.35
 30
0.0
 40
0.5
  1
50
100
AcDbAttributeDefinition
  3

  2
SS
 70
     8
280
     0
  0
ATTDEF
  5
7A
330
6E
100
AcDbEntity
  8
AM_6
100
AcDbText
 10
96.2
 20
56.85
 30
0.0
 40
0.5
  1
130851
100
AcDbAttributeDefinition
  3

  2
PN
 70
     8
280
     0
  0
ATTDEF
  5
7B
330
6E
100
AcDbEntity
  8
AM_6
100
AcDbText
 10
96.2
 20
56.35
 30
0.0
 40
0.5
  1
WSTU-SXR-50M
100
AcDbAttributeDefinition
  3

  2
DESCRIPTION
 70
     8
280
     0
  0
ATTDEF
  5
7C
330
6E
100
AcDbEntity
  8
AM_6
100
AcDbText
 10
96.2
 20
55.85
 30
0.0
 40
0.5
  1
3.1
100
AcDbAttributeDefinition
  3

  2
W
 70
     8
280
     0
  0
ATTDEF
  5
7D
330
6E
100
AcDbEntity
  8
AM_6
100
AcDbText
 10
96.2
 20
55.35
 30
0.0
 40
0.5
  1
WS400
100
AcDbAttributeDefinition
  3

  2
FS
 70
     8
280
     0
  0
ATTDEF
  5
7E
330
6E
100
AcDbEntity
  8
AM_6
100
AcDbText
 10
96.2
 20
54.85
 30
0.0
 40
0.5
  1
57.2
100
AcDbAttributeDefinition
  3

  2
A
 70
     8
280
     0
  0
ATTDEF
  5
7F
330
6E
100
AcDbEntity
  8
AM_6
100
AcDbText
 10
96.2
 20
54.35
 30
0.0
 40
0.5
  1
147.8
100
AcDbAttributeDefinition
  3

  2
B
 70
     8
280
     0
  0
ATTDEF
  5
80
330
6E
100
AcDbEntity
  8
AM_6
100
AcDbText
 10
96.2
 20
53.85
 30
0.0
 40
0.5
  1
17.48
100
AcDbAttributeDefinition
  3

  2
C
 70
     8
280
     0
  0
ATTDEF
  5
81
330
6E
100
AcDbEntity
  8
AM_6
100
AcDbText
 10
96.2
 20
53.35
 30
0.0
 40
0.5
  1
85.9
100
AcDbAttributeDefinition
  3

  2
D
 70
     8
280
     0
  0
ATTDEF
  5
82
330
6E
100
AcDbEntity
  8
AM_6
100
AcDbText
 10
96.2
 20
52.85
 30
0.0
 40
0.5
  1
90.4
100
AcDbAttributeDefinition
  3

  2
E
 70
     8
280
     0
  0
ATTDEF
  5
83
330
6E
100
AcDbEntity
  8
AM_6
100
AcDbText
 10
96.2
 20
52.35
 30
0.0
 40
0.5
  1
25.4
100
AcDbAttributeDefinition
  3

  2
F
 70
     8
280
     0
  0
ATTDEF
  5
84
330
6E
100
AcDbEntity
  8
AM_6
100
AcDbText
 10
96.2
 20
51.85
 30
0.0
 40
0.5
  1
16.0
100
AcDbAttributeDefinition
  3

  2
G
 70
     8
280
     0
  0
ATTDEF
  5
85
330
6E
100
AcDbEntity
  8
AM_6
100
AcDbText
 10
96.2
 20
51.35
 30
0.0
 40
0.5
  1
19.1
100
AcDbAttributeDefinition
  3

  2
H
 70
     8
280
     0
  0
ATTDEF
  5
86
330
6E
100
AcDbEntity
  8
AM_6
100
AcDbText
 10
96.2
 20
50.85
 30
0.0
 40
0.5
  1
82.6
100
AcDbAttributeDefinition
  3

  2
J
 70
     8
280
     0
  0
ATTDEF
  5
87
330
6E
100
AcDbEntity
  8
AM_6
100
AcDbText
 10
96.2
 20
50.35
 30
0.0
 40
0.5
  1
49.3
100
AcDbAttributeDefinition
  3

  2
K
 70
     8
280
     0
  0
ATTDEF
  5
88
330
6E
100
AcDbEntity
  8
AM_6
100
AcDbText
 10
96.2
 20
49.85
 30
0.0
 40
0.5
  1
69.9
100
AcDbAttributeDefinition
  3

  2
L
 70
     8
280
     0
  0
ATTDEF
  5
89
330
6E
100
AcDbEntity
  8
AM_6
100
AcDbText
 10
96.2
 20
49.35
 30
0.0
 40
0.5
  1
101.22/101.98
100
AcDbAttributeDefinition
  3

  2
M
 70
     8
280
     0
  0
ATTDEF
  5
8A
330
6E
100
AcDbEntity
  8
AM_6
100
AcDbText
 10
96.2
 20
48.85
 30
0.0
 40
0.5
  1
120.7
100
AcDbAttributeDefinition
  3

  2
N
 70
     8
280
     0
  0
ATTDEF
  5
8B
330
6E
100
AcDbEntity
  8
AM_6
100
AcDbText
 10
96.2
 20
48.35
 30
0.0
 40
0.5
  1
19.1
100
AcDbAttributeDefinition
  3

  2
R
 70
     8
280
     0
  0
ATTDEF
  5
8C
330
6E
100
AcDbEntity
  8
AM_6
100
AcDbText
 10
96.2
 20
47.85
 30
0.0
 40
0.5
  1
38.1
100
AcDbAttributeDefinition
  3

  2
S
 70
     8
280
     0
  0
ATTDEF
  5
8D
330
6E
100
AcDbEntity
  8
AM_6
100
AcDbText
 10
96.2
 20
47.35
 30
0.0
 40
0.5
  1
49.3
100
AcDbAttributeDefinition
  3

  2
T
 70
     8
280
     0
  0
ATTDEF
  5
8E
330
6E
100
AcDbEntity
  8
AM_6
100
AcDbText
 10
96.2
 20
46.85
 30
0.0
 40
0.5
  1
baldor
100
AcDbAttributeDefinition
  3

  2
COMPANY
 70
     8
280
     0
  0
INSERT
  5
90
330
6E
100
AcDbEntity
  8
0
100
AcDbBlockReference
  2
2_125632_0_in_130851_0
 10
0.0
 20
0.0
 30
0.0
  0
INSERT
  5
C4
330
6E
100
AcDbEntity
  8
0
100
AcDbBlockReference
  2
3_405016_Metric_0_in_130851_0
 10
0.0
 20
0.0
 30
0.0
  0
INSERT
  5
13C
330
6E
100
AcDbEntity
  8
0
100
AcDbBlockReference
  2
4_130851H_0_in_130851_0
 10
0.0
 20
0.0
 30
0.0
  0
ENDBLK
  5
71
330
6E
100
AcDbEntity
  8
0
100
AcDbBlockEnd
  0
BLOCK
  5
91
330
8F
100
AcDbEntity
  8
0
100
AcDbBlockBegin
  2
2_125632_0_in_130851_0
 70
     2
 10
0.0
 20
0.0
 30
0.0
  3
2_125632_0_in_130851_0
  1

  0
ATTDEF
  5
93
330
8F
100
AcDbEntity
  8
AM_6
100
AcDbText
 10
52.49695875313097
 20
44.7077800835604
 30
0.0
 40
0.5
  1
Eccentric Collar Insert Metric Bore
100
AcDbAttributeDefinition
  3

  2
NN
 70
     8
280
     0
  0
ATTDEF
  5
94
330
8F
100
AcDbEntity
  8
AM_6
100
AcDbText
 10
52.49695875313097
 20
44.2077800835604
 30
0.0
 40
0.5
  1
SXR Normal Duty Bearing Inserts
100
AcDbAttributeDefinition
  3

  2
NT
 70
     8
280
     0
  0
ATTDEF
  5
95
330
8F
100
AcDbEntity
  8
AM_6
100
AcDbText
 10
52.49695875313097
 20
43.7077800835604
 30
0.0
 40
0.5
  1
125632
100
AcDbAttributeDefinition
  3

  2
NB
 70
     8
280
     0
  0
ATTDEF
  5
96
330
8F
100
AcDbEntity
  8
AM_6
100
AcDbText
 10
52.49695875313097
 20
43.2077800835604
 30
0.0
 40
0.5
  1
$PN.
100
AcDbAttributeDefinition
  3

  2
NBSYN
 70
     8
280
     0
  0
ATTDEF
  5
97
330
8F
100
AcDbEntity
  8
AM_6
100
AcDbText
 10
52.49695875313097
 20
42.7077800835604
 30
0.0
 40
0.5
  1
125632
100
AcDbAttributeDefinition
  3

  2
LINA
 70
     8
280
     0
  0
ATTDEF
  5
98
330
8F
100
AcDbEntity
  8
AM_6
100
AcDbText
 10
52.49695875313097
 20
42.2077800835604
 30
0.0
 40
0.5
  1
210
100
AcDbAttributeDefinition
  3

  2
SERIES
 70
     8
280
     0
  0
ATTDEF
  5
99
330
8F
100
AcDbEntity
  8
AM_6
100
AcDbText
 10
52.49695875313097
 20
41.7077800835604
 30
0.0
 40
0.5
  1
50
100
AcDbAttributeDefinition
  3

  2
SS
 70
     8
280
     0
  0
ATTDEF
  5
9A
330
8F
100
AcDbEntity
  8
AM_6
100
AcDbText
 10
52.49695875313097
 20
41.2077800835604
 30
0.0
 40
0.5
  1
125632
100
AcDbAttributeDefinition
  3

  2
PN
 70
     8
280
     0
  0
ATTDEF
  5
9B
330
8F
100
AcDbEntity
  8
AM_6
100
AcDbText
 10
52.49695875313097
 20
40.7077800835604
 30
0.0
 40
0.5
  1
INS-SXR-50M
100
AcDbAttributeDefinition
  3

  2
DESCRIPTION
 70
     8
280
     0
  0
ATTDEF
  5
9C
330
8F
100
AcDbEntity
  8
AM_6
100
AcDbText
 10
52.49695875313097
 20
40.2077800835604
 30
0.0
 40
0.5
  1
1.0
100
AcDbAttributeDefinition
  3

  2
WEIGHT
 70
     8
280
     0
  0
ATTDEF
  5
9D
330
8F
100
AcDbEntity
  8
AM_6
100
AcDbText
 10
52.49695875313097
 20
39.7077800835604
 30
0.0
 40
0.5
  1
57.2
100
AcDbAttributeDefinition
  3

  2
A
 70
     8
280
     0
  0
ATTDEF
  5
9E
330
8F
100
AcDbEntity
  8
AM_6
100
AcDbText
 10
52.49695875313097
 20
39.2077800835604
 30
0.0
 40
0.5
  1
22.1
100
AcDbAttributeDefinition
  3

  2
C
 70
     8
280
     0
  0
ATTDEF
  5
9F
330
8F
100
AcDbEntity
  8
AM_6
100
AcDbText
 10
52.49695875313097
 20
38.7077800835604
 30
0.0
 40
0.5
  1
90.000
100
AcDbAttributeDefinition
  3

  2
D
 70
     8
280
     0
  0
ATTDEF
  5
A0
330
8F
100
AcDbEntity
  8
AM_6
100
AcDbText
 10
52.49695875313097
 20
38.2077800835604
 30
0.0
 40
0.5
  1
6.4
100
AcDbAttributeDefinition
  3

  2
J
 70
     8
280
     0
  0
ATTDEF
  5
A1
330
8F
100
AcDbEntity
  8
AM_6
100
AcDbText
 10
52.49695875313097
 20
37.7077800835604
 30
0.0
 40
0.5
  1
69.9
100
AcDbAttributeDefinition
  3

  2
L
 70
     8
280
     0
  0
ATTDEF
  5
A2
330
8F
100
AcDbEntity
  8
AM_6
100
AcDbText
 10
52.49695875313097
 20
37.2077800835604
 30
0.0
 40
0.5
  1
M10 x 1.5
100
AcDbAttributeDefinition
  3

  2
N
 70
     8
280
     0
  0
ATTDEF
  5
A3
330
8F
100
AcDbEntity
  8
AM_6
100
AcDbText
 10
52.49695875313097
 20
36.7077800835604
 30
0.0
 40
0.5
  1
19.1
100
AcDbAttributeDefinition
  3

  2
W
 70
     8
280
     0
  0
ATTDEF
  5
A4
330
8F
100
AcDbEntity
  8
AM_6
100
AcDbText
 10
52.49695875313097
 20
36.2077800835604
 30
0.0
 40
0.5
  1
38.1
100
AcDbAttributeDefinition
  3

  2
Y
 70
     8
280
     0
  0
ATTDEF
  5
A5
330
8F
100
AcDbEntity
  8
AM_6
100
AcDbText
 10
52.49695875313097
 20
35.7077800835604
 30
0.0
 40
0.5
  1
61.7
100
AcDbAttributeDefinition
  3

  2
Z
 70
     8
280
     0
  0
ATTDEF
  5
A6
330
8F
100
AcDbEntity
  8
AM_6
100
AcDbText
 10
52.49695875313097
 20
35.2077800835604
 30
0.0
 40
0.5
  1
baldor
100
AcDbAttributeDefinition
  3

  2
COMPANY
 70
     8
280
     0
  0
LINE
  5
A9
330
8F
100
AcDbEntity
  8
AM_9
100
AcDbLine
 10
44.16666666666666
 20
-2.844945152243942
 30
0.0
 11
44.16666666666666
 21
2.844945152243577
 31
0.0
  0
ARC
  5
AA
330
8F
100
AcDbEntity
  8
AM_9
100
AcDbCircle
 10
44.16666666666662
 20
0.0000000000000013
 30
0.0
 40
3.333333333333387
100
AcDbArc
 50
274.3307105542068
 51
85.66928944579146
  0
ELLIPSE
  5
AB
330
8F
100
AcDbEntity
  8
AM_9
100
AcDbEllipse
 10
44.41320072257003
 20
-0.0000000000000027
 30
0.0
 11
-6.106111005522307E-16
 21
-3.324012011612175
 31
0.0
210
0.0
220
0.0
230
1.0
 40
0.1434078679236365
 41
5.739633023840573
 42
9.96833024410845
  0
LWPOLYLINE
  5
AC
330
8F
100
AcDbEntity
  8
AM_9
100
AcDbPolyline
 90
       11
 70
     0
 43
0.0
 10
44.16666666666666
 20
2.844945152243577
 10
44.10122603272031
 20
2.513979392705201
 10
44.04450609490904
 20
2.111919474806396
 10
43.99825333970803
 20
1.647950830373042
 10
43.96383973989546
 20
1.136598406237487
 10
43.94262433056042
 20
0.595967647555516
 10
43.9347816561831
 20
0.0383029408155916
 10
43.95980473199962
 20
-1.057063813850789
 10
44.03542534480447
 20
-2.033224067166588
 10
44.0957848921993
 20
-2.480665370409122
 10
44.16666666666666
 20
-2.844945152243942
  0
CIRCLE
  5
AD
330
8F
100
AcDbEntity
  8
AM_9
100
AcDbCircle
 10
0.0
 20
0.0
 30
0.0
 40
42.85714320000002
  0
CIRCLE
  5
AE
330
8F
100
AcDbEntity
  8
AM_9
100
AcDbCircle
 10
0.0
 20
0.0
 30
0.0
 40
30.408
  0
CIRCLE
  5
AF
330
8F
100
AcDbEntity
  8
AM_9
100
AcDbCircle
 10
0.0
 20
0.0
 30
0.0
 40
30.85
  0
CIRCLE
  5
B0
330
8F
100
AcDbEntity
  8
AM_9
100
AcDbCircle
 10
0.0
 20
0.0
 30
0.0
 40
29.380952616
  0
CIRCLE
  5
B1
330
8F
100
AcDbEntity
  8
AM_9
100
AcDbCircle
 10
0.0
 20
0.0
 30
0.0
 40
25.31254119728445
  0
LINE
  5
B2
330
8F
100
AcDbEntity
  8
AM_9
100
AcDbLine
 10
4.188
 20
24.64909373943969
 30
0.0
 11
4.188
 21
34.59049724996736
 31
0.0
  0
LINE
  5
B3
330
8F
100
AcDbEntity
  8
AM_9
100
AcDbLine
 10
-4.188
 20
34.59049724996736
 30
0.0
 11
-4.188
 21
24.64733859218421
 31
0.0
  0
LINE
  5
B4
330
8F
100
AcDbEntity
  8
AM_9
100
AcDbLine
 10
-4.188
 20
34.59049724996736
 30
0.0
 11
4.188
 21
34.59049724996736
 31
0.0
  0
LINE
  5
B5
330
8F
100
AcDbEntity
  8
AM_9
100
AcDbLine
 10
4.188
 20
34.59049724996736
 30
0.0
 11
4.277323711183372
 21
34.67982096115073
 31
0.0
  0
LINE
  5
B6
330
8F
100
AcDbEntity
  8
AM_9
100
AcDbLine
 10
-4.277789381299987
 20
34.68028663126734
 30
0.0
 11
-4.188
 21
34.59049724996736
 31
0.0
  0
LINE
  5
B8
330
8F
100
AcDbEntity
  8
AM_5
100
AcDbLine
 10
-5.0
 20
24.49489742783178
 30
0.0
 11
-5.0
 21
34.59049724996737
 31
0.0
  0
LINE
  5
B9
330
8F
100
AcDbEntity
  8
AM_5
100
AcDbLine
 10
5.0
 20
24.49489742783178
 30
0.0
 11
5.0
 21
34.59049724996737
 31
0.0
  0
CIRCLE
  5
BB
330
8F
100
AcDbEntity
  8
AM_4
100
AcDbCircle
 10
0.0
 20
0.0
 30
0.0
 40
44.7077800835604
  0
CIRCLE
  5
BC
330
8F
100
AcDbEntity
  8
AM_4
100
AcDbCircle
 10
0.0
 20
0.0
 30
0.0
 40
44.33979702253947
  0
CIRCLE
  5
BD
330
8F
100
AcDbEntity
  8
AM_4
100
AcDbCircle
 10
0.0
 20
0.0
 30
0.0
 40
43.78891610806468
  0
CIRCLE
  5
BE
330
8F
100
AcDbEntity
  8
AM_4
100
AcDbCircle
 10
0.0
 20
0.0
 30
0.0
 40
42.92870717829738
  0
CIRCLE
  5
BF
330
8F
100
AcDbEntity
  8
AM_4
100
AcDbCircle
 10
0.0
 20
0.0
 30
0.0
 40
25.0
  0
CIRCLE
  5
C0
330
8F
100
AcDbEntity
  8
AM_4
100
AcDbCircle
 10
0.0
 20
0.0
 30
0.0
 40
25.442
  0
CIRCLE
  5
C1
330
8F
100
AcDbEntity
  8
AM_4
100
AcDbCircle
 10
0.0
 20
0.0
 30
0.0
 40
33.70000000000001
  0
CIRCLE
  5
C2
330
8F
100
AcDbEntity
  8
AM_4
100
AcDbCircle
 10
-0.0000000000000284
 20
-0.0000000000000284
 30
0.0
 40
34.95000000000003
  0
ENDBLK
  5
92
330
8F
100
AcDbEntity
  8
0
100
AcDbBlockEnd
  0
BLOCK
  5
C5
330
C3
100
AcDbEntity
  8
0
100
AcDbBlockBegin
  2
3_405016_Metric_0_in_130851_0
 70
     2
 10
0.0
 20
0.0
 30
0.0
  3
3_405016_Metric_0_in_130851_0
  1

  0
ATTDEF
  5
C7
330
C3
100
AcDbEntity
  8
AM_6
100
AcDbText
 10
-40.04452979792124
 20
-23.41490184921514
 30
0.0
 40
0.5
  1
405016 -Metric
100
AcDbAttributeDefinition
  3

  2
NN
 70
     8
280
     0
  0
ATTDEF
  5
C8
330
C3
100
AcDbEntity
  8
AM_6
100
AcDbText
 10
-40.04452979792124
 20
-23.91490184921514
 30
0.0
 40
0.5
  1
Grease Fitting
100
AcDbAttributeDefinition
  3

  2
NT
 70
     8
280
     0
  0
ATTDEF
  5
C9
330
C3
100
AcDbEntity
  8
AM_6
100
AcDbText
 10
-40.04452979792124
 20
-24.41490184921514
 30
0.0
 40
0.5
  1
405016-Metric
100
AcDbAttributeDefinition
  3

  2
NB
 70
     8
280
     0
  0
ATTDEF
  5
CA
330
C3
100
AcDbEntity
  8
AM_6
100
AcDbText
 10
-40.04452979792124
 20
-24.91490184921514
 30
0.0
 40
0.5
  1
$MN.-Metric
100
AcDbAttributeDefinition
  3

  2
NBSYN
 70
     8
280
     0
  0
ATTDEF
  5
CB
330
C3
100
AcDbEntity
  8
AM_6
100
AcDbText
 10
-40.04452979792124
 20
-25.41490184921514
 30
0.0
 40
0.5
  1
405016
100
AcDbAttributeDefinition
  3

  2
LINA
 70
     8
280
     0
  0
ATTDEF
  5
CC
330
C3
100
AcDbEntity
  8
AM_6
100
AcDbText
 10
-40.04452979792124
 20
-25.91490184921514
 30
0.0
 40
0.5
  1
405016
100
AcDbAttributeDefinition
  3

  2
MN
 70
     8
280
     0
  0
ATTDEF
  5
CD
330
C3
100
AcDbEntity
  8
AM_6
100
AcDbText
 10
-40.04452979792124
 20
-26.41490184921514
 30
0.0
 40
0.5
  1
7/16 HEX
100
AcDbAttributeDefinition
  3

  2
H
 70
     8
280
     0
  0
ATTDEF
  5
CE
330
C3
100
AcDbEntity
  8
AM_6
100
AcDbText
 10
-40.04452979792124
 20
-26.91490184921514
 30
0.0
 40
0.5
  1
9.728
100
AcDbAttributeDefinition
  3

  2
NDR
 70
     8
280
     0
  0
ATTDEF
  5
CF
330
C3
100
AcDbEntity
  8
AM_6
100
AcDbText
 10
-40.04452979792124
 20
-27.41490184921514
 30
0.0
 40
0.5
  1
8.560
100
AcDbAttributeDefinition
  3

  2
KDR
 70
     8
280
     0
  0
ATTDEF
  5
D0
330
C3
100
AcDbEntity
  8
AM_6
100
AcDbText
 10
-40.04452979792124
 20
-27.91490184921514
 30
0.0
 40
0.5
  1
4.0005
100
AcDbAttributeDefinition
  3

  2
BZE
 70
     8
280
     0
  0
ATTDEF
  5
D1
330
C3
100
AcDbEntity
  8
AM_6
100
AcDbText
 10
-40.04452979792124
 20
-28.41490184921514
 30
0.0
 40
0.5
  1
11.1125
100
AcDbAttributeDefinition
  3

  2
HEX
 70
     8
280
     0
  0
ATTDEF
  5
D2
330
C3
100
AcDbEntity
  8
AM_6
100
AcDbText
 10
-40.04452979792124
 20
-28.91490184921514
 30
0.0
 40
0.5
  1
7.143750
100
AcDbAttributeDefinition
  3

  2
HEX2
 70
     8
280
     0
  0
ATTDEF
  5
D3
330
C3
100
AcDbEntity
  8
AM_6
100
AcDbText
 10
-40.04452979792124
 20
-29.41490184921514
 30
0.0
 40
0.5
  1
baldor
100
AcDbAttributeDefinition
  3

  2
COMPANY
 70
     8
280
     0
  0
LINE
  5
D4
330
C3
100
AcDbEntity
  8
AM_9
100
AcDbLine
 10
-45.04452979792124
 20
-30.7480857869502
 30
0.0
 11
-49.15088830820272
 21
-23.63566421304982
 31
0.0
  0
LINE
  5
D5
330
C3
100
AcDbEntity
  8
AM_9
100
AcDbLine
 10
-49.15088830820272
 20
-23.63566421304982
 30
0.0
 11
-49.97478466643275
 21
-23.41490184921514
 31
0.0
  0
LINE
  5
D6
330
C3
100
AcDbEntity
  8
AM_9
100
AcDbLine
 10
-45.26529216175593
 20
-31.57198214518023
 30
0.0
 11
-45.04452979792124
 21
-30.7480857869502
 31
0.0
  0
ARC
  5
D7
330
C3
100
AcDbEntity
  8
AM_9
100
AcDbCircle
 10
-59.05860241107978
 20
-34.0975
 30
0.0
 40
5.080000000000025
100
AcDbArc
 50
166.0465456793915
 51
253.7101281939044
  0
LINE
  5
D8
330
C3
100
AcDbEntity
  8
AM_9
100
AcDbLine
 10
-45.26529216175593
 20
-31.57198214518023
 30
0.0
 11
-49.97478466643275
 21
-23.41490184921514
 31
0.0
  0
LINE
  5
D9
330
C3
100
AcDbEntity
  8
AM_9
100
AcDbLine
 10
-49.97478466643275
 20
-23.41490184921514
 30
0.0
 11
-54.3417052604161
 21
-25.75740551902643
 31
0.0
  0
LINE
  5
DA
330
C3
100
AcDbEntity
  8
AM_9
100
AcDbLine
 10
-49.47742014526245
 20
-34.18259448097358
 30
0.0
 11
-45.26529216175593
 21
-31.57198214518023
 31
0.0
  0
LINE
  5
DB
330
C3
100
AcDbEntity
  8
AM_9
100
AcDbLine
 10
-64.81423030007868
 20
-35.03926331106882
 30
0.0
 11
-65.10179825996515
 21
-35.20529075011959
 31
0.0
  0
LINE
  5
DC
330
C3
100
AcDbEntity
  8
AM_9
100
AcDbLine
 10
-62.75200730731697
 20
-38.61113831106881
 30
0.0
 11
-63.03957526720345
 21
-38.77716575011959
 31
0.0
  0
LWPOLYLINE
  5
DD
330
C3
100
AcDbEntity
  8
AM_9
100
AcDbPolyline
 90
        4
 70
     0
 43
0.0
 10
-64.81423030007868
 20
-35.03926331106882
 10
-63.98440075215507
 20
-36.27852718757703
 10
-63.22309719022284
 20
-37.63052124034203
 10
-62.75200730731697
 20
-38.61113831106881
  0
LINE
  5
DE
330
C3
100
AcDbEntity
  8
AM_9
100
AcDbLine
 10
-57.66881492819996
 20
-36.50468253207115
 30
0.0
 11
-60.45934617356964
 21
-31.67134063498243
 31
0.0
  0
ELLIPSE
  5
DF
330
C3
100
AcDbEntity
  8
AM_9
100
AcDbEllipse
 10
-60.85225225266036
 20
-35.13306421886847
 30
0.0
 11
-1.785937500000003
 21
3.093334489142549
 31
0.0
210
0.0
220
0.0
230
1.0
 40
0.9063077870366498
 41
5.859216366485141
 42
9.848746901463818
  0
LWPOLYLINE
  5
E0
330
C3
100
AcDbEntity
  8
AM_9
100
AcDbPolyline
 90
        4
 70
     0
 43
0.0
 10
-63.03661220346255
 20
-31.63170502447114
 10
-63.58659746852766
 20
-32.80100486283387
 10
-64.26248894799672
 20
-34.07892471870117
 10
-64.81423030007868
 20
-35.03926331106882
  0
LWPOLYLINE
  5
E1
330
C3
100
AcDbEntity
  8
AM_9
100
AcDbPolyline
 90
        4
 70
     0
 43
0.0
 10
-62.75200730731697
 20
-38.61113831106881
 10
-61.27681655149014
 20
-38.62086209670619
 10
-59.84229536261346
 20
-38.69142327771372
 10
-58.91216621793915
 20
-38.77545502447114
  0
LWPOLYLINE
  5
E2
330
C3
100
AcDbEntity
  8
AM_9
100
AcDbPolyline
 90
        3
 70
     0
 43
0.0
 10
-57.92654726640723
 20
-36.05827702754267
 10
-58.40212514457073
 20
-36.81169258101902
 10
-58.98934575105375
 20
-37.2837467786535
  0
LWPOLYLINE
  5
E3
330
C3
100
AcDbEntity
  8
AM_9
100
AcDbPolyline
 90
        8
 70
     0
 43
0.0
 10
-57.92654726640723
 20
-36.05827702754267
 10
-57.8006988904167
 20
-35.65201089390838
 10
-57.75934482659574
 20
-34.81829675767452
 10
-57.99388589155942
 20
-33.93132388347287
 10
-58.48219297429041
 20
-33.13171697599755
 10
-59.16346547712175
 20
-32.52259458609682
 10
-59.99166762177558
 20
-32.17226857346146
 10
-60.1906575557524
 20
-32.13672297245735
  0
LINE
  5
E4
330
C3
100
AcDbEntity
  8
AM_9
100
AcDbLine
 10
-61.78145281571627
 20
-32.44330510984832
 30
0.0
 11
-62.24925225266036
 21
-32.71338924069475
 31
0.0
  0
LINE
  5
E5
330
C3
100
AcDbEntity
  8
AM_9
100
AcDbLine
 10
-59.45525225266037
 20
-37.55273919704219
 30
0.0
 11
-58.98745241119335
 21
-37.28265483264434
 31
0.0
  0
LWPOLYLINE
  5
E6
330
C3
100
AcDbEntity
  8
AM_9
100
AcDbPolyline
 90
        3
 70
     0
 43
0.0
 10
-62.07883143352007
 20
-32.64558015143525
 10
-61.90509312845487
 20
-32.51968684955893
 10
-61.78342955546698
 20
-32.44444766089994
  0
LWPOLYLINE
  5
E7
330
C3
100
AcDbEntity
  8
AM_9
100
AcDbPolyline
 90
       10
 70
     0
 43
0.0
 10
-59.3049986417708
 20
-37.43654822203373
 10
-59.94635170551158
 20
-37.5966474248098
 10
-60.84076669886073
 20
-37.53897056608314
 10
-61.68268793604053
 20
-37.17844987254283
 10
-62.37690559067029
 20
-36.55713980143761
 10
-62.84604112627078
 20
-35.74617048344427
 10
-63.03848619819953
 20
-34.83682779519102
 10
-62.93309428893677
 20
-33.93043103280827
 10
-62.54104157214501
 20
-33.12795336822163
 10
-62.07883143352007
 20
-32.64558015143525
  0
LWPOLYLINE
  5
E8
330
C3
100
AcDbEntity
  8
AM_9
100
AcDbPolyline
 90
        3
 70
     0
 43
0.0
 10
-58.98934575105375
 20
-37.2837467786535
 10
-59.10147540114517
 20
-37.34450398452265
 10
-59.3049986417708
 20
-37.43654822203373
  0
LWPOLYLINE
  5
E9
330
C3
100
AcDbEntity
  8
AM_9
100
AcDbPolyline
 90
        3
 70
     0
 43
0.0
 10
-61.78342955546698
 20
-32.44444766089994
 10
-61.09597834945267
 20
-32.17524012688496
 10
-60.19065755575197
 20
-32.13672297245754
  0
ELLIPSE
  5
EA
330
C3
100
AcDbEntity
  8
AM_9
100
AcDbEllipse
 10
-60.85225225266038
 20
-35.13306421886846
 30
0.0
 11
-1.785937500000002
 21
3.093334489142563
 31
0.0
210
0.0
220
0.0
230
1.0
 40
0.9063077870366485
 41
3.764821264091948
 42
4.571432719802702
  0
ELLIPSE
  5
EB
330
C3
100
AcDbEntity
  8
AM_9
100
AcDbEllipse
 10
-60.85225225266036
 20
-35.13306421886848
 30
0.0
 11
-1.785937500000458
 21
3.093334489142286
 31
0.0
210
0.0
220
0.0
230
1.0
 40
0.9063077870366867
 41
4.85334524096657
 42
5.659956696677297
  0
LWPOLYLINE
  5
EC
330
C3
100
AcDbEntity
  8
AM_9
100
AcDbPolyline
 90
        5
 70
     0
 43
0.0
 10
-63.03957526720345
 20
-38.77716575011959
 10
-63.59680163933024
 20
-37.93372366086362
 10
-64.12564054309037
 20
-37.06453519314444
 10
-64.63330779438175
 20
-36.14137918427098
 10
-65.10179825996515
 20
-35.20529075011959
  0
LWPOLYLINE
  5
ED
330
C3
100
AcDbEntity
  8
AM_9
100
AcDbPolyline
 90
        4
 70
     0
 43
0.0
 10
-60.4212371889603
 20
-38.93106443761261
 10
-61.16422119105903
 20
-38.90578491330027
 10
-62.12335758228284
 20
-38.85137087674926
 10
-63.03957526720345
 20
-38.77716575011959
  0
LWPOLYLINE
  5
EE
330
C3
100
AcDbEntity
  8
AM_9
100
AcDbPolyline
 90
        4
 70
     0
 43
0.0
 10
-65.10179825996515
 20
-35.20529075011959
 10
-64.72215728387926
 20
-34.40378516111151
 10
-64.3066159467071
 20
-33.57674219793953
 10
-63.92541985494368
 20
-32.85989497817466
  0
ELLIPSE
  5
EF
330
C3
100
AcDbEntity
  8
AM_9
100
AcDbEllipse
 10
-61.31706990413911
 20
-35.40142681507381
 30
0.0
 11
-1.785937499999999
 21
3.093334489142538
 31
0.0
210
0.0
220
0.0
230
1.0
 40
0.9063077870366496
 41
0.2502546836327753
 42
2.894766330999744
  0
LWPOLYLINE
  5
F0
330
C3
100
AcDbEntity
  8
AM_9
100
AcDbPolyline
 90
       19
 70
     0
 43
0.0
 10
-59.9286260110249
 20
-35.08712477490169
 10
-59.83914132387946
 20
-35.33592889651313
 10
-59.73795309844846
 20
-35.77287405187382
 10
-59.70520039083845
 20
-36.20645073584581
 10
-59.73938047533744
 20
-36.62311977157297
 10
-59.83686096576105
 20
-37.0112129328797
 10
-59.99305122876805
 20
-37.36162295987987
 10
-60.2041185068904
 20
-37.66783611835099
 10
-60.4687821764827
 20
-37.92468868954435
 10
-60.78829316624773
 20
-38.12526579969397
 10
-61.16046487966595
 20
-38.25755428968728
 10
-61.56434975104241
 20
-38.3080126266821
 10
-61.97803741648017
 20
-38.27499544936995
 10
-62.38734276289358
 20
-38.1630133621967
 10
-62.78141454798799
 20
-37.97734582374088
 10
-63.14947613514165
 20
-37.72394650153154
 10
-63.48052559820694
 20
-37.41044833411662
 10
-63.76411601602886
 20
-37.04665346012928
 10
-63.87036321780273
 20
-36.87557139703758
  0
LWPOLYLINE
  5
F1
330
C3
100
AcDbEntity
  8
AM_9
100
AcDbPolyline
 90
       19
 70
     0
 43
0.0
 10
-63.87036321780273
 20
-36.87557139703758
 10
-63.96421082612051
 20
-36.7004215517914
 10
-64.13676999306836
 20
-36.27640259865549
 10
-64.2425904837979
 20
-35.83974897779897
 10
-64.27996901641735
 20
-35.4054996333598
 10
-64.2502356637211
 20
-34.98728825499689
 10
-64.15690863343127
 20
-34.59693654044327
 10
-64.00456257213595
 20
-34.24373681378771
 10
-63.79714296234289
 20
-33.9343579361861
 10
-63.53614168028506
 20
-33.6739788660564
 10
-63.22038220872582
 20
-33.46926653383848
 10
-62.8514712608692
 20
-33.33187499510813
 10
-62.44895774013729
 20
-33.27565486637957
 10
-62.03541792515191
 20
-33.30309788551424
 10
-61.62545772294452
 20
-33.40985950064441
 10
-61.23000942977843
 20
-33.59067605972505
 10
-60.85982307671807
 20
-33.83967449912446
 10
-60.52590540960197
 20
-34.14935935324593
 10
-60.35838836396148
 20
-34.3462084420803
  0
ELLIPSE
  5
F2
330
C3
100
AcDbEntity
  8
AM_9
100
AcDbEllipse
 10
-62.61249283442184
 20
-36.14933959258696
 30
0.0
 11
1.691562466580847
 21
-2.929872136294563
 31
0.0
210
0.0
220
0.0
230
1.0
 40
0.9063077870366513
 41
0.0
 42
6.283185307179586
  0
LINE
  5
F3
330
C3
100
AcDbEntity
  8
AM_5
100
AcDbLine
 10
-48.85969817688294
 20
-33.11266864678881
 30
0.0
 11
-45.04452979792124
 21
-30.7480857869502
 31
0.0
  0
LINE
  5
F4
330
C3
100
AcDbEntity
  8
AM_5
100
AcDbLine
 10
-49.47742014526244
 20
-34.18259448097359
 30
0.0
 11
-48.85969817688294
 21
-33.11266864678881
 31
0.0
  0
LINE
  5
F5
330
C3
100
AcDbEntity
  8
AM_5
100
AcDbLine
 10
-48.56755561930618
 20
-33.61867439956489
 30
0.0
 11
-53.39840388123385
 21
-25.25139976625036
 31
0.0
  0
LINE
  5
F6
330
C3
100
AcDbEntity
  8
AM_5
100
AcDbLine
 10
-53.10626132365708
 20
-25.75740551902643
 30
0.0
 11
-49.15088830820272
 21
-23.63566421304982
 31
0.0
  0
LINE
  5
F7
330
C3
100
AcDbEntity
  8
AM_5
100
AcDbLine
 10
-54.34170526041611
 20
-25.75740551902643
 30
0.0
 11
-53.10626132365708
 21
-25.75740551902643
 31
0.0
  0
ELLIPSE
  5
F8
330
C3
100
AcDbEntity
  8
AM_9
100
AcDbEllipse
 10
-60.85225225266036
 20
-35.13306421886841
 30
0.0
 11
-1.39700000000002
 21
2.419674978173759
 31
0.0
210
0.0
220
0.0
230
1.0
 40
0.9063077870366515
 41
0.0
 42
6.283185307179586
  0
LINE
  5
FB
330
C3
100
AcDbEntity
  8
AM_7
100
AcDbLine
 10
-64.39260241107978
 20
-34.09750000000004
 30
0.0
 11
-53.72460241107985
 21
-34.09750000000004
 31
0.0
  0
LINE
  5
FC
330
C3
100
AcDbEntity
  8
AM_7
100
AcDbLine
 10
-59.05860241107982
 20
-39.43150000000001
 30
0.0
 11
-59.05860241107982
 21
-28.76350000000007
 31
0.0
  0
LINE
  5
FD
330
C3
100
AcDbEntity
  8
AM_4
100
AcDbLine
 10
-53.04966138908649
 20
-37.04404114977729
 30
0.0
 11
-52.42042355501078
 21
-37.673278983853
 31
0.0
  0
LINE
  5
FE
330
C3
100
AcDbEntity
  8
AM_4
100
AcDbLine
 10
-53.04966138908649
 20
-37.04404114977729
 30
0.0
 11
-58.60591138908649
 21
-27.42033385022272
 31
0.0
  0
LINE
  5
FF
330
C3
100
AcDbEntity
  8
AM_4
100
AcDbLine
 10
-58.8362284213805
 20
-26.560778983853
 30
0.0
 11
-58.60591138908649
 21
-27.42033385022272
 31
0.0
  0
LINE
  5
100
330
C3
100
AcDbEntity
  8
AM_4
100
AcDbLine
 10
-50.84995686347401
 20
-35.7740411497773
 30
0.0
 11
-56.40620686347402
 21
-26.15033385022272
 31
0.0
  0
LINE
  5
101
330
C3
100
AcDbEntity
  8
AM_4
100
AcDbLine
 10
-56.40620686347402
 20
-26.15033385022272
 30
0.0
 11
-57.03544469754973
 21
-25.52109601614701
 31
0.0
  0
LINE
  5
102
330
C3
100
AcDbEntity
  8
AM_4
100
AcDbLine
 10
-50.61963983118002
 20
-36.63359601614701
 30
0.0
 11
-50.84995686347401
 21
-35.7740411497773
 31
0.0
  0
ARC
  5
103
330
C3
100
AcDbEntity
  8
AM_4
100
AcDbCircle
 10
-59.05860241107982
 20
-34.0975
 30
0.0
 40
5.08000000000001
100
AcDbArc
 50
253.7101281939049
 51
300.0000000000001
  0
ARC
  5
104
330
C3
100
AcDbEntity
  8
AM_4
100
AcDbCircle
 10
-59.05860241107968
 20
-34.0975000000001
 30
0.0
 40
5.080000000000148
100
AcDbArc
 50
120.0000000000007
 51
166.0465456793906
  0
LINE
  5
105
330
C3
100
AcDbEntity
  8
AM_4
100
AcDbLine
 10
-60.45934617356964
 20
-31.67134063498243
 30
0.0
 11
-61.59860241107981
 21
-29.69809094877506
 31
0.0
  0
LINE
  5
106
330
C3
100
AcDbEntity
  8
AM_4
100
AcDbLine
 10
-58.36778638908649
 20
-27.83277844877506
 30
0.0
 11
-61.59860241107981
 21
-29.69809094877506
 31
0.0
  0
LINE
  5
107
330
C3
100
AcDbEntity
  8
AM_4
100
AcDbLine
 10
-56.51860241107982
 20
-38.49690905122495
 30
0.0
 11
-53.2877863890865
 21
-36.63159655122496
 31
0.0
  0
LINE
  5
108
330
C3
100
AcDbEntity
  8
AM_4
100
AcDbLine
 10
-56.51860241107982
 20
-38.49690905122495
 30
0.0
 11
-57.66881492819996
 21
-36.50468253207115
 31
0.0
  0
LINE
  5
109
330
C3
100
AcDbEntity
  8
AM_4
100
AcDbLine
 10
-54.44956270283927
 20
-25.57059094877506
 30
0.0
 11
-56.16808186347401
 21
-26.56277844877506
 31
0.0
  0
LINE
  5
10A
330
C3
100
AcDbEntity
  8
AM_4
100
AcDbLine
 10
-51.08808186347402
 20
-35.36159655122496
 30
0.0
 11
-49.36956270283927
 21
-34.36940905122496
 31
0.0
  0
LINE
  5
10B
330
C3
100
AcDbEntity
  8
AM_4
100
AcDbLine
 10
-58.8362284213805
 20
-26.560778983853
 30
0.0
 11
-57.03544469754973
 21
-25.52109601614701
 31
0.0
  0
LWPOLYLINE
  5
10C
330
C3
100
AcDbEntity
  8
AM_4
100
AcDbPolyline
 90
        3
 70
     0
 43
0.0
 10
-58.23371321397514
 20
-28.065
 10
-58.58205371267969
 20
-27.34007281403007
 10
-58.8362284213805
 20
-26.560778983853
  0
LWPOLYLINE
  5
10D
330
C3
100
AcDbEntity
  8
AM_4
100
AcDbPolyline
 90
        3
 70
     0
 43
0.0
 10
-57.03544469754973
 20
-25.52109601614701
 10
-56.48991185624212
 20
-26.12801041734188
 10
-56.03400868836266
 20
-26.79500000000001
  0
LWPOLYLINE
  5
10E
330
C3
100
AcDbEntity
  8
AM_4
100
AcDbPolyline
 90
        3
 70
     0
 43
0.0
 10
-57.23227720478808
 20
-29.338903983853
 10
-57.77781004609568
 20
-28.73198958265813
 10
-58.23371321397514
 20
-28.065
  0
LWPOLYLINE
  5
10F
330
C3
100
AcDbEntity
  8
AM_4
100
AcDbPolyline
 90
        3
 70
     0
 43
0.0
 10
-56.03400868836266
 20
-26.79500000000001
 10
-55.6856681896581
 20
-27.51992718596995
 10
-55.4314934809573
 20
-28.29922101614701
  0
LINE
  5
110
330
C3
100
AcDbEntity
  8
AM_4
100
AcDbLine
 10
-57.23227720478808
 20
-29.338903983853
 30
0.0
 11
-55.4314934809573
 21
-28.29922101614701
 31
0.0
  0
LWPOLYLINE
  5
111
330
C3
100
AcDbEntity
  8
AM_4
100
AcDbPolyline
 90
        3
 70
     0
 43
0.0
 10
-55.82778638908649
 20
-32.23218750000001
 10
-56.93654484063857
 20
-30.03325497268395
 10
-57.23227720478808
 20
-29.338903983853
  0
LWPOLYLINE
  5
112
330
C3
100
AcDbEntity
  8
AM_4
100
AcDbPolyline
 90
        3
 70
     0
 43
0.0
 10
-54.02437477160321
 20
-34.89515398385301
 10
-54.96909246791641
 20
-33.59683113217643
 10
-55.82778638908649
 20
-32.23218750000001
  0
LWPOLYLINE
  5
113
330
C3
100
AcDbEntity
  8
AM_4
100
AcDbPolyline
 90
        3
 70
     0
 43
0.0
 10
-55.4314934809573
 20
-28.29922101614701
 10
-54.9780340675616
 20
-28.90250825063718
 10
-53.62808186347402
 20
-30.96218750000001
  0
LINE
  5
114
330
C3
100
AcDbEntity
  8
AM_4
100
AcDbLine
 10
-54.02437477160321
 20
-34.89515398385301
 30
0.0
 11
-52.22359104777244
 21
-33.85547101614701
 31
0.0
  0
LWPOLYLINE
  5
115
330
C3
100
AcDbEntity
  8
AM_4
100
AcDbPolyline
 90
        3
 70
     0
 43
0.0
 10
-53.42185956419785
 20
-36.39937500000001
 10
-53.77020006290241
 20
-35.67444781403006
 10
-54.02437477160321
 20
-34.89515398385301
  0
LWPOLYLINE
  5
116
330
C3
100
AcDbEntity
  8
AM_4
100
AcDbPolyline
 90
        3
 70
     0
 43
0.0
 10
-52.42042355501078
 20
-37.673278983853
 10
-52.9659563963184
 20
-37.06636458265813
 10
-53.42185956419785
 20
-36.39937500000001
  0
LINE
  5
117
330
C3
100
AcDbEntity
  8
AM_4
100
AcDbLine
 10
-52.42042355501078
 20
-37.673278983853
 30
0.0
 11
-50.61963983118002
 21
-36.63359601614701
 31
0.0
  0
LWPOLYLINE
  5
118
330
C3
100
AcDbEntity
  8
AM_4
100
AcDbPolyline
 90
        3
 70
     0
 43
0.0
 10
-51.22215503858538
 20
-35.12937500000001
 10
-50.87381453988082
 20
-35.85430218596994
 10
-50.61963983118002
 20
-36.63359601614701
  0
LWPOLYLINE
  5
119
330
C3
100
AcDbEntity
  8
AM_4
100
AcDbPolyline
 90
        3
 70
     0
 43
0.0
 10
-53.62808186347402
 20
-30.96218750000001
 10
-52.87875356062135
 20
-32.38164593596995
 10
-52.22359104777244
 20
-33.85547101614701
  0
LWPOLYLINE
  5
11A
330
C3
100
AcDbEntity
  8
AM_4
100
AcDbPolyline
 90
        3
 70
     0
 43
0.0
 10
-52.22359104777244
 20
-33.85547101614701
 10
-51.67805820646483
 20
-34.46238541734188
 10
-51.22215503858538
 20
-35.12937500000001
  0
LINE
  5
11B
330
C3
100
AcDbEntity
  8
AM_4
100
AcDbLine
 10
-59.20902227191559
 20
-38.94684494714501
 30
0.0
 11
-60.4212371889603
 21
-38.93106443761261
 31
0.0
  0
LINE
  5
11C
330
C3
100
AcDbEntity
  8
AM_4
100
AcDbLine
 10
-63.92541985494368
 20
-32.85989497817466
 30
0.0
 11
-63.33346825743899
 21
-31.80309494714501
 31
0.0
  0
LWPOLYLINE
  5
11D
330
C3
100
AcDbEntity
  8
AM_4
100
AcDbPolyline
 90
        3
 70
     0
 43
0.0
 10
-58.91216621793915
 20
-38.77545502447114
 10
-58.48103468666768
 20
-38.03041542538194
 10
-58.07112295418944
 20
-37.28665993102582
  0
LINE
  5
11E
330
C3
100
AcDbEntity
  8
AM_4
100
AcDbLine
 10
-58.07112295418944
 20
-37.28665993102582
 30
0.0
 11
-57.76577608757152
 21
-36.70012942772723
 31
0.0
  0
LWPOLYLINE
  5
11F
330
C3
100
AcDbEntity
  8
AM_4
100
AcDbPolyline
 90
        3
 70
     0
 43
0.0
 10
-57.76577608757152
 20
-36.70012942772723
 10
-57.53298542852696
 20
-36.22910892482295
 10
-57.13450917551922
 20
-35.36787425250316
  0
LINE
  5
120
330
C3
100
AcDbEntity
  8
AM_4
100
AcDbLine
 10
-58.53594060566817
 20
-37.55502252723112
 30
0.0
 11
-59.20902227191559
 21
-38.94684494714501
 31
0.0
  0
LINE
  5
121
330
C3
100
AcDbEntity
  8
AM_4
100
AcDbLine
 10
-58.91216621793915
 20
-38.77545502447114
 30
0.0
 11
-59.20902227191559
 21
-38.94684494714501
 31
0.0
  0
LINE
  5
122
330
C3
100
AcDbEntity
  8
AM_4
100
AcDbLine
 10
-59.19673216828091
 20
-31.79599925250316
 30
0.0
 11
-60.66613245037438
 21
-31.67656484729698
 31
0.0
  0
LINE
  5
123
330
C3
100
AcDbEntity
  8
AM_4
100
AcDbLine
 10
-60.66613245037438
 20
-31.67656484729698
 30
0.0
 11
-61.32675619963439
 21
-31.64773773910477
 31
0.0
  0
LWPOLYLINE
  5
124
330
C3
100
AcDbEntity
  8
AM_4
100
AcDbPolyline
 90
        3
 70
     0
 43
0.0
 10
-61.32675619963439
 20
-31.64773773910477
 10
-61.9107030808173
 20
-31.63396339412864
 10
-63.03661220346255
 20
-31.63170502447114
  0
LINE
  5
125
330
C3
100
AcDbEntity
  8
AM_4
100
AcDbLine
 10
-63.03661220346255
 20
-31.63170502447114
 30
0.0
 11
-63.33346825743899
 21
-31.80309494714501
 31
0.0
  0
LINE
  5
126
330
C3
100
AcDbEntity
  8
AM_4
100
AcDbLine
 10
-63.33346825743899
 20
-31.80309494714501
 30
0.0
 11
-61.79157385111311
 21
-31.91610033531012
 31
0.0
  0
LINE
  5
127
330
C3
100
AcDbEntity
  8
AM_4
100
AcDbLine
 10
-61.13095010185318
 20
-31.94492744350232
 30
0.0
 11
-59.50294566077976
 21
-31.97279169482686
 31
0.0
  0
LINE
  5
128
330
C3
100
AcDbEntity
  8
AM_4
100
AcDbLine
 10
-57.44072266801806
 20
-35.54466669482687
 30
0.0
 11
-58.23059373905029
 21
-36.9684920239326
 31
0.0
  0
LINE
  5
129
330
C3
100
AcDbEntity
  8
AM_4
100
AcDbLine
 10
-57.13450917551922
 20
-35.36787425250316
 30
0.0
 11
-57.82563778980104
 21
-33.96509077583033
 31
0.0
  0
LINE
  5
12A
330
C3
100
AcDbEntity
  8
AM_4
100
AcDbLine
 10
-57.82563778980104
 20
-33.96509077583033
 30
0.0
 11
-58.32745034861405
 21
-33.09592592808984
 31
0.0
  0
LWPOLYLINE
  5
12B
330
C3
100
AcDbEntity
  8
AM_4
100
AcDbPolyline
 90
        3
 70
     0
 43
0.0
 10
-58.32745034861405
 20
-33.09592592808984
 10
-58.56236568812697
 20
-32.72364633553605
 10
-59.19673216828091
 20
-31.79599925250316
  0
LINE
  5
12C
330
C3
100
AcDbEntity
  8
AM_4
100
AcDbLine
 10
-59.19673216828091
 20
-31.79599925250316
 30
0.0
 11
-59.50294566077976
 21
-31.97279169482686
 31
0.0
  0
LINE
  5
12D
330
C3
100
AcDbEntity
  8
AM_4
100
AcDbLine
 10
-59.50294566077976
 20
-31.97279169482686
 30
0.0
 11
-58.79226800009284
 21
-33.36428852429534
 31
0.0
  0
LINE
  5
12E
330
C3
100
AcDbEntity
  8
AM_4
100
AcDbLine
 10
-58.29045544127981
 20
-34.23345337203565
 30
0.0
 11
-57.44072266801806
 21
-35.54466669482687
 31
0.0
  0
LINE
  5
12F
330
C3
100
AcDbEntity
  8
AM_4
100
AcDbLine
 10
-57.13450917551922
 20
-35.36787425250316
 30
0.0
 11
-57.44072266801806
 21
-35.54466669482687
 31
0.0
  0
LINE
  5
130
330
C3
100
AcDbEntity
  8
AM_4
100
AcDbLine
 10
-61.79157385111311
 20
-31.91610033531012
 30
0.0
 11
-61.13095010185318
 21
-31.94492744350232
 31
0.0
  0
ELLIPSE
  5
131
330
C3
100
AcDbEntity
  8
AM_4
100
AcDbEllipse
 10
-61.3170699041391
 20
-35.40142681507384
 30
0.0
 11
-1.785937499999967
 21
3.093334489142521
 31
0.0
210
0.0
220
0.0
230
1.0
 40
0.9063077870366498
 41
2.894766330999748
 42
3.565561594284257
  0
ELLIPSE
  5
132
330
C3
100
AcDbEntity
  8
AM_4
100
AcDbEllipse
 10
-61.31706990413903
 20
-35.40142681507403
 30
0.0
 11
-1.785937500000052
 21
3.09333448914277
 31
0.0
210
0.0
220
0.0
230
1.0
 40
0.9063077870366502
 41
5.859216366485167
 42
6.533439990812355
  0
LINE
  5
133
330
C3
100
AcDbEntity
  8
AM_4
100
AcDbLine
 10
-58.23059373905029
 20
-36.9684920239326
 30
0.0
 11
-58.53594060566817
 21
-37.55502252723112
 31
0.0
  0
ELLIPSE
  5
134
330
C3
100
AcDbEntity
  8
AM_4
100
AcDbEllipse
 10
-61.3170699041391
 20
-35.40142681507381
 30
0.0
 11
-1.785937499999989
 21
3.093334489142528
 31
0.0
210
0.0
220
0.0
230
1.0
 40
0.9063077870366485
 41
3.764821264091932
 42
4.57143271980271
  0
LINE
  5
135
330
C3
100
AcDbEntity
  8
AM_4
100
AcDbLine
 10
-58.79226800009284
 20
-33.36428852429534
 30
0.0
 11
-58.29045544127981
 21
-34.23345337203565
 31
0.0
  0
ELLIPSE
  5
136
330
C3
100
AcDbEntity
  8
AM_4
100
AcDbEllipse
 10
-61.31706990413912
 20
-35.40142681507383
 30
0.0
 11
-1.785937499999989
 21
3.093334489142556
 31
0.0
210
0.0
220
0.0
230
1.0
 40
0.9063077870366509
 41
4.853345240966672
 42
5.659956696677449
  0
LWPOLYLINE
  5
137
330
C3
100
AcDbEntity
  8
AM_4
100
AcDbPolyline
 90
        6
 70
     0
 43
0.0
 10
-66.15735556630479
 20
-35.65648293692757
 10
-66.17393894187066
 20
-35.98480709397097
 10
-66.13562041160687
 20
-36.53386752256671
 10
-66.01585379339186
 20
-37.07685382989361
 10
-65.81723809919075
 20
-37.60049438127825
 10
-65.65771598791724
 20
-37.90750000000001
  0
LWPOLYLINE
  5
138
330
C3
100
AcDbEntity
  8
AM_4
100
AcDbPolyline
 90
       34
 70
     0
 43
0.0
 10
-63.94526667060682
 20
-39.47152303208575
 10
-63.77092986459284
 20
-39.54458620058707
 10
-63.25065771356317
 20
-39.70095418741151
 10
-62.71900925748883
 20
-39.77190021944354
 10
-62.18956445928127
 20
-39.75581762591111
 10
-61.67574045520046
 20
-39.65354914709886
 10
-61.19027341351321
 20
-39.46825070527444
 10
-60.74482263990397
 20
-39.20509281537594
 10
-60.34976938351337
 20
-38.87091846079814
 10
-60.01427487206003
 20
-38.4741407165649
 10
-59.74586577882442
 20
-38.02417286884388
 10
-59.55067953133049
 20
-37.53145817331054
 10
-59.43337846279233
 20
-37.00742814374456
 10
-59.39697744057359
 20
-36.46439690924974
 10
-59.44265602615567
 20
-35.91533641514948
 10
-59.56963079353073
 20
-35.37354670806266
 10
-59.77512524979789
 20
-34.85227974806334
 10
-60.05442893188462
 20
-34.36437519533678
 10
-60.40101220007686
 20
-33.92193789795532
 10
-60.80659354050682
 20
-33.53611301271359
 10
-61.26139002443792
 20
-33.21668011668919
 10
-61.75424416017868
 20
-32.97185263688066
 10
-62.27284070951467
 20
-32.80798298793793
 10
-62.80402128233916
 20
-32.72927211011744
 10
-63.33421785903011
 20
-32.73754619747459
 10
-63.8499765508896
 20
-32.83217961580671
 10
-64.33848145129768
 20
-33.01021355895756
 10
-64.7879651808923
 20
-33.26664368418183
 10
-65.18793850518372
 20
-33.59477436255519
 10
-65.52910310098567
 20
-33.98630537272805
 10
-65.80380110328397
 20
-34.4319134844373
 10
-66.00576859376542
 20
-34.92124634011591
 10
-66.1302047677552
 20
-35.4429583022391
 10
-66.15735556630479
 20
-35.65648293692757
  0
ELLIPSE
  5
139
330
C3
100
AcDbEntity
  8
AM_4
100
AcDbEllipse
 10
-63.59467639638497
 20
-36.71640353647999
 30
0.0
 11
1.314229537202296
 21
-2.276312331242103
 31
0.0
210
0.0
220
0.0
230
1.0
 40
0.9063077870366517
 41
0.0
 42
6.283185307179586
  0
ELLIPSE
  5
13A
330
C3
100
AcDbEntity
  8
AM_4
100
AcDbEllipse
 10
-62.88363737656876
 20
-36.30588496698485
 30
0.0
 11
-1.767186662107349
 21
3.060857085228037
 31
0.0
210
0.0
220
0.0
230
1.0
 40
0.9063077870366493
 41
0.0
 42
6.283185307179586
  0
ENDBLK
  5
C6
330
C3
100
AcDbEntity
  8
0
100
AcDbBlockEnd
  0
BLOCK
  5
13D
330
13B
100
AcDbEntity
  8
0
100
AcDbBlockBegin
  2
4_130851H_0_in_130851_0
 70
     2
 10
0.0
 20
0.0
 30
0.0
  3
4_130851H_0_in_130851_0
  1

  0
ATTDEF
  5
13F
330
13B
100
AcDbEntity
  8
AM_6
100
AcDbText
 10
96.2
 20
60.35
 30
0.0
 40
0.5
  1
WSTU-SXR -M-Housing
100
AcDbAttributeDefinition
  3

  2
NN
 70
     8
280
     0
  0
ATTDEF
  5
140
330
13B
100
AcDbEntity
  8
AM_6
100
AcDbText
 10
96.2
 20
59.85
 30
0.0
 40
0.5
  1
SXR Normal Duty Wide Slot Take-Up Bearings
100
AcDbAttributeDefinition
  3

  2
NT
 70
     8
280
     0
  0
ATTDEF
  5
141
330
13B
100
AcDbEntity
  8
AM_6
100
AcDbText
 10
96.2
 20
59.35
 30
0.0
 40
0.5
  1
130851H
100
AcDbAttributeDefinition
  3

  2
NB
 70
     8
280
     0
  0
ATTDEF
  5
142
330
13B
100
AcDbEntity
  8
AM_6
100
AcDbText
 10
96.2
 20
58.85
 30
0.0
 40
0.5
  1
$PN.H
100
AcDbAttributeDefinition
  3

  2
NBSYN
 70
     8
280
     0
  0
ATTDEF
  5
143
330
13B
100
AcDbEntity
  8
AM_6
100
AcDbText
 10
96.2
 20
58.35
 30
0.0
 40
0.5
  1
130851
100
AcDbAttributeDefinition
  3

  2
LINA
 70
     8
280
     0
  0
ATTDEF
  5
144
330
13B
100
AcDbEntity
  8
AM_6
100
AcDbText
 10
96.2
 20
57.85
 30
0.0
 40
0.5
  1
210
100
AcDbAttributeDefinition
  3

  2
SERIES
 70
     8
280
     0
  0
ATTDEF
  5
145
330
13B
100
AcDbEntity
  8
AM_6
100
AcDbText
 10
96.2
 20
57.35
 30
0.0
 40
0.5
  1
50
100
AcDbAttributeDefinition
  3

  2
SS
 70
     8
280
     0
  0
ATTDEF
  5
146
330
13B
100
AcDbEntity
  8
AM_6
100
AcDbText
 10
96.2
 20
56.85
 30
0.0
 40
0.5
  1
50.000000
100
AcDbAttributeDefinition
  3

  2
SS1
 70
     8
280
     0
  0
ATTDEF
  5
147
330
13B
100
AcDbEntity
  8
AM_6
100
AcDbText
 10
96.2
 20
56.35
 30
0.0
 40
0.5
  1
130851
100
AcDbAttributeDefinition
  3

  2
PN
 70
     8
280
     0
  0
ATTDEF
  5
148
330
13B
100
AcDbEntity
  8
AM_6
100
AcDbText
 10
96.2
 20
55.85
 30
0.0
 40
0.5
  1
WSTU-SXR-50M
100
AcDbAttributeDefinition
  3

  2
DESCRIPTION
 70
     8
280
     0
  0
ATTDEF
  5
149
330
13B
100
AcDbEntity
  8
AM_6
100
AcDbText
 10
96.2
 20
55.35
 30
0.0
 40
0.5
  1
90.000000
100
AcDbAttributeDefinition
  3

  2
BOD
 70
     8
280
     0
  0
ATTDEF
  5
14A
330
13B
100
AcDbEntity
  8
AM_6
100
AcDbText
 10
96.2
 20
54.85
 30
0.0
 40
0.5
  1
0.866100
100
AcDbAttributeDefinition
  3

  2
BW
 70
     8
280
     0
  0
ATTDEF
  5
14B
330
13B
100
AcDbEntity
  8
AM_6
100
AcDbText
 10
96.2
 20
54.35
 30
0.0
 40
0.5
  1
3.1
100
AcDbAttributeDefinition
  3

  2
W
 70
     8
280
     0
  0
ATTDEF
  5
14C
330
13B
100
AcDbEntity
  8
AM_6
100
AcDbText
 10
96.2
 20
53.85
 30
0.0
 40
0.5
  1
WS400
100
AcDbAttributeDefinition
  3

  2
FS
 70
     8
280
     0
  0
ATTDEF
  5
14D
330
13B
100
AcDbEntity
  8
AM_6
100
AcDbText
 10
96.2
 20
53.35
 30
0.0
 40
0.5
  1
57.2
100
AcDbAttributeDefinition
  3

  2
A
 70
     8
280
     0
  0
ATTDEF
  5
14E
330
13B
100
AcDbEntity
  8
AM_6
100
AcDbText
 10
96.2
 20
52.85
 30
0.0
 40
0.5
  1
57.200000
100
AcDbAttributeDefinition
  3

  2
A1
 70
     8
280
     0
  0
ATTDEF
  5
14F
330
13B
100
AcDbEntity
  8
AM_6
100
AcDbText
 10
96.2
 20
52.35
 30
0.0
 40
0.5
  1
147.8
100
AcDbAttributeDefinition
  3

  2
B
 70
     8
280
     0
  0
ATTDEF
  5
150
330
13B
100
AcDbEntity
  8
AM_6
100
AcDbText
 10
96.2
 20
51.85
 30
0.0
 40
0.5
  1
147.800000
100
AcDbAttributeDefinition
  3

  2
B1
 70
     8
280
     0
  0
ATTDEF
  5
151
330
13B
100
AcDbEntity
  8
AM_6
100
AcDbText
 10
96.2
 20
51.35
 30
0.0
 40
0.5
  1
17.48
100
AcDbAttributeDefinition
  3

  2
C
 70
     8
280
     0
  0
ATTDEF
  5
152
330
13B
100
AcDbEntity
  8
AM_6
100
AcDbText
 10
96.2
 20
50.85
 30
0.0
 40
0.5
  1
17.480000
100
AcDbAttributeDefinition
  3

  2
C1
 70
     8
280
     0
  0
ATTDEF
  5
153
330
13B
100
AcDbEntity
  8
AM_6
100
AcDbText
 10
96.2
 20
50.35
 30
0.0
 40
0.5
  1
85.9
100
AcDbAttributeDefinition
  3

  2
D
 70
     8
280
     0
  0
ATTDEF
  5
154
330
13B
100
AcDbEntity
  8
AM_6
100
AcDbText
 10
96.2
 20
49.85
 30
0.0
 40
0.5
  1
85.900000
100
AcDbAttributeDefinition
  3

  2
D1
 70
     8
280
     0
  0
ATTDEF
  5
155
330
13B
100
AcDbEntity
  8
AM_6
100
AcDbText
 10
96.2
 20
49.35
 30
0.0
 40
0.5
  1
90.4
100
AcDbAttributeDefinition
  3

  2
E
 70
     8
280
     0
  0
ATTDEF
  5
156
330
13B
100
AcDbEntity
  8
AM_6
100
AcDbText
 10
96.2
 20
48.85
 30
0.0
 40
0.5
  1
90.400000
100
AcDbAttributeDefinition
  3

  2
E1
 70
     8
280
     0
  0
ATTDEF
  5
157
330
13B
100
AcDbEntity
  8
AM_6
100
AcDbText
 10
96.2
 20
48.35
 30
0.0
 40
0.5
  1
25.4
100
AcDbAttributeDefinition
  3

  2
F
 70
     8
280
     0
  0
ATTDEF
  5
158
330
13B
100
AcDbEntity
  8
AM_6
100
AcDbText
 10
96.2
 20
47.85
 30
0.0
 40
0.5
  1
25.400000
100
AcDbAttributeDefinition
  3

  2
F1
 70
     8
280
     0
  0
ATTDEF
  5
159
330
13B
100
AcDbEntity
  8
AM_6
100
AcDbText
 10
96.2
 20
47.35
 30
0.0
 40
0.5
  1
16.0
100
AcDbAttributeDefinition
  3

  2
G
 70
     8
280
     0
  0
ATTDEF
  5
15A
330
13B
100
AcDbEntity
  8
AM_6
100
AcDbText
 10
96.2
 20
46.85
 30
0.0
 40
0.5
  1
16.000000
100
AcDbAttributeDefinition
  3

  2
G1
 70
     8
280
     0
  0
ATTDEF
  5
15B
330
13B
100
AcDbEntity
  8
AM_6
100
AcDbText
 10
96.2
 20
46.35
 30
0.0
 40
0.5
  1
19.1
100
AcDbAttributeDefinition
  3

  2
H
 70
     8
280
     0
  0
ATTDEF
  5
15C
330
13B
100
AcDbEntity
  8
AM_6
100
AcDbText
 10
96.2
 20
45.85
 30
0.0
 40
0.5
  1
19.100000
100
AcDbAttributeDefinition
  3

  2
H1
 70
     8
280
     0
  0
ATTDEF
  5
15D
330
13B
100
AcDbEntity
  8
AM_6
100
AcDbText
 10
96.2
 20
45.35
 30
0.0
 40
0.5
  1
82.6
100
AcDbAttributeDefinition
  3

  2
J
 70
     8
280
     0
  0
ATTDEF
  5
15E
330
13B
100
AcDbEntity
  8
AM_6
100
AcDbText
 10
96.2
 20
44.85
 30
0.0
 40
0.5
  1
82.600000
100
AcDbAttributeDefinition
  3

  2
J1
 70
     8
280
     0
  0
ATTDEF
  5
15F
330
13B
100
AcDbEntity
  8
AM_6
100
AcDbText
 10
96.2
 20
44.35
 30
0.0
 40
0.5
  1
49.3
100
AcDbAttributeDefinition
  3

  2
K
 70
     8
280
     0
  0
ATTDEF
  5
160
330
13B
100
AcDbEntity
  8
AM_6
100
AcDbText
 10
96.2
 20
43.85
 30
0.0
 40
0.5
  1
69.9
100
AcDbAttributeDefinition
  3

  2
L
 70
     8
280
     0
  0
ATTDEF
  5
161
330
13B
100
AcDbEntity
  8
AM_6
100
AcDbText
 10
96.2
 20
43.35
 30
0.0
 40
0.5
  1
69.900000
100
AcDbAttributeDefinition
  3

  2
L1
 70
     8
280
     0
  0
ATTDEF
  5
162
330
13B
100
AcDbEntity
  8
AM_6
100
AcDbText
 10
96.2
 20
42.85
 30
0.0
 40
0.5
  1
101.22/101.98
100
AcDbAttributeDefinition
  3

  2
M
 70
     8
280
     0
  0
ATTDEF
  5
163
330
13B
100
AcDbEntity
  8
AM_6
100
AcDbText
 10
96.2
 20
42.35
 30
0.0
 40
0.5
  1
101.980000
100
AcDbAttributeDefinition
  3

  2
M1
 70
     8
280
     0
  0
ATTDEF
  5
164
330
13B
100
AcDbEntity
  8
AM_6
100
AcDbText
 10
96.2
 20
41.85
 30
0.0
 40
0.5
  1
120.7
100
AcDbAttributeDefinition
  3

  2
N
 70
     8
280
     0
  0
ATTDEF
  5
165
330
13B
100
AcDbEntity
  8
AM_6
100
AcDbText
 10
96.2
 20
41.35
 30
0.0
 40
0.5
  1
120.700000
100
AcDbAttributeDefinition
  3

  2
N1
 70
     8
280
     0
  0
ATTDEF
  5
166
330
13B
100
AcDbEntity
  8
AM_6
100
AcDbText
 10
96.2
 20
40.85
 30
0.0
 40
0.5
  1
19.1
100
AcDbAttributeDefinition
  3

  2
R
 70
     8
280
     0
  0
ATTDEF
  5
167
330
13B
100
AcDbEntity
  8
AM_6
100
AcDbText
 10
96.2
 20
40.35
 30
0.0
 40
0.5
  1
19.100000
100
AcDbAttributeDefinition
  3

  2
R1
 70
     8
280
     0
  0
ATTDEF
  5
168
330
13B
100
AcDbEntity
  8
AM_6
100
AcDbText
 10
96.2
 20
39.85
 30
0.0
 40
0.5
  1
38.1
100
AcDbAttributeDefinition
  3

  2
S
 70
     8
280
     0
  0
ATTDEF
  5
169
330
13B
100
AcDbEntity
  8
AM_6
100
AcDbText
 10
96.2
 20
39.35
 30
0.0
 40
0.5
  1
38.100000
100
AcDbAttributeDefinition
  3

  2
S1
 70
     8
280
     0
  0
ATTDEF
  5
16A
330
13B
100
AcDbEntity
  8
AM_6
100
AcDbText
 10
96.2
 20
38.85
 30
0.0
 40
0.5
  1
49.3
100
AcDbAttributeDefinition
  3

  2
T
 70
     8
280
     0
  0
ATTDEF
  5
16B
330
13B
100
AcDbEntity
  8
AM_6
100
AcDbText
 10
96.2
 20
38.35
 30
0.0
 40
0.5
  1
4450
100
AcDbAttributeDefinition
  3

  2
CAPS
 70
     8
280
     0
  0
ATTDEF
  5
16C
330
13B
100
AcDbEntity
  8
AM_6
100
AcDbText
 10
96.2
 20
37.85
 30
0.0
 40
0.5
  1
7891
100
AcDbAttributeDefinition
  3

  2
CAPD
 70
     8
280
     0
  0
ATTDEF
  5
16D
330
13B
100
AcDbEntity
  8
AM_6
100
AcDbText
 10
96.2
 20
37.35
 30
0.0
 40
0.5
  1
baldor
100
AcDbAttributeDefinition
  3

  2
COMPANY
 70
     8
280
     0
  0
ARC
  5
16E
330
13B
100
AcDbEntity
  8
AM_9
100
AcDbCircle
 10
0.0
 20
-0.000000000000135
 30
0.0
 40
47.50000000000014
100
AcDbArc
 50
69.45902267714011
 51
110.5409773228599
  0
LINE
  5
16F
330
13B
100
AcDbEntity
  8
AM_9
100
AcDbLine
 10
-16.6666665
 20
-41.7997874130692
 30
0.0
 11
-16.6666665
 21
-44.48002054605841
 31
0.0
  0
LINE
  5
170
330
13B
100
AcDbEntity
  8
AM_9
100
AcDbLine
 10
16.66666650000001
 20
-44.48002054605841
 30
0.0
 11
16.6666665
 21
-41.7997874130692
 31
0.0
  0
LINE
  5
171
330
13B
100
AcDbEntity
  8
AM_9
100
AcDbLine
 10
-16.6666665
 20
44.48002054605841
 30
0.0
 11
-16.6666665
 21
41.7997874130692
 31
0.0
  0
ARC
  5
172
330
13B
100
AcDbEntity
  8
AM_9
100
AcDbCircle
 10
-0.0000000000000071
 20
0.0000000000000995
 30
0.0
 40
47.5000000000001
100
AcDbArc
 50
249.4590226771401
 51
290.5409773228599
  0
LINE
  5
173
330
13B
100
AcDbEntity
  8
AM_9
100
AcDbLine
 10
16.6666665
 20
41.7997874130692
 30
0.0
 11
16.6666665
 21
44.48002054605841
 31
0.0
  0
LINE
  5
174
330
13B
100
AcDbEntity
  8
AM_9
100
AcDbLine
 10
42.95
 20
50.99
 30
0.0
 11
-42.95
 21
50.99
 31
0.0
  0
LINE
  5
175
330
13B
100
AcDbEntity
  8
AM_9
100
AcDbLine
 10
42.95
 20
-50.99
 30
0.0
 11
-42.95
 21
-50.99
 31
0.0
  0
LINE
  5
176
330
13B
100
AcDbEntity
  8
AM_9
100
AcDbLine
 10
74.4
 20
-12.7
 30
0.0
 11
90.4
 21
-12.7
 31
0.0
  0
LINE
  5
177
330
13B
100
AcDbEntity
  8
AM_9
100
AcDbLine
 10
90.4
 20
12.7
 30
0.0
 11
74.4
 21
12.7
 31
0.0
  0
LINE
  5
178
330
13B
100
AcDbEntity
  8
AM_7
100
AcDbLine
 10
-47.25
 20
0.0
 30
0.0
 11
48.33250000000001
 21
0.0
 31
0.0
  0
LINE
  5
179
330
13B
100
AcDbEntity
  8
AM_7
100
AcDbLine
 10
0.0
 20
-47.25
 30
0.0
 11
0.0
 21
47.25
 31
0.0
  0
LINE
  5
17A
330
13B
100
AcDbEntity
  8
AM_7
100
AcDbLine
 10
-64.2760265827669
 20
-37.10978125
 30
0.0
 11
-37.99079261497734
 21
-21.93399434298441
 31
0.0
  0
LINE
  5
17B
330
13B
100
AcDbEntity
  8
AM_7
100
AcDbLine
 10
91.2
 20
0.0
 30
0.0
 11
73.60000000000001
 21
0.0
 31
0.0
  0
LINE
  5
17C
330
13B
100
AcDbEntity
  8
AM_4
100
AcDbLine
 10
-56.35456270283928
 20
-22.27103416035635
 30
0.0
 11
-47.46456270641204
 21
-37.66896583345546
 31
0.0
  0
ARC
  5
17D
330
13B
100
AcDbEntity
  8
AM_4
100
AcDbCircle
 10
-45.26485817722681
 20
-36.39896583964369
 30
0.0
 40
2.539999999999989
100
AcDbArc
 50
209.9999999999999
 51
300.0000000000002
  0
ARC
  5
17E
330
13B
100
AcDbEntity
  8
AM_4
100
AcDbCircle
 10
-54.15485817722681
 20
-21.00103416035635
 30
0.0
 40
2.539999999999995
100
AcDbArc
 50
119.9999999999998
 51
210.0000000000002
  0
LINE
  5
17F
330
13B
100
AcDbEntity
  8
AM_4
100
AcDbLine
 10
-55.4248581772268
 20
-18.80132963474388
 30
0.0
 11
-43.9948581772268
 21
-38.59867036525614
 31
0.0
  0
LINE
  5
180
330
13B
100
AcDbEntity
  8
AM_4
100
AcDbLine
 10
-43.9948581772268
 20
-38.59867036525614
 30
0.0
 11
-43.00616097081463
 21
-38.02784576698704
 31
0.0
  0
LINE
  5
181
330
13B
100
AcDbEntity
  8
AM_4
100
AcDbLine
 10
-54.43230945736896
 20
-18.22828136415013
 30
0.0
 11
-55.4248581772268
 21
-18.80132963474388
 31
0.0
  0
ARC
  5
182
330
13B
100
AcDbEntity
  8
AM_4
100
AcDbCircle
 10
0.0000000000000355
 20
0.0
 30
0.0
 40
57.40000000000005
100
AcDbArc
 50
138.4396911167221
 51
221.5603088832779
  0
LWPOLYLINE
  5
183
330
13B
100
AcDbEntity
  8
AM_4
100
AcDbPolyline
 90
       19
 70
     0
 43
0.0
 10
90.4
 20
39.55199999999999
 10
90.39334833226438
 20
39.70434823832289
 10
90.37344395226535
 20
39.85553701456178
 10
90.34043834435329
 20
40.0044156908392
 10
90.29458270113378
 20
40.14985121053326
 10
90.23622601174007
 20
40.29073672152274
 10
90.1658124058152
 20
40.42599999999999
 10
90.08387777341716
 20
40.55461161074162
 10
89.99104568657197
 20
40.67559274173207
 10
89.88802265351408
 20
40.78802265351408
 10
89.77559274173208
 20
40.89104568657196
 10
89.65461161074164
 20
40.98387777341715
 10
89.52600000000001
 20
41.06581240581519
 10
89.39073672152274
 20
41.13622601174006
 10
89.24985121053328
 20
41.19458270113376
 10
89.10441569083922
 20
41.24043834435329
 10
88.9555370145618
 20
41.27344395226534
 10
88.8043482383229
 20
41.29334833226437
 10
88.65200000000002
 20
41.3
  0
LINE
  5
184
330
13B
100
AcDbEntity
  8
AM_4
100
AcDbLine
 10
88.65200000000002
 20
41.3
 30
0.0
 11
42.95
 21
41.3
 31
0.0
  0
LWPOLYLINE
  5
185
330
13B
100
AcDbEntity
  8
AM_4
100
AcDbPolyline
 90
       19
 70
     0
 43
0.0
 10
88.65200000000002
 20
-41.3
 10
88.8043482383229
 20
-41.29334833226438
 10
88.9555370145618
 20
-41.27344395226535
 10
89.10441569083922
 20
-41.24043834435329
 10
89.24985121053328
 20
-41.19458270113377
 10
89.39073672152274
 20
-41.13622601174006
 10
89.52600000000001
 20
-41.0658124058152
 10
89.65461161074164
 20
-40.98387777341716
 10
89.77559274173208
 20
-40.89104568657198
 10
89.88802265351408
 20
-40.78802265351409
 10
89.99104568657198
 20
-40.67559274173207
 10
90.08387777341717
 20
-40.55461161074164
 10
90.1658124058152
 20
-40.426
 10
90.23622601174007
 20
-40.29073672152275
 10
90.29458270113378
 20
-40.14985121053327
 10
90.34043834435329
 20
-40.00441569083922
 10
90.37344395226535
 20
-39.8555370145618
 10
90.39334833226438
 20
-39.70434823832291
 10
90.4
 20
-39.55200000000001
  0
LINE
  5
186
330
13B
100
AcDbEntity
  8
AM_4
100
AcDbLine
 10
88.65200000000002
 20
-41.3
 30
0.0
 11
42.95
 21
-41.3
 31
0.0
  0
LINE
  5
187
330
13B
100
AcDbEntity
  8
AM_4
100
AcDbLine
 10
90.4
 20
39.55199999999999
 30
0.0
 11
90.4
 21
-39.55199999999999
 31
0.0
  0
LINE
  5
188
330
13B
100
AcDbEntity
  8
AM_4
100
AcDbLine
 10
74.4
 20
-22.90200000000002
 30
0.0
 11
74.4
 21
22.90199999999999
 31
0.0
  0
CIRCLE
  5
189
330
13B
100
AcDbEntity
  8
AM_4
100
AcDbCircle
 10
0.0
 20
0.0
 30
0.0
 40
45.0
  0
LINE
  5
18A
330
13B
100
AcDbEntity
  8
AM_4
100
AcDbLine
 10
90.4
 20
39.55199999999999
 30
0.0
 11
42.95
 21
39.55199999999999
 31
0.0
  0
ARC
  5
18B
330
13B
100
AcDbEntity
  8
AM_4
100
AcDbCircle
 10
-0.0000000000000213
 20
0.0
 30
0.0
 40
56.41400000000002
100
AcDbArc
 50
139.5821044127833
 51
220.4178955872167
  0
LINE
  5
18C
330
13B
100
AcDbEntity
  8
AM_4
100
AcDbLine
 10
90.4
 20
-39.55199999999999
 30
0.0
 11
42.95
 21
-39.55200000000001
 31
0.0
  0
ARC
  5
18D
330
13B
100
AcDbEntity
  8
AM_4
100
AcDbCircle
 10
72.652
 20
-22.90199999999999
 30
0.0
 40
1.748000000000005
100
AcDbArc
 50
270.0
 51
0.0
  0
LINE
  5
18E
330
13B
100
AcDbEntity
  8
AM_4
100
AcDbLine
 10
57.04800000000001
 20
-24.65
 30
0.0
 11
72.65200000000002
 21
-24.65
 31
0.0
  0
ARC
  5
18F
330
13B
100
AcDbEntity
  8
AM_4
100
AcDbCircle
 10
57.04800000000001
 20
-22.90199999999999
 30
0.0
 40
1.747999999999998
100
AcDbArc
 50
180.0
 51
270.0
  0
LINE
  5
190
330
13B
100
AcDbEntity
  8
AM_4
100
AcDbLine
 10
55.30000000000001
 20
22.90199999999999
 30
0.0
 11
55.30000000000001
 21
-22.90199999999999
 31
0.0
  0
ARC
  5
191
330
13B
100
AcDbEntity
  8
AM_4
100
AcDbCircle
 10
57.04800000000003
 20
22.90199999999998
 30
0.0
 40
1.748000000000015
100
AcDbArc
 50
90.0
 51
180.0
  0
LINE
  5
192
330
13B
100
AcDbEntity
  8
AM_4
100
AcDbLine
 10
72.65200000000002
 20
24.65
 30
0.0
 11
57.04800000000002
 21
24.65
 31
0.0
  0
ARC
  5
193
330
13B
100
AcDbEntity
  8
AM_4
100
AcDbCircle
 10
72.65199999999997
 20
22.90199999999998
 30
0.0
 40
1.748000000000033
100
AcDbArc
 50
0.0
 51
90.0
  0
LINE
  5
194
330
13B
100
AcDbEntity
  8
AM_4
100
AcDbLine
 10
42.95
 20
46.31000000000003
 30
0.0
 11
-42.95
 21
46.31000000000003
 31
0.0
  0
LWPOLYLINE
  5
195
330
13B
100
AcDbEntity
  8
AM_4
100
AcDbPolyline
 90
       19
 70
     0
 43
0.0
 10
-41.20200000000001
 20
60.35
 10
-41.35434823832291
 20
60.34334833226438
 10
-41.5055370145618
 20
60.32344395226534
 10
-41.65441569083922
 20
60.29043834435329
 10
-41.79985121053328
 20
60.24458270113377
 10
-41.94073672152275
 20
60.18622601174006
 10
-42.07600000000001
 20
60.1158124058152
 10
-42.20461161074164
 20
60.03387777341715
 10
-42.32559274173208
 20
59.94104568657197
 10
-42.4380226535141
 20
59.83802265351408
 10
-42.54104568657198
 20
59.72559274173206
 10
-42.63387777341716
 20
59.60461161074163
 10
-42.71581240581521
 20
59.47599999999999
 10
-42.78622601174007
 20
59.34073672152275
 10
-42.84458270113377
 20
59.19985121053326
 10
-42.8904383443533
 20
59.05441569083921
 10
-42.92344395226535
 20
58.90553701456179
 10
-42.94334833226439
 20
58.7543482383229
 10
-42.95000000000001
 20
58.602
  0
LINE
  5
196
330
13B
100
AcDbEntity
  8
AM_4
100
AcDbLine
 10
41.202
 20
60.35
 30
0.0
 11
-41.20200000000001
 21
60.35
 31
0.0
  0
LWPOLYLINE
  5
197
330
13B
100
AcDbEntity
  8
AM_4
100
AcDbPolyline
 90
       19
 70
     0
 43
0.0
 10
42.95000000000001
 20
58.60199999999999
 10
42.94334833226439
 20
58.75434823832289
 10
42.92344395226535
 20
58.90553701456178
 10
42.8904383443533
 20
59.0544156908392
 10
42.84458270113377
 20
59.19985121053326
 10
42.78622601174007
 20
59.34073672152274
 10
42.71581240581521
 20
59.47599999999999
 10
42.63387777341716
 20
59.60461161074163
 10
42.54104568657198
 20
59.72559274173206
 10
42.43802265351409
 20
59.83802265351408
 10
42.32559274173207
 20
59.94104568657197
 10
42.20461161074164
 20
60.03387777341715
 10
42.076
 20
60.1158124058152
 10
41.94073672152275
 20
60.18622601174006
 10
41.79985121053327
 20
60.24458270113377
 10
41.65441569083921
 20
60.29043834435329
 10
41.5055370145618
 20
60.32344395226534
 10
41.35434823832291
 20
60.34334833226438
 10
41.202
 20
60.35
  0
LINE
  5
198
330
13B
100
AcDbEntity
  8
AM_4
100
AcDbLine
 10
42.95
 20
-39.55200000000001
 30
0.0
 11
42.95
 21
-58.602
 31
0.0
  0
LINE
  5
199
330
13B
100
AcDbEntity
  8
AM_4
100
AcDbLine
 10
-42.95
 20
-36.57645275310337
 30
0.0
 11
-42.95
 21
-58.60200000000001
 31
0.0
  0
LINE
  5
19A
330
13B
100
AcDbEntity
  8
AM_4
100
AcDbLine
 10
42.95
 20
58.60199999999998
 30
0.0
 11
42.95
 21
39.55199999999999
 31
0.0
  0
LINE
  5
19B
330
13B
100
AcDbEntity
  8
AM_4
100
AcDbLine
 10
-42.95
 20
58.60200000000001
 30
0.0
 11
-42.95
 21
36.57645275310338
 31
0.0
  0
LINE
  5
19C
330
13B
100
AcDbEntity
  8
AM_4
100
AcDbLine
 10
42.95
 20
48.932
 30
0.0
 11
-42.95
 21
48.932
 31
0.0
  0
LINE
  5
19D
330
13B
100
AcDbEntity
  8
AM_4
100
AcDbLine
 10
42.95
 20
58.60199999999998
 30
0.0
 11
-42.95
 21
58.60200000000001
 31
0.0
  0
LWPOLYLINE
  5
19E
330
13B
100
AcDbEntity
  8
AM_4
100
AcDbPolyline
 90
       19
 70
     0
 43
0.0
 10
-42.95
 20
-58.60200010739548
 10
-42.94334832290424
 20
-58.75434834530971
 10
-42.92344393361631
 20
-58.90553712032569
 10
-42.89043831655729
 20
-59.05441579457526
 10
-42.84458266440235
 20
-59.199851311452
 10
-42.78622596635278
 20
-59.3407368188561
 10
-42.71581235211747
 20
-59.47600009300721
 10
-42.63387771181765
 20
-59.60461169871486
 10
-42.54104561753949
 20
-59.72559282400178
 10
-42.43802257757402
 20
-59.83802272945415
 10
-42.32559265946236
 20
-59.94104575560445
 10
-42.20461152276841
 20
-60.03387783501667
 10
-42.07599990699279
 20
-60.11581245951293
 10
-41.94073662418938
 20
-60.18622605712735
 10
-41.79985110961453
 20
-60.24458273786519
 10
-41.65441558710314
 20
-60.29043837214928
 10
-41.50553690879789
 20
-60.32344397091437
 10
-41.3543481313361
 20
-60.3433483416245
 10
-41.20200000000001
 20
-60.35
  0
LINE
  5
19F
330
13B
100
AcDbEntity
  8
AM_4
100
AcDbLine
 10
41.20200000000001
 20
-60.35
 30
0.0
 11
-41.202
 21
-60.35
 31
0.0
  0
LWPOLYLINE
  5
1A0
330
13B
100
AcDbEntity
  8
AM_4
100
AcDbPolyline
 90
       19
 70
     0
 43
0.0
 10
41.20200000000001
 20
-60.35
 10
41.35434823832291
 20
-60.34334833226437
 10
41.5055370145618
 20
-60.32344395226534
 10
41.65441569083922
 20
-60.29043834435329
 10
41.79985121053327
 20
-60.24458270113377
 10
41.94073672152275
 20
-60.18622601174006
 10
42.076
 20
-60.11581240581519
 10
42.20461161074164
 20
-60.03387777341715
 10
42.32559274173207
 20
-59.94104568657196
 10
42.43802265351409
 20
-59.83802265351408
 10
42.54104568657198
 20
-59.72559274173206
 10
42.63387777341715
 20
-59.60461161074162
 10
42.7158124058152
 20
-59.47599999999999
 10
42.78622601174006
 20
-59.34073672152274
 10
42.84458270113377
 20
-59.19985121053326
 10
42.89043834435329
 20
-59.0544156908392
 10
42.92344395226534
 20
-58.90553701456178
 10
42.94334833226438
 20
-58.75434823832289
 10
42.95
 20
-58.60200003683634
  0
LINE
  5
1A1
330
13B
100
AcDbEntity
  8
AM_4
100
AcDbLine
 10
42.95
 20
-58.602
 30
0.0
 11
-42.95
 21
-58.60200000000001
 31
0.0
  0
LINE
  5
1A2
330
13B
100
AcDbEntity
  8
AM_4
100
AcDbLine
 10
42.95
 20
-48.932
 30
0.0
 11
-42.95
 21
-48.932
 31
0.0
  0
LINE
  5
1A3
330
13B
100
AcDbEntity
  8
AM_4
100
AcDbLine
 10
42.95
 20
-46.31000000000002
 30
0.0
 11
-42.95
 21
-46.31000000000002
 31
0.0
  0
LINE
  5
1A4
330
13B
100
AcDbEntity
  8
AM_4
100
AcDbLine
 10
74.4
 20
19.66881633449252
 30
0.0
 11
90.4
 21
19.66881633449252
 31
0.0
  0
LINE
  5
1A5
330
13B
100
AcDbEntity
  8
AM_4
100
AcDbLine
 10
90.4
 20
-19.66881633449251
 30
0.0
 11
74.4
 21
-19.66881633449252
 31
0.0
  0
ENDBLK
  5
13E
330
13B
100
AcDbEntity
  8
0
100
AcDbBlockEnd
  0
ENDSEC
  0
SECTION
  2
ENTITIES
  0
INSERT
  5
6F
330
1F
100
AcDbEntity
  8
0
100
AcDbBlockReference
  2
1_130851_0
 10
0.0
 20
0.0
 30
0.0
  0
POINT
  5
1A7
330
1F
100
AcDbEntity
  8
ConnectionPoints
100
AcDbPoint
 10
-51.90956270283927
 20
-29.97000000000001
 30
0.0
  0
POINT
  5
1A8
330
1F
100
AcDbEntity
  8
ConnectionPoints
100
AcDbPoint
 10
-51.90956270283927
 20
-29.97000000000001
 30
0.0
  0
POINT
  5
1A9
330
1F
100
AcDbEntity
  8
ConnectionPoints
100
AcDbPoint
 10
0.0
 20
0.0
 30
38.1
  0
ENDSEC
  0
SECTION
  2
OBJECTS
  0
DICTIONARY
  5
C
330
0
100
AcDbDictionary
281
     1
  3
ACAD_DETAILVIEWSTYLE
350
1B1
  3
ACAD_GROUP
350
D
  3
ACAD_LAYOUT
350
1A
  3
ACAD_MATERIAL
350
43
  3
ACAD_MLEADERSTYLE
350
6B
  3
ACAD_MLINESTYLE
350
17
  3
ACAD_PLOTSETTINGS
350
19
  3
ACAD_PLOTSTYLENAME
350
E
  3
ACAD_SCALELIST
350
47
  3
ACAD_SECTIONVIEWSTYLE
350
1B2
  3
ACAD_TABLESTYLE
350
69
  3
ACAD_VISUALSTYLE
350
2A
  3
ACDB_RECOMPOSE_DATA
350
1AE
  3
AcDbVariableDictionary
350
1AA
  0
SUN
  5
6D
330
29
100
AcDbSun
 90
        1
290
     0
 63
     7
421
 16777215
 40
1.0
291
     1
 91
  2455826
 92
 54000000
292
     0
 70
     2
 71
   256
280
     1
  0
DICTIONARY
  5
1B1
102
{ACAD_REACTORS
330
C
102
}
330
C
100
AcDbDictionary
281
     1
  0
DICTIONARY
  5
D
102
{ACAD_REACTORS
330
C
102
}
330
C
100
AcDbDictionary
281
     1
  0
DICTIONARY
  5
1A
102
{ACAD_REACTORS
330
C
102
}
330
C
100
AcDbDictionary
281
     1
  3
Layout1
350
1E
  3
Layout2
350
26
  3
Model
350
22
  0
DICTIONARY
  5
43
102
{ACAD_REACTORS
330
C
102
}
330
C
100
AcDbDictionary
281
     1
  3
ByBlock
350
45
  3
ByLayer
350
44
  3
Global
350
46
  0
DICTIONARY
  5
6B
102
{ACAD_REACTORS
330
C
102
}
330
C
100
AcDbDictionary
281
     1
  3
Standard
350
6C
  0
DICTIONARY
  5
17
102
{ACAD_REACTORS
330
C
102
}
330
C
100
AcDbDictionary
281
     1
  3
Standard
350
18
  0
DICTIONARY
  5
19
102
{ACAD_REACTORS
330
C
102
}
330
C
100
AcDbDictionary
281
     1
  0
ACDBDICTIONARYWDFLT
  5
E
102
{ACAD_REACTORS
330
C
102
}
330
C
100
AcDbDictionary
281
     1
  3
Normal
350
F
100
AcDbDictionaryWithDefault
340
F
  0
DICTIONARY
  5
47
102
{ACAD_REACTORS
330
C
102
}
330
C
100
AcDbDictionary
281
     1
  3
A0
350
48
  3
A1
350
49
  3
A2
350
4A
  3
A3
350
4B
  3
A4
350
4C
  3
A5
350
4D
  3
A6
350
4E
  3
A7
350
4F
  3
A8
350
50
  3
A9
350
51
  3
B0
350
52
  3
B1
350
53
  3
B2
350
54
  3
B3
350
55
  3
B4
350
56
  3
B5
350
57
  3
B6
350
58
  3
B7
350
59
  3
B8
350
5A
  3
B9
350
5B
  3
C0
350
5C
  3
C1
350
5D
  3
C2
350
5E
  3
C3
350
5F
  3
C4
350
60
  3
C5
350
61
  3
C6
350
62
  3
C7
350
63
  3
C8
350
64
  3
C9
350
65
  3
D0
350
66
  3
D1
350
67
  3
D2
350
68
  0
DICTIONARY
  5
1B2
102
{ACAD_REACTORS
330
C
102
}
330
C
100
AcDbDictionary
281
     1
  0
DICTIONARY
  5
69
102
{ACAD_REACTORS
330
C
102
}
330
C
100
AcDbDictionary
281
     1
  3
Standard
350
6A
  0
DICTIONARY
  5
2A
102
{ACAD_REACTORS
330
C
102
}
330
C
100
AcDbDictionary
281
     1
  3
2dWireframe
350
2F
  3
Basic
350
32
  3
Brighten
350
36
  3
ColorChange
350
3A
  3
Conceptual
350
34
  3
Dim
350
35
  3
EdgeColorOff
350
3D
  3
Facepattern
350
39
  3
Flat
350
2B
  3
FlatWithEdges
350
2C
  3
Gouraud
350
2D
  3
GouraudWithEdges
350
2E
  3
Hidden
350
31
  3
JitterOff
350
3B
  3
Linepattern
350
38
  3
OverhangOff
350
3C
  3
Realistic
350
33
  3
Shaded
350
42
  3
Shaded with edges
350
41
  3
Shades of Gray
350
3E
  3
Sketchy
350
3F
  3
Thicken
350
37
  3
Wireframe
350
30
  3
X-Ray
350
40
  0
XRECORD
  5
1AE
102
{ACAD_REACTORS
330
C
102
}
330
C
100
AcDbXrecord
280
     1
 90
        1
330
6A
  0
DICTIONARY
  5
1AA
102
{ACAD_REACTORS
330
C
102
}
330
C
100
AcDbDictionary
281
     1
  3
CANNOSCALE
350
1AB
  3
CMLEADERSTYLE
350
1B0
  3
CTABLESTYLE
350
1AF
  0
LAYOUT
  5
1E
102
{ACAD_REACTORS
330
1A
102
}
330
1A
100
AcDbPlotSettings
  1

  2
none_device
  4

  6

 40
0.0
 41
0.0
 42
0.0
 43
0.0
 44
0.0
 45
0.0
 46
0.0
 47
0.0
 48
0.0
 49
0.0
140
0.0
141
0.0
142
1.0
143
1.0
 70
   688
 72
     1
 73
     0
 74
     5
  7

 75
    16
 76
     0
 77
     2
 78
   300
147
1.0
148
0.0
149
0.0
100
AcDbLayout
  1
Layout1
 70
     1
 71
     1
 10
0.0
 20
0.0
 11
420.0
 21
297.0
 12
0.0
 22
0.0
 32
0.0
 14
1.000000000000000E+20
 24
1.000000000000000E+20
 34
1.000000000000000E+20
 15
-1.000000000000000E+20
 25
-1.000000000000000E+20
 35
-1.000000000000000E+20
146
0.0
 13
0.0
 23
0.0
 33
0.0
 16
1.0
 26
0.0
 36
0.0
 17
0.0
 27
1.0
 37
0.0
 76
     0
330
1B
  0
LAYOUT
  5
26
102
{ACAD_REACTORS
330
1A
102
}
330
1A
100
AcDbPlotSettings
  1

  2
none_device
  4

  6

 40
0.0
 41
0.0
 42
0.0
 43
0.0
 44
0.0
 45
0.0
 46
0.0
 47
0.0
 48
0.0
 49
0.0
140
0.0
141
0.0
142
1.0
143
1.0
 70
   688
 72
     1
 73
     0
 74
     5
  7

 75
    16
 76
     0
 77
     2
 78
   300
147
1.0
148
0.0
149
0.0
100
AcDbLayout
  1
Layout2
 70
     1
 71
     2
 10
0.0
 20
0.0
 11
0.0
 21
0.0
 12
0.0
 22
0.0
 32
0.0
 14
0.0
 24
0.0
 34
0.0
 15
0.0
 25
0.0
 35
0.0
146
0.0
 13
0.0
 23
0.0
 33
0.0
 16
1.0
 26
0.0
 36
0.0
 17
0.0
 27
1.0
 37
0.0
 76
     0
330
23
  0
LAYOUT
  5
22
102
{ACAD_REACTORS
330
1A
102
}
330
1A
100
AcDbPlotSettings
  1

  2
none_device
  4
Letter_(8.50_x_11.00_Inches)
  6

 40
6.35
 41
6.35
 42
6.35000508
 43
6.35000508
 44
215.9
 45
279.4
 46
0.0
 47
0.0
 48
0.0
 49
0.0
140
0.0
141
0.0
142
1.0
143
1.0
 70
  1712
 72
     1
 73
     0
 74
     0
  7

 75
     0
 76
     0
 77
     2
 78
   300
147
1.0
148
0.0
149
0.0
100
AcDbLayout
  1
Model
 70
     1
 71
     0
 10
0.0
 20
0.0
 11
420.0
 21
297.0
 12
0.0
 22
0.0
 32
0.0
 14
1.000000000000000E+20
 24
1.000000000000000E+20
 34
1.000000000000000E+20
 15
-1.000000000000000E+20
 25
-1.000000000000000E+20
 35
-1.000000000000000E+20
146
0.0
 13
0.0
 23
0.0
 33
0.0
 16
1.0
 26
0.0
 36
0.0
 17
0.0
 27
1.0
 37
0.0
 76
     0
330
1F
331
29
  0
MATERIAL
  5
45
102
{ACAD_REACTORS
330
43
102
}
330
43
100
AcDbMaterial
  1
ByBlock
 72
     1
 94
      127
  0
MATERIAL
  5
44
102
{ACAD_REACTORS
330
43
102
}
330
43
100
AcDbMaterial
  1
ByLayer
 72
     1
 94
      127
  0
MATERIAL
  5
46
102
{ACAD_REACTORS
330
43
102
}
330
43
100
AcDbMaterial
  1
Global
 72
     1
 94
      127
  0
MLEADERSTYLE
  5
6C
102
{ACAD_REACTORS
330
6B
102
}
330
6B
100
AcDbMLeaderStyle
179
     2
170
     2
171
     1
172
     0
 90
        2
 40
0.0
 41
0.0
173
     1
 91
-1056964608
340
14
 92
       -2
290
     1
 42
2.0
291
     1
 43
8.0
  3
Standard
341
0
 44
4.0
300

342
11
174
     1
178
     6
175
     1
176
     0
 93
-1056964608
 45
4.0
292
     0
297
     0
 46
4.0
343
0
 94
-1056964608
 47
1.0
 49
1.0
140
1.0
293
     1
141
0.0
294
     1
177
     0
142
1.0
295
     0
296
     0
143
3.75
271
     0
272
     9
273
     9
298
     0
  0
MLINESTYLE
  5
18
102
{ACAD_REACTORS
330
17
102
}
330
17
100
AcDbMlineStyle
  2
Standard
 70
     0
  3

 62
   256
 51
90.0
 52
90.0
 71
     2
 49
0.5
 62
   256
  6
BYLAYER
 49
-0.5
 62
   256
  6
BYLAYER
  0
ACDBPLACEHOLDER
  5
F
102
{ACAD_REACTORS
330
E
102
}
330
E
  0
SCALE
  5
48
102
{ACAD_REACTORS
330
47
102
}
330
47
100
AcDbScale
 70
     0
300
1:1
140
1.0
141
1.0
290
     1
  0
SCALE
  5
49
102
{ACAD_REACTORS
330
47
102
}
330
47
100
AcDbScale
 70
     0
300
1:2
140
1.0
141
2.0
290
     0
  0
SCALE
  5
4A
102
{ACAD_REACTORS
330
47
102
}
330
47
100
AcDbScale
 70
     0
300
1:4
140
1.0
141
4.0
290
     0
  0
SCALE
  5
4B
102
{ACAD_REACTORS
330
47
102
}
330
47
100
AcDbScale
 70
     0
300
1:5
140
1.0
141
5.0
290
     0
  0
SCALE
  5
4C
102
{ACAD_REACTORS
330
47
102
}
330
47
100
AcDbScale
 70
     0
300
1:8
140
1.0
141
8.0
290
     0
  0
SCALE
  5
4D
102
{ACAD_REACTORS
330
47
102
}
330
47
100
AcDbScale
 70
     0
300
1:10
140
1.0
141
10.0
290
     0
  0
SCALE
  5
4E
102
{ACAD_REACTORS
330
47
102
}
330
47
100
AcDbScale
 70
     0
300
1:16
140
1.0
141
16.0
290
     0
  0
SCALE
  5
4F
102
{ACAD_REACTORS
330
47
102
}
330
47
100
AcDbScale
 70
     0
300
1:20
140
1.0
141
20.0
290
     0
  0
SCALE
  5
50
102
{ACAD_REACTORS
330
47
102
}
330
47
100
AcDbScale
 70
     0
300
1:30
140
1.0
141
30.0
290
     0
  0
SCALE
  5
51
102
{ACAD_REACTORS
330
47
102
}
330
47
100
AcDbScale
 70
     0
300
1:40
140
1.0
141
40.0
290
     0
  0
SCALE
  5
52
102
{ACAD_REACTORS
330
47
102
}
330
47
100
AcDbScale
 70
     0
300
1:50
140
1.0
141
50.0
290
     0
  0
SCALE
  5
53
102
{ACAD_REACTORS
330
47
102
}
330
47
100
AcDbScale
 70
     0
300
1:100
140
1.0
141
100.0
290
     0
  0
SCALE
  5
54
102
{ACAD_REACTORS
330
47
102
}
330
47
100
AcDbScale
 70
     0
300
2:1
140
2.0
141
1.0
290
     0
  0
SCALE
  5
55
102
{ACAD_REACTORS
330
47
102
}
330
47
100
AcDbScale
 70
     0
300
4:1
140
4.0
141
1.0
290
     0
  0
SCALE
  5
56
102
{ACAD_REACTORS
330
47
102
}
330
47
100
AcDbScale
 70
     0
300
8:1
140
8.0
141
1.0
290
     0
  0
SCALE
  5
57
102
{ACAD_REACTORS
330
47
102
}
330
47
100
AcDbScale
 70
     0
300
10:1
140
10.0
141
1.0
290
     0
  0
SCALE
  5
58
102
{ACAD_REACTORS
330
47
102
}
330
47
100
AcDbScale
 70
     0
300
100:1
140
100.0
141
1.0
290
     0
  0
SCALE
  5
59
102
{ACAD_REACTORS
330
47
102
}
330
47
100
AcDbScale
 70
     0
300
1/128" = 1'-0"
140
0.0078125
141
12.0
290
     0
  0
SCALE
  5
5A
102
{ACAD_REACTORS
330
47
102
}
330
47
100
AcDbScale
 70
     0
300
1/64" = 1'-0"
140
0.015625
141
12.0
290
     0
  0
SCALE
  5
5B
102
{ACAD_REACTORS
330
47
102
}
330
47
100
AcDbScale
 70
     0
300
1/32" = 1'-0"
140
0.03125
141
12.0
290
     0
  0
SCALE
  5
5C
102
{ACAD_REACTORS
330
47
102
}
330
47
100
AcDbScale
 70
     0
300
1/16" = 1'-0"
140
0.0625
141
12.0
290
     0
  0
SCALE
  5
5D
102
{ACAD_REACTORS
330
47
102
}
330
47
100
AcDbScale
 70
     0
300
3/32" = 1'-0"
140
0.09375
141
12.0
290
     0
  0
SCALE
  5
5E
102
{ACAD_REACTORS
330
47
102
}
330
47
100
AcDbScale
 70
     0
300
1/8" = 1'-0"
140
0.125
141
12.0
290
     0
  0
SCALE
  5
5F
102
{ACAD_REACTORS
330
47
102
}
330
47
100
AcDbScale
 70
     0
300
3/16" = 1'-0"
140
0.1875
141
12.0
290
     0
  0
SCALE
  5
60
102
{ACAD_REACTORS
330
47
102
}
330
47
100
AcDbScale
 70
     0
300
1/4" = 1'-0"
140
0.25
141
12.0
290
     0
  0
SCALE
  5
61
102
{ACAD_REACTORS
330
47
102
}
330
47
100
AcDbScale
 70
     0
300
3/8" = 1'-0"
140
0.375
141
12.0
290
     0
  0
SCALE
  5
62
102
{ACAD_REACTORS
330
47
102
}
330
47
100
AcDbScale
 70
     0
300
1/2" = 1'-0"
140
0.5
141
12.0
290
     0
  0
SCALE
  5
63
102
{ACAD_REACTORS
330
47
102
}
330
47
100
AcDbScale
 70
     0
300
3/4" = 1'-0"
140
0.75
141
12.0
290
     0
  0
SCALE
  5
64
102
{ACAD_REACTORS
330
47
102
}
330
47
100
AcDbScale
 70
     0
300
1" = 1'-0"
140
1.0
141
12.0
290
     0
  0
SCALE
  5
65
102
{ACAD_REACTORS
330
47
102
}
330
47
100
AcDbScale
 70
     0
300
1-1/2" = 1'-0"
140
1.5
141
12.0
290
     0
  0
SCALE
  5
66
102
{ACAD_REACTORS
330
47
102
}
330
47
100
AcDbScale
 70
     0
300
3" = 1'-0"
140
3.0
141
12.0
290
     0
  0
SCALE
  5
67
102
{ACAD_REACTORS
330
47
102
}
330
47
100
AcDbScale
 70
     0
300
6" = 1'-0"
140
6.0
141
12.0
290
     0
  0
SCALE
  5
68
102
{ACAD_REACTORS
330
47
102
}
330
47
100
AcDbScale
 70
     0
300
1'-0" = 1'-0"
140
12.0
141
12.0
290
     0
  0
TABLESTYLE
  5
6A
102
{ACAD_REACTORS
330
69
102
}
102
{ACAD_XDICTIONARY
360
1AC
102
}
330
69
100
AcDbTableStyle
  3
Standard
 70
     0
 71
     0
 40
0.06
 41
0.06
280
     0
281
     0
  7
Standard
140
4.5
170
     2
 62
     0
 63
   257
283
     0
 90
        4
 91
        0
  1

274
    -2
284
     1
 64
     0
275
    -2
285
     1
 65
     0
276
    -2
286
     1
 66
     0
277
    -2
287
     1
 67
     0
278
    -2
288
     1
 68
     0
279
    -2
289
     1
 69
     0
  7
Standard
140
6.0
170
     5
 62
     0
 63
   257
283
     0
 90
        4
 91
        0
  1

274
    -2
284
     1
 64
     0
275
    -2
285
     1
 65
     0
276
    -2
286
     1
 66
     0
277
    -2
287
     1
 67
     0
278
    -2
288
     1
 68
     0
279
    -2
289
     1
 69
     0
  7
Standard
140
4.5
170
     5
 62
     0
 63
   257
283
     0
 90
        4
 91
        0
  1

274
    -2
284
     1
 64
     0
275
    -2
285
     1
 65
     0
276
    -2
286
     1
 66
     0
277
    -2
287
     1
 67
     0
278
    -2
288
     1
 68
     0
279
    -2
289
     1
 69
     0
  0
VISUALSTYLE
  5
2F
102
{ACAD_REACTORS
330
2A
102
}
330
2A
100
AcDbVisualStyle
  2
2dWireframe
 70
     4
177
     3
291
     0
 70
    58
 90
        0
176
     1
 90
        2
176
     1
 90
        0
176
     1
 90
        0
176
     1
 40
0.6
176
     1
 40
30.0
176
     1
 62
     7
420
 16777215
176
     1
 90
        1
176
     1
 90
        4
176
     1
 62
     7
176
     1
 62
   257
176
     1
 90
        1
176
     1
 90
        1
176
     1
 40
1.0
176
     1
 90
        0
176
     1
 62
   257
176
     1
 40
1.0
176
     1
 90
        1
176
     1
 90
        6
176
     1
 90
        2
176
     1
 62
     7
176
     1
 90
        5
176
     1
 90
        0
176
     1
 90
        0
176
     1
290
     0
176
     1
 90
        1
176
     1
 40
0.0
176
     1
 90
        0
176
     1
290
     1
176
     1
290
     1
176
     1
290
     0
176
     1
290
     0
176
     1
290
     0
176
     1
290
     0
176
     1
290
     0
176
     1
290
     0
176
     1
290
     0
176
     1
 90
       50
176
     1
 40
0.0
176
     1
 40
1.0
176
     1
 90
        0
176
     1
 62
    18
420
        0
176
     1
 90
       50
176
     1
 90
        3
176
     1
 62
     5
420
      255
176
     1
290
     0
176
     1
 90
       50
176
     1
 90
       50
176
     1
 90
       50
176
     1
290
     0
176
     1
 90
       50
176
     1
 62
   256
176
     0
 40
1.0
176
     0
 90
        2
176
     1
  1
strokes_ogs.tif
176
     1
290
     0
176
     1
 40
1.0
176
     1
 40
1.0
176
     1
  0
VISUALSTYLE
  5
32
102
{ACAD_REACTORS
330
2A
102
}
330
2A
100
AcDbVisualStyle
  2
Basic
 70
     7
177
     3
291
     1
 70
    58
 90
        1
176
     1
 90
        0
176
     1
 90
        1
176
     1
 90
        0
176
     1
 40
0.6
176
     1
 40
30.0
176
     1
 62
     7
420
 16777215
176
     1
 90
        0
176
     1
 90
        4
176
     1
 62
     7
176
     1
 62
   257
176
     1
 90
        1
176
     1
 90
        1
176
     1
 40
1.0
176
     1
 90
        8
176
     1
 62
     7
176
     1
 40
1.0
176
     1
 90
        1
176
     1
 90
        6
176
     1
 90
        2
176
     1
 62
     7
176
     1
 90
        5
176
     1
 90
        0
176
     1
 90
        0
176
     1
290
     0
176
     1
 90
        1
176
     1
 40
0.0
176
     1
 90
        0
176
     1
290
     0
176
     1
290
     1
176
     1
290
     1
176
     1
290
     0
176
     1
290
     0
176
     1
290
     0
176
     1
290
     0
176
     1
290
     0
176
     1
290
     0
176
     1
 90
       50
176
     1
 40
0.0
176
     1
 40
1.0
176
     1
 90
        0
176
     1
 62
    18
420
        0
176
     1
 90
       50
176
     1
 90
        3
176
     1
 62
     5
420
      255
176
     1
290
     0
176
     1
 90
       50
176
     1
 90
       50
176
     1
 90
       50
176
     1
290
     0
176
     1
 90
       50
176
     1
 62
   256
176
     0
 40
1.0
176
     0
 90
        2
176
     1
  1
strokes_ogs.tif
176
     1
290
     0
176
     1
 40
1.0
176
     1
 40
1.0
176
     1
  0
VISUALSTYLE
  5
36
102
{ACAD_REACTORS
330
2A
102
}
330
2A
100
AcDbVisualStyle
  2
Brighten
 70
    12
177
     3
291
     1
 70
    58
 90
        2
176
     1
 90
        2
176
     1
 90
        0
176
     1
 90
        0
176
     1
 40
0.6
176
     1
 40
30.0
176
     1
 62
     7
420
 16777215
176
     1
 90
        1
176
     1
 90
        4
176
     1
 62
     7
176
     1
 62
   257
176
     1
 90
        1
176
     1
 90
        1
176
     1
 40
1.0
176
     1
 90
        8
176
     1
 62
     7
176
     1
 40
1.0
176
     1
 90
        1
176
     1
 90
        6
176
     1
 90
        2
176
     1
 62
     7
176
     1
 90
        5
176
     1
 90
        0
176
     1
 90
        0
176
     1
290
     0
176
     1
 90
        1
176
     1
 40
50.0
176
     1
 90
        0
176
     1
290
     0
176
     1
290
     1
176
     1
290
     1
176
     1
290
     0
176
     1
290
     0
176
     1
290
     0
176
     1
290
     0
176
     1
290
     0
176
     1
290
     0
176
     1
 90
       50
176
     1
 40
0.0
176
     1
 40
1.0
176
     1
 90
        0
176
     1
 62
    18
420
        0
176
     1
 90
       50
176
     1
 90
        3
176
     1
 62
     5
420
      255
176
     1
290
     0
176
     1
 90
       50
176
     1
 90
       50
176
     1
 90
       50
176
     1
290
     0
176
     1
 90
       50
176
     1
 62
   256
176
     0
 40
1.0
176
     0
 90
        2
176
     1
  1
strokes_ogs.tif
176
     1
290
     0
176
     1
 40
1.0
176
     1
 40
1.0
176
     1
  0
VISUALSTYLE
  5
3A
102
{ACAD_REACTORS
330
2A
102
}
330
2A
100
AcDbVisualStyle
  2
ColorChange
 70
    16
177
     3
291
     1
 70
    58
 90
        2
176
     1
 90
        2
176
     1
 90
        3
176
     1
 90
        0
176
     1
 40
0.6
176
     1
 40
30.0
176
     1
 62
     8
420
  8421504
176
     1
 90
        1
176
     1
 90
        4
176
     1
 62
     7
176
     1
 62
   257
176
     1
 90
        1
176
     1
 90
        1
176
     1
 40
1.0
176
     1
 90
        8
176
     1
 62
     8
420
  8421504
176
     1
 40
1.0
176
     1
 90
        1
176
     1
 90
        6
176
     1
 90
        2
176
     1
 62
     7
176
     1
 90
        5
176
     1
 90
        0
176
     1
 90
        0
176
     1
290
     0
176
     1
 90
        1
176
     1
 40
0.0
176
     1
 90
        0
176
     1
290
     0
176
     1
290
     1
176
     1
290
     1
176
     1
290
     0
176
     1
290
     0
176
     1
290
     0
176
     1
290
     0
176
     1
290
     0
176
     1
290
     0
176
     1
 90
       50
176
     1
 40
0.0
176
     1
 40
1.0
176
     1
 90
        0
176
     1
 62
    18
420
        0
176
     1
 90
       50
176
     1
 90
        3
176
     1
 62
     5
420
      255
176
     1
290
     0
176
     1
 90
       50
176
     1
 90
       50
176
     1
 90
       50
176
     1
290
     0
176
     1
 90
       50
176
     1
 62
   256
176
     0
 40
1.0
176
     0
 90
        2
176
     1
  1
strokes_ogs.tif
176
     1
290
     0
176
     1
 40
1.0
176
     1
 40
1.0
176
     1
  0
VISUALSTYLE
  5
34
102
{ACAD_REACTORS
330
2A
102
}
330
2A
100
AcDbVisualStyle
  2
Conceptual
 70
     9
177
     3
291
     0
 70
    58
 90
        3
176
     1
 90
        2
176
     1
 90
        0
176
     1
 90
        0
176
     1
 40
0.6
176
     1
 40
30.0
176
     1
 62
     7
420
 16777215
176
     1
 90
        2
176
     1
 90
        2
176
     1
 62
     7
176
     1
 62
   257
176
     1
 90
        1
176
     1
 90
        1
176
     1
 40
179.0
176
     1
 90
        8
176
     1
 62
     7
176
     1
 40
1.0
176
     1
 90
        1
176
     1
 90
        6
176
     1
 90
        2
176
     1
 62
     7
176
     1
 90
        3
176
     1
 90
        0
176
     1
 90
        0
176
     1
290
     0
176
     1
 90
        1
176
     1
 40
0.0
176
     1
 90
        0
176
     1
290
     0
176
     1
290
     1
176
     1
290
     1
176
     1
290
     0
176
     1
290
     0
176
     1
290
     0
176
     1
290
     0
176
     1
290
     0
176
     1
290
     0
176
     1
 90
       50
176
     1
 40
0.0
176
     1
 40
1.0
176
     1
 90
        0
176
     1
 62
    18
420
        0
176
     1
 90
       50
176
     1
 90
        3
176
     1
 62
     5
420
      255
176
     1
290
     0
176
     1
 90
       50
176
     1
 90
       50
176
     1
 90
       50
176
     1
290
     0
176
     1
 90
       50
176
     1
 62
   256
176
     0
 40
1.0
176
     0
 90
        2
176
     1
  1
strokes_ogs.tif
176
     1
290
     0
176
     1
 40
1.0
176
     1
 40
1.0
176
     1
  0
VISUALSTYLE
  5
35
102
{ACAD_REACTORS
330
2A
102
}
330
2A
100
AcDbVisualStyle
  2
Dim
 70
    11
177
     3
291
     1
 70
    58
 90
        2
176
     1
 90
        2
176
     1
 90
        0
176
     1
 90
        0
176
     1
 40
0.6
176
     1
 40
30.0
176
     1
 62
     7
420
 16777215
176
     1
 90
        1
176
     1
 90
        4
176
     1
 62
     7
176
     1
 62
   257
176
     1
 90
        1
176
     1
 90
        1
176
     1
 40
1.0
176
     1
 90
        8
176
     1
 62
     7
176
     1
 40
1.0
176
     1
 90
        1
176
     1
 90
        6
176
     1
 90
        2
176
     1
 62
     7
176
     1
 90
        5
176
     1
 90
        0
176
     1
 90
        0
176
     1
290
     0
176
     1
 90
        1
176
     1
 40
-50.0
176
     1
 90
        0
176
     1
290
     0
176
     1
290
     1
176
     1
290
     1
176
     1
290
     0
176
     1
290
     0
176
     1
290
     0
176
     1
290
     0
176
     1
290
     0
176
     1
290
     0
176
     1
 90
       50
176
     1
 40
0.0
176
     1
 40
1.0
176
     1
 90
        0
176
     1
 62
    18
420
        0
176
     1
 90
       50
176
     1
 90
        3
176
     1
 62
     5
420
      255
176
     1
290
     0
176
     1
 90
       50
176
     1
 90
       50
176
     1
 90
       50
176
     1
290
     0
176
     1
 90
       50
176
     1
 62
   256
176
     0
 40
1.0
176
     0
 90
        2
176
     1
  1
strokes_ogs.tif
176
     1
290
     0
176
     1
 40
1.0
176
     1
 40
1.0
176
     1
  0
VISUALSTYLE
  5
3D
102
{ACAD_REACTORS
330
2A
102
}
330
2A
100
AcDbVisualStyle
  2
EdgeColorOff
 70
    22
177
     3
291
     1
 70
    58
 90
        2
176
     0
 90
        2
176
     0
 90
        0
176
     0
 90
        0
176
     0
 40
0.6
176
     0
 40
30.0
176
     0
 62
     7
420
 16777215
176
     0
 90
        1
176
     0
 90
        4
176
     0
 62
     7
176
     0
 62
   257
176
     0
 90
        1
176
     0
 90
        1
176
     0
 40
1.0
176
     0
 90
        8
176
     2
 62
     7
176
     0
 40
1.0
176
     0
 90
        1
176
     0
 90
        6
176
     0
 90
        2
176
     0
 62
     7
176
     0
 90
        5
176
     0
 90
        0
176
     0
 90
        0
176
     0
290
     0
176
     0
 90
        1
176
     0
 40
0.0
176
     0
 90
        0
176
     0
290
     0
176
     0
290
     1
176
     0
290
     1
176
     0
290
     0
176
     0
290
     0
176
     0
290
     0
176
     0
290
     0
176
     0
290
     0
176
     0
290
     0
176
     0
 90
       50
176
     0
 40
0.0
176
     0
 40
1.0
176
     0
 90
        0
176
     0
 62
    18
420
        0
176
     0
 90
       50
176
     0
 90
        3
176
     0
 62
     5
420
      255
176
     0
290
     0
176
     0
 90
       50
176
     0
 90
       50
176
     0
 90
       50
176
     0
290
     0
176
     0
 90
       50
176
     0
 62
   256
176
     0
 40
1.0
176
     0
 90
        2
176
     0
  1
strokes_ogs.tif
176
     0
290
     0
176
     0
 40
1.0
176
     0
 40
1.0
176
     0
  0
VISUALSTYLE
  5
39
102
{ACAD_REACTORS
330
2A
102
}
330
2A
100
AcDbVisualStyle
  2
Facepattern
 70
    15
177
     3
291
     1
 70
    58
 90
        2
176
     1
 90
        2
176
     1
 90
        0
176
     1
 90
        0
176
     1
 40
0.6
176
     1
 40
30.0
176
     1
 62
     7
420
 16777215
176
     1
 90
        1
176
     1
 90
        4
176
     1
 62
     7
176
     1
 62
   257
176
     1
 90
        1
176
     1
 90
        1
176
     1
 40
1.0
176
     1
 90
        8
176
     1
 62
     7
176
     1
 40
1.0
176
     1
 90
        1
176
     1
 90
        6
176
     1
 90
        2
176
     1
 62
     7
176
     1
 90
        5
176
     1
 90
        0
176
     1
 90
        0
176
     1
290
     0
176
     1
 90
        1
176
     1
 40
0.0
176
     1
 90
        0
176
     1
290
     0
176
     1
290
     1
176
     1
290
     1
176
     1
290
     0
176
     1
290
     0
176
     1
290
     0
176
     1
290
     0
176
     1
290
     0
176
     1
290
     0
176
     1
 90
       50
176
     1
 40
0.0
176
     1
 40
1.0
176
     1
 90
        0
176
     1
 62
    18
420
        0
176
     1
 90
       50
176
     1
 90
        3
176
     1
 62
     5
420
      255
176
     1
290
     0
176
     1
 90
       50
176
     1
 90
       50
176
     1
 90
       50
176
     1
290
     0
176
     1
 90
       50
176
     1
 62
   256
176
     0
 40
1.0
176
     0
 90
        2
176
     1
  1
strokes_ogs.tif
176
     1
290
     0
176
     1
 40
1.0
176
     1
 40
1.0
176
     1
  0
VISUALSTYLE
  5
2B
102
{ACAD_REACTORS
330
2A
102
}
330
2A
100
AcDbVisualStyle
  2
Flat
 70
     0
177
     3
291
     1
 70
    58
 90
        2
176
     1
 90
        1
176
     1
 90
        1
176
     1
 90
        2
176
     1
 40
0.6
176
     1
 40
30.0
176
     1
 62
     7
420
 16777215
176
     1
 90
        0
176
     1
 90
        0
176
     1
 62
     7
176
     1
 62
   257
176
     1
 90
        1
176
     1
 90
        1
176
     1
 40
1.0
176
     1
 90
        8
176
     1
 62
     7
176
     1
 40
1.0
176
     1
 90
        1
176
     1
 90
        6
176
     1
 90
        2
176
     1
 62
     7
176
     1
 90
        5
176
     1
 90
        0
176
     1
 90
        0
176
     1
290
     0
176
     1
 90
       13
176
     1
 40
0.0
176
     1
 90
        0
176
     1
290
     0
176
     1
290
     1
176
     1
290
     1
176
     1
290
     0
176
     1
290
     0
176
     1
290
     0
176
     1
290
     0
176
     1
290
     0
176
     1
290
     0
176
     1
 90
       50
176
     1
 40
0.0
176
     1
 40
1.0
176
     1
 90
        0
176
     1
 62
    18
420
        0
176
     1
 90
       50
176
     1
 90
        3
176
     1
 62
     5
420
      255
176
     1
290
     0
176
     1
 90
       50
176
     1
 90
       50
176
     1
 90
       50
176
     1
290
     0
176
     1
 90
       50
176
     1
 62
   256
176
     0
 40
1.0
176
     0
 90
        2
176
     1
  1
strokes_ogs.tif
176
     1
290
     0
176
     1
 40
1.0
176
     1
 40
1.0
176
     1
  0
VISUALSTYLE
  5
2C
102
{ACAD_REACTORS
330
2A
102
}
330
2A
100
AcDbVisualStyle
  2
FlatWithEdges
 70
     1
177
     3
291
     1
 70
    58
 90
        2
176
     1
 90
        1
176
     1
 90
        1
176
     1
 90
        2
176
     1
 40
0.6
176
     1
 40
30.0
176
     1
 62
     7
420
 16777215
176
     1
 90
        1
176
     1
 90
        0
176
     1
 62
     7
176
     1
 62
   257
176
     1
 90
        1
176
     1
 90
        1
176
     1
 40
1.0
176
     1
 90
        0
176
     1
 62
   257
176
     1
 40
1.0
176
     1
 90
        1
176
     1
 90
        6
176
     1
 90
        2
176
     1
 62
     7
176
     1
 90
        5
176
     1
 90
        0
176
     1
 90
        0
176
     1
290
     0
176
     1
 90
       13
176
     1
 40
0.0
176
     1
 90
        0
176
     1
290
     0
176
     1
290
     1
176
     1
290
     1
176
     1
290
     0
176
     1
290
     0
176
     1
290
     0
176
     1
290
     0
176
     1
290
     0
176
     1
290
     0
176
     1
 90
       50
176
     1
 40
0.0
176
     1
 40
1.0
176
     1
 90
        0
176
     1
 62
    18
420
        0
176
     1
 90
       50
176
     1
 90
        3
176
     1
 62
     5
420
      255
176
     1
290
     0
176
     1
 90
       50
176
     1
 90
       50
176
     1
 90
       50
176
     1
290
     0
176
     1
 90
       50
176
     1
 62
   256
176
     0
 40
1.0
176
     0
 90
        2
176
     1
  1
strokes_ogs.tif
176
     1
290
     0
176
     1
 40
1.0
176
     1
 40
1.0
176
     1
  0
VISUALSTYLE
  5
2D
102
{ACAD_REACTORS
330
2A
102
}
330
2A
100
AcDbVisualStyle
  2
Gouraud
 70
     2
177
     3
291
     1
 70
    58
 90
        2
176
     1
 90
        2
176
     1
 90
        1
176
     1
 90
        2
176
     1
 40
0.6
176
     1
 40
30.0
176
     1
 62
     7
420
 16777215
176
     1
 90
        0
176
     1
 90
        0
176
     1
 62
     7
176
     1
 62
   257
176
     1
 90
        1
176
     1
 90
        1
176
     1
 40
1.0
176
     1
 90
        0
176
     1
 62
     7
176
     1
 40
1.0
176
     1
 90
        1
176
     1
 90
        6
176
     1
 90
        2
176
     1
 62
     7
176
     1
 90
        5
176
     1
 90
        0
176
     1
 90
        0
176
     1
290
     0
176
     1
 90
       13
176
     1
 40
0.0
176
     1
 90
        0
176
     1
290
     0
176
     1
290
     1
176
     1
290
     1
176
     1
290
     0
176
     1
290
     0
176
     1
290
     0
176
     1
290
     0
176
     1
290
     0
176
     1
290
     0
176
     1
 90
       50
176
     1
 40
0.0
176
     1
 40
1.0
176
     1
 90
        0
176
     1
 62
    18
420
        0
176
     1
 90
       50
176
     1
 90
        3
176
     1
 62
     5
420
      255
176
     1
290
     0
176
     1
 90
       50
176
     1
 90
       50
176
     1
 90
       50
176
     1
290
     0
176
     1
 90
       50
176
     1
 62
   256
176
     0
 40
1.0
176
     0
 90
        2
176
     1
  1
strokes_ogs.tif
176
     1
290
     0
176
     1
 40
1.0
176
     1
 40
1.0
176
     1
  0
VISUALSTYLE
  5
2E
102
{ACAD_REACTORS
330
2A
102
}
330
2A
100
AcDbVisualStyle
  2
GouraudWithEdges
 70
     3
177
     3
291
     1
 70
    58
 90
        2
176
     1
 90
        2
176
     1
 90
        1
176
     1
 90
        2
176
     1
 40
0.6
176
     1
 40
30.0
176
     1
 62
     7
420
 16777215
176
     1
 90
        1
176
     1
 90
        0
176
     1
 62
     7
176
     1
 62
   257
176
     1
 90
        1
176
     1
 90
        1
176
     1
 40
1.0
176
     1
 90
        0
176
     1
 62
   257
176
     1
 40
1.0
176
     1
 90
        1
176
     1
 90
        6
176
     1
 90
        2
176
     1
 62
     7
176
     1
 90
        5
176
     1
 90
        0
176
     1
 90
        0
176
     1
290
     0
176
     1
 90
       13
176
     1
 40
0.0
176
     1
 90
        0
176
     1
290
     0
176
     1
290
     1
176
     1
290
     1
176
     1
290
     0
176
     1
290
     0
176
     1
290
     0
176
     1
290
     0
176
     1
290
     0
176
     1
290
     0
176
     1
 90
       50
176
     1
 40
0.0
176
     1
 40
1.0
176
     1
 90
        0
176
     1
 62
    18
420
        0
176
     1
 90
       50
176
     1
 90
        3
176
     1
 62
     5
420
      255
176
     1
290
     0
176
     1
 90
       50
176
     1
 90
       50
176
     1
 90
       50
176
     1
290
     0
176
     1
 90
       50
176
     1
 62
   256
176
     0
 40
1.0
176
     0
 90
        2
176
     1
  1
strokes_ogs.tif
176
     1
290
     0
176
     1
 40
1.0
176
     1
 40
1.0
176
     1
  0
VISUALSTYLE
  5
31
102
{ACAD_REACTORS
330
2A
102
}
330
2A
100
AcDbVisualStyle
  2
Hidden
 70
     6
177
     3
291
     0
 70
    58
 90
        1
176
     1
 90
        2
176
     1
 90
        2
176
     1
 90
        0
176
     1
 40
0.6
176
     1
 40
30.0
176
     1
 62
     7
420
 16777215
176
     1
 90
        2
176
     1
 90
        2
176
     1
 62
     7
176
     1
 62
   257
176
     1
 90
        2
176
     1
 90
        1
176
     1
 40
40.0
176
     1
 90
        0
176
     1
 62
   257
176
     1
 40
1.0
176
     1
 90
        1
176
     1
 90
        6
176
     1
 90
        2
176
     1
 62
     7
176
     1
 90
        3
176
     1
 90
        0
176
     1
 90
        0
176
     1
290
     0
176
     1
 90
        1
176
     1
 40
0.0
176
     1
 90
        0
176
     1
290
     0
176
     1
290
     1
176
     1
290
     1
176
     1
290
     0
176
     1
290
     0
176
     1
290
     0
176
     1
290
     0
176
     1
290
     0
176
     1
290
     0
176
     1
 90
       50
176
     1
 40
0.0
176
     1
 40
1.0
176
     1
 90
        0
176
     1
 62
    18
420
        0
176
     1
 90
       50
176
     1
 90
        3
176
     1
 62
     5
420
      255
176
     1
290
     0
176
     1
 90
       50
176
     1
 90
       50
176
     1
 90
       50
176
     1
290
     0
176
     1
 90
       50
176
     1
 62
   256
176
     0
 40
1.0
176
     0
 90
        2
176
     1
  1
strokes_ogs.tif
176
     1
290
     0
176
     1
 40
1.0
176
     1
 40
1.0
176
     1
  0
VISUALSTYLE
  5
3B
102
{ACAD_REACTORS
330
2A
102
}
330
2A
100
AcDbVisualStyle
  2
JitterOff
 70
    20
177
     3
291
     1
 70
    58
 90
        2
176
     0
 90
        2
176
     0
 90
        0
176
     0
 90
        0
176
     0
 40
0.6
176
     0
 40
30.0
176
     0
 62
     7
420
 16777215
176
     0
 90
        1
176
     0
 90
        4
176
     0
 62
     7
176
     0
 62
   257
176
     0
 90
        1
176
     0
 90
        1
176
     0
 40
1.0
176
     0
 90
       10
176
     2
 62
     7
176
     0
 40
1.0
176
     0
 90
        1
176
     0
 90
        6
176
     0
 90
        2
176
     0
 62
     7
176
     0
 90
        5
176
     0
 90
        0
176
     0
 90
        0
176
     0
290
     0
176
     0
 90
        1
176
     0
 40
0.0
176
     0
 90
        0
176
     0
290
     0
176
     0
290
     1
176
     0
290
     1
176
     0
290
     0
176
     0
290
     0
176
     0
290
     0
176
     0
290
     0
176
     0
290
     0
176
     0
290
     0
176
     0
 90
       50
176
     0
 40
0.0
176
     0
 40
1.0
176
     0
 90
        0
176
     0
 62
    18
420
        0
176
     0
 90
       50
176
     0
 90
        3
176
     0
 62
     5
420
      255
176
     0
290
     0
176
     0
 90
       50
176
     0
 90
       50
176
     0
 90
       50
176
     0
290
     0
176
     0
 90
       50
176
     0
 62
   256
176
     0
 40
1.0
176
     0
 90
        2
176
     0
  1
strokes_ogs.tif
176
     0
290
     0
176
     0
 40
1.0
176
     0
 40
1.0
176
     0
  0
VISUALSTYLE
  5
38
102
{ACAD_REACTORS
330
2A
102
}
330
2A
100
AcDbVisualStyle
  2
Linepattern
 70
    14
177
     3
291
     1
 70
    58
 90
        2
176
     1
 90
        2
176
     1
 90
        0
176
     1
 90
        0
176
     1
 40
0.6
176
     1
 40
30.0
176
     1
 62
     7
420
 16777215
176
     1
 90
        1
176
     1
 90
        4
176
     1
 62
     7
176
     1
 62
   257
176
     1
 90
        7
176
     1
 90
        7
176
     1
 40
1.0
176
     1
 90
        8
176
     1
 62
     7
176
     1
 40
1.0
176
     1
 90
        1
176
     1
 90
        6
176
     1
 90
        2
176
     1
 62
     7
176
     1
 90
        5
176
     1
 90
        0
176
     1
 90
        0
176
     1
290
     0
176
     1
 90
        1
176
     1
 40
0.0
176
     1
 90
        0
176
     1
290
     0
176
     1
290
     1
176
     1
290
     1
176
     1
290
     0
176
     1
290
     0
176
     1
290
     0
176
     1
290
     0
176
     1
290
     0
176
     1
290
     0
176
     1
 90
       50
176
     1
 40
0.0
176
     1
 40
1.0
176
     1
 90
        0
176
     1
 62
    18
420
        0
176
     1
 90
       50
176
     1
 90
        3
176
     1
 62
     5
420
      255
176
     1
290
     0
176
     1
 90
       50
176
     1
 90
       50
176
     1
 90
       50
176
     1
290
     0
176
     1
 90
       50
176
     1
 62
   256
176
     0
 40
1.0
176
     0
 90
        2
176
     1
  1
strokes_ogs.tif
176
     1
290
     0
176
     1
 40
1.0
176
     1
 40
1.0
176
     1
  0
VISUALSTYLE
  5
3C
102
{ACAD_REACTORS
330
2A
102
}
330
2A
100
AcDbVisualStyle
  2
OverhangOff
 70
    21
177
     3
291
     1
 70
    58
 90
        2
176
     0
 90
        2
176
     0
 90
        0
176
     0
 90
        0
176
     0
 40
0.6
176
     0
 40
30.0
176
     0
 62
     7
420
 16777215
176
     0
 90
        1
176
     0
 90
        4
176
     0
 62
     7
176
     0
 62
   257
176
     0
 90
        1
176
     0
 90
        1
176
     0
 40
1.0
176
     0
 90
        9
176
     2
 62
     7
176
     0
 40
1.0
176
     0
 90
        1
176
     0
 90
        6
176
     0
 90
        2
176
     0
 62
     7
176
     0
 90
        5
176
     0
 90
        0
176
     0
 90
        0
176
     0
290
     0
176
     0
 90
        1
176
     0
 40
0.0
176
     0
 90
        0
176
     0
290
     0
176
     0
290
     1
176
     0
290
     1
176
     0
290
     0
176
     0
290
     0
176
     0
290
     0
176
     0
290
     0
176
     0
290
     0
176
     0
290
     0
176
     0
 90
       50
176
     0
 40
0.0
176
     0
 40
1.0
176
     0
 90
        0
176
     0
 62
    18
420
        0
176
     0
 90
       50
176
     0
 90
        3
176
     0
 62
     5
420
      255
176
     0
290
     0
176
     0
 90
       50
176
     0
 90
       50
176
     0
 90
       50
176
     0
290
     0
176
     0
 90
       50
176
     0
 62
   256
176
     0
 40
1.0
176
     0
 90
        2
176
     0
  1
strokes_ogs.tif
176
     0
290
     0
176
     0
 40
1.0
176
     0
 40
1.0
176
     0
  0
VISUALSTYLE
  5
33
102
{ACAD_REACTORS
330
2A
102
}
330
2A
100
AcDbVisualStyle
  2
Realistic
 70
     8
177
     3
291
     0
 70
    58
 90
        2
176
     1
 90
        3
176
     1
 90
        0
176
     1
 90
        2
176
     1
 40
0.6
176
     1
 40
30.0
176
     1
 62
     7
420
 16777215
176
     1
 90
        0
176
     1
 90
        0
176
     1
 62
     7
176
     1
 62
   257
176
     1
 90
        1
176
     1
 90
        1
176
     1
 40
1.0
176
     1
 90
        8
176
     1
 62
   257
176
     1
 40
1.0
176
     1
 90
        1
176
     1
 90
        6
176
     1
 90
        2
176
     1
 62
     7
176
     1
 90
        3
176
     1
 90
        0
176
     1
 90
        0
176
     1
290
     0
176
     1
 90
       13
176
     1
 40
0.0
176
     1
 90
        0
176
     1
290
     0
176
     1
290
     1
176
     1
290
     1
176
     1
290
     0
176
     1
290
     0
176
     1
290
     0
176
     1
290
     0
176
     1
290
     0
176
     1
290
     0
176
     1
 90
       50
176
     1
 40
0.0
176
     1
 40
1.0
176
     1
 90
        0
176
     1
 62
    18
420
        0
176
     1
 90
       50
176
     1
 90
        3
176
     1
 62
     5
420
      255
176
     1
290
     0
176
     1
 90
       50
176
     1
 90
       50
176
     1
 90
       50
176
     1
290
     0
176
     1
 90
       50
176
     1
 62
   256
176
     0
 40
1.0
176
     0
 90
        2
176
     1
  1
strokes_ogs.tif
176
     1
290
     0
176
     1
 40
1.0
176
     1
 40
1.0
176
     1
  0
VISUALSTYLE
  5
42
102
{ACAD_REACTORS
330
2A
102
}
330
2A
100
AcDbVisualStyle
  2
Shaded
 70
    27
177
     3
291
     0
 70
    58
 90
        2
176
     1
 90
        2
176
     1
 90
        1
176
     1
 90
        2
176
     1
 40
0.6
176
     1
 40
30.0
176
     1
 62
     7
420
 16777215
176
     1
 90
        0
176
     1
 90
        4
176
     1
 62
     7
176
     1
 62
   257
176
     1
 90
        1
176
     1
 90
        1
176
     1
 40
1.0
176
     1
 90
        8
176
     1
 62
   257
176
     1
 40
1.0
176
     1
 90
        1
176
     1
 90
        6
176
     1
 90
        2
176
     1
 62
     8
420
  7895160
176
     1
 90
        3
176
     1
 90
        0
176
     1
 90
        0
176
     1
290
     0
176
     1
 90
        5
176
     1
 40
0.0
176
     1
 90
        0
176
     1
290
     0
176
     1
290
     1
176
     1
290
     1
176
     1
290
     0
176
     1
290
     0
176
     1
290
     0
176
     1
290
     0
176
     1
290
     0
176
     1
290
     0
176
     1
 90
       50
176
     1
 40
0.0
176
     1
 40
1.0
176
     1
 90
        0
176
     1
 62
    18
420
        0
176
     1
 90
       50
176
     1
 90
        3
176
     1
 62
     5
420
      255
176
     1
290
     0
176
     1
 90
       50
176
     1
 90
       50
176
     1
 90
       50
176
     1
290
     0
176
     1
 90
       50
176
     1
 62
   256
176
     0
 40
1.0
176
     0
 90
        2
176
     1
  1
strokes_ogs.tif
176
     1
290
     0
176
     1
 40
1.0
176
     1
 40
1.0
176
     1
  0
VISUALSTYLE
  5
41
102
{ACAD_REACTORS
330
2A
102
}
330
2A
100
AcDbVisualStyle
  2
Shaded with edges
 70
    26
177
     3
291
     0
 70
    58
 90
        2
176
     1
 90
        2
176
     1
 90
        1
176
     1
 90
        2
176
     1
 40
0.6
176
     1
 40
30.0
176
     1
 62
     7
420
 16777215
176
     1
 90
        1
176
     1
 90
       10
176
     1
 62
     7
176
     1
 62
   257
176
     1
 90
        2
176
     1
 90
        1
176
     1
 40
1.0
176
     1
 90
        8
176
     1
 62
   257
176
     1
 40
1.0
176
     1
 90
        1
176
     1
 90
        6
176
     1
 90
        2
176
     1
 62
     7
176
     1
 90
        3
176
     1
 90
        0
176
     1
 90
        0
176
     1
290
     0
176
     1
 90
        5
176
     1
 40
0.0
176
     1
 90
        0
176
     1
290
     0
176
     1
290
     1
176
     1
290
     1
176
     1
290
     0
176
     1
290
     0
176
     1
290
     0
176
     1
290
     0
176
     1
290
     0
176
     1
290
     0
176
     1
 90
       50
176
     1
 40
0.0
176
     1
 40
1.0
176
     1
 90
        0
176
     1
 62
    18
420
        0
176
     1
 90
       50
176
     1
 90
        3
176
     1
 62
     5
420
      255
176
     1
290
     0
176
     1
 90
       50
176
     1
 90
       50
176
     1
 90
       50
176
     1
290
     0
176
     1
 90
       50
176
     1
 62
   256
176
     0
 40
1.0
176
     0
 90
        2
176
     1
  1
strokes_ogs.tif
176
     1
290
     0
176
     1
 40
1.0
176
     1
 40
1.0
176
     1
  0
VISUALSTYLE
  5
3E
102
{ACAD_REACTORS
330
2A
102
}
330
2A
100
AcDbVisualStyle
  2
Shades of Gray
 70
    23
177
     3
291
     0
 70
    58
 90
        2
176
     1
 90
        2
176
     1
 90
        3
176
     1
 90
        0
176
     1
 40
0.6
176
     1
 40
30.0
176
     1
 62
     7
420
 16777215
176
     1
 90
        2
176
     1
 90
        2
176
     1
 62
     7
176
     1
 62
     7
176
     1
 90
        1
176
     1
 90
        1
176
     1
 40
40.0
176
     1
 90
        8
176
     1
 62
     7
176
     1
 40
1.0
176
     1
 90
        1
176
     1
 90
        6
176
     1
 90
        2
176
     1
 62
     7
176
     1
 90
        3
176
     1
 90
        0
176
     1
 90
        0
176
     1
290
     0
176
     1
 90
        1
176
     1
 40
0.0
176
     1
 90
        0
176
     1
290
     0
176
     1
290
     1
176
     1
290
     1
176
     1
290
     0
176
     1
290
     0
176
     1
290
     0
176
     1
290
     0
176
     1
290
     0
176
     1
290
     0
176
     1
 90
       50
176
     1
 40
0.0
176
     1
 40
1.0
176
     1
 90
        0
176
     1
 62
    18
420
        0
176
     1
 90
       50
176
     1
 90
        3
176
     1
 62
     5
420
      255
176
     1
290
     0
176
     1
 90
       50
176
     1
 90
       50
176
     1
 90
       50
176
     1
290
     0
176
     1
 90
       50
176
     1
 62
   256
176
     0
 40
1.0
176
     0
 90
        2
176
     1
  1
strokes_ogs.tif
176
     1
290
     0
176
     1
 40
1.0
176
     1
 40
1.0
176
     1
  0
VISUALSTYLE
  5
3F
102
{ACAD_REACTORS
330
2A
102
}
330
2A
100
AcDbVisualStyle
  2
Sketchy
 70
    24
177
     3
291
     0
 70
    58
 90
        1
176
     1
 90
        2
176
     1
 90
        2
176
     1
 90
        0
176
     1
 40
0.6
176
     1
 40
30.0
176
     1
 62
     7
420
 16777215
176
     1
 90
        2
176
     1
 90
        2
176
     1
 62
     7
176
     1
 62
     7
176
     1
 90
        1
176
     1
 90
        1
176
     1
 40
40.0
176
     1
 90
       11
176
     1
 62
     7
176
     1
 40
1.0
176
     1
 90
        1
176
     1
 90
        6
176
     1
 90
        2
176
     1
 62
     7
176
     1
 90
        6
176
     1
 90
        0
176
     1
 90
        0
176
     1
290
     0
176
     1
 90
        1
176
     1
 40
0.0
176
     1
 90
        0
176
     1
290
     0
176
     1
290
     1
176
     1
290
     1
176
     1
290
     0
176
     1
290
     0
176
     1
290
     0
176
     1
290
     0
176
     1
290
     0
176
     1
290
     0
176
     1
 90
       50
176
     1
 40
0.0
176
     1
 40
1.0
176
     1
 90
        0
176
     1
 62
    18
420
        0
176
     1
 90
       50
176
     1
 90
        3
176
     1
 62
     5
420
      255
176
     1
290
     0
176
     1
 90
       50
176
     1
 90
       50
176
     1
 90
       50
176
     1
290
     0
176
     1
 90
       50
176
     1
 62
   256
176
     0
 40
1.0
176
     0
 90
        2
176
     1
  1
strokes_ogs.tif
176
     1
290
     0
176
     1
 40
1.0
176
     1
 40
1.0
176
     1
  0
VISUALSTYLE
  5
37
102
{ACAD_REACTORS
330
2A
102
}
330
2A
100
AcDbVisualStyle
  2
Thicken
 70
    13
177
     3
291
     1
 70
    58
 90
        2
176
     1
 90
        2
176
     1
 90
        0
176
     1
 90
        0
176
     1
 40
0.6
176
     1
 40
30.0
176
     1
 62
     7
420
 16777215
176
     1
 90
        1
176
     1
 90
        4
176
     1
 62
     7
176
     1
 62
   257
176
     1
 90
        1
176
     1
 90
        1
176
     1
 40
1.0
176
     1
 90
       12
176
     1
 62
     7
176
     1
 40
1.0
176
     1
 90
        1
176
     1
 90
        6
176
     1
 90
        2
176
     1
 62
     7
176
     1
 90
        5
176
     1
 90
        0
176
     1
 90
        0
176
     1
290
     0
176
     1
 90
        1
176
     1
 40
0.0
176
     1
 90
        0
176
     1
290
     0
176
     1
290
     1
176
     1
290
     1
176
     1
290
     0
176
     1
290
     0
176
     1
290
     0
176
     1
290
     0
176
     1
290
     0
176
     1
290
     0
176
     1
 90
       50
176
     1
 40
0.0
176
     1
 40
1.0
176
     1
 90
        0
176
     1
 62
    18
420
        0
176
     1
 90
       50
176
     1
 90
        3
176
     1
 62
     5
420
      255
176
     1
290
     0
176
     1
 90
       50
176
     1
 90
       50
176
     1
 90
       50
176
     1
290
     0
176
     1
 90
       50
176
     1
 62
   256
176
     0
 40
1.0
176
     0
 90
        2
176
     1
  1
strokes_ogs.tif
176
     1
290
     0
176
     1
 40
1.0
176
     1
 40
1.0
176
     1
  0
VISUALSTYLE
  5
30
102
{ACAD_REACTORS
330
2A
102
}
330
2A
100
AcDbVisualStyle
  2
Wireframe
 70
     5
177
     3
291
     0
 70
    58
 90
        0
176
     1
 90
        2
176
     1
 90
        0
176
     1
 90
        0
176
     1
 40
0.6
176
     1
 40
30.0
176
     1
 62
     7
420
 16777215
176
     1
 90
        1
176
     1
 90
        4
176
     1
 62
     7
176
     1
 62
   257
176
     1
 90
        1
176
     1
 90
        1
176
     1
 40
1.0
176
     1
 90
        0
176
     1
 62
   257
176
     1
 40
1.0
176
     1
 90
        1
176
     1
 90
        6
176
     1
 90
        2
176
     1
 62
     7
176
     1
 90
        3
176
     1
 90
        0
176
     1
 90
        0
176
     1
290
     0
176
     1
 90
        1
176
     1
 40
0.0
176
     1
 90
        0
176
     1
290
     0
176
     1
290
     1
176
     1
290
     1
176
     1
290
     0
176
     1
290
     0
176
     1
290
     0
176
     1
290
     0
176
     1
290
     0
176
     1
290
     0
176
     1
 90
       50
176
     1
 40
0.0
176
     1
 40
1.0
176
     1
 90
        0
176
     1
 62
    18
420
        0
176
     1
 90
       50
176
     1
 90
        3
176
     1
 62
     5
420
      255
176
     1
290
     0
176
     1
 90
       50
176
     1
 90
       50
176
     1
 90
       50
176
     1
290
     0
176
     1
 90
       50
176
     1
 62
   256
176
     0
 40
1.0
176
     0
 90
        2
176
     1
  1
strokes_ogs.tif
176
     1
290
     0
176
     1
 40
1.0
176
     1
 40
1.0
176
     1
  0
VISUALSTYLE
  5
40
102
{ACAD_REACTORS
330
2A
102
}
330
2A
100
AcDbVisualStyle
  2
X-Ray
 70
    25
177
     3
291
     0
 70
    58
 90
        2
176
     1
 90
        2
176
     1
 90
        1
176
     1
 90
        1
176
     1
 40
0.5
176
     1
 40
30.0
176
     1
 62
     7
420
 16777215
176
     1
 90
        1
176
     1
 90
        0
176
     1
 62
     7
176
     1
 62
   257
176
     1
 90
        1
176
     1
 90
        1
176
     1
 40
1.0
176
     1
 90
        8
176
     1
 62
     7
176
     1
 40
1.0
176
     1
 90
        1
176
     1
 90
        6
176
     1
 90
        2
176
     1
 62
     7
176
     1
 90
        3
176
     1
 90
        0
176
     1
 90
        0
176
     1
290
     0
176
     1
 90
       13
176
     1
 40
0.0
176
     1
 90
        0
176
     1
290
     0
176
     1
290
     1
176
     1
290
     1
176
     1
290
     0
176
     1
290
     0
176
     1
290
     0
176
     1
290
     0
176
     1
290
     0
176
     1
290
     0
176
     1
 90
       50
176
     1
 40
0.0
176
     1
 40
1.0
176
     1
 90
        0
176
     1
 62
    18
420
        0
176
     1
 90
       50
176
     1
 90
        3
176
     1
 62
     5
420
      255
176
     1
290
     0
176
     1
 90
       50
176
     1
 90
       50
176
     1
 90
       50
176
     1
290
     0
176
     1
 90
       50
176
     1
 62
   256
176
     0
 40
1.0
176
     0
 90
        2
176
     1
  1
strokes_ogs.tif
176
     1
290
     0
176
     1
 40
1.0
176
     1
 40
1.0
176
     1
  0
DICTIONARYVAR
  5
1AB
102
{ACAD_REACTORS
330
1AA
102
}
330
1AA
100
DictionaryVariables
280
     0
  1
1:1
  0
DICTIONARYVAR
  5
1B0
102
{ACAD_REACTORS
330
1AA
102
}
330
1AA
100
DictionaryVariables
280
     0
  1
Standard
  0
DICTIONARYVAR
  5
1AF
102
{ACAD_REACTORS
330
1AA
102
}
330
1AA
100
DictionaryVariables
280
     0
  1
Standard
  0
DICTIONARY
  5
1AC
330
6A
100
AcDbDictionary
280
     1
281
     1
  3
ACAD_ROUNDTRIP_2008_TABLESTYLE_CELLSTYLEMAP
360
1AD
  0
CELLSTYLEMAP
  5
1AD
102
{ACAD_REACTORS
330
1AC
102
}
330
1AC
100
AcDbCellStyleMap
 90
        3
300
CELLSTYLE
  1
TABLEFORMAT_BEGIN
 90
        5
170
     1
 91
        0
 92
    32768
 62
   257
 93
        1
300
CONTENTFORMAT
  1
CONTENTFORMAT_BEGIN
 90
        0
 91
        0
 92
        4
 93
        0
300

 40
0.0
140
1.0
 94
        5
 62
     0
340
11
144
6.0
309
CONTENTFORMAT_END
171
     1
301
MARGIN
  1
CELLMARGIN_BEGIN
 40
1.5
 40
1.5
 40
1.5
 40
1.5
 40
1.5
 40
1.5
309
CELLMARGIN_END
 94
        6
 95
        1
302
GRIDFORMAT
  1
GRIDFORMAT_BEGIN
 90
        0
 91
        1
 62
     0
 92
       -2
340
14
 93
        0
 40
0.045
309
GRIDFORMAT_END
 95
        2
302
GRIDFORMAT
  1
GRIDFORMAT_BEGIN
 90
        0
 91
        1
 62
     0
 92
       -2
340
14
 93
        0
 40
0.045
309
GRIDFORMAT_END
 95
        4
302
GRIDFORMAT
  1
GRIDFORMAT_BEGIN
 90
        0
 91
        1
 62
     0
 92
       -2
340
14
 93
        0
 40
0.045
309
GRIDFORMAT_END
 95
        8
302
GRIDFORMAT
  1
GRIDFORMAT_BEGIN
 90
        0
 91
        1
 62
     0
 92
       -2
340
14
 93
        0
 40
0.045
309
GRIDFORMAT_END
 95
       16
302
GRIDFORMAT
  1
GRIDFORMAT_BEGIN
 90
        0
 91
        1
 62
     0
 92
       -2
340
14
 93
        0
 40
0.045
309
GRIDFORMAT_END
 95
       32
302
GRIDFORMAT
  1
GRIDFORMAT_BEGIN
 90
        0
 91
        1
 62
     0
 92
       -2
340
14
 93
        0
 40
0.045
309
GRIDFORMAT_END
309
TABLEFORMAT_END
  1
CELLSTYLE_BEGIN
 90
        1
 91
        1
300
_TITLE
309
CELLSTYLE_END
300
CELLSTYLE
  1
TABLEFORMAT_BEGIN
 90
        5
170
     1
 91
        0
 92
        0
 62
   257
 93
        1
300
CONTENTFORMAT
  1
CONTENTFORMAT_BEGIN
 90
        0
 91
        0
 92
        4
 93
        0
300

 40
0.0
140
1.0
 94
        5
 62
     0
340
11
144
4.5
309
CONTENTFORMAT_END
171
     1
301
MARGIN
  1
CELLMARGIN_BEGIN
 40
1.5
 40
1.5
 40
1.5
 40
1.5
 40
1.5
 40
1.5
309
CELLMARGIN_END
 94
        6
 95
        1
302
GRIDFORMAT
  1
GRIDFORMAT_BEGIN
 90
        0
 91
        1
 62
     0
 92
       -2
340
14
 93
        0
 40
0.045
309
GRIDFORMAT_END
 95
        2
302
GRIDFORMAT
  1
GRIDFORMAT_BEGIN
 90
        0
 91
        1
 62
     0
 92
       -2
340
14
 93
        0
 40
0.045
309
GRIDFORMAT_END
 95
        4
302
GRIDFORMAT
  1
GRIDFORMAT_BEGIN
 90
        0
 91
        1
 62
     0
 92
       -2
340
14
 93
        0
 40
0.045
309
GRIDFORMAT_END
 95
        8
302
GRIDFORMAT
  1
GRIDFORMAT_BEGIN
 90
        0
 91
        1
 62
     0
 92
       -2
340
14
 93
        0
 40
0.045
309
GRIDFORMAT_END
 95
       16
302
GRIDFORMAT
  1
GRIDFORMAT_BEGIN
 90
        0
 91
        1
 62
     0
 92
       -2
340
14
 93
        0
 40
0.045
309
GRIDFORMAT_END
 95
       32
302
GRIDFORMAT
  1
GRIDFORMAT_BEGIN
 90
        0
 91
        1
 62
     0
 92
       -2
340
14
 93
        0
 40
0.045
309
GRIDFORMAT_END
309
TABLEFORMAT_END
  1
CELLSTYLE_BEGIN
 90
        2
 91
        1
300
_HEADER
309
CELLSTYLE_END
300
CELLSTYLE
  1
TABLEFORMAT_BEGIN
 90
        5
170
     1
 91
        0
 92
        0
 62
   257
 93
        1
300
CONTENTFORMAT
  1
CONTENTFORMAT_BEGIN
 90
        0
 91
        0
 92
        4
 93
        0
300

 40
0.0
140
1.0
 94
        2
 62
     0
340
11
144
4.5
309
CONTENTFORMAT_END
171
     1
301
MARGIN
  1
CELLMARGIN_BEGIN
 40
1.5
 40
1.5
 40
1.5
 40
1.5
 40
1.5
 40
1.5
309
CELLMARGIN_END
 94
        6
 95
        1
302
GRIDFORMAT
  1
GRIDFORMAT_BEGIN
 90
        0
 91
        1
 62
     0
 92
       -2
340
14
 93
        0
 40
0.045
309
GRIDFORMAT_END
 95
        2
302
GRIDFORMAT
  1
GRIDFORMAT_BEGIN
 90
        0
 91
        1
 62
     0
 92
       -2
340
14
 93
        0
 40
0.045
309
GRIDFORMAT_END
 95
        4
302
GRIDFORMAT
  1
GRIDFORMAT_BEGIN
 90
        0
 91
        1
 62
     0
 92
       -2
340
14
 93
        0
 40
0.045
309
GRIDFORMAT_END
 95
        8
302
GRIDFORMAT
  1
GRIDFORMAT_BEGIN
 90
        0
 91
        1
 62
     0
 92
       -2
340
14
 93
        0
 40
0.045
309
GRIDFORMAT_END
 95
       16
302
GRIDFORMAT
  1
GRIDFORMAT_BEGIN
 90
        0
 91
        1
 62
     0
 92
       -2
340
14
 93
        0
 40
0.045
309
GRIDFORMAT_END
 95
       32
302
GRIDFORMAT
  1
GRIDFORMAT_BEGIN
 90
        0
 91
        1
 62
     0
 92
       -2
340
14
 93
        0
 40
0.045
309
GRIDFORMAT_END
309
TABLEFORMAT_END
  1
CELLSTYLE_BEGIN
 90
        3
 91
        2
300
_DATA
309
CELLSTYLE_END
  0
ENDSEC
  0
EOF