0
SECTION
  2
HEADER
  9
$ACADVER
  1
AC1027
  9
$ACADMAINTVER
 70
     8
  9
$DWGCODEPAGE
  3
ANSI_1252
  9
$REQUIREDVERSIONS
160
                 0
  9
$COMMENTS
  1
File was created by Cadenas
  9
$CUSTOMPROPERTYTAG
  1
NN
  9
$CUSTOMPROPERTY
  1
Eccentric Collar Two-Bolt Piloted Flange Metric Bore
  9
$CUSTOMPROPERTYTAG
  1
NT
  9
$CUSTOMPROPERTY
  1
Eccentric Collar 2 Bolt Piloted Flange Bearings -(Normal Duty)
  9
$CUSTOMPROPERTYTAG
  1
NB
  9
$CUSTOMPROPERTY
  1
130835
  9
$CUSTOMPROPERTYTAG
  1
NBSYN
  9
$CUSTOMPROPERTY
  1
$PN.
  9
$CUSTOMPROPERTYTAG
  1
LINA
  9
$CUSTOMPROPERTY
  1
130835
  9
$CUSTOMPROPERTYTAG
  1
SERIES
  9
$CUSTOMPROPERTY
  1
208
  9
$CUSTOMPROPERTYTAG
  1
SS
  9
$CUSTOMPROPERTY
  1
40
  9
$CUSTOMPROPERTYTAG
  1
PN
  9
$CUSTOMPROPERTY
  1
130835
  9
$CUSTOMPROPERTYTAG
  1
DESCRIPTION
  9
$CUSTOMPROPERTY
  1
F2BZ-SXR-40M
  9
$CUSTOMPROPERTYTAG
  1
W
  9
$CUSTOMPROPERTY
  1
1.9
  9
$CUSTOMPROPERTYTAG
  1
A
  9
$CUSTOMPROPERTY
  1
53.8
  9
$CUSTOMPROPERTYTAG
  1
B
  9
$CUSTOMPROPERTY
  1
171.5
  9
$CUSTOMPROPERTYTAG
  1
C
  9
$CUSTOMPROPERTY
  1
58.7
  9
$CUSTOMPROPERTYTAG
  1
D
  9
$CUSTOMPROPERTY
  1
143.8
  9
$CUSTOMPROPERTYTAG
  1
E
  9
$CUSTOMPROPERTY
  1
4.1
  9
$CUSTOMPROPERTYTAG
  1
F
  9
$CUSTOMPROPERTY
  1
M12
  9
$CUSTOMPROPERTYTAG
  1
G
  9
$CUSTOMPROPERTY
  1
54.6
  9
$CUSTOMPROPERTYTAG
  1
H
  9
$CUSTOMPROPERTY
  1
14.2
  9
$CUSTOMPROPERTYTAG
  1
J
  9
$CUSTOMPROPERTY
  1
20.6
  9
$CUSTOMPROPERTYTAG
  1
K
  9
$CUSTOMPROPERTY
  1
100.00/99.95
  9
$CUSTOMPROPERTYTAG
  1
L
  9
$CUSTOMPROPERTY
  1
60.5
  9
$CUSTOMPROPERTYTAG
  1
M
  9
$CUSTOMPROPERTY
  1
104.9
  9
$CUSTOMPROPERTYTAG
  1
N
  9
$CUSTOMPROPERTY
  1
46.5
  9
$CUSTOMPROPERTYTAG
  1
COMPANY
  9
$CUSTOMPROPERTY
  1
baldor
  9
$INSBASE
 10
0.0
 20
0.0
 30
0.0
  9
$EXTMIN
 10
1.000000000000000E+20
 20
1.000000000000000E+20
 30
1.000000000000000E+20
  9
$EXTMAX
 10
-1.000000000000000E+20
 20
-1.000000000000000E+20
 30
-1.000000000000000E+20
  9
$LIMMIN
 10
0.0
 20
0.0
  9
$LIMMAX
 10
420.0
 20
297.0
  9
$ORTHOMODE
 70
     0
  9
$REGENMODE
 70
     1
  9
$FILLMODE
 70
     1
  9
$QTEXTMODE
 70
     0
  9
$MIRRTEXT
 70
     1
  9
$LTSCALE
 40
1.0
  9
$ATTMODE
 70
     1
  9
$TEXTSIZE
 40
2.5
  9
$TRACEWID
 40
1.0
  9
$TEXTSTYLE
  7
Standard
  9
$CLAYER
  8
0
  9
$CELTYPE
  6
ByLayer
  9
$CECOLOR
 62
   256
  9
$CELTSCALE
 40
1.0
  9
$DISPSILH
 70
     0
  9
$DIMSCALE
 40
1.0
  9
$DIMASZ
 40
2.5
  9
$DIMEXO
 40
0.625
  9
$DIMDLI
 40
3.75
  9
$DIMRND
 40
0.0
  9
$DIMDLE
 40
0.0
  9
$DIMEXE
 40
1.25
  9
$DIMTP
 40
0.0
  9
$DIMTM
 40
0.0
  9
$DIMTXT
 40
2.5
  9
$DIMCEN
 40
2.5
  9
$DIMTSZ
 40
0.0
  9
$DIMTOL
 70
     0
  9
$DIMLIM
 70
     0
  9
$DIMTIH
 70
     0
  9
$DIMTOH
 70
     0
  9
$DIMSE1
 70
     0
  9
$DIMSE2
 70
     0
  9
$DIMTAD
 70
     1
  9
$DIMZIN
 70
     8
  9
$DIMBLK
  1

  9
$DIMASO
 70
     1
  9
$DIMSHO
 70
     1
  9
$DIMPOST
  1

  9
$DIMAPOST
  1

  9
$DIMALT
 70
     0
  9
$DIMALTD
 70
     3
  9
$DIMALTF
 40
0.03937007874016
  9
$DIMLFAC
 40
1.0
  9
$DIMTOFL
 70
     1
  9
$DIMTVP
 40
0.0
  9
$DIMTIX
 70
     0
  9
$DIMSOXD
 70
     0
  9
$DIMSAH
 70
     0
  9
$DIMBLK1
  1

  9
$DIMBLK2
  1

  9
$DIMSTYLE
  2
ISO-25
  9
$DIMCLRD
 70
     0
  9
$DIMCLRE
 70
     0
  9
$DIMCLRT
 70
     0
  9
$DIMTFAC
 40
1.0
  9
$DIMGAP
 40
0.625
  9
$DIMJUST
 70
     0
  9
$DIMSD1
 70
     0
  9
$DIMSD2
 70
     0
  9
$DIMTOLJ
 70
     0
  9
$DIMTZIN
 70
     8
  9
$DIMALTZ
 70
     0
  9
$DIMALTTZ
 70
     0
  9
$DIMUPT
 70
     0
  9
$DIMDEC
 70
     2
  9
$DIMTDEC
 70
     2
  9
$DIMALTU
 70
     2
  9
$DIMALTTD
 70
     3
  9
$DIMTXSTY
  7
Standard
  9
$DIMAUNIT
 70
     0
  9
$DIMADEC
 70
     0
  9
$DIMALTRND
 40
0.0
  9
$DIMAZIN
 70
     0
  9
$DIMDSEP
 70
    44
  9
$DIMATFIT
 70
     3
  9
$DIMFRAC
 70
     0
  9
$DIMLDRBLK
  1

  9
$DIMLUNIT
 70
     2
  9
$DIMLWD
 70
    -2
  9
$DIMLWE
 70
    -2
  9
$DIMTMOVE
 70
     0
  9
$DIMFXL
 40
1.0
  9
$DIMFXLON
 70
     0
  9
$DIMJOGANG
 40
0.7853981633974483
  9
$DIMTFILL
 70
     0
  9
$DIMTFILLCLR
 70
     0
  9
$DIMARCSYM
 70
     0
  9
$DIMLTYPE
  6

  9
$DIMLTEX1
  6

  9
$DIMLTEX2
  6

  9
$DIMTXTDIRECTION
 70
     0
  9
$LUNITS
 70
     2
  9
$LUPREC
 70
     4
  9
$SKETCHINC
 40
1.0
  9
$FILLETRAD
 40
10.0
  9
$AUNITS
 70
     0
  9
$AUPREC
 70
     0
  9
$MENU
  1
.
  9
$ELEVATION
 40
0.0
  9
$PELEVATION
 40
0.0
  9
$THICKNESS
 40
0.0
  9
$LIMCHECK
 70
     0
  9
$CHAMFERA
 40
0.0
  9
$CHAMFERB
 40
0.0
  9
$CHAMFERC
 40
0.0
  9
$CHAMFERD
 40
0.0
  9
$SKPOLY
 70
     0
  9
$TDCREATE
 40
2458168.987494803
  9
$TDUCREATE
 40
2458168.945828137
  9
$TDUPDATE
 40
2458168.987494977
  9
$TDUUPDATE
 40
2458168.94582831
  9
$TDINDWG
 40
0.0000000116
  9
$TDUSRTIMER
 40
0.0000000116
  9
$USRTIMER
 70
     1
  9
$ANGBASE
 50
0.0
  9
$ANGDIR
 70
     0
  9
$PDMODE
 70
     0
  9
$PDSIZE
 40
0.0
  9
$PLINEWID
 40
0.0
  9
$SPLFRAME
 70
     0
  9
$SPLINETYPE
 70
     6
  9
$SPLINESEGS
 70
     8
  9
$HANDSEED
  5
1CA
  9
$SURFTAB1
 70
     6
  9
$SURFTAB2
 70
     6
  9
$SURFTYPE
 70
     6
  9
$SURFU
 70
     6
  9
$SURFV
 70
     6
  9
$UCSBASE
  2

  9
$UCSNAME
  2

  9
$UCSORG
 10
0.0
 20
0.0
 30
0.0
  9
$UCSXDIR
 10
1.0
 20
0.0
 30
0.0
  9
$UCSYDIR
 10
0.0
 20
1.0
 30
0.0
  9
$UCSORTHOREF
  2

  9
$UCSORTHOVIEW
 70
     0
  9
$UCSORGTOP
 10
0.0
 20
0.0
 30
0.0
  9
$UCSORGBOTTOM
 10
0.0
 20
0.0
 30
0.0
  9
$UCSORGLEFT
 10
0.0
 20
0.0
 30
0.0
  9
$UCSORGRIGHT
 10
0.0
 20
0.0
 30
0.0
  9
$UCSORGFRONT
 10
0.0
 20
0.0
 30
0.0
  9
$UCSORGBACK
 10
0.0
 20
0.0
 30
0.0
  9
$PUCSBASE
  2

  9
$PUCSNAME
  2

  9
$PUCSORG
 10
0.0
 20
0.0
 30
0.0
  9
$PUCSXDIR
 10
1.0
 20
0.0
 30
0.0
  9
$PUCSYDIR
 10
0.0
 20
1.0
 30
0.0
  9
$PUCSORTHOREF
  2

  9
$PUCSORTHOVIEW
 70
     0
  9
$PUCSORGTOP
 10
0.0
 20
0.0
 30
0.0
  9
$PUCSORGBOTTOM
 10
0.0
 20
0.0
 30
0.0
  9
$PUCSORGLEFT
 10
0.0
 20
0.0
 30
0.0
  9
$PUCSORGRIGHT
 10
0.0
 20
0.0
 30
0.0
  9
$PUCSORGFRONT
 10
0.0
 20
0.0
 30
0.0
  9
$PUCSORGBACK
 10
0.0
 20
0.0
 30
0.0
  9
$USERI1
 70
     0
  9
$USERI2
 70
     0
  9
$USERI3
 70
     0
  9
$USERI4
 70
     0
  9
$USERI5
 70
     0
  9
$USERR1
 40
0.0
  9
$USERR2
 40
0.0
  9
$USERR3
 40
0.0
  9
$USERR4
 40
0.0
  9
$USERR5
 40
0.0
  9
$WORLDVIEW
 70
     1
  9
$SHADEDGE
 70
     3
  9
$SHADEDIF
 70
    70
  9
$TILEMODE
 70
     1
  9
$MAXACTVP
 70
    64
  9
$PINSBASE
 10
0.0
 20
0.0
 30
0.0
  9
$PLIMCHECK
 70
     0
  9
$PEXTMIN
 10
1.000000000000000E+20
 20
1.000000000000000E+20
 30
1.000000000000000E+20
  9
$PEXTMAX
 10
-1.000000000000000E+20
 20
-1.000000000000000E+20
 30
-1.000000000000000E+20
  9
$PLIMMIN
 10
0.0
 20
0.0
  9
$PLIMMAX
 10
420.0
 20
297.0
  9
$UNITMODE
 70
     0
  9
$VISRETAIN
 70
     1
  9
$PLINEGEN
 70
     0
  9
$PSLTSCALE
 70
     1
  9
$TREEDEPTH
 70
  3020
  9
$CMLSTYLE
  2
Standard
  9
$CMLJUST
 70
     0
  9
$CMLSCALE
 40
20.0
  9
$PROXYGRAPHICS
 70
     1
  9
$MEASUREMENT
 70
     1
  9
$CELWEIGHT
370
    -1
  9
$ENDCAPS
280
     0
  9
$JOINSTYLE
280
     0
  9
$LWDISPLAY
290
     0
  9
$INSUNITS
 70
     4
  9
$HYPERLINKBASE
  1

  9
$STYLESHEET
  1

  9
$XEDIT
290
     1
  9
$CEPSNTYPE
380
     0
  9
$PSTYLEMODE
290
     1
  9
$FINGERPRINTGUID
  2
{A32F1841-D888-4C5F-BE4F-6A547044702B}
  9
$VERSIONGUID
  2
{FAEB1C32-E019-11D5-929B-00C0DF256EC4}
  9
$EXTNAMES
290
     1
  9
$PSVPSCALE
 40
0.0
  9
$OLESTARTUP
290
     0
  9
$SORTENTS
280
   127
  9
$INDEXCTL
280
     0
  9
$HIDETEXT
280
     1
  9
$XCLIPFRAME
280
     2
  9
$HALOGAP
280
     0
  9
$OBSCOLOR
 70
   257
  9
$OBSLTYPE
280
     0
  9
$INTERSECTIONDISPLAY
280
     0
  9
$INTERSECTIONCOLOR
 70
   257
  9
$DIMASSOC
280
     2
  9
$PROJECTNAME
  1

  9
$CAMERADISPLAY
290
     0
  9
$LENSLENGTH
 40
50.0
  9
$CAMERAHEIGHT
 40
0.0
  9
$STEPSPERSEC
 40
2.0
  9
$STEPSIZE
 40
6.0
  9
$3DDWFPREC
 40
2.0
  9
$PSOLWIDTH
 40
5.0
  9
$PSOLHEIGHT
 40
80.0
  9
$LOFTANG1
 40
1.570796326794897
  9
$LOFTANG2
 40
1.570796326794897
  9
$LOFTMAG1
 40
0.0
  9
$LOFTMAG2
 40
0.0
  9
$LOFTPARAM
 70
     7
  9
$LOFTNORMALS
280
     1
  9
$LATITUDE
 40
37.795
  9
$LONGITUDE
 40
-122.394
  9
$NORTHDIRECTION
 40
0.0
  9
$TIMEZONE
 70
 -8000
  9
$LIGHTGLYPHDISPLAY
280
     1
  9
$TILEMODELIGHTSYNCH
280
     1
  9
$CMATERIAL
347
44
  9
$SOLIDHIST
280
     0
  9
$SHOWHIST
280
     1
  9
$DWFFRAME
280
     2
  9
$DGNFRAME
280
     2
  9
$REALWORLDSCALE
290
     1
  9
$INTERFERECOLOR
 62
   256
  9
$CSHADOW
280
     0
  9
$SHADOWPLANELOCATION
 40
0.0
  0
ENDSEC
  0
SECTION
  2
CLASSES
  0
CLASS
  1
ACDBDICTIONARYWDFLT
  2
AcDbDictionaryWithDefault
  3
ObjectDBX Classes
 90
        0
 91
        4
280
     0
281
     0
  0
CLASS
  1
VISUALSTYLE
  2
AcDbVisualStyle
  3
ObjectDBX Classes
 90
     4095
 91
        4
280
     0
281
     0
  0
CLASS
  1
MATERIAL
  2
AcDbMaterial
  3
ObjectDBX Classes
 90
     1153
 91
        4
280
     0
281
     0
  0
CLASS
  1
SCALE
  2
AcDbScale
  3
ObjectDBX Classes
 90
     1153
 91
        4
280
     0
281
     0
  0
CLASS
  1
TABLESTYLE
  2
AcDbTableStyle
  3
ObjectDBX Classes
 90
     4095
 91
        4
280
     0
281
     0
  0
CLASS
  1
MLEADERSTYLE
  2
AcDbMLeaderStyle
  3
ACDB_MLEADERSTYLE_CLASS
 90
     4095
 91
        4
280
     0
281
     0
  0
CLASS
  1
SUN
  2
AcDbSun
  3
SCENEOE
 90
     1153
 91
        4
280
     0
281
     0
  0
CLASS
  1
DICTIONARYVAR
  2
AcDbDictionaryVar
  3
ObjectDBX Classes
 90
        0
 91
        4
280
     0
281
     0
  0
CLASS
  1
CELLSTYLEMAP
  2
AcDbCellStyleMap
  3
ObjectDBX Classes
 90
     1152
 91
        4
280
     0
281
     0
  0
ENDSEC
  0
SECTION
  2
TABLES
  0
TABLE
  2
VPORT
  5
8
330
0
100
AcDbSymbolTable
 70
     1
  0
VPORT
  5
29
330
8
100
AcDbSymbolTableRecord
100
AcDbViewportTableRecord
  2
*Active
 70
     0
 10
0.0
 20
0.0
 11
1.0
 21
1.0
 12
0.0000000000000568
 22
-29.35000000000011
 13
0.0
 23
0.0
 14
10.0
 24
10.0
 15
10.0
 25
10.0
 16
0.0
 26
0.0
 36
1.0
 17
0.0
 27
0.0
 37
0.0
 40
65.86139999999976
 41
1.624593464457186
 42
50.0
 43
0.0
 44
0.0
 50
0.0
 51
0.0
 71
     0
 72
   100
 73
     1
 74
     3
 75
     0
 76
     0
 77
     0
 78
     0
281
     0
 65
     1
110
0.0
120
0.0
130
0.0
111
1.0
121
0.0
131
0.0
112
0.0
122
1.0
132
0.0
 79
     0
146
0.0
348
2F
 60
     3
 61
     5
292
     1
282
     1
141
0.0
142
0.0
 63
   250
361
6D
  0
ENDTAB
  0
TABLE
  2
LTYPE
  5
5
330
0
100
AcDbSymbolTable
 70
     3
  0
LTYPE
  5
14
330
5
100
AcDbSymbolTableRecord
100
AcDbLinetypeTableRecord
  2
ByBlock
 70
     0
  3

 72
    65
 73
     0
 40
0.0
  0
LTYPE
  5
15
330
5
100
AcDbSymbolTableRecord
100
AcDbLinetypeTableRecord
  2
ByLayer
 70
     0
  3

 72
    65
 73
     0
 40
0.0
  0
LTYPE
  5
16
330
5
100
AcDbSymbolTableRecord
100
AcDbLinetypeTableRecord
  2
Continuous
 70
     0
  3
Solid line
 72
    65
 73
     0
 40
0.0
  0
LTYPE
  5
97
330
5
100
AcDbSymbolTableRecord
100
AcDbLinetypeTableRecord
  2
Dashed
 70
     0
  3

 72
    65
 73
     2
 40
2.0
 49
1.0
 74
     0
 49
-1.0
 74
     0
  0
LTYPE
  5
193
330
5
100
AcDbSymbolTableRecord
100
AcDbLinetypeTableRecord
  2
Center
 70
     0
  3

 72
    65
 73
     4
 40
1.5
 49
0.45
 74
     0
 49
-0.5
 74
     0
 49
0.05
 74
     0
 49
-0.5
 74
     0
  0
ENDTAB
  0
TABLE
  2
LAYER
  5
2
330
0
100
AcDbSymbolTable
 70
     6
  0
LAYER
  5
10
330
2
100
AcDbSymbolTableRecord
100
AcDbLayerTableRecord
  2
0
 70
     0
 62
     7
  6
Continuous
370
    -3
390
F
347
46
348
0
  0
LAYER
  5
72
330
2
100
AcDbSymbolTableRecord
100
AcDbLayerTableRecord
  2
AM_6
 70
     0
 62
    -2
  6
Continuous
370
    35
390
F
347
46
348
0
  0
LAYER
  5
98
330
2
100
AcDbSymbolTableRecord
100
AcDbLayerTableRecord
  2
AM_9
 70
     0
 62
     6
  6
Dashed
370
    25
390
F
347
46
348
0
  0
LAYER
  5
BF
330
2
100
AcDbSymbolTableRecord
100
AcDbLayerTableRecord
  2
AM_4
 70
     0
 62
     7
  6
Continuous
370
    50
390
F
347
46
348
0
  0
LAYER
  5
194
330
2
100
AcDbSymbolTableRecord
100
AcDbLayerTableRecord
  2
AM_7
 70
     0
 62
     7
  6
Center
370
    25
390
F
347
46
348
0
  0
LAYER
  5
1B9
330
2
100
AcDbSymbolTableRecord
100
AcDbLayerTableRecord
  2
ConnectionPoints
 70
     0
 62
     7
  6
Continuous
370
    50
390
F
347
46
348
0
  0
ENDTAB
  0
TABLE
  2
STYLE
  5
3
330
0
100
AcDbSymbolTable
 70
     1
  0
STYLE
  5
11
330
3
100
AcDbSymbolTableRecord
100
AcDbTextStyleTableRecord
  2
Standard
 70
     0
 40
0.0
 41
1.0
 50
0.0
 71
     0
 42
2.5
  3
txt
  4

  0
ENDTAB
  0
TABLE
  2
VIEW
  5
6
330
0
100
AcDbSymbolTable
 70
     0
  0
ENDTAB
  0
TABLE
  2
UCS
  5
7
330
0
100
AcDbSymbolTable
 70
     0
  0
ENDTAB
  0
TABLE
  2
APPID
  5
9
330
0
100
AcDbSymbolTable
 70
     1
  0
APPID
  5
12
330
9
100
AcDbSymbolTableRecord
100
AcDbRegAppTableRecord
  2
ACAD
 70
     0
  0
ENDTAB
  0
TABLE
  2
DIMSTYLE
  5
A
330
0
100
AcDbSymbolTable
 70
     1
100
AcDbDimStyleTable
  0
DIMSTYLE
105
27
330
A
100
AcDbSymbolTableRecord
100
AcDbDimStyleTableRecord
  2
ISO-25
 70
     0
 41
2.5
 42
0.625
 43
3.75
 44
1.25
 73
     0
 74
     0
 77
     1
 78
     8
140
2.5
141
2.5
143
0.03937007874016
147
0.625
171
     3
172
     1
178
     0
271
     2
272
     2
274
     3
278
    44
283
     0
284
     8
340
11
  0
ENDTAB
  0
TABLE
  2
BLOCK_RECORD
  5
1
330
0
100
AcDbSymbolTable
 70
     5
  0
BLOCK_RECORD
  5
1F
330
1
100
AcDbSymbolTableRecord
100
AcDbBlockTableRecord
  2
*Model_Space
340
22
 70
     0
280
     1
281
     0
  0
BLOCK_RECORD
  5
1B
330
1
100
AcDbSymbolTableRecord
100
AcDbBlockTableRecord
  2
*Paper_Space
340
1E
 70
     0
280
     1
281
     0
  0
BLOCK_RECORD
  5
23
330
1
100
AcDbSymbolTableRecord
100
AcDbBlockTableRecord
  2
*Paper_Space0
340
26
 70
     0
280
     1
281
     0
  0
BLOCK_RECORD
  5
6E
330
1
100
AcDbSymbolTableRecord
100
AcDbBlockTableRecord
  2
1_130835_4
340
0
102
{BLKREFS
331
6F
102
}
 70
     0
280
     1
281
     0
  0
BLOCK_RECORD
  5
8B
330
1
100
AcDbSymbolTableRecord
100
AcDbBlockTableRecord
  2
2_405015E_Metric_0_in_130835_4
340
0
102
{BLKREFS
331
8C
102
}
 70
     0
280
     1
281
     0
  0
BLOCK_RECORD
  5
ED
330
1
100
AcDbSymbolTableRecord
100
AcDbBlockTableRecord
  2
3_125630_0_in_130835_4
340
0
102
{BLKREFS
331
EE
102
}
 70
     0
280
     1
281
     0
  0
BLOCK_RECORD
  5
14C
330
1
100
AcDbSymbolTableRecord
100
AcDbBlockTableRecord
  2
4_130835H_0_in_130835_4
340
0
102
{BLKREFS
331
14D
102
}
 70
     0
280
     1
281
     0
  0
ENDTAB
  0
ENDSEC
  0
SECTION
  2
BLOCKS
  0
BLOCK
  5
20
330
1F
100
AcDbEntity
  8
0
100
AcDbBlockBegin
  2
*Model_Space
 70
     0
 10
0.0
 20
0.0
 30
0.0
  3
*Model_Space
  1

  0
ENDBLK
  5
21
330
1F
100
AcDbEntity
  8
0
100
AcDbBlockEnd
  0
BLOCK
  5
1C
330
1B
100
AcDbEntity
 67
     1
  8
0
100
AcDbBlockBegin
  2
*Paper_Space
 70
     0
 10
0.0
 20
0.0
 30
0.0
  3
*Paper_Space
  1

  0
ENDBLK
  5
1D
330
1B
100
AcDbEntity
 67
     1
  8
0
100
AcDbBlockEnd
  0
BLOCK
  5
24
330
23
100
AcDbEntity
  8
0
100
AcDbBlockBegin
  2
*Paper_Space0
 70
     0
 10
0.0
 20
0.0
 30
0.0
  3
*Paper_Space0
  1

  0
ENDBLK
  5
25
330
23
100
AcDbEntity
  8
0
100
AcDbBlockEnd
  0
BLOCK
  5
70
330
6E
100
AcDbEntity
  8
0
100
AcDbBlockBegin
  2
1_130835_4
 70
     2
 10
0.0
 20
0.0
 30
0.0
  3
1_130835_4
  1

  0
ATTDEF
  5
73
330
6E
100
AcDbEntity
  8
AM_6
100
AcDbText
 10
57.4500000000001
 20
2.935
 30
0.0
 40
0.5
  1
Eccentric Collar Two-Bolt Piloted Flange Metric Bore
100
AcDbAttributeDefinition
  3

  2
NN
 70
     8
280
     0
  0
ATTDEF
  5
74
330
6E
100
AcDbEntity
  8
AM_6
100
AcDbText
 10
57.4500000000001
 20
2.435
 30
0.0
 40
0.5
  1
Eccentric Collar 2 Bolt Piloted Flange Bearings -(Normal Duty)
100
AcDbAttributeDefinition
  3

  2
NT
 70
     8
280
     0
  0
ATTDEF
  5
75
330
6E
100
AcDbEntity
  8
AM_6
100
AcDbText
 10
57.4500000000001
 20
1.935
 30
0.0
 40
0.5
  1
130835
100
AcDbAttributeDefinition
  3

  2
NB
 70
     8
280
     0
  0
ATTDEF
  5
76
330
6E
100
AcDbEntity
  8
AM_6
100
AcDbText
 10
57.4500000000001
 20
1.435
 30
0.0
 40
0.5
  1
$PN.
100
AcDbAttributeDefinition
  3

  2
NBSYN
 70
     8
280
     0
  0
ATTDEF
  5
77
330
6E
100
AcDbEntity
  8
AM_6
100
AcDbText
 10
57.4500000000001
 20
0.9350000000000005
 30
0.0
 40
0.5
  1
130835
100
AcDbAttributeDefinition
  3

  2
LINA
 70
     8
280
     0
  0
ATTDEF
  5
78
330
6E
100
AcDbEntity
  8
AM_6
100
AcDbText
 10
57.4500000000001
 20
0.4350000000000005
 30
0.0
 40
0.5
  1
208
100
AcDbAttributeDefinition
  3

  2
SERIES
 70
     8
280
     0
  0
ATTDEF
  5
79
330
6E
100
AcDbEntity
  8
AM_6
100
AcDbText
 10
57.4500000000001
 20
-0.0649999999999995
 30
0.0
 40
0.5
  1
40
100
AcDbAttributeDefinition
  3

  2
SS
 70
     8
280
     0
  0
ATTDEF
  5
7A
330
6E
100
AcDbEntity
  8
AM_6
100
AcDbText
 10
57.4500000000001
 20
-0.5649999999999995
 30
0.0
 40
0.5
  1
130835
100
AcDbAttributeDefinition
  3

  2
PN
 70
     8
280
     0
  0
ATTDEF
  5
7B
330
6E
100
AcDbEntity
  8
AM_6
100
AcDbText
 10
57.4500000000001
 20
-1.065
 30
0.0
 40
0.5
  1
F2BZ-SXR-40M
100
AcDbAttributeDefinition
  3

  2
DESCRIPTION
 70
     8
280
     0
  0
ATTDEF
  5
7C
330
6E
100
AcDbEntity
  8
AM_6
100
AcDbText
 10
57.4500000000001
 20
-1.565
 30
0.0
 40
0.5
  1
1.9
100
AcDbAttributeDefinition
  3

  2
W
 70
     8
280
     0
  0
ATTDEF
  5
7D
330
6E
100
AcDbEntity
  8
AM_6
100
AcDbText
 10
57.4500000000001
 20
-2.065
 30
0.0
 40
0.5
  1
53.8
100
AcDbAttributeDefinition
  3

  2
A
 70
     8
280
     0
  0
ATTDEF
  5
7E
330
6E
100
AcDbEntity
  8
AM_6
100
AcDbText
 10
57.4500000000001
 20
-2.565
 30
0.0
 40
0.5
  1
171.5
100
AcDbAttributeDefinition
  3

  2
B
 70
     8
280
     0
  0
ATTDEF
  5
7F
330
6E
100
AcDbEntity
  8
AM_6
100
AcDbText
 10
57.4500000000001
 20
-3.065
 30
0.0
 40
0.5
  1
58.7
100
AcDbAttributeDefinition
  3

  2
C
 70
     8
280
     0
  0
ATTDEF
  5
80
330
6E
100
AcDbEntity
  8
AM_6
100
AcDbText
 10
57.4500000000001
 20
-3.565
 30
0.0
 40
0.5
  1
143.8
100
AcDbAttributeDefinition
  3

  2
D
 70
     8
280
     0
  0
ATTDEF
  5
81
330
6E
100
AcDbEntity
  8
AM_6
100
AcDbText
 10
57.4500000000001
 20
-4.065
 30
0.0
 40
0.5
  1
4.1
100
AcDbAttributeDefinition
  3

  2
E
 70
     8
280
     0
  0
ATTDEF
  5
82
330
6E
100
AcDbEntity
  8
AM_6
100
AcDbText
 10
57.4500000000001
 20
-4.565
 30
0.0
 40
0.5
  1
M12
100
AcDbAttributeDefinition
  3

  2
F
 70
     8
280
     0
  0
ATTDEF
  5
83
330
6E
100
AcDbEntity
  8
AM_6
100
AcDbText
 10
57.4500000000001
 20
-5.065
 30
0.0
 40
0.5
  1
54.6
100
AcDbAttributeDefinition
  3

  2
G
 70
     8
280
     0
  0
ATTDEF
  5
84
330
6E
100
AcDbEntity
  8
AM_6
100
AcDbText
 10
57.4500000000001
 20
-5.565
 30
0.0
 40
0.5
  1
14.2
100
AcDbAttributeDefinition
  3

  2
H
 70
     8
280
     0
  0
ATTDEF
  5
85
330
6E
100
AcDbEntity
  8
AM_6
100
AcDbText
 10
57.4500000000001
 20
-6.065
 30
0.0
 40
0.5
  1
20.6
100
AcDbAttributeDefinition
  3

  2
J
 70
     8
280
     0
  0
ATTDEF
  5
86
330
6E
100
AcDbEntity
  8
AM_6
100
AcDbText
 10
57.4500000000001
 20
-6.565
 30
0.0
 40
0.5
  1
100.00/99.95
100
AcDbAttributeDefinition
  3

  2
K
 70
     8
280
     0
  0
ATTDEF
  5
87
330
6E
100
AcDbEntity
  8
AM_6
100
AcDbText
 10
57.4500000000001
 20
-7.065
 30
0.0
 40
0.5
  1
60.5
100
AcDbAttributeDefinition
  3

  2
L
 70
     8
280
     0
  0
ATTDEF
  5
88
330
6E
100
AcDbEntity
  8
AM_6
100
AcDbText
 10
57.4500000000001
 20
-7.565
 30
0.0
 40
0.5
  1
104.9
100
AcDbAttributeDefinition
  3

  2
M
 70
     8
280
     0
  0
ATTDEF
  5
89
330
6E
100
AcDbEntity
  8
AM_6
100
AcDbText
 10
57.4500000000001
 20
-8.065
 30
0.0
 40
0.5
  1
46.5
100
AcDbAttributeDefinition
  3

  2
N
 70
     8
280
     0
  0
ATTDEF
  5
8A
330
6E
100
AcDbEntity
  8
AM_6
100
AcDbText
 10
57.4500000000001
 20
-8.565
 30
0.0
 40
0.5
  1
baldor
100
AcDbAttributeDefinition
  3

  2
COMPANY
 70
     8
280
     0
  0
INSERT
  5
8C
330
6E
100
AcDbEntity
  8
0
100
AcDbBlockReference
  2
2_405015E_Metric_0_in_130835_4
 10
0.0
 20
0.0
 30
0.0
  0
INSERT
  5
EE
330
6E
100
AcDbEntity
  8
0
100
AcDbBlockReference
  2
3_125630_0_in_130835_4
 10
0.0
 20
0.0
 30
0.0
  0
INSERT
  5
14D
330
6E
100
AcDbEntity
  8
0
100
AcDbBlockReference
  2
4_130835H_0_in_130835_4
 10
0.0
 20
0.0
 30
0.0
  0
ENDBLK
  5
71
330
6E
100
AcDbEntity
  8
0
100
AcDbBlockEnd
  0
BLOCK
  5
8D
330
8B
100
AcDbEntity
  8
0
100
AcDbBlockBegin
  2
2_405015E_Metric_0_in_130835_4
 70
     2
 10
0.0
 20
0.0
 30
0.0
  3
2_405015E_Metric_0_in_130835_4
  1

  0
ATTDEF
  5
8F
330
8B
100
AcDbEntity
  8
AM_6
100
AcDbText
 10
53.1736846621368
 20
-19.12649730810374
 30
0.0
 40
0.5
  1
405015E -Metric
100
AcDbAttributeDefinition
  3

  2
NN
 70
     8
280
     0
  0
ATTDEF
  5
90
330
8B
100
AcDbEntity
  8
AM_6
100
AcDbText
 10
53.1736846621368
 20
-19.62649730810374
 30
0.0
 40
0.5
  1
Grease Fitting
100
AcDbAttributeDefinition
  3

  2
NT
 70
     8
280
     0
  0
ATTDEF
  5
91
330
8B
100
AcDbEntity
  8
AM_6
100
AcDbText
 10
53.1736846621368
 20
-20.12649730810374
 30
0.0
 40
0.5
  1
405015E-Metric
100
AcDbAttributeDefinition
  3

  2
NB
 70
     8
280
     0
  0
ATTDEF
  5
92
330
8B
100
AcDbEntity
  8
AM_6
100
AcDbText
 10
53.1736846621368
 20
-20.62649730810374
 30
0.0
 40
0.5
  1
$MN.-Metric
100
AcDbAttributeDefinition
  3

  2
NBSYN
 70
     8
280
     0
  0
ATTDEF
  5
93
330
8B
100
AcDbEntity
  8
AM_6
100
AcDbText
 10
53.1736846621368
 20
-21.12649730810374
 30
0.0
 40
0.5
  1
405015E
100
AcDbAttributeDefinition
  3

  2
LINA
 70
     8
280
     0
  0
ATTDEF
  5
94
330
8B
100
AcDbEntity
  8
AM_6
100
AcDbText
 10
53.1736846621368
 20
-21.62649730810374
 30
0.0
 40
0.5
  1
405015E
100
AcDbAttributeDefinition
  3

  2
MN
 70
     8
280
     0
  0
ATTDEF
  5
95
330
8B
100
AcDbEntity
  8
AM_6
100
AcDbText
 10
53.1736846621368
 20
-22.12649730810374
 30
0.0
 40
0.5
  1
1/8 x 27PTF
100
AcDbAttributeDefinition
  3

  2
T
 70
     8
280
     0
  0
ATTDEF
  5
96
330
8B
100
AcDbEntity
  8
AM_6
100
AcDbText
 10
53.1736846621368
 20
-22.62649730810374
 30
0.0
 40
0.5
  1
baldor
100
AcDbAttributeDefinition
  3

  2
COMPANY
 70
     8
280
     0
  0
ELLIPSE
  5
99
330
8B
100
AcDbEntity
  8
AM_9
100
AcDbEllipse
 10
35.00527216503148
 20
-24.9
 30
0.0
 11
2.546036870355445E-16
 21
4.157993753183522
 31
0.0
210
0.0
220
0.0
230
1.0
 40
0.7071067811865472
 41
0.0
 42
6.283185307179586
  0
LWPOLYLINE
  5
9A
330
8B
100
AcDbEntity
  8
AM_9
100
AcDbPolyline
 90
        3
 70
     0
 43
0.0
 10
42.03267684671656
 20
-20.96843637591959
 10
42.45514121368904
 20
-21.29156081756483
 10
43.44689635763512
 20
-22.01324865405187
  0
LINE
  5
9B
330
8B
100
AcDbEntity
  8
AM_9
100
AcDbLine
 10
41.5325748621645
 20
-20.5698729810778
 30
0.0
 11
42.03267684671656
 21
-20.96843637591959
 31
0.0
  0
LINE
  5
9C
330
8B
100
AcDbEntity
  8
AM_9
100
AcDbLine
 10
43.30154553132504
 20
-24.64786610282021
 30
0.0
 11
43.30219537007922
 21
-25.21292937633756
 31
0.0
  0
LINE
  5
9D
330
8B
100
AcDbEntity
  8
AM_9
100
AcDbLine
 10
43.31095328646304
 20
-24.14953257279799
 30
0.0
 11
43.30154553132504
 21
-24.64786610282021
 31
0.0
  0
LWPOLYLINE
  5
9E
330
8B
100
AcDbEntity
  8
AM_9
100
AcDbPolyline
 90
        3
 70
     0
 43
0.0
 10
43.44689635763512
 20
-22.01324865405187
 10
43.33936643147876
 20
-23.45013452133858
 10
43.31095328646304
 20
-24.14953257279799
  0
LINE
  5
9F
330
8B
100
AcDbEntity
  8
AM_9
100
AcDbLine
 10
41.97442011689614
 20
-28.87703848600975
 30
0.0
 11
41.5325748621645
 21
-29.23012701892219
 31
0.0
  0
LWPOLYLINE
  5
A0
330
8B
100
AcDbEntity
  8
AM_9
100
AcDbPolyline
 90
        4
 70
     0
 43
0.0
 10
43.44689635763512
 20
-27.78675134594812
 10
42.45945713311153
 20
-28.50519427959148
 10
41.98705559522843
 20
-28.86715516693802
 10
41.97442011689614
 20
-28.87703848600975
  0
LWPOLYLINE
  5
A1
330
8B
100
AcDbEntity
  8
AM_9
100
AcDbPolyline
 90
        4
 70
     0
 43
0.0
 10
43.30804504291396
 20
-25.53892327381294
 10
43.32363928545224
 20
-26.01567952239156
 10
43.39039720264052
 20
-27.13135904478312
 10
43.44689635763512
 20
-27.78675134594812
  0
LINE
  5
A2
330
8B
100
AcDbEntity
  8
AM_9
100
AcDbLine
 10
43.30219537007922
 20
-25.21292937633756
 30
0.0
 11
43.30804504291396
 21
-25.53892327381294
 31
0.0
  0
LINE
  5
A3
330
8B
100
AcDbEntity
  8
AM_9
100
AcDbLine
 10
45.27510761618625
 20
-22.01324865405187
 30
0.0
 11
43.44689635763512
 21
-22.01324865405187
 31
0.0
  0
LINE
  5
A4
330
8B
100
AcDbEntity
  8
AM_9
100
AcDbLine
 10
45.27510761618625
 20
-27.78675134594812
 30
0.0
 11
43.44689635763512
 21
-27.78675134594812
 31
0.0
  0
LINE
  5
A5
330
8B
100
AcDbEntity
  8
AM_9
100
AcDbLine
 10
44.99598312057931
 20
-28.05284180351201
 30
0.0
 11
45.27510761618625
 21
-27.78675134594812
 31
0.0
  0
LWPOLYLINE
  5
A6
330
8B
100
AcDbEntity
  8
AM_9
100
AcDbPolyline
 90
        4
 70
     0
 43
0.0
 10
45.27510761618625
 20
-27.78675134594812
 10
45.33160677118085
 20
-27.13135904478312
 10
45.39822690279598
 20
-26.01901401901461
 10
45.42166215869052
 20
-24.9
  0
LINE
  5
A7
330
8B
100
AcDbEntity
  8
AM_9
100
AcDbLine
 10
45.27510761618625
 20
-22.01324865405187
 30
0.0
 11
44.99170854953747
 21
-21.74313896219839
 31
0.0
  0
LWPOLYLINE
  5
A8
330
8B
100
AcDbEntity
  8
AM_9
100
AcDbPolyline
 90
        4
 70
     0
 43
0.0
 10
45.42166215869052
 20
-24.9
 10
45.41184486586273
 20
-24.17831216351296
 10
45.38297928364915
 20
-23.45662432702593
 10
45.27510761618625
 20
-22.01324865405187
  0
LINE
  5
A9
330
8B
100
AcDbEntity
  8
AM_9
100
AcDbLine
 10
41.10240883658232
 20
-20.21070187665714
 30
0.0
 11
41.5325748621645
 21
-20.5698729810778
 31
0.0
  0
LWPOLYLINE
  5
AA
330
8B
100
AcDbEntity
  8
AM_9
100
AcDbPolyline
 90
        4
 70
     0
 43
0.0
 10
39.91136245170239
 20
-19.12649730810374
 10
40.68374182391326
 20
-19.8449402417471
 10
41.0979597668742
 20
-20.20690112909364
 10
41.10240883658232
 20
-20.21070187665714
  0
LWPOLYLINE
  5
AB
330
8B
100
AcDbEntity
  8
AM_9
100
AcDbPolyline
 90
        3
 70
     0
 43
0.0
 10
41.03779208866857
 20
-29.64467759920662
 10
40.68737426072268
 20
-29.95181485540922
 10
39.91136245170239
 20
-30.67350269189625
  0
LINE
  5
AC
330
8B
100
AcDbEntity
  8
AM_9
100
AcDbLine
 10
41.5325748621645
 20
-29.23012701892219
 30
0.0
 11
41.03779208866857
 21
-29.64467759920662
 31
0.0
  0
LINE
  5
AD
330
8B
100
AcDbEntity
  8
AM_9
100
AcDbLine
 10
35.32441763512631
 20
-29.65570540013617
 30
0.0
 11
39.65543000226548
 21
-29.84721402118571
 31
0.0
  0
LINE
  5
AE
330
8B
100
AcDbEntity
  8
AM_9
100
AcDbLine
 10
39.65543000226548
 20
-19.95278597881428
 30
0.0
 11
35.32441763512631
 21
-20.14429459986382
 31
0.0
  0
ELLIPSE
  5
AF
330
8B
100
AcDbEntity
  8
AM_9
100
AcDbEllipse
 10
41.88612825275772
 20
-24.89999999999997
 30
0.0
 11
-9.184850993605201E-16
 21
-5.000000000000028
 31
0.0
210
0.0
220
0.0
230
1.0
 40
0.7071067811865535
 41
0.8982051386263912
 42
2.243387514963055
  0
LINE
  5
B0
330
8B
100
AcDbEntity
  8
AM_9
100
AcDbLine
 10
44.66581728316772
 20
-22.91007116726747
 30
0.0
 11
44.40199781128084
 21
-22.49341358254604
 31
0.0
  0
LINE
  5
B1
330
8B
100
AcDbEntity
  8
AM_9
100
AcDbLine
 10
44.40199781128084
 20
-27.30658641745395
 30
0.0
 11
44.66581728316772
 21
-26.88992883273252
 31
0.0
  0
ELLIPSE
  5
B2
330
8B
100
AcDbEntity
  8
AM_9
100
AcDbEllipse
 10
43.09444172228913
 20
-24.9
 30
0.0
 11
-5.479672885901694E-16
 21
-2.982994982562513
 31
0.0
210
0.0
220
0.0
230
1.0
 40
0.7071067811865511
 41
0.3869422381883885
 42
2.754650415401405
  0
LINE
  5
B3
330
8B
100
AcDbEntity
  8
AM_9
100
AcDbLine
 10
44.3853504751308
 20
-22.42277008014441
 30
0.0
 11
43.91378882426581
 21
-22.15102288328506
 31
0.0
  0
LINE
  5
B4
330
8B
100
AcDbEntity
  8
AM_9
100
AcDbLine
 10
43.91378882426581
 20
-27.64897711671493
 30
0.0
 11
44.3853504751308
 21
-27.37722991985558
 31
0.0
  0
ELLIPSE
  5
B5
330
8B
100
AcDbEntity
  8
AM_9
100
AcDbEllipse
 10
43.67157287525382
 20
-24.9
 30
0.0
 11
-4.913895281578730E-16
 21
-2.674999999999986
 31
0.0
210
0.0
220
0.0
230
1.0
 40
0.7071067811865493
 41
0.0
 42
3.141592653589793
  0
ELLIPSE
  5
B6
330
8B
100
AcDbEntity
  8
AM_9
100
AcDbEllipse
 10
42.50160267185456
 20
-24.90000000000029
 30
0.0
 11
-6.627024103767469E-16
 21
-3.607583894600719
 31
0.0
210
0.0
220
0.0
230
1.0
 40
0.7071067811865483
 41
0.663383315188919
 42
2.478209338400974
  0
ELLIPSE
  5
B7
330
8B
100
AcDbEntity
  8
AM_9
100
AcDbEllipse
 10
41.88612825275779
 20
-24.9
 30
0.0
 11
-8.725608443924871E-16
 21
-4.749999999999989
 31
0.0
210
0.0
220
0.0
230
1.0
 40
0.7071067811865474
 41
0.8736482899486528
 42
2.267944363641174
  0
LINE
  5
B8
330
8B
100
AcDbEntity
  8
AM_9
100
AcDbLine
 10
43.78824549414959
 20
-27.57499999999999
 30
0.0
 11
44.1665476220844
 21
-27.575
 31
0.0
  0
LINE
  5
B9
330
8B
100
AcDbEntity
  8
AM_9
100
AcDbLine
 10
44.1665476220844
 20
-22.22499999999999
 30
0.0
 11
43.7882454941496
 21
-22.22499999999999
 31
0.0
  0
ELLIPSE
  5
BA
330
8B
100
AcDbEntity
  8
AM_9
100
AcDbEllipse
 10
44.16654762208439
 20
-24.9
 30
0.0
 11
-4.913895281578768E-16
 21
-2.675000000000008
 31
0.0
210
0.0
220
0.0
230
1.0
 40
0.7071067811865464
 41
5.888394187479829
 42
9.819569080469137
  0
ELLIPSE
  5
BB
330
8B
100
AcDbEntity
  8
AM_9
100
AcDbEllipse
 10
45.08578643762691
 20
-24.9
 30
0.0
 11
-5.832380380939264E-16
 21
-3.174999999999997
 31
0.0
210
0.0
220
0.0
230
1.0
 40
0.7071067811865476
 41
0.4159140521025453
 42
2.725678601487248
  0
ELLIPSE
  5
BC
330
8B
100
AcDbEntity
  8
AM_9
100
AcDbEllipse
 10
39.7648079091981
 20
-24.90000000000003
 30
0.0
 11
-9.184850993605038E-16
 21
-4.99999999999994
 31
0.0
210
0.0
220
0.0
230
1.0
 40
0.707106781186549
 41
0.0
 42
6.283185307179586
  0
ELLIPSE
  5
BD
330
8B
100
AcDbEntity
  8
AM_9
100
AcDbEllipse
 10
39.76480790919813
 20
-24.89999999999786
 30
0.0
 11
-9.092325864229744E-16
 21
-4.949631665532831
 31
0.0
210
0.0
220
0.0
230
1.0
 40
0.7071067811865478
 41
0.0
 42
6.283185307179586
  0
ELLIPSE
  5
BE
330
8B
100
AcDbEntity
  8
AM_9
100
AcDbEllipse
 10
35.42956147979478
 20
-24.9000000000283
 30
0.0
 11
-8.740358316300942E-16
 21
-4.758029456540079
 31
0.0
210
0.0
220
0.0
230
1.0
 40
0.707106781186476
 41
0.0
 42
6.283185307179586
  0
LWPOLYLINE
  5
C0
330
8B
100
AcDbEntity
  8
AM_4
100
AcDbPolyline
 90
        4
 70
     0
 43
0.0
 10
43.65389520572415
 20
-29.23012701892219
 10
44.08601965113795
 20
-28.86928310067867
 10
44.49909580716596
 20
-28.50843918243516
 10
44.99598312057931
 20
-28.05284180351201
  0
LWPOLYLINE
  5
C1
330
8B
100
AcDbEntity
  8
AM_4
100
AcDbPolyline
 90
        4
 70
     0
 43
0.0
 10
44.99170854953747
 20
-21.74313896219839
 10
44.50272824397538
 20
-21.29480572040851
 10
44.08851030101443
 20
-20.93284483306197
 10
43.65389520572415
 20
-20.5698729810778
  0
LWPOLYLINE
  5
C2
330
8B
100
AcDbEntity
  8
AM_4
100
AcDbPolyline
 90
        4
 70
     0
 43
0.0
 10
43.65389520572415
 20
-20.5698729810778
 10
43.20213617465477
 20
-20.20902906283429
 10
42.7313288541996
 20
-19.84818514459077
 10
41.73957371025352
 20
-19.12649730810374
  0
LWPOLYLINE
  5
C3
330
8B
100
AcDbEntity
  8
AM_4
100
AcDbPolyline
 90
        4
 70
     0
 43
0.0
 10
41.73957371025352
 20
-30.67350269189625
 10
42.72701293477711
 20
-29.95505975825289
 10
43.19941447266021
 20
-29.59309887090635
 10
43.65389520572415
 20
-29.23012701892219
  0
LWPOLYLINE
  5
C4
330
8B
100
AcDbEntity
  8
AM_4
100
AcDbPolyline
 90
        4
 70
     0
 43
0.0
 10
41.73957371025352
 20
-19.12649730810374
 10
40.96719433804265
 20
-19.8449402417471
 10
40.55297639508169
 20
-20.20690112909364
 10
40.11836129979141
 20
-20.5698729810778
  0
LINE
  5
C5
330
8B
100
AcDbEntity
  8
AM_4
100
AcDbLine
 10
41.73957371025352
 20
-19.12649730810374
 30
0.0
 11
39.91136245170239
 21
-19.12649730810374
 31
0.0
  0
LWPOLYLINE
  5
C6
330
8B
100
AcDbEntity
  8
AM_4
100
AcDbPolyline
 90
        3
 70
     0
 43
0.0
 10
38.56209322865782
 20
-20.1208851699322
 10
38.91960730775631
 20
-19.84818514459077
 10
39.91136245170239
 20
-19.12649730810374
  0
LINE
  5
C7
330
8B
100
AcDbEntity
  8
AM_4
100
AcDbLine
 10
37.99704095623176
 20
-20.5698729810778
 30
0.0
 11
38.56209322865782
 21
-20.1208851699322
 31
0.0
  0
LINE
  5
C8
330
8B
100
AcDbEntity
  8
AM_4
100
AcDbLine
 10
37.46230239199759
 20
-21.01886061828808
 30
0.0
 11
37.99704095623176
 21
-20.5698729810778
 31
0.0
  0
LINE
  5
C9
330
8B
100
AcDbEntity
  8
AM_4
100
AcDbLine
 10
37.29585514318957
 20
-21.16392644794831
 30
0.0
 11
37.46230239199759
 21
-21.01886061828808
 31
0.0
  0
LWPOLYLINE
  5
CA
330
8B
100
AcDbEntity
  8
AM_4
100
AcDbPolyline
 90
        3
 70
     0
 43
0.0
 10
36.37582854576965
 20
-22.01324865405187
 10
37.14820791798052
 20
-21.29480572040851
 10
37.29585514318957
 20
-21.16392644794831
  0
LINE
  5
CB
330
8B
100
AcDbEntity
  8
AM_4
100
AcDbLine
 10
41.73957371025352
 20
-30.67350269189625
 30
0.0
 11
39.91136245170239
 21
-30.67350269189625
 31
0.0
  0
LWPOLYLINE
  5
CC
330
8B
100
AcDbEntity
  8
AM_4
100
AcDbPolyline
 90
        4
 70
     0
 43
0.0
 10
40.11836129979141
 20
-29.23012701892219
 10
40.55048574520522
 20
-29.5909709371657
 10
40.96356190123323
 20
-29.95181485540922
 10
41.73957371025352
 20
-30.67350269189625
  0
LWPOLYLINE
  5
CD
330
8B
100
AcDbEntity
  8
AM_4
100
AcDbPolyline
 90
        3
 70
     0
 43
0.0
 10
37.46230219062269
 20
-28.78113920777718
 10
37.15184035478994
 20
-28.50843918243516
 10
36.37582854576965
 20
-27.78675134594812
  0
LINE
  5
CE
330
8B
100
AcDbEntity
  8
AM_4
100
AcDbLine
 10
37.99704095623176
 20
-29.23012701892219
 30
0.0
 11
37.46230219062269
 21
-28.78113920777718
 31
0.0
  0
LINE
  5
CF
330
8B
100
AcDbEntity
  8
AM_4
100
AcDbLine
 10
38.60729479692983
 20
-29.71403984929545
 30
0.0
 11
37.99704095623176
 21
-29.23012701892219
 31
0.0
  0
LWPOLYLINE
  5
D0
330
8B
100
AcDbEntity
  8
AM_4
100
AcDbPolyline
 90
        3
 70
     0
 43
0.0
 10
39.91136245170239
 20
-30.67350269189625
 10
38.9239232271788
 20
-29.95505975825289
 10
38.60729479692983
 20
-29.71403984929545
  0
LWPOLYLINE
  5
D1
330
8B
100
AcDbEntity
  8
AM_4
100
AcDbPolyline
 90
        4
 70
     0
 43
0.0
 10
38.20403980432079
 20
-27.78675134594812
 10
39.19147902884438
 20
-28.50519427959148
 10
39.66388056672748
 20
-28.86715516693802
 10
40.11836129979141
 20
-29.23012701892219
  0
ELLIPSE
  5
D2
330
8B
100
AcDbEntity
  8
AM_4
100
AcDbEllipse
 10
41.8861282527578
 20
-24.89999999999997
 30
0.0
 11
-9.184850993605221E-16
 21
-5.000000000000039
 31
0.0
210
0.0
220
0.0
230
1.0
 40
0.7071067811865477
 41
2.243387514963065
 42
7.181390445805969
  0
LWPOLYLINE
  5
D3
330
8B
100
AcDbEntity
  8
AM_4
100
AcDbPolyline
 90
        4
 70
     0
 43
0.0
 10
40.11836129979141
 20
-20.5698729810778
 10
39.66660226872203
 20
-20.93071689932132
 10
39.19579494826687
 20
-21.29156081756483
 10
38.20403980432079
 20
-22.01324865405187
  0
LINE
  5
D4
330
8B
100
AcDbEntity
  8
AM_4
100
AcDbLine
 10
38.20403980432079
 20
-27.78675134594812
 30
0.0
 11
36.37582854576965
 21
-27.78675134594812
 31
0.0
  0
LWPOLYLINE
  5
D5
330
8B
100
AcDbEntity
  8
AM_4
100
AcDbPolyline
 90
        4
 70
     0
 43
0.0
 10
38.35059434682504
 20
-24.9
 10
38.32729687650367
 20
-26.01567952239156
 10
38.26053895931539
 20
-27.13135904478312
 10
38.20403980432079
 20
-27.78675134594812
  0
LWPOLYLINE
  5
D6
330
8B
100
AcDbEntity
  8
AM_4
100
AcDbPolyline
 90
        4
 70
     0
 43
0.0
 10
38.20403980432079
 20
-22.01324865405187
 10
38.31156973047715
 20
-23.45013452133858
 10
38.34066152793822
 20
-24.17405629603167
 10
38.35059434682504
 20
-24.9
  0
LINE
  5
D7
330
8B
100
AcDbEntity
  8
AM_4
100
AcDbLine
 10
38.20403980432079
 20
-22.01324865405187
 30
0.0
 11
36.37582854576965
 21
-22.01324865405187
 31
0.0
  0
LWPOLYLINE
  5
D8
330
8B
100
AcDbEntity
  8
AM_4
100
AcDbPolyline
 90
        3
 70
     0
 43
0.0
 10
36.26183670834914
 20
-23.57781639664469
 10
36.26795687830676
 20
-23.45662432702593
 10
36.37582854576965
 20
-22.01324865405187
  0
LINE
  5
D9
330
8B
100
AcDbEntity
  8
AM_4
100
AcDbLine
 10
36.24443075667394
 20
-24.00202437769708
 30
0.0
 11
36.26183670834914
 21
-23.57781639664469
 31
0.0
  0
LWPOLYLINE
  5
DA
330
8B
100
AcDbEntity
  8
AM_4
100
AcDbPolyline
 90
        3
 70
     0
 43
0.0
 10
36.2292740032654
 20
-24.9
 10
36.23909129609318
 20
-24.17831216351296
 10
36.24443075667394
 20
-24.00202437769708
  0
LINE
  5
DB
330
8B
100
AcDbEntity
  8
AM_4
100
AcDbLine
 10
36.24443455755051
 20
-25.79808910210235
 30
0.0
 11
36.2292740032654
 21
-24.9
 31
0.0
  0
LINE
  5
DC
330
8B
100
AcDbEntity
  8
AM_4
100
AcDbLine
 10
36.25724725136539
 20
-26.12401082128073
 30
0.0
 11
36.24443455755051
 21
-25.79808910210235
 31
0.0
  0
LWPOLYLINE
  5
DD
330
8B
100
AcDbEntity
  8
AM_4
100
AcDbPolyline
 90
        3
 70
     0
 43
0.0
 10
36.37582854576965
 20
-27.78675134594812
 10
36.31932939077505
 20
-27.13135904478312
 10
36.25724725136539
 20
-26.12401082128073
  0
ELLIPSE
  5
DE
330
8B
100
AcDbEntity
  8
AM_4
100
AcDbEllipse
 10
42.50160267185445
 20
-24.89999999999996
 30
0.0
 11
-6.627024103768121E-16
 21
-3.607583894601074
 31
0.0
210
0.0
220
0.0
230
1.0
 40
0.7071067811865418
 41
2.478209338400882
 42
6.946568622368487
  0
ELLIPSE
  5
DF
330
8B
100
AcDbEntity
  8
AM_4
100
AcDbEllipse
 10
43.09444172228913
 20
-24.90000000000001
 30
0.0
 11
-5.479672885901674E-16
 21
-2.982994982562502
 31
0.0
210
0.0
220
0.0
230
1.0
 40
0.7071067811865465
 41
2.754650415401404
 42
6.670127545367976
  0
LINE
  5
E0
330
8B
100
AcDbEntity
  8
AM_4
100
AcDbLine
 10
43.91378882426581
 20
-22.15102288328506
 30
0.0
 11
43.89040246961571
 21
-22.1375460106232
 31
0.0
  0
LINE
  5
E1
330
8B
100
AcDbEntity
  8
AM_4
100
AcDbLine
 10
43.89040246961571
 20
-27.66245398937679
 30
0.0
 11
43.91378882426581
 21
-27.64897711671493
 31
0.0
  0
ELLIPSE
  5
E2
330
8B
100
AcDbEntity
  8
AM_4
100
AcDbEllipse
 10
41.88612825275774
 20
-24.90000000000004
 30
0.0
 11
-8.725608443924976E-16
 21
-4.750000000000046
 31
0.0
210
0.0
220
0.0
230
1.0
 40
0.7071067811865493
 41
2.267944363641175
 42
7.156833597128253
  0
ELLIPSE
  5
E3
330
8B
100
AcDbEntity
  8
AM_4
100
AcDbEllipse
 10
43.67157287525382
 20
-24.9
 30
0.0
 11
-4.913895281578768E-16
 21
-2.675000000000008
 31
0.0
210
0.0
220
0.0
230
1.0
 40
0.707106781186549
 41
3.141592653589793
 42
6.283185307179586
  0
LINE
  5
E4
330
8B
100
AcDbEntity
  8
AM_4
100
AcDbLine
 10
43.67157287525382
 20
-27.575
 30
0.0
 11
43.78824549414959
 21
-27.57499999999999
 31
0.0
  0
LINE
  5
E5
330
8B
100
AcDbEntity
  8
AM_4
100
AcDbLine
 10
43.7882454941496
 20
-22.22499999999999
 30
0.0
 11
43.67157287525382
 21
-22.22499999999999
 31
0.0
  0
LINE
  5
E6
330
8B
100
AcDbEntity
  8
AM_4
100
AcDbLine
 10
43.43904352990209
 20
-27.36923076923076
 30
0.0
 11
44.22230027213949
 21
-27.83076923076922
 31
0.0
  0
LINE
  5
E7
330
8B
100
AcDbEntity
  8
AM_4
100
AcDbLine
 10
44.22230027213949
 20
-21.96923076923076
 30
0.0
 11
43.43904352990209
 21
-22.43076923076923
 31
0.0
  0
ELLIPSE
  5
E8
330
8B
100
AcDbEntity
  8
AM_4
100
AcDbEllipse
 10
44.16654762208442
 20
-24.9
 30
0.0
 11
-4.913895281578782E-16
 21
-2.675000000000015
 31
0.0
210
0.0
220
0.0
230
1.0
 40
0.7071067811865498
 41
3.536383773289565
 42
5.888394187479816
  0
LINE
  5
E9
330
8B
100
AcDbEntity
  8
AM_4
100
AcDbLine
 10
47.17621249728132
 20
-22.73484088030808
 30
0.0
 11
45.99285118453406
 21
-21.99567699974047
 31
0.0
  0
LINE
  5
EA
330
8B
100
AcDbEntity
  8
AM_4
100
AcDbLine
 10
45.99285118453406
 20
-27.80432300025952
 30
0.0
 11
47.17621249728132
 21
-27.06515911969191
 31
0.0
  0
ELLIPSE
  5
EB
330
8B
100
AcDbEntity
  8
AM_4
100
AcDbEllipse
 10
45.08578643762689
 20
-24.90000000000004
 30
0.0
 11
-5.832380380939356E-16
 21
-3.175000000000047
 31
0.0
210
0.0
220
0.0
230
1.0
 40
0.7071067811865477
 41
2.725678601487248
 42
6.699099359282141
  0
ELLIPSE
  5
EC
330
8B
100
AcDbEntity
  8
AM_4
100
AcDbEllipse
 10
46.50000000000001
 20
-24.9
 30
0.0
 11
-4.348012108217433E-16
 21
-2.366947548329684
 31
0.0
210
0.0
220
0.0
230
1.0
 40
0.7071067811865477
 41
0.0
 42
6.283185307179586
  0
ENDBLK
  5
8E
330
8B
100
AcDbEntity
  8
0
100
AcDbBlockEnd
  0
BLOCK
  5
EF
330
ED
100
AcDbEntity
  8
0
100
AcDbBlockBegin
  2
3_125630_0_in_130835_4
 70
     2
 10
0.0
 20
0.0
 30
0.0
  3
3_125630_0_in_130835_4
  1

  0
ATTDEF
  5
F1
330
ED
100
AcDbEntity
  8
AM_6
100
AcDbText
 10
44.97231750085438
 20
-4.900000000000001
 30
0.0
 40
0.5
  1
Eccentric Collar Insert Metric Bore
100
AcDbAttributeDefinition
  3

  2
NN
 70
     8
280
     0
  0
ATTDEF
  5
F2
330
ED
100
AcDbEntity
  8
AM_6
100
AcDbText
 10
44.97231750085438
 20
-5.400000000000001
 30
0.0
 40
0.5
  1
SXR Normal Duty Bearing Inserts
100
AcDbAttributeDefinition
  3

  2
NT
 70
     8
280
     0
  0
ATTDEF
  5
F3
330
ED
100
AcDbEntity
  8
AM_6
100
AcDbText
 10
44.97231750085438
 20
-5.900000000000001
 30
0.0
 40
0.5
  1
125630
100
AcDbAttributeDefinition
  3

  2
NB
 70
     8
280
     0
  0
ATTDEF
  5
F4
330
ED
100
AcDbEntity
  8
AM_6
100
AcDbText
 10
44.97231750085438
 20
-6.400000000000001
 30
0.0
 40
0.5
  1
$PN.
100
AcDbAttributeDefinition
  3

  2
NBSYN
 70
     8
280
     0
  0
ATTDEF
  5
F5
330
ED
100
AcDbEntity
  8
AM_6
100
AcDbText
 10
44.97231750085438
 20
-6.900000000000001
 30
0.0
 40
0.5
  1
125630
100
AcDbAttributeDefinition
  3

  2
LINA
 70
     8
280
     0
  0
ATTDEF
  5
F6
330
ED
100
AcDbEntity
  8
AM_6
100
AcDbText
 10
44.97231750085438
 20
-7.400000000000001
 30
0.0
 40
0.5
  1
208
100
AcDbAttributeDefinition
  3

  2
SERIES
 70
     8
280
     0
  0
ATTDEF
  5
F7
330
ED
100
AcDbEntity
  8
AM_6
100
AcDbText
 10
44.97231750085438
 20
-7.900000000000001
 30
0.0
 40
0.5
  1
40
100
AcDbAttributeDefinition
  3

  2
SS
 70
     8
280
     0
  0
ATTDEF
  5
F8
330
ED
100
AcDbEntity
  8
AM_6
100
AcDbText
 10
44.97231750085438
 20
-8.400000000000002
 30
0.0
 40
0.5
  1
125630
100
AcDbAttributeDefinition
  3

  2
PN
 70
     8
280
     0
  0
ATTDEF
  5
F9
330
ED
100
AcDbEntity
  8
AM_6
100
AcDbText
 10
44.97231750085438
 20
-8.900000000000002
 30
0.0
 40
0.5
  1
INS-SXR-40M
100
AcDbAttributeDefinition
  3

  2
DESCRIPTION
 70
     8
280
     0
  0
ATTDEF
  5
FA
330
ED
100
AcDbEntity
  8
AM_6
100
AcDbText
 10
44.97231750085438
 20
-9.400000000000002
 30
0.0
 40
0.5
  1
0.8
100
AcDbAttributeDefinition
  3

  2
WEIGHT
 70
     8
280
     0
  0
ATTDEF
  5
FB
330
ED
100
AcDbEntity
  8
AM_6
100
AcDbText
 10
44.97231750085438
 20
-9.900000000000002
 30
0.0
 40
0.5
  1
53.8
100
AcDbAttributeDefinition
  3

  2
A
 70
     8
280
     0
  0
ATTDEF
  5
FC
330
ED
100
AcDbEntity
  8
AM_6
100
AcDbText
 10
44.97231750085438
 20
-10.4
 30
0.0
 40
0.5
  1
22.1
100
AcDbAttributeDefinition
  3

  2
C
 70
     8
280
     0
  0
ATTDEF
  5
FD
330
ED
100
AcDbEntity
  8
AM_6
100
AcDbText
 10
44.97231750085438
 20
-10.9
 30
0.0
 40
0.5
  1
80.000
100
AcDbAttributeDefinition
  3

  2
D
 70
     8
280
     0
  0
ATTDEF
  5
FE
330
ED
100
AcDbEntity
  8
AM_6
100
AcDbText
 10
44.97231750085438
 20
-11.4
 30
0.0
 40
0.5
  1
5.6
100
AcDbAttributeDefinition
  3

  2
J
 70
     8
280
     0
  0
ATTDEF
  5
FF
330
ED
100
AcDbEntity
  8
AM_6
100
AcDbText
 10
44.97231750085438
 20
-11.9
 30
0.0
 40
0.5
  1
60.5
100
AcDbAttributeDefinition
  3

  2
L
 70
     8
280
     0
  0
ATTDEF
  5
100
330
ED
100
AcDbEntity
  8
AM_6
100
AcDbText
 10
44.97231750085438
 20
-12.4
 30
0.0
 40
0.5
  1
M10 x 1.5
100
AcDbAttributeDefinition
  3

  2
N
 70
     8
280
     0
  0
ATTDEF
  5
101
330
ED
100
AcDbEntity
  8
AM_6
100
AcDbText
 10
44.97231750085438
 20
-12.9
 30
0.0
 40
0.5
  1
19.05
100
AcDbAttributeDefinition
  3

  2
W
 70
     8
280
     0
  0
ATTDEF
  5
102
330
ED
100
AcDbEntity
  8
AM_6
100
AcDbText
 10
44.97231750085438
 20
-13.4
 30
0.0
 40
0.5
  1
34.75
100
AcDbAttributeDefinition
  3

  2
Y
 70
     8
280
     0
  0
ATTDEF
  5
103
330
ED
100
AcDbEntity
  8
AM_6
100
AcDbText
 10
44.97231750085438
 20
-13.9
 30
0.0
 40
0.5
  1
52.1
100
AcDbAttributeDefinition
  3

  2
Z
 70
     8
280
     0
  0
ATTDEF
  5
104
330
ED
100
AcDbEntity
  8
AM_6
100
AcDbText
 10
44.97231750085438
 20
-14.4
 30
0.0
 40
0.5
  1
baldor
100
AcDbAttributeDefinition
  3

  2
COMPANY
 70
     8
280
     0
  0
ARC
  5
105
330
ED
100
AcDbEntity
  8
AM_9
100
AcDbCircle
 10
10.00766974396414
 20
-18.35000000000001
 30
0.0
 40
3.333333333333335
100
AcDbArc
 50
353.9582703178871
 51
64.50193640394372
  0
LINE
  5
106
330
ED
100
AcDbEntity
  8
AM_9
100
AcDbLine
 10
19.31851652578136
 20
-55.38799975999999
 30
0.0
 11
28.81734925314858
 21
-55.38799975999999
 31
0.0
  0
LINE
  5
107
330
ED
100
AcDbEntity
  8
AM_9
100
AcDbLine
 10
28.81734925314858
 20
-47.01199975999999
 30
0.0
 11
19.31649626102957
 21
-47.01199975999999
 31
0.0
  0
LWPOLYLINE
  5
108
330
ED
100
AcDbEntity
  8
AM_9
100
AcDbPolyline
 90
       21
 70
     0
 43
0.0
 10
19.3184010831643
 20
-47.01199978375018
 10
19.27688967528277
 20
-47.01499977401992
 10
19.07765701468114
 20
-47.10153509976809
 10
18.8713137387198
 20
-47.29514548625755
 10
18.65310482779048
 20
-47.60107095285125
 10
18.44221814038232
 20
-47.99991775783032
 10
18.24101585559071
 20
-48.49940957861795
 10
18.06891722804223
 20
-49.06901891322057
 10
17.93056711712751
 20
-49.71813234420242
 10
17.84313831064999
 20
-50.38798543243898
 10
17.80682241004892
 20
-51.10234159869621
 10
17.82538545038759
 20
-51.7852574139845
 10
17.89726876004222
 20
-52.47100979314146
 10
18.01335062182066
 20
-53.10065602037027
 10
18.17260002442167
 20
-53.69451187303733
 10
18.36068133898792
 20
-54.21404476290473
 10
18.57429990469593
 20
-54.66258296551714
 10
18.79275327911028
 20
-55.00653702807953
 10
19.01496619354562
 20
-55.24989983901406
 10
19.17098143580422
 20
-55.35270624256919
 10
19.31851652578137
 20
-55.38799975999999
  0
LINE
  5
109
330
ED
100
AcDbEntity
  8
AM_9
100
AcDbLine
 10
28.52690997008977
 20
-55.23485734828157
 30
0.0
 11
28.87063748509982
 21
-55.60421660065179
 31
0.0
  0
LINE
  5
10A
330
ED
100
AcDbEntity
  8
AM_9
100
AcDbLine
 10
28.8707461429526
 20
-46.79566615888675
 30
0.0
 11
28.52690997008977
 21
-47.16514217171842
 31
0.0
  0
ELLIPSE
  5
10B
330
ED
100
AcDbEntity
  8
AM_9
100
AcDbEllipse
 10
28.81734925314804
 20
-51.19999976000116
 30
0.0
 11
-7.693231192241471E-16
 21
-4.187999999998802
 31
0.0
210
0.0
220
0.0
230
1.0
 40
0.2588190451024971
 41
3.269299677482785
 42
6.169505917790933
  0
LINE
  5
10C
330
ED
100
AcDbEntity
  8
AM_9
100
AcDbLine
 10
20.0
 20
-43.38745832271555
 30
0.0
 11
20.0
 21
-5.342000000000003
 31
0.0
  0
LINE
  5
10D
330
ED
100
AcDbEntity
  8
AM_9
100
AcDbLine
 10
-20.0
 20
-5.342000000000003
 30
0.0
 11
-20.0
 21
-43.38745832271555
 31
0.0
  0
LWPOLYLINE
  5
10E
330
ED
100
AcDbEntity
  8
AM_9
100
AcDbPolyline
 90
       20
 70
     0
 43
0.0
 10
19.31851652578137
 20
-55.38799975999999
 10
19.48439637618331
 20
-55.33165632379054
 10
19.62759040194488
 20
-55.15781631012636
 10
19.73869583557353
 20
-54.88167601061168
 10
19.82538702529402
 20
-54.49580326661339
 10
19.88647942558901
 20
-54.0251165119403
 10
19.92847901514008
 20
-53.46047577359943
 10
19.95384730865673
 20
-52.84178867720241
 10
19.96810448578211
 20
-52.15557555976199
 10
19.97370219175781
 20
-51.47104429623798
 10
19.97293116517526
 20
-50.75805960788358
 10
19.96578428023475
 20
-50.08914334341252
 10
19.94990250567357
 20
-49.43286004054341
 10
19.92263019522407
 20
-48.83854870727035
 10
19.87815908846132
 20
-48.29397684269389
 10
19.81303565903933
 20
-47.83458599714121
 10
19.71990792518859
 20
-47.45873230862482
 10
19.60103239627755
 20
-47.19783384339067
 10
19.44863357010644
 20
-47.04552245160745
 10
19.3184010831643
 20
-47.01199978375018
  0
LINE
  5
10F
330
ED
100
AcDbEntity
  8
AM_9
100
AcDbLine
 10
20.0
 20
-58.258
 30
0.0
 11
20.0
 21
-44.01254071728446
 31
0.0
  0
LINE
  5
110
330
ED
100
AcDbEntity
  8
AM_9
100
AcDbLine
 10
-20.0
 20
-44.01254071728446
 30
0.0
 11
-20.0
 21
-58.258
 31
0.0
  0
LINE
  5
111
330
ED
100
AcDbEntity
  8
AM_9
100
AcDbLine
 10
-20.0
 20
-44.01254071728446
 30
0.0
 11
20.0
 21
-44.01254071728446
 31
0.0
  0
LINE
  5
112
330
ED
100
AcDbEntity
  8
AM_9
100
AcDbLine
 10
20.0
 20
-44.01254071728446
 30
0.0
 11
20.31254119728446
 21
-43.69999952000001
 31
0.0
  0
LINE
  5
113
330
ED
100
AcDbEntity
  8
AM_9
100
AcDbLine
 10
-20.31254119728446
 20
-43.69999952000001
 30
0.0
 11
-20.0
 21
-44.01254071728446
 31
0.0
  0
LINE
  5
114
330
ED
100
AcDbEntity
  8
AM_9
100
AcDbLine
 10
-20.0
 20
-43.38745832271555
 30
0.0
 11
20.0
 21
-43.38745832271555
 31
0.0
  0
LINE
  5
115
330
ED
100
AcDbEntity
  8
AM_9
100
AcDbLine
 10
-20.31254119728446
 20
-43.69999952000001
 30
0.0
 11
20.31254119728446
 21
-43.69999952000001
 31
0.0
  0
LINE
  5
116
330
ED
100
AcDbEntity
  8
AM_9
100
AcDbLine
 10
-20.0
 20
-43.38745832271555
 30
0.0
 11
-20.31254119728446
 21
-43.69999952000001
 31
0.0
  0
LINE
  5
117
330
ED
100
AcDbEntity
  8
AM_9
100
AcDbLine
 10
20.31254119728446
 20
-43.69999952000001
 30
0.0
 11
20.0
 21
-43.38745832271555
 31
0.0
  0
LINE
  5
118
330
ED
100
AcDbEntity
  8
AM_9
100
AcDbLine
 10
20.0
 20
-5.342000000000003
 30
0.0
 11
20.442
 21
-4.900000000000001
 31
0.0
  0
LINE
  5
119
330
ED
100
AcDbEntity
  8
AM_9
100
AcDbLine
 10
-20.442
 20
-4.900000000000001
 30
0.0
 11
-20.0
 21
-5.342000000000003
 31
0.0
  0
LINE
  5
11A
330
ED
100
AcDbEntity
  8
AM_9
100
AcDbLine
 10
-20.0
 20
-58.258
 30
0.0
 11
20.0
 21
-58.258
 31
0.0
  0
LINE
  5
11B
330
ED
100
AcDbEntity
  8
AM_9
100
AcDbLine
 10
-20.0
 20
-58.258
 30
0.0
 11
-20.442
 21
-58.7
 31
0.0
  0
LINE
  5
11C
330
ED
100
AcDbEntity
  8
AM_9
100
AcDbLine
 10
20.442
 20
-58.7
 30
0.0
 11
20.0
 21
-58.258
 31
0.0
  0
LINE
  5
11D
330
ED
100
AcDbEntity
  8
AM_9
100
AcDbLine
 10
26.04999999999999
 20
-38.1
 30
0.0
 11
26.04999999999999
 21
-35.0
 31
0.0
  0
LINE
  5
11E
330
ED
100
AcDbEntity
  8
AM_9
100
AcDbLine
 10
-26.04999999999999
 20
-35.0
 30
0.0
 11
-26.04999999999999
 21
-38.1
 31
0.0
  0
LINE
  5
11F
330
ED
100
AcDbEntity
  8
AM_9
100
AcDbLine
 10
26.05
 20
-12.9
 30
0.0
 11
26.05
 21
-5.342000000000003
 31
0.0
  0
LINE
  5
120
330
ED
100
AcDbEntity
  8
AM_9
100
AcDbLine
 10
-26.05
 20
-5.342000000000003
 30
0.0
 11
-26.05
 21
-12.9
 31
0.0
  0
LINE
  5
121
330
ED
100
AcDbEntity
  8
AM_9
100
AcDbLine
 10
-26.05
 20
-5.342000000000003
 30
0.0
 11
26.05
 21
-5.342000000000003
 31
0.0
  0
LINE
  5
122
330
ED
100
AcDbEntity
  8
AM_9
100
AcDbLine
 10
-23.09043625716945
 20
-4.900000000000001
 30
0.0
 11
3.4819909435953
 21
-4.900000000000001
 31
0.0
  0
LINE
  5
123
330
ED
100
AcDbEntity
  8
AM_9
100
AcDbLine
 10
-25.608
 20
-4.900000000000001
 30
0.0
 11
-26.05
 21
-5.342000000000003
 31
0.0
  0
LINE
  5
124
330
ED
100
AcDbEntity
  8
AM_9
100
AcDbLine
 10
26.05
 20
-5.342000000000003
 30
0.0
 11
25.608
 21
-4.900000000000001
 31
0.0
  0
LINE
  5
125
330
ED
100
AcDbEntity
  8
AM_9
100
AcDbLine
 10
38.09523839999999
 20
-30.67
 30
0.0
 11
38.09523839999999
 21
-28.43
 31
0.0
  0
LINE
  5
126
330
ED
100
AcDbEntity
  8
AM_9
100
AcDbLine
 10
-38.09523839999999
 20
-28.43
 30
0.0
 11
-38.09523839999999
 21
-30.67
 31
0.0
  0
LINE
  5
127
330
ED
100
AcDbEntity
  8
AM_9
100
AcDbLine
 10
-37.77186652781552
 20
-35.0
 30
0.0
 11
37.77186652781552
 21
-35.0
 31
0.0
  0
ARC
  5
128
330
ED
100
AcDbEntity
  8
AM_9
100
AcDbCircle
 10
37.7718665146429
 20
-34.11600000000004
 30
0.0
 40
0.8839999999999648
100
AcDbArc
 50
270.0
 51
344.9362482124751
  0
ARC
  5
129
330
ED
100
AcDbEntity
  8
AM_9
100
AcDbCircle
 10
-37.7718665146429
 20
-34.11600000000004
 30
0.0
 40
0.8839999999999634
100
AcDbArc
 50
195.0637517875249
 51
270.0
  0
LINE
  5
12A
330
ED
100
AcDbEntity
  8
AM_9
100
AcDbLine
 10
-37.77186651464288
 20
-12.9
 30
0.0
 11
37.77186651464288
 21
-12.9
 31
0.0
  0
ARC
  5
12B
330
ED
100
AcDbEntity
  8
AM_9
100
AcDbCircle
 10
37.77186651464287
 20
-13.78400000000001
 30
0.0
 40
0.8840000000000079
100
AcDbArc
 50
15.06375178752674
 51
90.0
  0
ARC
  5
12C
330
ED
100
AcDbEntity
  8
AM_9
100
AcDbCircle
 10
-37.77186651464287
 20
-13.78400000000001
 30
0.0
 40
0.8840000000000039
100
AcDbArc
 50
90.0
 51
164.9362482124733
  0
LINE
  5
12D
330
ED
100
AcDbEntity
  8
AM_9
100
AcDbLine
 10
-38.62548984011117
 20
-34.34574598629717
 30
0.0
 11
38.62548984010932
 21
-34.34574598629717
 31
0.0
  0
LINE
  5
12E
330
ED
100
AcDbEntity
  8
AM_9
100
AcDbLine
 10
-39.43147980992024
 20
-30.67
 30
0.0
 11
39.4314798099184
 21
-30.67
 31
0.0
  0
ARC
  5
12F
330
ED
100
AcDbEntity
  8
AM_9
100
AcDbCircle
 10
-0.0000000016122215
 20
-23.95000000035317
 30
0.0
 40
39.9999999983532
100
AcDbArc
 50
189.6715551419644
 51
195.0637517876376
  0
ARC
  5
130
330
ED
100
AcDbEntity
  8
AM_9
100
AcDbCircle
 10
0.0000000000206057
 20
-23.95000000000449
 30
0.0
 40
39.99999999997897
100
AcDbArc
 50
344.9362482124719
 51
350.3284448579258
  0
LINE
  5
131
330
ED
100
AcDbEntity
  8
AM_9
100
AcDbLine
 10
-38.62548984010907
 20
-13.55425401370284
 30
0.0
 11
38.62548984010929
 21
-13.55425401370284
 31
0.0
  0
ARC
  5
132
330
ED
100
AcDbEntity
  8
AM_9
100
AcDbCircle
 10
-0.0000000000003979
 20
-23.95000000000006
 30
0.0
 40
40.00000000000039
100
AcDbArc
 50
353.5693803189955
 51
15.06375178752657
  0
ARC
  5
133
330
ED
100
AcDbEntity
  8
AM_9
100
AcDbCircle
 10
-0.0000000000364864
 20
-23.94999999999726
 30
0.0
 40
39.99999999996383
100
AcDbArc
 50
164.9362482124635
 51
186.4306196810145
  0
LINE
  5
134
330
ED
100
AcDbEntity
  8
AM_9
100
AcDbLine
 10
-39.74832826673322
 20
-28.43
 30
0.0
 11
39.74832826673344
 21
-28.43
 31
0.0
  0
ELLIPSE
  5
135
330
ED
100
AcDbEntity
  8
AM_9
100
AcDbEllipse
 10
10.21227777801241
 20
-18.23550731389179
 30
0.0
 11
1.580299304045265
 21
-2.824127416339442
 31
0.0
210
0.0
220
0.0
230
1.0
 40
0.9559522898433417
 41
0.0
 42
6.283185307179586
  0
ELLIPSE
  5
136
330
ED
100
AcDbEntity
  8
AM_4
100
AcDbEllipse
 10
28.81734925314729
 20
-51.19999975999852
 30
0.0
 11
-7.693231192240962E-16
 21
-4.187999999998524
 31
0.0
210
0.0
220
0.0
230
1.0
 40
0.2588190451025015
 41
6.169505917791701
 42
9.552484984661756
  0
LWPOLYLINE
  5
137
330
ED
100
AcDbEntity
  8
AM_4
100
AcDbPolyline
 90
       24
 70
     0
 43
0.0
 10
28.87741019841915
 20
-46.7885052403626
 10
29.02863178651703
 20
-46.65866664339104
 10
29.21467119770498
 20
-46.5964763951138
 10
29.38592113079076
 20
-46.6527303646378
 10
29.53276052878747
 20
-46.81934161025181
 10
29.65932711526312
 20
-47.08816966789286
 10
29.76707217606256
 20
-47.4613099653407
 10
29.85369506283327
 20
-47.91969316930454
 10
29.92437687724204
 20
-48.48693705720198
 10
29.97563748680295
 20
-49.11910396790439
 10
30.01163382719082
 20
-49.84632281154717
 10
30.03082409618913
 20
-50.60858058744164
 10
30.03458093669013
 20
-51.41790937828994
 10
30.02203748026669
 20
-52.22120881520179
 10
29.99172486445939
 20
-53.00412851892273
 10
29.94125032307266
 20
-53.73475969533596
 10
29.86860494104164
 20
-54.37848958549675
 10
29.76986505043703
 20
-54.92715111465778
 10
29.64900038064787
 20
-55.33860836453992
 10
29.5010865312982
 20
-55.62832961895005
 10
29.3402323272969
 20
-55.77432811293602
 10
29.16034230509859
 20
-55.79777281895076
 10
28.97633745811642
 20
-55.70357939781151
 10
28.87746331940934
 20
-55.61155139240014
  0
LWPOLYLINE
  5
138
330
ED
100
AcDbEntity
  8
AM_4
100
AcDbPolyline
 90
       14
 70
     0
 43
0.0
 10
28.87746331940934
 20
-55.61155139240014
 10
28.78600160510487
 20
-55.50153931658486
 10
28.59493391643479
 20
-55.19558988383535
 10
28.41164697905576
 20
-54.79868267009
 10
28.23454721152912
 20
-54.29382663547644
 10
28.08115678316475
 20
-53.7165328064443
 10
27.95092621614414
 20
-53.03600197239729
 10
27.86091965351369
 20
-52.30918377684855
 10
27.81496582561834
 20
-51.51596099321974
 10
27.82025955820338
 20
-50.71416430765897
 10
27.87912765882657
 20
-49.90978169536914
 10
27.98795700836293
 20
-49.14227610506173
 10
28.11309555348933
 20
-48.54897750573434
 10
28.26434950762447
 20
-48.01070309755286
  0
LINE
  5
139
330
ED
100
AcDbEntity
  8
AM_4
100
AcDbLine
 10
24.809524008
 20
-41.7
 30
0.0
 11
24.809524008
 21
-40.7
 31
0.0
  0
LINE
  5
13A
330
ED
100
AcDbEntity
  8
AM_4
100
AcDbLine
 10
-24.809524008
 20
-40.7
 30
0.0
 11
-24.809524008
 21
-41.7
 31
0.0
  0
LINE
  5
13B
330
ED
100
AcDbEntity
  8
AM_4
100
AcDbLine
 10
26.04999999999999
 20
-40.258
 30
0.0
 11
26.04999999999999
 21
-38.1
 31
0.0
  0
LINE
  5
13C
330
ED
100
AcDbEntity
  8
AM_4
100
AcDbLine
 10
-26.04999999999999
 20
-38.1
 30
0.0
 11
-26.04999999999999
 21
-40.258
 31
0.0
  0
LINE
  5
13D
330
ED
100
AcDbEntity
  8
AM_4
100
AcDbLine
 10
-25.608
 20
-40.7
 30
0.0
 11
25.608
 21
-40.7
 31
0.0
  0
LINE
  5
13E
330
ED
100
AcDbEntity
  8
AM_4
100
AcDbLine
 10
-26.05
 20
-40.258
 30
0.0
 11
26.05
 21
-40.258
 31
0.0
  0
LINE
  5
13F
330
ED
100
AcDbEntity
  8
AM_4
100
AcDbLine
 10
25.608
 20
-40.7
 30
0.0
 11
26.05
 21
-40.258
 31
0.0
  0
LINE
  5
140
330
ED
100
AcDbEntity
  8
AM_4
100
AcDbLine
 10
-26.05
 20
-40.258
 30
0.0
 11
-25.608
 21
-40.7
 31
0.0
  0
LWPOLYLINE
  5
141
330
ED
100
AcDbEntity
  8
AM_4
100
AcDbPolyline
 90
        5
 70
     0
 43
0.0
 10
28.26434950762447
 20
-48.01070309755286
 10
28.43089612767039
 20
-47.55455245247385
 10
28.61077903843949
 20
-47.1747451913777
 10
28.82013238146034
 20
-46.85517526964097
 10
28.87741019841915
 20
-46.7885052403626
  0
LINE
  5
142
330
ED
100
AcDbEntity
  8
AM_4
100
AcDbLine
 10
30.25
 20
-57.45
 30
0.0
 11
30.25
 21
-42.95
 31
0.0
  0
LINE
  5
143
330
ED
100
AcDbEntity
  8
AM_4
100
AcDbLine
 10
-30.25
 20
-42.95
 30
0.0
 11
-30.25
 21
-57.45
 31
0.0
  0
LINE
  5
144
330
ED
100
AcDbEntity
  8
AM_4
100
AcDbLine
 10
-30.25
 20
-42.95
 30
0.0
 11
30.25
 21
-42.95
 31
0.0
  0
LINE
  5
145
330
ED
100
AcDbEntity
  8
AM_4
100
AcDbLine
 10
-29.0
 20
-41.7
 30
0.0
 11
29.0
 21
-41.7
 31
0.0
  0
ARC
  5
146
330
ED
100
AcDbEntity
  8
AM_4
100
AcDbCircle
 10
29.0
 20
-42.95000000000001
 30
0.0
 40
1.250000000000007
100
AcDbArc
 50
0.0
 51
90.0
  0
ARC
  5
147
330
ED
100
AcDbEntity
  8
AM_4
100
AcDbCircle
 10
-29.0
 20
-42.95000000000001
 30
0.0
 40
1.250000000000007
100
AcDbArc
 50
90.0
 51
180.0
  0
LINE
  5
148
330
ED
100
AcDbEntity
  8
AM_4
100
AcDbLine
 10
-29.0
 20
-58.7
 30
0.0
 11
29.0
 21
-58.7
 31
0.0
  0
LINE
  5
149
330
ED
100
AcDbEntity
  8
AM_4
100
AcDbLine
 10
-30.25
 20
-57.45
 30
0.0
 11
30.25
 21
-57.45
 31
0.0
  0
ARC
  5
14A
330
ED
100
AcDbEntity
  8
AM_4
100
AcDbCircle
 10
28.99999999999999
 20
-57.45
 30
0.0
 40
1.250000000000007
100
AcDbArc
 50
270.0
 51
0.0
  0
ARC
  5
14B
330
ED
100
AcDbEntity
  8
AM_4
100
AcDbCircle
 10
-28.99999999999999
 20
-57.45
 30
0.0
 40
1.250000000000014
100
AcDbArc
 50
180.0
 51
270.0
  0
ENDBLK
  5
F0
330
ED
100
AcDbEntity
  8
0
100
AcDbBlockEnd
  0
BLOCK
  5
14E
330
14C
100
AcDbEntity
  8
0
100
AcDbBlockBegin
  2
4_130835H_0_in_130835_4
 70
     2
 10
0.0
 20
0.0
 30
0.0
  3
4_130835H_0_in_130835_4
  1

  0
ATTDEF
  5
150
330
14C
100
AcDbEntity
  8
AM_6
100
AcDbText
 10
57.4500000000001
 20
2.935
 30
0.0
 40
0.5
  1
F2BZ-SXR -Metric - housing
100
AcDbAttributeDefinition
  3

  2
NN
 70
     8
280
     0
  0
ATTDEF
  5
151
330
14C
100
AcDbEntity
  8
AM_6
100
AcDbText
 10
57.4500000000001
 20
2.435
 30
0.0
 40
0.5
  1
Eccentric Collar 2 Bolt Piloted Flange Bearings -(Normal Duty)
100
AcDbAttributeDefinition
  3

  2
NT
 70
     8
280
     0
  0
ATTDEF
  5
152
330
14C
100
AcDbEntity
  8
AM_6
100
AcDbText
 10
57.4500000000001
 20
1.935
 30
0.0
 40
0.5
  1
130835H
100
AcDbAttributeDefinition
  3

  2
NB
 70
     8
280
     0
  0
ATTDEF
  5
153
330
14C
100
AcDbEntity
  8
AM_6
100
AcDbText
 10
57.4500000000001
 20
1.435
 30
0.0
 40
0.5
  1
$PN.H
100
AcDbAttributeDefinition
  3

  2
NBSYN
 70
     8
280
     0
  0
ATTDEF
  5
154
330
14C
100
AcDbEntity
  8
AM_6
100
AcDbText
 10
57.4500000000001
 20
0.9350000000000005
 30
0.0
 40
0.5
  1
130835
100
AcDbAttributeDefinition
  3

  2
LINA
 70
     8
280
     0
  0
ATTDEF
  5
155
330
14C
100
AcDbEntity
  8
AM_6
100
AcDbText
 10
57.4500000000001
 20
0.4350000000000005
 30
0.0
 40
0.5
  1
208
100
AcDbAttributeDefinition
  3

  2
SERIES
 70
     8
280
     0
  0
ATTDEF
  5
156
330
14C
100
AcDbEntity
  8
AM_6
100
AcDbText
 10
57.4500000000001
 20
-0.0649999999999995
 30
0.0
 40
0.5
  1
40
100
AcDbAttributeDefinition
  3

  2
SS
 70
     8
280
     0
  0
ATTDEF
  5
157
330
14C
100
AcDbEntity
  8
AM_6
100
AcDbText
 10
57.4500000000001
 20
-0.5649999999999995
 30
0.0
 40
0.5
  1
130835
100
AcDbAttributeDefinition
  3

  2
PN
 70
     8
280
     0
  0
ATTDEF
  5
158
330
14C
100
AcDbEntity
  8
AM_6
100
AcDbText
 10
57.4500000000001
 20
-1.065
 30
0.0
 40
0.5
  1
F2BZ-SXR-40M
100
AcDbAttributeDefinition
  3

  2
DESCRIPTION
 70
     8
280
     0
  0
ATTDEF
  5
159
330
14C
100
AcDbEntity
  8
AM_6
100
AcDbText
 10
57.4500000000001
 20
-1.565
 30
0.0
 40
0.5
  1
1.9
100
AcDbAttributeDefinition
  3

  2
W
 70
     8
280
     0
  0
ATTDEF
  5
15A
330
14C
100
AcDbEntity
  8
AM_6
100
AcDbText
 10
57.4500000000001
 20
-2.065
 30
0.0
 40
0.5
  1
53.8
100
AcDbAttributeDefinition
  3

  2
A
 70
     8
280
     0
  0
ATTDEF
  5
15B
330
14C
100
AcDbEntity
  8
AM_6
100
AcDbText
 10
57.4500000000001
 20
-2.565
 30
0.0
 40
0.5
  1
171.5
100
AcDbAttributeDefinition
  3

  2
B
 70
     8
280
     0
  0
ATTDEF
  5
15C
330
14C
100
AcDbEntity
  8
AM_6
100
AcDbText
 10
57.4500000000001
 20
-3.065
 30
0.0
 40
0.5
  1
58.7
100
AcDbAttributeDefinition
  3

  2
C
 70
     8
280
     0
  0
ATTDEF
  5
15D
330
14C
100
AcDbEntity
  8
AM_6
100
AcDbText
 10
57.4500000000001
 20
-3.565
 30
0.0
 40
0.5
  1
143.8
100
AcDbAttributeDefinition
  3

  2
D
 70
     8
280
     0
  0
ATTDEF
  5
15E
330
14C
100
AcDbEntity
  8
AM_6
100
AcDbText
 10
57.4500000000001
 20
-4.065
 30
0.0
 40
0.5
  1
4.1
100
AcDbAttributeDefinition
  3

  2
E
 70
     8
280
     0
  0
ATTDEF
  5
15F
330
14C
100
AcDbEntity
  8
AM_6
100
AcDbText
 10
57.4500000000001
 20
-4.565
 30
0.0
 40
0.5
  1
M12
100
AcDbAttributeDefinition
  3

  2
F
 70
     8
280
     0
  0
ATTDEF
  5
160
330
14C
100
AcDbEntity
  8
AM_6
100
AcDbText
 10
57.4500000000001
 20
-5.065
 30
0.0
 40
0.5
  1
54.6
100
AcDbAttributeDefinition
  3

  2
G
 70
     8
280
     0
  0
ATTDEF
  5
161
330
14C
100
AcDbEntity
  8
AM_6
100
AcDbText
 10
57.4500000000001
 20
-5.565
 30
0.0
 40
0.5
  1
14.2
100
AcDbAttributeDefinition
  3

  2
H
 70
     8
280
     0
  0
ATTDEF
  5
162
330
14C
100
AcDbEntity
  8
AM_6
100
AcDbText
 10
57.4500000000001
 20
-6.065
 30
0.0
 40
0.5
  1
20.6
100
AcDbAttributeDefinition
  3

  2
J
 70
     8
280
     0
  0
ATTDEF
  5
163
330
14C
100
AcDbEntity
  8
AM_6
100
AcDbText
 10
57.4500000000001
 20
-6.565
 30
0.0
 40
0.5
  1
100.00/99.95
100
AcDbAttributeDefinition
  3

  2
K
 70
     8
280
     0
  0
ATTDEF
  5
164
330
14C
100
AcDbEntity
  8
AM_6
100
AcDbText
 10
57.4500000000001
 20
-7.065
 30
0.0
 40
0.5
  1
100.000
100
AcDbAttributeDefinition
  3

  2
K1
 70
     8
280
     0
  0
ATTDEF
  5
165
330
14C
100
AcDbEntity
  8
AM_6
100
AcDbText
 10
57.4500000000001
 20
-7.565
 30
0.0
 40
0.5
  1
60.5
100
AcDbAttributeDefinition
  3

  2
L
 70
     8
280
     0
  0
ATTDEF
  5
166
330
14C
100
AcDbEntity
  8
AM_6
100
AcDbText
 10
57.4500000000001
 20
-8.065
 30
0.0
 40
0.5
  1
104.9
100
AcDbAttributeDefinition
  3

  2
M
 70
     8
280
     0
  0
ATTDEF
  5
167
330
14C
100
AcDbEntity
  8
AM_6
100
AcDbText
 10
57.4500000000001
 20
-8.565
 30
0.0
 40
0.5
  1
46.5
100
AcDbAttributeDefinition
  3

  2
N
 70
     8
280
     0
  0
ATTDEF
  5
168
330
14C
100
AcDbEntity
  8
AM_6
100
AcDbText
 10
57.4500000000001
 20
-9.065
 30
0.0
 40
0.5
  1
4005
100
AcDbAttributeDefinition
  3

  2
CAPS
 70
     8
280
     0
  0
ATTDEF
  5
169
330
14C
100
AcDbEntity
  8
AM_6
100
AcDbText
 10
57.4500000000001
 20
-9.565
 30
0.0
 40
0.5
  1
7332
100
AcDbAttributeDefinition
  3

  2
CAPD
 70
     8
280
     0
  0
ATTDEF
  5
16A
330
14C
100
AcDbEntity
  8
AM_6
100
AcDbText
 10
57.4500000000001
 20
-10.065
 30
0.0
 40
0.5
  1
baldor
100
AcDbAttributeDefinition
  3

  2
COMPANY
 70
     8
280
     0
  0
LINE
  5
16B
330
14C
100
AcDbEntity
  8
AM_9
100
AcDbLine
 10
23.64042733964402
 20
-30.48000000000001
 30
0.0
 11
23.640427339644
 21
-4.390711984999951
 31
0.0
  0
LINE
  5
16C
330
14C
100
AcDbEntity
  8
AM_9
100
AcDbLine
 10
-3.11571804856316
 20
-30.48000000000001
 30
0.0
 11
-3.115718048563161
 21
-4.390711984999874
 31
0.0
  0
LINE
  5
16D
330
14C
100
AcDbEntity
  8
AM_9
100
AcDbLine
 10
45.69033601828033
 20
-38.1
 30
0.0
 11
45.69033601828033
 21
-4.100000000000011
 31
0.0
  0
LINE
  5
16E
330
14C
100
AcDbEntity
  8
AM_9
100
AcDbLine
 10
44.94638724249415
 20
-4.099999999999998
 30
0.0
 11
44.94638724249415
 21
-38.1
 31
0.0
  0
LINE
  5
16F
330
14C
100
AcDbEntity
  8
AM_9
100
AcDbLine
 10
46.75901494524845
 20
-27.32575354525076
 30
0.0
 11
46.75901494524845
 21
-22.47424645474924
 31
0.0
  0
LINE
  5
170
330
14C
100
AcDbEntity
  8
AM_9
100
AcDbLine
 10
-23.64042733964402
 20
-30.48
 30
0.0
 11
-23.64042733964402
 21
-4.390711984999883
 31
0.0
  0
LINE
  5
171
330
14C
100
AcDbEntity
  8
AM_9
100
AcDbLine
 10
-23.09043625716945
 20
-4.900000000000007
 30
0.0
 11
-40.66666666666666
 21
-4.900000000000006
 31
0.0
  0
LINE
  5
172
330
14C
100
AcDbEntity
  8
AM_9
100
AcDbLine
 10
3.665709131037736
 20
-4.900000000000006
 30
0.0
 11
3.665709131037734
 21
-30.48
 31
0.0
  0
LINE
  5
173
330
14C
100
AcDbEntity
  8
AM_9
100
AcDbLine
 10
23.09043625716944
 20
-30.48000000000001
 30
0.0
 11
23.09043625716945
 21
-4.90000000000001
 31
0.0
  0
LINE
  5
174
330
14C
100
AcDbEntity
  8
AM_9
100
AcDbLine
 10
-3.665709131037736
 20
-4.900000000000011
 30
0.0
 11
-3.665709131037734
 21
-30.48000000000001
 31
0.0
  0
LINE
  5
175
330
14C
100
AcDbEntity
  8
AM_9
100
AcDbLine
 10
-23.09043625716944
 20
-30.48
 30
0.0
 11
-23.09043625716945
 21
-4.900000000000007
 31
0.0
  0
LINE
  5
176
330
14C
100
AcDbEntity
  8
AM_9
100
AcDbLine
 10
40.0
 20
-38.1
 30
0.0
 11
40.0
 21
-4.900000000000008
 31
0.0
  0
LINE
  5
177
330
14C
100
AcDbEntity
  8
AM_9
100
AcDbLine
 10
-40.0
 20
-4.900000000000008
 30
0.0
 11
-40.0
 21
-38.1
 31
0.0
  0
LINE
  5
178
330
14C
100
AcDbEntity
  8
AM_9
100
AcDbLine
 10
3.11571804856316
 20
-30.48
 30
0.0
 11
3.115718048563023
 21
-4.39071198499943
 31
0.0
  0
LINE
  5
179
330
14C
100
AcDbEntity
  8
AM_9
100
AcDbLine
 10
23.64042733964402
 20
-30.48000000000001
 30
0.0
 11
-23.64042733964402
 21
-30.48
 31
0.0
  0
LINE
  5
17A
330
14C
100
AcDbEntity
  8
AM_9
100
AcDbLine
 10
42.66666666666666
 20
-2.900000000000008
 30
0.0
 11
42.66666666666666
 21
-0.0000000000000004
 31
0.0
  0
LINE
  5
17B
330
14C
100
AcDbEntity
  8
AM_9
100
AcDbLine
 10
-42.66666666666666
 20
-0.0000000000000004
 30
0.0
 11
-42.66666666666666
 21
-2.900000000000008
 31
0.0
  0
LWPOLYLINE
  5
17C
330
14C
100
AcDbEntity
  8
AM_9
100
AcDbPolyline
 90
        6
 70
     0
 43
0.0
 10
3.4819909435953
 20
-4.900000000000003
 10
3.446108682687057
 20
-4.895745894453808
 10
3.350047481219141
 20
-4.84162478426155
 10
3.255033347531457
 20
-4.72166659693798
 10
3.182956944002676
 20
-4.578065575145044
 10
3.115718048563023
 20
-4.39071198499943
  0
LINE
  5
17D
330
14C
100
AcDbEntity
  8
AM_9
100
AcDbLine
 10
23.640427339644
 20
-4.390711984999951
 30
0.0
 11
-23.64042733964402
 21
-4.390711984999883
 31
0.0
  0
LWPOLYLINE
  5
17E
330
14C
100
AcDbEntity
  8
AM_9
100
AcDbPolyline
 90
        6
 70
     0
 43
0.0
 10
-23.64042733964402
 20
-4.390711984999883
 10
-23.56465642911998
 20
-4.597826582919903
 10
-23.47839460325267
 20
-4.756937928765313
 10
-23.38917636907175
 20
-4.855805301882666
 10
-23.29449045591797
 20
-4.898634827277707
 10
-23.27415444461188
 20
-4.900000000000004
  0
LWPOLYLINE
  5
17F
330
14C
100
AcDbEntity
  8
AM_9
100
AcDbPolyline
 90
        6
 70
     0
 43
0.0
 10
-3.4819909435953
 20
-4.900000000000008
 10
-3.446108682687058
 20
-4.895745894453813
 10
-3.350047481219143
 20
-4.841624784261557
 10
-3.25503334753146
 20
-4.721666596937987
 10
-3.182956944002746
 20
-4.578065575145232
 10
-3.115718048563161
 20
-4.390711984999874
  0
LWPOLYLINE
  5
180
330
14C
100
AcDbEntity
  8
AM_9
100
AcDbPolyline
 90
        6
 70
     0
 43
0.0
 10
23.640427339644
 20
-4.390711984999951
 10
23.56465642911997
 20
-4.59782658291994
 10
23.47839460325267
 20
-4.756937928765319
 10
23.38917636907176
 20
-4.855805301882671
 10
23.29449045591797
 20
-4.898634827277712
 10
23.27415444461189
 20
-4.900000000000007
  0
LINE
  5
181
330
14C
100
AcDbEntity
  8
AM_9
100
AcDbLine
 10
3.4819909435953
 20
-4.900000000000003
 30
0.0
 11
40.66666666666666
 21
-4.900000000000006
 31
0.0
  0
LINE
  5
182
330
14C
100
AcDbEntity
  8
AM_9
100
AcDbLine
 10
-42.66666666666666
 20
-2.900000000000008
 30
0.0
 11
42.66666666666666
 21
-2.900000000000008
 31
0.0
  0
ARC
  5
183
330
14C
100
AcDbEntity
  8
AM_9
100
AcDbCircle
 10
40.66666666666668
 20
-2.900000000000018
 30
0.0
 40
1.999999999999988
100
AcDbArc
 50
270.0
 51
0.0
  0
ARC
  5
184
330
14C
100
AcDbEntity
  8
AM_9
100
AcDbCircle
 10
-40.66666666666668
 20
-2.900000000000017
 30
0.0
 40
1.999999999999986
100
AcDbArc
 50
180.0
 51
270.0
  0
ELLIPSE
  5
185
330
14C
100
AcDbEntity
  8
AM_9
100
AcDbEllipse
 10
39.76480790919836
 20
-24.90000000000011
 30
0.0
 11
-9.331808609502626E-16
 21
-5.079999999999888
 31
0.0
210
0.0
220
0.0
230
1.0
 40
0.7071067811865558
 41
5.925840240125649
 42
9.784895474433233
  0
ELLIPSE
  5
186
330
14C
100
AcDbEntity
  8
AM_9
100
AcDbEllipse
 10
39.76480790919823
 20
-24.8999999999999
 30
0.0
 11
-9.331808609503141E-16
 21
-5.080000000000169
 31
0.0
210
0.0
220
0.0
230
1.0
 40
0.7071067811865419
 41
4.916347502394387
 42
5.5957523519231
  0
LINE
  5
187
330
14C
100
AcDbEntity
  8
AM_9
100
AcDbLine
 10
39.72888688471386
 20
-29.98
 30
0.0
 11
39.76480790919814
 21
-29.98
 31
0.0
  0
LINE
  5
188
330
14C
100
AcDbEntity
  8
AM_9
100
AcDbLine
 10
39.76480790919814
 20
-19.81999999999999
 30
0.0
 11
39.72888688471386
 21
-19.81999999999999
 31
0.0
  0
ELLIPSE
  5
189
330
14C
100
AcDbEntity
  8
AM_9
100
AcDbEllipse
 10
39.76480790919823
 20
-24.90000000000002
 30
0.0
 11
-9.331808609502965E-16
 21
-5.080000000000073
 31
0.0
210
0.0
220
0.0
230
1.0
 40
0.7071067811865525
 41
3.84405057068853
 42
4.527688302812425
  0
ELLIPSE
  5
18A
330
14C
100
AcDbEntity
  8
AM_9
100
AcDbEllipse
 10
39.72888688471382
 20
-24.9
 30
0.0
 11
-9.331808609502756E-16
 21
-5.079999999999959
 31
0.0
210
0.0
220
0.0
230
1.0
 40
0.7071067811865474
 41
4.95674564094416
 42
5.556473000204158
  0
ELLIPSE
  5
18B
330
14C
100
AcDbEntity
  8
AM_9
100
AcDbEllipse
 10
39.72888688471389
 20
-24.89999999999999
 30
0.0
 11
-9.331808609502795E-16
 21
-5.079999999999981
 31
0.0
210
0.0
220
0.0
230
1.0
 40
0.7071067811865541
 41
3.885440235447923
 42
4.448884889304537
  0
ELLIPSE
  5
18C
330
14C
100
AcDbEntity
  8
AM_9
100
AcDbEllipse
 10
39.72888688471408
 20
-24.89999999999988
 30
0.0
 11
-9.331808609503062E-16
 21
-5.080000000000126
 31
0.0
210
0.0
220
0.0
230
1.0
 40
0.7071067811865227
 41
5.965309749655083
 42
9.743824817124295
  0
LINE
  5
18D
330
14C
100
AcDbEntity
  8
AM_9
100
AcDbLine
 10
46.01506616946226
 20
-27.79044683725724
 30
0.0
 11
46.01506616946226
 21
-22.00955316274275
 31
0.0
  0
LINE
  5
18E
330
14C
100
AcDbEntity
  8
AM_9
100
AcDbLine
 10
44.25067073036436
 20
-16.88
 30
0.0
 11
32.51072620361559
 21
-16.88
 31
0.0
  0
LINE
  5
18F
330
14C
100
AcDbEntity
  8
AM_9
100
AcDbLine
 10
44.25067073036436
 20
-16.88
 30
0.0
 11
44.25067073036442
 21
-4.100000000000001
 31
0.0
  0
LINE
  5
190
330
14C
100
AcDbEntity
  8
AM_9
100
AcDbLine
 10
45.29298073956751
 20
-38.1
 30
0.0
 11
45.29298073956752
 21
-4.099999999999998
 31
0.0
  0
LINE
  5
191
330
14C
100
AcDbEntity
  8
AM_9
100
AcDbLine
 10
6.0
 20
-18.29999999999999
 30
0.0
 11
6.0
 21
-4.099999999999995
 31
0.0
  0
LINE
  5
192
330
14C
100
AcDbEntity
  8
AM_9
100
AcDbLine
 10
-6.0
 20
-4.099999999999995
 30
0.0
 11
-6.0
 21
-18.29999999999999
 31
0.0
  0
LINE
  5
195
330
14C
100
AcDbEntity
  8
AM_7
100
AcDbLine
 10
0.0
 20
-61.63500000000001
 30
0.0
 11
0.0
 21
2.935
 31
0.0
  0
LINE
  5
196
330
14C
100
AcDbEntity
  8
AM_4
100
AcDbLine
 10
46.75901494524845
 20
-22.47424645474924
 30
0.0
 11
46.75901494524845
 21
-4.099999999999998
 31
0.0
  0
LINE
  5
197
330
14C
100
AcDbEntity
  8
AM_4
100
AcDbLine
 10
46.75901494524845
 20
-38.1
 30
0.0
 11
46.75901494524845
 21
-27.32575354525076
 31
0.0
  0
ELLIPSE
  5
198
330
14C
100
AcDbEntity
  8
AM_4
100
AcDbEllipse
 10
39.76480790919814
 20
-24.89999999999998
 30
0.0
 11
-9.331808609502847E-16
 21
-5.080000000000009
 31
0.0
210
0.0
220
0.0
230
1.0
 40
0.7071067811865474
 41
5.595752351923111
 42
5.925840240125712
  0
ELLIPSE
  5
199
330
14C
100
AcDbEntity
  8
AM_4
100
AcDbEllipse
 10
39.76480790919776
 20
-24.90000000000005
 30
0.0
 11
-9.331808609502703E-16
 21
-5.079999999999931
 31
0.0
210
0.0
220
0.0
230
1.0
 40
0.7071067811864813
 41
4.527688302812411
 42
4.916347502394368
  0
ELLIPSE
  5
19A
330
14C
100
AcDbEntity
  8
AM_4
100
AcDbEllipse
 10
39.76480790919823
 20
-24.90000000000028
 30
0.0
 11
-9.331808609503395E-16
 21
-5.080000000000307
 31
0.0
210
0.0
220
0.0
230
1.0
 40
0.7071067811865478
 41
3.501710167253606
 42
3.844050570688505
  0
ELLIPSE
  5
19B
330
14C
100
AcDbEntity
  8
AM_4
100
AcDbEllipse
 10
39.72888688471385
 20
-24.90000000000002
 30
0.0
 11
-9.331808609502788E-16
 21
-5.079999999999977
 31
0.0
210
0.0
220
0.0
230
1.0
 40
0.7071067811865477
 41
5.55647300020415
 42
5.965309749655147
  0
ELLIPSE
  5
19C
330
14C
100
AcDbEntity
  8
AM_4
100
AcDbEllipse
 10
39.72888688471387
 20
-24.89999999999999
 30
0.0
 11
-9.331808609502985E-16
 21
-5.080000000000084
 31
0.0
210
0.0
220
0.0
230
1.0
 40
0.707106781186537
 41
4.448884889304541
 42
4.956745640944156
  0
ELLIPSE
  5
19D
330
14C
100
AcDbEntity
  8
AM_4
100
AcDbEllipse
 10
39.72888688471379
 20
-24.90000000000002
 30
0.0
 11
-9.331808609502886E-16
 21
-5.08000000000003
 31
0.0
210
0.0
220
0.0
230
1.0
 40
0.7071067811865416
 41
3.460639509944613
 42
3.885440235447907
  0
LINE
  5
19E
330
14C
100
AcDbEntity
  8
AM_4
100
AcDbLine
 10
29.52587500035583
 20
-38.1
 30
0.0
 11
29.52587500035583
 21
-16.88
 31
0.0
  0
LINE
  5
19F
330
14C
100
AcDbEntity
  8
AM_4
100
AcDbLine
 10
52.4500000000001
 20
-38.1
 30
0.0
 11
-52.45
 21
-38.1
 31
0.0
  0
LINE
  5
1A0
330
14C
100
AcDbEntity
  8
AM_4
100
AcDbLine
 10
46.01506616946226
 20
-22.00955316274275
 30
0.0
 11
46.01506616946226
 21
-4.099999999999998
 31
0.0
  0
LINE
  5
1A1
330
14C
100
AcDbEntity
  8
AM_4
100
AcDbLine
 10
46.01506616946226
 20
-38.1
 30
0.0
 11
46.01506616946226
 21
-27.79044683725724
 31
0.0
  0
LINE
  5
1A2
330
14C
100
AcDbEntity
  8
AM_4
100
AcDbLine
 10
33.44270759996545
 20
-38.1
 30
0.0
 11
33.44270759996545
 21
-4.099999999999997
 31
0.0
  0
LINE
  5
1A3
330
14C
100
AcDbEntity
  8
AM_4
100
AcDbLine
 10
29.85060515153779
 20
-38.1
 30
0.0
 11
29.85060515153779
 21
-16.88
 31
0.0
  0
LINE
  5
1A4
330
14C
100
AcDbEntity
  8
AM_4
100
AcDbLine
 10
-50.0
 20
0.0
 30
0.0
 11
50.0
 21
0.0
 31
0.0
  0
LINE
  5
1A5
330
14C
100
AcDbEntity
  8
AM_4
100
AcDbLine
 10
50.0
 20
-2.73333333333333
 30
0.0
 11
50.0
 21
0.0
 31
0.0
  0
LINE
  5
1A6
330
14C
100
AcDbEntity
  8
AM_4
100
AcDbLine
 10
-50.0
 20
0.0
 30
0.0
 11
-50.0
 21
-2.73333333333333
 31
0.0
  0
LINE
  5
1A7
330
14C
100
AcDbEntity
  8
AM_4
100
AcDbLine
 10
-50.0
 20
-2.73333333333333
 30
0.0
 11
50.0
 21
-2.73333333333333
 31
0.0
  0
ARC
  5
1A8
330
14C
100
AcDbEntity
  8
AM_4
100
AcDbCircle
 10
51.36666666666667
 20
-2.733333333333325
 30
0.0
 40
1.366666666666674
100
AcDbArc
 50
180.0
 51
270.0
  0
ARC
  5
1A9
330
14C
100
AcDbEntity
  8
AM_4
100
AcDbCircle
 10
-51.36666666666667
 20
-2.733333333333325
 30
0.0
 40
1.366666666666675
100
AcDbArc
 50
270.0
 51
0.0
  0
LINE
  5
1AA
330
14C
100
AcDbEntity
  8
AM_4
100
AcDbLine
 10
26.44897721510543
 20
-38.1
 30
0.0
 11
26.44897721510543
 21
-16.88
 31
0.0
  0
LINE
  5
1AB
330
14C
100
AcDbEntity
  8
AM_4
100
AcDbLine
 10
52.4500000000001
 20
-38.1
 30
0.0
 11
52.4500000000001
 21
-4.1
 31
0.0
  0
LINE
  5
1AC
330
14C
100
AcDbEntity
  8
AM_4
100
AcDbLine
 10
-52.45
 20
-4.1
 30
0.0
 11
-52.45
 21
-38.1
 31
0.0
  0
LINE
  5
1AD
330
14C
100
AcDbEntity
  8
AM_4
100
AcDbLine
 10
24.17482719664428
 20
-18.29999999999999
 30
0.0
 11
24.17482719664428
 21
-16.87999999999999
 31
0.0
  0
LINE
  5
1AE
330
14C
100
AcDbEntity
  8
AM_4
100
AcDbLine
 10
24.17482719664428
 20
-18.29999999999999
 30
0.0
 11
-24.17482719664428
 21
-18.29999999999999
 31
0.0
  0
LINE
  5
1AF
330
14C
100
AcDbEntity
  8
AM_4
100
AcDbLine
 10
-24.17482719664429
 20
-16.87999999999999
 30
0.0
 11
-24.17482719664428
 21
-18.29999999999999
 31
0.0
  0
LINE
  5
1B0
330
14C
100
AcDbEntity
  8
AM_4
100
AcDbLine
 10
-11.68487682775114
 20
-16.87999999999999
 30
0.0
 11
-44.25067073036436
 21
-16.88
 31
0.0
  0
LINE
  5
1B1
330
14C
100
AcDbEntity
  8
AM_4
100
AcDbLine
 10
-44.25067073036436
 20
-16.88
 30
0.0
 11
-44.25067073036435
 21
-4.099999999999998
 31
0.0
  0
LINE
  5
1B2
330
14C
100
AcDbEntity
  8
AM_4
100
AcDbLine
 10
52.4500000000001
 20
-4.1
 30
0.0
 11
-52.45
 21
-4.1
 31
0.0
  0
LINE
  5
1B3
330
14C
100
AcDbEntity
  8
AM_4
100
AcDbLine
 10
32.51072620361559
 20
-16.87999999999999
 30
0.0
 11
11.68487682775112
 21
-16.87999999999999
 31
0.0
  0
LINE
  5
1B4
330
14C
100
AcDbEntity
  8
AM_4
100
AcDbLine
 10
32.51072620361559
 20
-4.099999999999997
 30
0.0
 11
32.51072620361559
 21
-16.87999999999999
 31
0.0
  0
LINE
  5
1B5
330
14C
100
AcDbEntity
  8
AM_4
100
AcDbLine
 10
11.68487682775112
 20
-16.87999999999999
 30
0.0
 11
11.68487682775112
 21
-4.099999999999994
 31
0.0
  0
LINE
  5
1B6
330
14C
100
AcDbEntity
  8
AM_4
100
AcDbLine
 10
-11.68487682775114
 20
-16.87999999999999
 30
0.0
 11
-11.68487682775112
 21
-4.099999999999994
 31
0.0
  0
LINE
  5
1B7
330
14C
100
AcDbEntity
  8
AM_4
100
AcDbLine
 10
-12.98568215122333
 20
-16.87999999999999
 30
0.0
 11
-12.98568215122333
 21
-18.29999999999999
 31
0.0
  0
LINE
  5
1B8
330
14C
100
AcDbEntity
  8
AM_4
100
AcDbLine
 10
12.98568215122333
 20
-16.87999999999999
 30
0.0
 11
12.98568215122333
 21
-18.29999999999999
 31
0.0
  0
ENDBLK
  5
14F
330
14C
100
AcDbEntity
  8
0
100
AcDbBlockEnd
  0
ENDSEC
  0
SECTION
  2
ENTITIES
  0
INSERT
  5
6F
330
1F
100
AcDbEntity
  8
0
100
AcDbBlockReference
  2
1_130835_4
 10
0.0
 20
0.0
 30
0.0
  0
POINT
  5
1BA
330
1F
100
AcDbEntity
  8
ConnectionPoints
100
AcDbPoint
 10
0.0
 20
-23.95
 30
0.0000000000000015
  0
POINT
  5
1BB
330
1F
100
AcDbEntity
  8
ConnectionPoints
100
AcDbPoint
 10
0.0
 20
-58.7
 30
0.0000000000000036
  0
POINT
  5
1BC
330
1F
100
AcDbEntity
  8
ConnectionPoints
100
AcDbPoint
 10
44.18071021543504
 20
-24.9
 30
44.18071021543502
  0
POINT
  5
1BD
330
1F
100
AcDbEntity
  8
ConnectionPoints
100
AcDbPoint
 10
39.76480790919813
 20
-24.9
 30
39.76480790919813
  0
POINT
  5
1BE
330
1F
100
AcDbEntity
  8
ConnectionPoints
100
AcDbPoint
 10
0.0
 20
-58.7
 30
0.0000000000000036
  0
POINT
  5
1BF
330
1F
100
AcDbEntity
  8
ConnectionPoints
100
AcDbPoint
 10
0.0
 20
0.0
 30
0.0
  0
POINT
  5
1C0
330
1F
100
AcDbEntity
  8
ConnectionPoints
100
AcDbPoint
 10
0.0
 20
-1.98
 30
0.0000000000000001
  0
ENDSEC
  0
SECTION
  2
OBJECTS
  0
DICTIONARY
  5
C
330
0
100
AcDbDictionary
281
     1
  3
ACAD_DETAILVIEWSTYLE
350
1C8
  3
ACAD_GROUP
350
D
  3
ACAD_LAYOUT
350
1A
  3
ACAD_MATERIAL
350
43
  3
ACAD_MLEADERSTYLE
350
6B
  3
ACAD_MLINESTYLE
350
17
  3
ACAD_PLOTSETTINGS
350
19
  3
ACAD_PLOTSTYLENAME
350
E
  3
ACAD_SCALELIST
350
47
  3
ACAD_SECTIONVIEWSTYLE
350
1C9
  3
ACAD_TABLESTYLE
350
69
  3
ACAD_VISUALSTYLE
350
2A
  3
ACDB_RECOMPOSE_DATA
350
1C5
  3
AcDbVariableDictionary
350
1C1
  0
SUN
  5
6D
330
29
100
AcDbSun
 90
        1
290
     0
 63
     7
421
 16777215
 40
1.0
291
     1
 91
  2455826
 92
 54000000
292
     0
 70
     2
 71
   256
280
     1
  0
DICTIONARY
  5
1C8
102
{ACAD_REACTORS
330
C
102
}
330
C
100
AcDbDictionary
281
     1
  0
DICTIONARY
  5
D
102
{ACAD_REACTORS
330
C
102
}
330
C
100
AcDbDictionary
281
     1
  0
DICTIONARY
  5
1A
102
{ACAD_REACTORS
330
C
102
}
330
C
100
AcDbDictionary
281
     1
  3
Layout1
350
1E
  3
Layout2
350
26
  3
Model
350
22
  0
DICTIONARY
  5
43
102
{ACAD_REACTORS
330
C
102
}
330
C
100
AcDbDictionary
281
     1
  3
ByBlock
350
45
  3
ByLayer
350
44
  3
Global
350
46
  0
DICTIONARY
  5
6B
102
{ACAD_REACTORS
330
C
102
}
330
C
100
AcDbDictionary
281
     1
  3
Standard
350
6C
  0
DICTIONARY
  5
17
102
{ACAD_REACTORS
330
C
102
}
330
C
100
AcDbDictionary
281
     1
  3
Standard
350
18
  0
DICTIONARY
  5
19
102
{ACAD_REACTORS
330
C
102
}
330
C
100
AcDbDictionary
281
     1
  0
ACDBDICTIONARYWDFLT
  5
E
102
{ACAD_REACTORS
330
C
102
}
330
C
100
AcDbDictionary
281
     1
  3
Normal
350
F
100
AcDbDictionaryWithDefault
340
F
  0
DICTIONARY
  5
47
102
{ACAD_REACTORS
330
C
102
}
330
C
100
AcDbDictionary
281
     1
  3
A0
350
48
  3
A1
350
49
  3
A2
350
4A
  3
A3
350
4B
  3
A4
350
4C
  3
A5
350
4D
  3
A6
350
4E
  3
A7
350
4F
  3
A8
350
50
  3
A9
350
51
  3
B0
350
52
  3
B1
350
53
  3
B2
350
54
  3
B3
350
55
  3
B4
350
56
  3
B5
350
57
  3
B6
350
58
  3
B7
350
59
  3
B8
350
5A
  3
B9
350
5B
  3
C0
350
5C
  3
C1
350
5D
  3
C2
350
5E
  3
C3
350
5F
  3
C4
350
60
  3
C5
350
61
  3
C6
350
62
  3
C7
350
63
  3
C8
350
64
  3
C9
350
65
  3
D0
350
66
  3
D1
350
67
  3
D2
350
68
  0
DICTIONARY
  5
1C9
102
{ACAD_REACTORS
330
C
102
}
330
C
100
AcDbDictionary
281
     1
  0
DICTIONARY
  5
69
102
{ACAD_REACTORS
330
C
102
}
330
C
100
AcDbDictionary
281
     1
  3
Standard
350
6A
  0
DICTIONARY
  5
2A
102
{ACAD_REACTORS
330
C
102
}
330
C
100
AcDbDictionary
281
     1
  3
2dWireframe
350
2F
  3
Basic
350
32
  3
Brighten
350
36
  3
ColorChange
350
3A
  3
Conceptual
350
34
  3
Dim
350
35
  3
EdgeColorOff
350
3D
  3
Facepattern
350
39
  3
Flat
350
2B
  3
FlatWithEdges
350
2C
  3
Gouraud
350
2D
  3
GouraudWithEdges
350
2E
  3
Hidden
350
31
  3
JitterOff
350
3B
  3
Linepattern
350
38
  3
OverhangOff
350
3C
  3
Realistic
350
33
  3
Shaded
350
42
  3
Shaded with edges
350
41
  3
Shades of Gray
350
3E
  3
Sketchy
350
3F
  3
Thicken
350
37
  3
Wireframe
350
30
  3
X-Ray
350
40
  0
XRECORD
  5
1C5
102
{ACAD_REACTORS
330
C
102
}
330
C
100
AcDbXrecord
280
     1
 90
        1
330
6A
  0
DICTIONARY
  5
1C1
102
{ACAD_REACTORS
330
C
102
}
330
C
100
AcDbDictionary
281
     1
  3
CANNOSCALE
350
1C2
  3
CMLEADERSTYLE
350
1C7
  3
CTABLESTYLE
350
1C6
  0
LAYOUT
  5
1E
102
{ACAD_REACTORS
330
1A
102
}
330
1A
100
AcDbPlotSettings
  1

  2
none_device
  4

  6

 40
0.0
 41
0.0
 42
0.0
 43
0.0
 44
0.0
 45
0.0
 46
0.0
 47
0.0
 48
0.0
 49
0.0
140
0.0
141
0.0
142
1.0
143
1.0
 70
   688
 72
     1
 73
     0
 74
     5
  7

 75
    16
 76
     0
 77
     2
 78
   300
147
1.0
148
0.0
149
0.0
100
AcDbLayout
  1
Layout1
 70
     1
 71
     1
 10
0.0
 20
0.0
 11
420.0
 21
297.0
 12
0.0
 22
0.0
 32
0.0
 14
1.000000000000000E+20
 24
1.000000000000000E+20
 34
1.000000000000000E+20
 15
-1.000000000000000E+20
 25
-1.000000000000000E+20
 35
-1.000000000000000E+20
146
0.0
 13
0.0
 23
0.0
 33
0.0
 16
1.0
 26
0.0
 36
0.0
 17
0.0
 27
1.0
 37
0.0
 76
     0
330
1B
  0
LAYOUT
  5
26
102
{ACAD_REACTORS
330
1A
102
}
330
1A
100
AcDbPlotSettings
  1

  2
none_device
  4

  6

 40
0.0
 41
0.0
 42
0.0
 43
0.0
 44
0.0
 45
0.0
 46
0.0
 47
0.0
 48
0.0
 49
0.0
140
0.0
141
0.0
142
1.0
143
1.0
 70
   688
 72
     1
 73
     0
 74
     5
  7

 75
    16
 76
     0
 77
     2
 78
   300
147
1.0
148
0.0
149
0.0
100
AcDbLayout
  1
Layout2
 70
     1
 71
     2
 10
0.0
 20
0.0
 11
0.0
 21
0.0
 12
0.0
 22
0.0
 32
0.0
 14
0.0
 24
0.0
 34
0.0
 15
0.0
 25
0.0
 35
0.0
146
0.0
 13
0.0
 23
0.0
 33
0.0
 16
1.0
 26
0.0
 36
0.0
 17
0.0
 27
1.0
 37
0.0
 76
     0
330
23
  0
LAYOUT
  5
22
102
{ACAD_REACTORS
330
1A
102
}
330
1A
100
AcDbPlotSettings
  1

  2
none_device
  4
Letter_(8.50_x_11.00_Inches)
  6

 40
6.35
 41
6.35
 42
6.35000508
 43
6.35000508
 44
215.9
 45
279.4
 46
0.0
 47
0.0
 48
0.0
 49
0.0
140
0.0
141
0.0
142
1.0
143
1.0
 70
  1712
 72
     1
 73
     0
 74
     0
  7

 75
     0
 76
     0
 77
     2
 78
   300
147
1.0
148
0.0
149
0.0
100
AcDbLayout
  1
Model
 70
     1
 71
     0
 10
0.0
 20
0.0
 11
420.0
 21
297.0
 12
0.0
 22
0.0
 32
0.0
 14
1.000000000000000E+20
 24
1.000000000000000E+20
 34
1.000000000000000E+20
 15
-1.000000000000000E+20
 25
-1.000000000000000E+20
 35
-1.000000000000000E+20
146
0.0
 13
0.0
 23
0.0
 33
0.0
 16
1.0
 26
0.0
 36
0.0
 17
0.0
 27
1.0
 37
0.0
 76
     0
330
1F
331
29
  0
MATERIAL
  5
45
102
{ACAD_REACTORS
330
43
102
}
330
43
100
AcDbMaterial
  1
ByBlock
 72
     1
 94
      127
  0
MATERIAL
  5
44
102
{ACAD_REACTORS
330
43
102
}
330
43
100
AcDbMaterial
  1
ByLayer
 72
     1
 94
      127
  0
MATERIAL
  5
46
102
{ACAD_REACTORS
330
43
102
}
330
43
100
AcDbMaterial
  1
Global
 72
     1
 94
      127
  0
MLEADERSTYLE
  5
6C
102
{ACAD_REACTORS
330
6B
102
}
330
6B
100
AcDbMLeaderStyle
179
     2
170
     2
171
     1
172
     0
 90
        2
 40
0.0
 41
0.0
173
     1
 91
-1056964608
340
14
 92
       -2
290
     1
 42
2.0
291
     1
 43
8.0
  3
Standard
341
0
 44
4.0
300

342
11
174
     1
178
     6
175
     1
176
     0
 93
-1056964608
 45
4.0
292
     0
297
     0
 46
4.0
343
0
 94
-1056964608
 47
1.0
 49
1.0
140
1.0
293
     1
141
0.0
294
     1
177
     0
142
1.0
295
     0
296
     0
143
3.75
271
     0
272
     9
273
     9
298
     0
  0
MLINESTYLE
  5
18
102
{ACAD_REACTORS
330
17
102
}
330
17
100
AcDbMlineStyle
  2
Standard
 70
     0
  3

 62
   256
 51
90.0
 52
90.0
 71
     2
 49
0.5
 62
   256
  6
BYLAYER
 49
-0.5
 62
   256
  6
BYLAYER
  0
ACDBPLACEHOLDER
  5
F
102
{ACAD_REACTORS
330
E
102
}
330
E
  0
SCALE
  5
48
102
{ACAD_REACTORS
330
47
102
}
330
47
100
AcDbScale
 70
     0
300
1:1
140
1.0
141
1.0
290
     1
  0
SCALE
  5
49
102
{ACAD_REACTORS
330
47
102
}
330
47
100
AcDbScale
 70
     0
300
1:2
140
1.0
141
2.0
290
     0
  0
SCALE
  5
4A
102
{ACAD_REACTORS
330
47
102
}
330
47
100
AcDbScale
 70
     0
300
1:4
140
1.0
141
4.0
290
     0
  0
SCALE
  5
4B
102
{ACAD_REACTORS
330
47
102
}
330
47
100
AcDbScale
 70
     0
300
1:5
140
1.0
141
5.0
290
     0
  0
SCALE
  5
4C
102
{ACAD_REACTORS
330
47
102
}
330
47
100
AcDbScale
 70
     0
300
1:8
140
1.0
141
8.0
290
     0
  0
SCALE
  5
4D
102
{ACAD_REACTORS
330
47
102
}
330
47
100
AcDbScale
 70
     0
300
1:10
140
1.0
141
10.0
290
     0
  0
SCALE
  5
4E
102
{ACAD_REACTORS
330
47
102
}
330
47
100
AcDbScale
 70
     0
300
1:16
140
1.0
141
16.0
290
     0
  0
SCALE
  5
4F
102
{ACAD_REACTORS
330
47
102
}
330
47
100
AcDbScale
 70
     0
300
1:20
140
1.0
141
20.0
290
     0
  0
SCALE
  5
50
102
{ACAD_REACTORS
330
47
102
}
330
47
100
AcDbScale
 70
     0
300
1:30
140
1.0
141
30.0
290
     0
  0
SCALE
  5
51
102
{ACAD_REACTORS
330
47
102
}
330
47
100
AcDbScale
 70
     0
300
1:40
140
1.0
141
40.0
290
     0
  0
SCALE
  5
52
102
{ACAD_REACTORS
330
47
102
}
330
47
100
AcDbScale
 70
     0
300
1:50
140
1.0
141
50.0
290
     0
  0
SCALE
  5
53
102
{ACAD_REACTORS
330
47
102
}
330
47
100
AcDbScale
 70
     0
300
1:100
140
1.0
141
100.0
290
     0
  0
SCALE
  5
54
102
{ACAD_REACTORS
330
47
102
}
330
47
100
AcDbScale
 70
     0
300
2:1
140
2.0
141
1.0
290
     0
  0
SCALE
  5
55
102
{ACAD_REACTORS
330
47
102
}
330
47
100
AcDbScale
 70
     0
300
4:1
140
4.0
141
1.0
290
     0
  0
SCALE
  5
56
102
{ACAD_REACTORS
330
47
102
}
330
47
100
AcDbScale
 70
     0
300
8:1
140
8.0
141
1.0
290
     0
  0
SCALE
  5
57
102
{ACAD_REACTORS
330
47
102
}
330
47
100
AcDbScale
 70
     0
300
10:1
140
10.0
141
1.0
290
     0
  0
SCALE
  5
58
102
{ACAD_REACTORS
330
47
102
}
330
47
100
AcDbScale
 70
     0
300
100:1
140
100.0
141
1.0
290
     0
  0
SCALE
  5
59
102
{ACAD_REACTORS
330
47
102
}
330
47
100
AcDbScale
 70
     0
300
1/128" = 1'-0"
140
0.0078125
141
12.0
290
     0
  0
SCALE
  5
5A
102
{ACAD_REACTORS
330
47
102
}
330
47
100
AcDbScale
 70
     0
300
1/64" = 1'-0"
140
0.015625
141
12.0
290
     0
  0
SCALE
  5
5B
102
{ACAD_REACTORS
330
47
102
}
330
47
100
AcDbScale
 70
     0
300
1/32" = 1'-0"
140
0.03125
141
12.0
290
     0
  0
SCALE
  5
5C
102
{ACAD_REACTORS
330
47
102
}
330
47
100
AcDbScale
 70
     0
300
1/16" = 1'-0"
140
0.0625
141
12.0
290
     0
  0
SCALE
  5
5D
102
{ACAD_REACTORS
330
47
102
}
330
47
100
AcDbScale
 70
     0
300
3/32" = 1'-0"
140
0.09375
141
12.0
290
     0
  0
SCALE
  5
5E
102
{ACAD_REACTORS
330
47
102
}
330
47
100
AcDbScale
 70
     0
300
1/8" = 1'-0"
140
0.125
141
12.0
290
     0
  0
SCALE
  5
5F
102
{ACAD_REACTORS
330
47
102
}
330
47
100
AcDbScale
 70
     0
300
3/16" = 1'-0"
140
0.1875
141
12.0
290
     0
  0
SCALE
  5
60
102
{ACAD_REACTORS
330
47
102
}
330
47
100
AcDbScale
 70
     0
300
1/4" = 1'-0"
140
0.25
141
12.0
290
     0
  0
SCALE
  5
61
102
{ACAD_REACTORS
330
47
102
}
330
47
100
AcDbScale
 70
     0
300
3/8" = 1'-0"
140
0.375
141
12.0
290
     0
  0
SCALE
  5
62
102
{ACAD_REACTORS
330
47
102
}
330
47
100
AcDbScale
 70
     0
300
1/2" = 1'-0"
140
0.5
141
12.0
290
     0
  0
SCALE
  5
63
102
{ACAD_REACTORS
330
47
102
}
330
47
100
AcDbScale
 70
     0
300
3/4" = 1'-0"
140
0.75
141
12.0
290
     0
  0
SCALE
  5
64
102
{ACAD_REACTORS
330
47
102
}
330
47
100
AcDbScale
 70
     0
300
1" = 1'-0"
140
1.0
141
12.0
290
     0
  0
SCALE
  5
65
102
{ACAD_REACTORS
330
47
102
}
330
47
100
AcDbScale
 70
     0
300
1-1/2" = 1'-0"
140
1.5
141
12.0
290
     0
  0
SCALE
  5
66
102
{ACAD_REACTORS
330
47
102
}
330
47
100
AcDbScale
 70
     0
300
3" = 1'-0"
140
3.0
141
12.0
290
     0
  0
SCALE
  5
67
102
{ACAD_REACTORS
330
47
102
}
330
47
100
AcDbScale
 70
     0
300
6" = 1'-0"
140
6.0
141
12.0
290
     0
  0
SCALE
  5
68
102
{ACAD_REACTORS
330
47
102
}
330
47
100
AcDbScale
 70
     0
300
1'-0" = 1'-0"
140
12.0
141
12.0
290
     0
  0
TABLESTYLE
  5
6A
102
{ACAD_REACTORS
330
69
102
}
102
{ACAD_XDICTIONARY
360
1C3
102
}
330
69
100
AcDbTableStyle
  3
Standard
 70
     0
 71
     0
 40
0.06
 41
0.06
280
     0
281
     0
  7
Standard
140
4.5
170
     2
 62
     0
 63
   257
283
     0
 90
        4
 91
        0
  1

274
    -2
284
     1
 64
     0
275
    -2
285
     1
 65
     0
276
    -2
286
     1
 66
     0
277
    -2
287
     1
 67
     0
278
    -2
288
     1
 68
     0
279
    -2
289
     1
 69
     0
  7
Standard
140
6.0
170
     5
 62
     0
 63
   257
283
     0
 90
        4
 91
        0
  1

274
    -2
284
     1
 64
     0
275
    -2
285
     1
 65
     0
276
    -2
286
     1
 66
     0
277
    -2
287
     1
 67
     0
278
    -2
288
     1
 68
     0
279
    -2
289
     1
 69
     0
  7
Standard
140
4.5
170
     5
 62
     0
 63
   257
283
     0
 90
        4
 91
        0
  1

274
    -2
284
     1
 64
     0
275
    -2
285
     1
 65
     0
276
    -2
286
     1
 66
     0
277
    -2
287
     1
 67
     0
278
    -2
288
     1
 68
     0
279
    -2
289
     1
 69
     0
  0
VISUALSTYLE
  5
2F
102
{ACAD_REACTORS
330
2A
102
}
330
2A
100
AcDbVisualStyle
  2
2dWireframe
 70
     4
177
     3
291
     0
 70
    58
 90
        0
176
     1
 90
        2
176
     1
 90
        0
176
     1
 90
        0
176
     1
 40
0.6
176
     1
 40
30.0
176
     1
 62
     7
420
 16777215
176
     1
 90
        1
176
     1
 90
        4
176
     1
 62
     7
176
     1
 62
   257
176
     1
 90
        1
176
     1
 90
        1
176
     1
 40
1.0
176
     1
 90
        0
176
     1
 62
   257
176
     1
 40
1.0
176
     1
 90
        1
176
     1
 90
        6
176
     1
 90
        2
176
     1
 62
     7
176
     1
 90
        5
176
     1
 90
        0
176
     1
 90
        0
176
     1
290
     0
176
     1
 90
        1
176
     1
 40
0.0
176
     1
 90
        0
176
     1
290
     1
176
     1
290
     1
176
     1
290
     0
176
     1
290
     0
176
     1
290
     0
176
     1
290
     0
176
     1
290
     0
176
     1
290
     0
176
     1
290
     0
176
     1
 90
       50
176
     1
 40
0.0
176
     1
 40
1.0
176
     1
 90
        0
176
     1
 62
    18
420
        0
176
     1
 90
       50
176
     1
 90
        3
176
     1
 62
     5
420
      255
176
     1
290
     0
176
     1
 90
       50
176
     1
 90
       50
176
     1
 90
       50
176
     1
290
     0
176
     1
 90
       50
176
     1
 62
   256
176
     0
 40
1.0
176
     0
 90
        2
176
     1
  1
strokes_ogs.tif
176
     1
290
     0
176
     1
 40
1.0
176
     1
 40
1.0
176
     1
  0
VISUALSTYLE
  5
32
102
{ACAD_REACTORS
330
2A
102
}
330
2A
100
AcDbVisualStyle
  2
Basic
 70
     7
177
     3
291
     1
 70
    58
 90
        1
176
     1
 90
        0
176
     1
 90
        1
176
     1
 90
        0
176
     1
 40
0.6
176
     1
 40
30.0
176
     1
 62
     7
420
 16777215
176
     1
 90
        0
176
     1
 90
        4
176
     1
 62
     7
176
     1
 62
   257
176
     1
 90
        1
176
     1
 90
        1
176
     1
 40
1.0
176
     1
 90
        8
176
     1
 62
     7
176
     1
 40
1.0
176
     1
 90
        1
176
     1
 90
        6
176
     1
 90
        2
176
     1
 62
     7
176
     1
 90
        5
176
     1
 90
        0
176
     1
 90
        0
176
     1
290
     0
176
     1
 90
        1
176
     1
 40
0.0
176
     1
 90
        0
176
     1
290
     0
176
     1
290
     1
176
     1
290
     1
176
     1
290
     0
176
     1
290
     0
176
     1
290
     0
176
     1
290
     0
176
     1
290
     0
176
     1
290
     0
176
     1
 90
       50
176
     1
 40
0.0
176
     1
 40
1.0
176
     1
 90
        0
176
     1
 62
    18
420
        0
176
     1
 90
       50
176
     1
 90
        3
176
     1
 62
     5
420
      255
176
     1
290
     0
176
     1
 90
       50
176
     1
 90
       50
176
     1
 90
       50
176
     1
290
     0
176
     1
 90
       50
176
     1
 62
   256
176
     0
 40
1.0
176
     0
 90
        2
176
     1
  1
strokes_ogs.tif
176
     1
290
     0
176
     1
 40
1.0
176
     1
 40
1.0
176
     1
  0
VISUALSTYLE
  5
36
102
{ACAD_REACTORS
330
2A
102
}
330
2A
100
AcDbVisualStyle
  2
Brighten
 70
    12
177
     3
291
     1
 70
    58
 90
        2
176
     1
 90
        2
176
     1
 90
        0
176
     1
 90
        0
176
     1
 40
0.6
176
     1
 40
30.0
176
     1
 62
     7
420
 16777215
176
     1
 90
        1
176
     1
 90
        4
176
     1
 62
     7
176
     1
 62
   257
176
     1
 90
        1
176
     1
 90
        1
176
     1
 40
1.0
176
     1
 90
        8
176
     1
 62
     7
176
     1
 40
1.0
176
     1
 90
        1
176
     1
 90
        6
176
     1
 90
        2
176
     1
 62
     7
176
     1
 90
        5
176
     1
 90
        0
176
     1
 90
        0
176
     1
290
     0
176
     1
 90
        1
176
     1
 40
50.0
176
     1
 90
        0
176
     1
290
     0
176
     1
290
     1
176
     1
290
     1
176
     1
290
     0
176
     1
290
     0
176
     1
290
     0
176
     1
290
     0
176
     1
290
     0
176
     1
290
     0
176
     1
 90
       50
176
     1
 40
0.0
176
     1
 40
1.0
176
     1
 90
        0
176
     1
 62
    18
420
        0
176
     1
 90
       50
176
     1
 90
        3
176
     1
 62
     5
420
      255
176
     1
290
     0
176
     1
 90
       50
176
     1
 90
       50
176
     1
 90
       50
176
     1
290
     0
176
     1
 90
       50
176
     1
 62
   256
176
     0
 40
1.0
176
     0
 90
        2
176
     1
  1
strokes_ogs.tif
176
     1
290
     0
176
     1
 40
1.0
176
     1
 40
1.0
176
     1
  0
VISUALSTYLE
  5
3A
102
{ACAD_REACTORS
330
2A
102
}
330
2A
100
AcDbVisualStyle
  2
ColorChange
 70
    16
177
     3
291
     1
 70
    58
 90
        2
176
     1
 90
        2
176
     1
 90
        3
176
     1
 90
        0
176
     1
 40
0.6
176
     1
 40
30.0
176
     1
 62
     8
420
  8421504
176
     1
 90
        1
176
     1
 90
        4
176
     1
 62
     7
176
     1
 62
   257
176
     1
 90
        1
176
     1
 90
        1
176
     1
 40
1.0
176
     1
 90
        8
176
     1
 62
     8
420
  8421504
176
     1
 40
1.0
176
     1
 90
        1
176
     1
 90
        6
176
     1
 90
        2
176
     1
 62
     7
176
     1
 90
        5
176
     1
 90
        0
176
     1
 90
        0
176
     1
290
     0
176
     1
 90
        1
176
     1
 40
0.0
176
     1
 90
        0
176
     1
290
     0
176
     1
290
     1
176
     1
290
     1
176
     1
290
     0
176
     1
290
     0
176
     1
290
     0
176
     1
290
     0
176
     1
290
     0
176
     1
290
     0
176
     1
 90
       50
176
     1
 40
0.0
176
     1
 40
1.0
176
     1
 90
        0
176
     1
 62
    18
420
        0
176
     1
 90
       50
176
     1
 90
        3
176
     1
 62
     5
420
      255
176
     1
290
     0
176
     1
 90
       50
176
     1
 90
       50
176
     1
 90
       50
176
     1
290
     0
176
     1
 90
       50
176
     1
 62
   256
176
     0
 40
1.0
176
     0
 90
        2
176
     1
  1
strokes_ogs.tif
176
     1
290
     0
176
     1
 40
1.0
176
     1
 40
1.0
176
     1
  0
VISUALSTYLE
  5
34
102
{ACAD_REACTORS
330
2A
102
}
330
2A
100
AcDbVisualStyle
  2
Conceptual
 70
     9
177
     3
291
     0
 70
    58
 90
        3
176
     1
 90
        2
176
     1
 90
        0
176
     1
 90
        0
176
     1
 40
0.6
176
     1
 40
30.0
176
     1
 62
     7
420
 16777215
176
     1
 90
        2
176
     1
 90
        2
176
     1
 62
     7
176
     1
 62
   257
176
     1
 90
        1
176
     1
 90
        1
176
     1
 40
179.0
176
     1
 90
        8
176
     1
 62
     7
176
     1
 40
1.0
176
     1
 90
        1
176
     1
 90
        6
176
     1
 90
        2
176
     1
 62
     7
176
     1
 90
        3
176
     1
 90
        0
176
     1
 90
        0
176
     1
290
     0
176
     1
 90
        1
176
     1
 40
0.0
176
     1
 90
        0
176
     1
290
     0
176
     1
290
     1
176
     1
290
     1
176
     1
290
     0
176
     1
290
     0
176
     1
290
     0
176
     1
290
     0
176
     1
290
     0
176
     1
290
     0
176
     1
 90
       50
176
     1
 40
0.0
176
     1
 40
1.0
176
     1
 90
        0
176
     1
 62
    18
420
        0
176
     1
 90
       50
176
     1
 90
        3
176
     1
 62
     5
420
      255
176
     1
290
     0
176
     1
 90
       50
176
     1
 90
       50
176
     1
 90
       50
176
     1
290
     0
176
     1
 90
       50
176
     1
 62
   256
176
     0
 40
1.0
176
     0
 90
        2
176
     1
  1
strokes_ogs.tif
176
     1
290
     0
176
     1
 40
1.0
176
     1
 40
1.0
176
     1
  0
VISUALSTYLE
  5
35
102
{ACAD_REACTORS
330
2A
102
}
330
2A
100
AcDbVisualStyle
  2
Dim
 70
    11
177
     3
291
     1
 70
    58
 90
        2
176
     1
 90
        2
176
     1
 90
        0
176
     1
 90
        0
176
     1
 40
0.6
176
     1
 40
30.0
176
     1
 62
     7
420
 16777215
176
     1
 90
        1
176
     1
 90
        4
176
     1
 62
     7
176
     1
 62
   257
176
     1
 90
        1
176
     1
 90
        1
176
     1
 40
1.0
176
     1
 90
        8
176
     1
 62
     7
176
     1
 40
1.0
176
     1
 90
        1
176
     1
 90
        6
176
     1
 90
        2
176
     1
 62
     7
176
     1
 90
        5
176
     1
 90
        0
176
     1
 90
        0
176
     1
290
     0
176
     1
 90
        1
176
     1
 40
-50.0
176
     1
 90
        0
176
     1
290
     0
176
     1
290
     1
176
     1
290
     1
176
     1
290
     0
176
     1
290
     0
176
     1
290
     0
176
     1
290
     0
176
     1
290
     0
176
     1
290
     0
176
     1
 90
       50
176
     1
 40
0.0
176
     1
 40
1.0
176
     1
 90
        0
176
     1
 62
    18
420
        0
176
     1
 90
       50
176
     1
 90
        3
176
     1
 62
     5
420
      255
176
     1
290
     0
176
     1
 90
       50
176
     1
 90
       50
176
     1
 90
       50
176
     1
290
     0
176
     1
 90
       50
176
     1
 62
   256
176
     0
 40
1.0
176
     0
 90
        2
176
     1
  1
strokes_ogs.tif
176
     1
290
     0
176
     1
 40
1.0
176
     1
 40
1.0
176
     1
  0
VISUALSTYLE
  5
3D
102
{ACAD_REACTORS
330
2A
102
}
330
2A
100
AcDbVisualStyle
  2
EdgeColorOff
 70
    22
177
     3
291
     1
 70
    58
 90
        2
176
     0
 90
        2
176
     0
 90
        0
176
     0
 90
        0
176
     0
 40
0.6
176
     0
 40
30.0
176
     0
 62
     7
420
 16777215
176
     0
 90
        1
176
     0
 90
        4
176
     0
 62
     7
176
     0
 62
   257
176
     0
 90
        1
176
     0
 90
        1
176
     0
 40
1.0
176
     0
 90
        8
176
     2
 62
     7
176
     0
 40
1.0
176
     0
 90
        1
176
     0
 90
        6
176
     0
 90
        2
176
     0
 62
     7
176
     0
 90
        5
176
     0
 90
        0
176
     0
 90
        0
176
     0
290
     0
176
     0
 90
        1
176
     0
 40
0.0
176
     0
 90
        0
176
     0
290
     0
176
     0
290
     1
176
     0
290
     1
176
     0
290
     0
176
     0
290
     0
176
     0
290
     0
176
     0
290
     0
176
     0
290
     0
176
     0
290
     0
176
     0
 90
       50
176
     0
 40
0.0
176
     0
 40
1.0
176
     0
 90
        0
176
     0
 62
    18
420
        0
176
     0
 90
       50
176
     0
 90
        3
176
     0
 62
     5
420
      255
176
     0
290
     0
176
     0
 90
       50
176
     0
 90
       50
176
     0
 90
       50
176
     0
290
     0
176
     0
 90
       50
176
     0
 62
   256
176
     0
 40
1.0
176
     0
 90
        2
176
     0
  1
strokes_ogs.tif
176
     0
290
     0
176
     0
 40
1.0
176
     0
 40
1.0
176
     0
  0
VISUALSTYLE
  5
39
102
{ACAD_REACTORS
330
2A
102
}
330
2A
100
AcDbVisualStyle
  2
Facepattern
 70
    15
177
     3
291
     1
 70
    58
 90
        2
176
     1
 90
        2
176
     1
 90
        0
176
     1
 90
        0
176
     1
 40
0.6
176
     1
 40
30.0
176
     1
 62
     7
420
 16777215
176
     1
 90
        1
176
     1
 90
        4
176
     1
 62
     7
176
     1
 62
   257
176
     1
 90
        1
176
     1
 90
        1
176
     1
 40
1.0
176
     1
 90
        8
176
     1
 62
     7
176
     1
 40
1.0
176
     1
 90
        1
176
     1
 90
        6
176
     1
 90
        2
176
     1
 62
     7
176
     1
 90
        5
176
     1
 90
        0
176
     1
 90
        0
176
     1
290
     0
176
     1
 90
        1
176
     1
 40
0.0
176
     1
 90
        0
176
     1
290
     0
176
     1
290
     1
176
     1
290
     1
176
     1
290
     0
176
     1
290
     0
176
     1
290
     0
176
     1
290
     0
176
     1
290
     0
176
     1
290
     0
176
     1
 90
       50
176
     1
 40
0.0
176
     1
 40
1.0
176
     1
 90
        0
176
     1
 62
    18
420
        0
176
     1
 90
       50
176
     1
 90
        3
176
     1
 62
     5
420
      255
176
     1
290
     0
176
     1
 90
       50
176
     1
 90
       50
176
     1
 90
       50
176
     1
290
     0
176
     1
 90
       50
176
     1
 62
   256
176
     0
 40
1.0
176
     0
 90
        2
176
     1
  1
strokes_ogs.tif
176
     1
290
     0
176
     1
 40
1.0
176
     1
 40
1.0
176
     1
  0
VISUALSTYLE
  5
2B
102
{ACAD_REACTORS
330
2A
102
}
330
2A
100
AcDbVisualStyle
  2
Flat
 70
     0
177
     3
291
     1
 70
    58
 90
        2
176
     1
 90
        1
176
     1
 90
        1
176
     1
 90
        2
176
     1
 40
0.6
176
     1
 40
30.0
176
     1
 62
     7
420
 16777215
176
     1
 90
        0
176
     1
 90
        0
176
     1
 62
     7
176
     1
 62
   257
176
     1
 90
        1
176
     1
 90
        1
176
     1
 40
1.0
176
     1
 90
        8
176
     1
 62
     7
176
     1
 40
1.0
176
     1
 90
        1
176
     1
 90
        6
176
     1
 90
        2
176
     1
 62
     7
176
     1
 90
        5
176
     1
 90
        0
176
     1
 90
        0
176
     1
290
     0
176
     1
 90
       13
176
     1
 40
0.0
176
     1
 90
        0
176
     1
290
     0
176
     1
290
     1
176
     1
290
     1
176
     1
290
     0
176
     1
290
     0
176
     1
290
     0
176
     1
290
     0
176
     1
290
     0
176
     1
290
     0
176
     1
 90
       50
176
     1
 40
0.0
176
     1
 40
1.0
176
     1
 90
        0
176
     1
 62
    18
420
        0
176
     1
 90
       50
176
     1
 90
        3
176
     1
 62
     5
420
      255
176
     1
290
     0
176
     1
 90
       50
176
     1
 90
       50
176
     1
 90
       50
176
     1
290
     0
176
     1
 90
       50
176
     1
 62
   256
176
     0
 40
1.0
176
     0
 90
        2
176
     1
  1
strokes_ogs.tif
176
     1
290
     0
176
     1
 40
1.0
176
     1
 40
1.0
176
     1
  0
VISUALSTYLE
  5
2C
102
{ACAD_REACTORS
330
2A
102
}
330
2A
100
AcDbVisualStyle
  2
FlatWithEdges
 70
     1
177
     3
291
     1
 70
    58
 90
        2
176
     1
 90
        1
176
     1
 90
        1
176
     1
 90
        2
176
     1
 40
0.6
176
     1
 40
30.0
176
     1
 62
     7
420
 16777215
176
     1
 90
        1
176
     1
 90
        0
176
     1
 62
     7
176
     1
 62
   257
176
     1
 90
        1
176
     1
 90
        1
176
     1
 40
1.0
176
     1
 90
        0
176
     1
 62
   257
176
     1
 40
1.0
176
     1
 90
        1
176
     1
 90
        6
176
     1
 90
        2
176
     1
 62
     7
176
     1
 90
        5
176
     1
 90
        0
176
     1
 90
        0
176
     1
290
     0
176
     1
 90
       13
176
     1
 40
0.0
176
     1
 90
        0
176
     1
290
     0
176
     1
290
     1
176
     1
290
     1
176
     1
290
     0
176
     1
290
     0
176
     1
290
     0
176
     1
290
     0
176
     1
290
     0
176
     1
290
     0
176
     1
 90
       50
176
     1
 40
0.0
176
     1
 40
1.0
176
     1
 90
        0
176
     1
 62
    18
420
        0
176
     1
 90
       50
176
     1
 90
        3
176
     1
 62
     5
420
      255
176
     1
290
     0
176
     1
 90
       50
176
     1
 90
       50
176
     1
 90
       50
176
     1
290
     0
176
     1
 90
       50
176
     1
 62
   256
176
     0
 40
1.0
176
     0
 90
        2
176
     1
  1
strokes_ogs.tif
176
     1
290
     0
176
     1
 40
1.0
176
     1
 40
1.0
176
     1
  0
VISUALSTYLE
  5
2D
102
{ACAD_REACTORS
330
2A
102
}
330
2A
100
AcDbVisualStyle
  2
Gouraud
 70
     2
177
     3
291
     1
 70
    58
 90
        2
176
     1
 90
        2
176
     1
 90
        1
176
     1
 90
        2
176
     1
 40
0.6
176
     1
 40
30.0
176
     1
 62
     7
420
 16777215
176
     1
 90
        0
176
     1
 90
        0
176
     1
 62
     7
176
     1
 62
   257
176
     1
 90
        1
176
     1
 90
        1
176
     1
 40
1.0
176
     1
 90
        0
176
     1
 62
     7
176
     1
 40
1.0
176
     1
 90
        1
176
     1
 90
        6
176
     1
 90
        2
176
     1
 62
     7
176
     1
 90
        5
176
     1
 90
        0
176
     1
 90
        0
176
     1
290
     0
176
     1
 90
       13
176
     1
 40
0.0
176
     1
 90
        0
176
     1
290
     0
176
     1
290
     1
176
     1
290
     1
176
     1
290
     0
176
     1
290
     0
176
     1
290
     0
176
     1
290
     0
176
     1
290
     0
176
     1
290
     0
176
     1
 90
       50
176
     1
 40
0.0
176
     1
 40
1.0
176
     1
 90
        0
176
     1
 62
    18
420
        0
176
     1
 90
       50
176
     1
 90
        3
176
     1
 62
     5
420
      255
176
     1
290
     0
176
     1
 90
       50
176
     1
 90
       50
176
     1
 90
       50
176
     1
290
     0
176
     1
 90
       50
176
     1
 62
   256
176
     0
 40
1.0
176
     0
 90
        2
176
     1
  1
strokes_ogs.tif
176
     1
290
     0
176
     1
 40
1.0
176
     1
 40
1.0
176
     1
  0
VISUALSTYLE
  5
2E
102
{ACAD_REACTORS
330
2A
102
}
330
2A
100
AcDbVisualStyle
  2
GouraudWithEdges
 70
     3
177
     3
291
     1
 70
    58
 90
        2
176
     1
 90
        2
176
     1
 90
        1
176
     1
 90
        2
176
     1
 40
0.6
176
     1
 40
30.0
176
     1
 62
     7
420
 16777215
176
     1
 90
        1
176
     1
 90
        0
176
     1
 62
     7
176
     1
 62
   257
176
     1
 90
        1
176
     1
 90
        1
176
     1
 40
1.0
176
     1
 90
        0
176
     1
 62
   257
176
     1
 40
1.0
176
     1
 90
        1
176
     1
 90
        6
176
     1
 90
        2
176
     1
 62
     7
176
     1
 90
        5
176
     1
 90
        0
176
     1
 90
        0
176
     1
290
     0
176
     1
 90
       13
176
     1
 40
0.0
176
     1
 90
        0
176
     1
290
     0
176
     1
290
     1
176
     1
290
     1
176
     1
290
     0
176
     1
290
     0
176
     1
290
     0
176
     1
290
     0
176
     1
290
     0
176
     1
290
     0
176
     1
 90
       50
176
     1
 40
0.0
176
     1
 40
1.0
176
     1
 90
        0
176
     1
 62
    18
420
        0
176
     1
 90
       50
176
     1
 90
        3
176
     1
 62
     5
420
      255
176
     1
290
     0
176
     1
 90
       50
176
     1
 90
       50
176
     1
 90
       50
176
     1
290
     0
176
     1
 90
       50
176
     1
 62
   256
176
     0
 40
1.0
176
     0
 90
        2
176
     1
  1
strokes_ogs.tif
176
     1
290
     0
176
     1
 40
1.0
176
     1
 40
1.0
176
     1
  0
VISUALSTYLE
  5
31
102
{ACAD_REACTORS
330
2A
102
}
330
2A
100
AcDbVisualStyle
  2
Hidden
 70
     6
177
     3
291
     0
 70
    58
 90
        1
176
     1
 90
        2
176
     1
 90
        2
176
     1
 90
        0
176
     1
 40
0.6
176
     1
 40
30.0
176
     1
 62
     7
420
 16777215
176
     1
 90
        2
176
     1
 90
        2
176
     1
 62
     7
176
     1
 62
   257
176
     1
 90
        2
176
     1
 90
        1
176
     1
 40
40.0
176
     1
 90
        0
176
     1
 62
   257
176
     1
 40
1.0
176
     1
 90
        1
176
     1
 90
        6
176
     1
 90
        2
176
     1
 62
     7
176
     1
 90
        3
176
     1
 90
        0
176
     1
 90
        0
176
     1
290
     0
176
     1
 90
        1
176
     1
 40
0.0
176
     1
 90
        0
176
     1
290
     0
176
     1
290
     1
176
     1
290
     1
176
     1
290
     0
176
     1
290
     0
176
     1
290
     0
176
     1
290
     0
176
     1
290
     0
176
     1
290
     0
176
     1
 90
       50
176
     1
 40
0.0
176
     1
 40
1.0
176
     1
 90
        0
176
     1
 62
    18
420
        0
176
     1
 90
       50
176
     1
 90
        3
176
     1
 62
     5
420
      255
176
     1
290
     0
176
     1
 90
       50
176
     1
 90
       50
176
     1
 90
       50
176
     1
290
     0
176
     1
 90
       50
176
     1
 62
   256
176
     0
 40
1.0
176
     0
 90
        2
176
     1
  1
strokes_ogs.tif
176
     1
290
     0
176
     1
 40
1.0
176
     1
 40
1.0
176
     1
  0
VISUALSTYLE
  5
3B
102
{ACAD_REACTORS
330
2A
102
}
330
2A
100
AcDbVisualStyle
  2
JitterOff
 70
    20
177
     3
291
     1
 70
    58
 90
        2
176
     0
 90
        2
176
     0
 90
        0
176
     0
 90
        0
176
     0
 40
0.6
176
     0
 40
30.0
176
     0
 62
     7
420
 16777215
176
     0
 90
        1
176
     0
 90
        4
176
     0
 62
     7
176
     0
 62
   257
176
     0
 90
        1
176
     0
 90
        1
176
     0
 40
1.0
176
     0
 90
       10
176
     2
 62
     7
176
     0
 40
1.0
176
     0
 90
        1
176
     0
 90
        6
176
     0
 90
        2
176
     0
 62
     7
176
     0
 90
        5
176
     0
 90
        0
176
     0
 90
        0
176
     0
290
     0
176
     0
 90
        1
176
     0
 40
0.0
176
     0
 90
        0
176
     0
290
     0
176
     0
290
     1
176
     0
290
     1
176
     0
290
     0
176
     0
290
     0
176
     0
290
     0
176
     0
290
     0
176
     0
290
     0
176
     0
290
     0
176
     0
 90
       50
176
     0
 40
0.0
176
     0
 40
1.0
176
     0
 90
        0
176
     0
 62
    18
420
        0
176
     0
 90
       50
176
     0
 90
        3
176
     0
 62
     5
420
      255
176
     0
290
     0
176
     0
 90
       50
176
     0
 90
       50
176
     0
 90
       50
176
     0
290
     0
176
     0
 90
       50
176
     0
 62
   256
176
     0
 40
1.0
176
     0
 90
        2
176
     0
  1
strokes_ogs.tif
176
     0
290
     0
176
     0
 40
1.0
176
     0
 40
1.0
176
     0
  0
VISUALSTYLE
  5
38
102
{ACAD_REACTORS
330
2A
102
}
330
2A
100
AcDbVisualStyle
  2
Linepattern
 70
    14
177
     3
291
     1
 70
    58
 90
        2
176
     1
 90
        2
176
     1
 90
        0
176
     1
 90
        0
176
     1
 40
0.6
176
     1
 40
30.0
176
     1
 62
     7
420
 16777215
176
     1
 90
        1
176
     1
 90
        4
176
     1
 62
     7
176
     1
 62
   257
176
     1
 90
        7
176
     1
 90
        7
176
     1
 40
1.0
176
     1
 90
        8
176
     1
 62
     7
176
     1
 40
1.0
176
     1
 90
        1
176
     1
 90
        6
176
     1
 90
        2
176
     1
 62
     7
176
     1
 90
        5
176
     1
 90
        0
176
     1
 90
        0
176
     1
290
     0
176
     1
 90
        1
176
     1
 40
0.0
176
     1
 90
        0
176
     1
290
     0
176
     1
290
     1
176
     1
290
     1
176
     1
290
     0
176
     1
290
     0
176
     1
290
     0
176
     1
290
     0
176
     1
290
     0
176
     1
290
     0
176
     1
 90
       50
176
     1
 40
0.0
176
     1
 40
1.0
176
     1
 90
        0
176
     1
 62
    18
420
        0
176
     1
 90
       50
176
     1
 90
        3
176
     1
 62
     5
420
      255
176
     1
290
     0
176
     1
 90
       50
176
     1
 90
       50
176
     1
 90
       50
176
     1
290
     0
176
     1
 90
       50
176
     1
 62
   256
176
     0
 40
1.0
176
     0
 90
        2
176
     1
  1
strokes_ogs.tif
176
     1
290
     0
176
     1
 40
1.0
176
     1
 40
1.0
176
     1
  0
VISUALSTYLE
  5
3C
102
{ACAD_REACTORS
330
2A
102
}
330
2A
100
AcDbVisualStyle
  2
OverhangOff
 70
    21
177
     3
291
     1
 70
    58
 90
        2
176
     0
 90
        2
176
     0
 90
        0
176
     0
 90
        0
176
     0
 40
0.6
176
     0
 40
30.0
176
     0
 62
     7
420
 16777215
176
     0
 90
        1
176
     0
 90
        4
176
     0
 62
     7
176
     0
 62
   257
176
     0
 90
        1
176
     0
 90
        1
176
     0
 40
1.0
176
     0
 90
        9
176
     2
 62
     7
176
     0
 40
1.0
176
     0
 90
        1
176
     0
 90
        6
176
     0
 90
        2
176
     0
 62
     7
176
     0
 90
        5
176
     0
 90
        0
176
     0
 90
        0
176
     0
290
     0
176
     0
 90
        1
176
     0
 40
0.0
176
     0
 90
        0
176
     0
290
     0
176
     0
290
     1
176
     0
290
     1
176
     0
290
     0
176
     0
290
     0
176
     0
290
     0
176
     0
290
     0
176
     0
290
     0
176
     0
290
     0
176
     0
 90
       50
176
     0
 40
0.0
176
     0
 40
1.0
176
     0
 90
        0
176
     0
 62
    18
420
        0
176
     0
 90
       50
176
     0
 90
        3
176
     0
 62
     5
420
      255
176
     0
290
     0
176
     0
 90
       50
176
     0
 90
       50
176
     0
 90
       50
176
     0
290
     0
176
     0
 90
       50
176
     0
 62
   256
176
     0
 40
1.0
176
     0
 90
        2
176
     0
  1
strokes_ogs.tif
176
     0
290
     0
176
     0
 40
1.0
176
     0
 40
1.0
176
     0
  0
VISUALSTYLE
  5
33
102
{ACAD_REACTORS
330
2A
102
}
330
2A
100
AcDbVisualStyle
  2
Realistic
 70
     8
177
     3
291
     0
 70
    58
 90
        2
176
     1
 90
        3
176
     1
 90
        0
176
     1
 90
        2
176
     1
 40
0.6
176
     1
 40
30.0
176
     1
 62
     7
420
 16777215
176
     1
 90
        0
176
     1
 90
        0
176
     1
 62
     7
176
     1
 62
   257
176
     1
 90
        1
176
     1
 90
        1
176
     1
 40
1.0
176
     1
 90
        8
176
     1
 62
   257
176
     1
 40
1.0
176
     1
 90
        1
176
     1
 90
        6
176
     1
 90
        2
176
     1
 62
     7
176
     1
 90
        3
176
     1
 90
        0
176
     1
 90
        0
176
     1
290
     0
176
     1
 90
       13
176
     1
 40
0.0
176
     1
 90
        0
176
     1
290
     0
176
     1
290
     1
176
     1
290
     1
176
     1
290
     0
176
     1
290
     0
176
     1
290
     0
176
     1
290
     0
176
     1
290
     0
176
     1
290
     0
176
     1
 90
       50
176
     1
 40
0.0
176
     1
 40
1.0
176
     1
 90
        0
176
     1
 62
    18
420
        0
176
     1
 90
       50
176
     1
 90
        3
176
     1
 62
     5
420
      255
176
     1
290
     0
176
     1
 90
       50
176
     1
 90
       50
176
     1
 90
       50
176
     1
290
     0
176
     1
 90
       50
176
     1
 62
   256
176
     0
 40
1.0
176
     0
 90
        2
176
     1
  1
strokes_ogs.tif
176
     1
290
     0
176
     1
 40
1.0
176
     1
 40
1.0
176
     1
  0
VISUALSTYLE
  5
42
102
{ACAD_REACTORS
330
2A
102
}
330
2A
100
AcDbVisualStyle
  2
Shaded
 70
    27
177
     3
291
     0
 70
    58
 90
        2
176
     1
 90
        2
176
     1
 90
        1
176
     1
 90
        2
176
     1
 40
0.6
176
     1
 40
30.0
176
     1
 62
     7
420
 16777215
176
     1
 90
        0
176
     1
 90
        4
176
     1
 62
     7
176
     1
 62
   257
176
     1
 90
        1
176
     1
 90
        1
176
     1
 40
1.0
176
     1
 90
        8
176
     1
 62
   257
176
     1
 40
1.0
176
     1
 90
        1
176
     1
 90
        6
176
     1
 90
        2
176
     1
 62
     8
420
  7895160
176
     1
 90
        3
176
     1
 90
        0
176
     1
 90
        0
176
     1
290
     0
176
     1
 90
        5
176
     1
 40
0.0
176
     1
 90
        0
176
     1
290
     0
176
     1
290
     1
176
     1
290
     1
176
     1
290
     0
176
     1
290
     0
176
     1
290
     0
176
     1
290
     0
176
     1
290
     0
176
     1
290
     0
176
     1
 90
       50
176
     1
 40
0.0
176
     1
 40
1.0
176
     1
 90
        0
176
     1
 62
    18
420
        0
176
     1
 90
       50
176
     1
 90
        3
176
     1
 62
     5
420
      255
176
     1
290
     0
176
     1
 90
       50
176
     1
 90
       50
176
     1
 90
       50
176
     1
290
     0
176
     1
 90
       50
176
     1
 62
   256
176
     0
 40
1.0
176
     0
 90
        2
176
     1
  1
strokes_ogs.tif
176
     1
290
     0
176
     1
 40
1.0
176
     1
 40
1.0
176
     1
  0
VISUALSTYLE
  5
41
102
{ACAD_REACTORS
330
2A
102
}
330
2A
100
AcDbVisualStyle
  2
Shaded with edges
 70
    26
177
     3
291
     0
 70
    58
 90
        2
176
     1
 90
        2
176
     1
 90
        1
176
     1
 90
        2
176
     1
 40
0.6
176
     1
 40
30.0
176
     1
 62
     7
420
 16777215
176
     1
 90
        1
176
     1
 90
       10
176
     1
 62
     7
176
     1
 62
   257
176
     1
 90
        2
176
     1
 90
        1
176
     1
 40
1.0
176
     1
 90
        8
176
     1
 62
   257
176
     1
 40
1.0
176
     1
 90
        1
176
     1
 90
        6
176
     1
 90
        2
176
     1
 62
     7
176
     1
 90
        3
176
     1
 90
        0
176
     1
 90
        0
176
     1
290
     0
176
     1
 90
        5
176
     1
 40
0.0
176
     1
 90
        0
176
     1
290
     0
176
     1
290
     1
176
     1
290
     1
176
     1
290
     0
176
     1
290
     0
176
     1
290
     0
176
     1
290
     0
176
     1
290
     0
176
     1
290
     0
176
     1
 90
       50
176
     1
 40
0.0
176
     1
 40
1.0
176
     1
 90
        0
176
     1
 62
    18
420
        0
176
     1
 90
       50
176
     1
 90
        3
176
     1
 62
     5
420
      255
176
     1
290
     0
176
     1
 90
       50
176
     1
 90
       50
176
     1
 90
       50
176
     1
290
     0
176
     1
 90
       50
176
     1
 62
   256
176
     0
 40
1.0
176
     0
 90
        2
176
     1
  1
strokes_ogs.tif
176
     1
290
     0
176
     1
 40
1.0
176
     1
 40
1.0
176
     1
  0
VISUALSTYLE
  5
3E
102
{ACAD_REACTORS
330
2A
102
}
330
2A
100
AcDbVisualStyle
  2
Shades of Gray
 70
    23
177
     3
291
     0
 70
    58
 90
        2
176
     1
 90
        2
176
     1
 90
        3
176
     1
 90
        0
176
     1
 40
0.6
176
     1
 40
30.0
176
     1
 62
     7
420
 16777215
176
     1
 90
        2
176
     1
 90
        2
176
     1
 62
     7
176
     1
 62
     7
176
     1
 90
        1
176
     1
 90
        1
176
     1
 40
40.0
176
     1
 90
        8
176
     1
 62
     7
176
     1
 40
1.0
176
     1
 90
        1
176
     1
 90
        6
176
     1
 90
        2
176
     1
 62
     7
176
     1
 90
        3
176
     1
 90
        0
176
     1
 90
        0
176
     1
290
     0
176
     1
 90
        1
176
     1
 40
0.0
176
     1
 90
        0
176
     1
290
     0
176
     1
290
     1
176
     1
290
     1
176
     1
290
     0
176
     1
290
     0
176
     1
290
     0
176
     1
290
     0
176
     1
290
     0
176
     1
290
     0
176
     1
 90
       50
176
     1
 40
0.0
176
     1
 40
1.0
176
     1
 90
        0
176
     1
 62
    18
420
        0
176
     1
 90
       50
176
     1
 90
        3
176
     1
 62
     5
420
      255
176
     1
290
     0
176
     1
 90
       50
176
     1
 90
       50
176
     1
 90
       50
176
     1
290
     0
176
     1
 90
       50
176
     1
 62
   256
176
     0
 40
1.0
176
     0
 90
        2
176
     1
  1
strokes_ogs.tif
176
     1
290
     0
176
     1
 40
1.0
176
     1
 40
1.0
176
     1
  0
VISUALSTYLE
  5
3F
102
{ACAD_REACTORS
330
2A
102
}
330
2A
100
AcDbVisualStyle
  2
Sketchy
 70
    24
177
     3
291
     0
 70
    58
 90
        1
176
     1
 90
        2
176
     1
 90
        2
176
     1
 90
        0
176
     1
 40
0.6
176
     1
 40
30.0
176
     1
 62
     7
420
 16777215
176
     1
 90
        2
176
     1
 90
        2
176
     1
 62
     7
176
     1
 62
     7
176
     1
 90
        1
176
     1
 90
        1
176
     1
 40
40.0
176
     1
 90
       11
176
     1
 62
     7
176
     1
 40
1.0
176
     1
 90
        1
176
     1
 90
        6
176
     1
 90
        2
176
     1
 62
     7
176
     1
 90
        6
176
     1
 90
        0
176
     1
 90
        0
176
     1
290
     0
176
     1
 90
        1
176
     1
 40
0.0
176
     1
 90
        0
176
     1
290
     0
176
     1
290
     1
176
     1
290
     1
176
     1
290
     0
176
     1
290
     0
176
     1
290
     0
176
     1
290
     0
176
     1
290
     0
176
     1
290
     0
176
     1
 90
       50
176
     1
 40
0.0
176
     1
 40
1.0
176
     1
 90
        0
176
     1
 62
    18
420
        0
176
     1
 90
       50
176
     1
 90
        3
176
     1
 62
     5
420
      255
176
     1
290
     0
176
     1
 90
       50
176
     1
 90
       50
176
     1
 90
       50
176
     1
290
     0
176
     1
 90
       50
176
     1
 62
   256
176
     0
 40
1.0
176
     0
 90
        2
176
     1
  1
strokes_ogs.tif
176
     1
290
     0
176
     1
 40
1.0
176
     1
 40
1.0
176
     1
  0
VISUALSTYLE
  5
37
102
{ACAD_REACTORS
330
2A
102
}
330
2A
100
AcDbVisualStyle
  2
Thicken
 70
    13
177
     3
291
     1
 70
    58
 90
        2
176
     1
 90
        2
176
     1
 90
        0
176
     1
 90
        0
176
     1
 40
0.6
176
     1
 40
30.0
176
     1
 62
     7
420
 16777215
176
     1
 90
        1
176
     1
 90
        4
176
     1
 62
     7
176
     1
 62
   257
176
     1
 90
        1
176
     1
 90
        1
176
     1
 40
1.0
176
     1
 90
       12
176
     1
 62
     7
176
     1
 40
1.0
176
     1
 90
        1
176
     1
 90
        6
176
     1
 90
        2
176
     1
 62
     7
176
     1
 90
        5
176
     1
 90
        0
176
     1
 90
        0
176
     1
290
     0
176
     1
 90
        1
176
     1
 40
0.0
176
     1
 90
        0
176
     1
290
     0
176
     1
290
     1
176
     1
290
     1
176
     1
290
     0
176
     1
290
     0
176
     1
290
     0
176
     1
290
     0
176
     1
290
     0
176
     1
290
     0
176
     1
 90
       50
176
     1
 40
0.0
176
     1
 40
1.0
176
     1
 90
        0
176
     1
 62
    18
420
        0
176
     1
 90
       50
176
     1
 90
        3
176
     1
 62
     5
420
      255
176
     1
290
     0
176
     1
 90
       50
176
     1
 90
       50
176
     1
 90
       50
176
     1
290
     0
176
     1
 90
       50
176
     1
 62
   256
176
     0
 40
1.0
176
     0
 90
        2
176
     1
  1
strokes_ogs.tif
176
     1
290
     0
176
     1
 40
1.0
176
     1
 40
1.0
176
     1
  0
VISUALSTYLE
  5
30
102
{ACAD_REACTORS
330
2A
102
}
330
2A
100
AcDbVisualStyle
  2
Wireframe
 70
     5
177
     3
291
     0
 70
    58
 90
        0
176
     1
 90
        2
176
     1
 90
        0
176
     1
 90
        0
176
     1
 40
0.6
176
     1
 40
30.0
176
     1
 62
     7
420
 16777215
176
     1
 90
        1
176
     1
 90
        4
176
     1
 62
     7
176
     1
 62
   257
176
     1
 90
        1
176
     1
 90
        1
176
     1
 40
1.0
176
     1
 90
        0
176
     1
 62
   257
176
     1
 40
1.0
176
     1
 90
        1
176
     1
 90
        6
176
     1
 90
        2
176
     1
 62
     7
176
     1
 90
        3
176
     1
 90
        0
176
     1
 90
        0
176
     1
290
     0
176
     1
 90
        1
176
     1
 40
0.0
176
     1
 90
        0
176
     1
290
     0
176
     1
290
     1
176
     1
290
     1
176
     1
290
     0
176
     1
290
     0
176
     1
290
     0
176
     1
290
     0
176
     1
290
     0
176
     1
290
     0
176
     1
 90
       50
176
     1
 40
0.0
176
     1
 40
1.0
176
     1
 90
        0
176
     1
 62
    18
420
        0
176
     1
 90
       50
176
     1
 90
        3
176
     1
 62
     5
420
      255
176
     1
290
     0
176
     1
 90
       50
176
     1
 90
       50
176
     1
 90
       50
176
     1
290
     0
176
     1
 90
       50
176
     1
 62
   256
176
     0
 40
1.0
176
     0
 90
        2
176
     1
  1
strokes_ogs.tif
176
     1
290
     0
176
     1
 40
1.0
176
     1
 40
1.0
176
     1
  0
VISUALSTYLE
  5
40
102
{ACAD_REACTORS
330
2A
102
}
330
2A
100
AcDbVisualStyle
  2
X-Ray
 70
    25
177
     3
291
     0
 70
    58
 90
        2
176
     1
 90
        2
176
     1
 90
        1
176
     1
 90
        1
176
     1
 40
0.5
176
     1
 40
30.0
176
     1
 62
     7
420
 16777215
176
     1
 90
        1
176
     1
 90
        0
176
     1
 62
     7
176
     1
 62
   257
176
     1
 90
        1
176
     1
 90
        1
176
     1
 40
1.0
176
     1
 90
        8
176
     1
 62
     7
176
     1
 40
1.0
176
     1
 90
        1
176
     1
 90
        6
176
     1
 90
        2
176
     1
 62
     7
176
     1
 90
        3
176
     1
 90
        0
176
     1
 90
        0
176
     1
290
     0
176
     1
 90
       13
176
     1
 40
0.0
176
     1
 90
        0
176
     1
290
     0
176
     1
290
     1
176
     1
290
     1
176
     1
290
     0
176
     1
290
     0
176
     1
290
     0
176
     1
290
     0
176
     1
290
     0
176
     1
290
     0
176
     1
 90
       50
176
     1
 40
0.0
176
     1
 40
1.0
176
     1
 90
        0
176
     1
 62
    18
420
        0
176
     1
 90
       50
176
     1
 90
        3
176
     1
 62
     5
420
      255
176
     1
290
     0
176
     1
 90
       50
176
     1
 90
       50
176
     1
 90
       50
176
     1
290
     0
176
     1
 90
       50
176
     1
 62
   256
176
     0
 40
1.0
176
     0
 90
        2
176
     1
  1
strokes_ogs.tif
176
     1
290
     0
176
     1
 40
1.0
176
     1
 40
1.0
176
     1
  0
DICTIONARYVAR
  5
1C2
102
{ACAD_REACTORS
330
1C1
102
}
330
1C1
100
DictionaryVariables
280
     0
  1
1:1
  0
DICTIONARYVAR
  5
1C7
102
{ACAD_REACTORS
330
1C1
102
}
330
1C1
100
DictionaryVariables
280
     0
  1
Standard
  0
DICTIONARYVAR
  5
1C6
102
{ACAD_REACTORS
330
1C1
102
}
330
1C1
100
DictionaryVariables
280
     0
  1
Standard
  0
DICTIONARY
  5
1C3
330
6A
100
AcDbDictionary
280
     1
281
     1
  3
ACAD_ROUNDTRIP_2008_TABLESTYLE_CELLSTYLEMAP
360
1C4
  0
CELLSTYLEMAP
  5
1C4
102
{ACAD_REACTORS
330
1C3
102
}
330
1C3
100
AcDbCellStyleMap
 90
        3
300
CELLSTYLE
  1
TABLEFORMAT_BEGIN
 90
        5
170
     1
 91
        0
 92
    32768
 62
   257
 93
        1
300
CONTENTFORMAT
  1
CONTENTFORMAT_BEGIN
 90
        0
 91
        0
 92
        4
 93
        0
300

 40
0.0
140
1.0
 94
        5
 62
     0
340
11
144
6.0
309
CONTENTFORMAT_END
171
     1
301
MARGIN
  1
CELLMARGIN_BEGIN
 40
1.5
 40
1.5
 40
1.5
 40
1.5
 40
1.5
 40
1.5
309
CELLMARGIN_END
 94
        6
 95
        1
302
GRIDFORMAT
  1
GRIDFORMAT_BEGIN
 90
        0
 91
        1
 62
     0
 92
       -2
340
14
 93
        0
 40
0.045
309
GRIDFORMAT_END
 95
        2
302
GRIDFORMAT
  1
GRIDFORMAT_BEGIN
 90
        0
 91
        1
 62
     0
 92
       -2
340
14
 93
        0
 40
0.045
309
GRIDFORMAT_END
 95
        4
302
GRIDFORMAT
  1
GRIDFORMAT_BEGIN
 90
        0
 91
        1
 62
     0
 92
       -2
340
14
 93
        0
 40
0.045
309
GRIDFORMAT_END
 95
        8
302
GRIDFORMAT
  1
GRIDFORMAT_BEGIN
 90
        0
 91
        1
 62
     0
 92
       -2
340
14
 93
        0
 40
0.045
309
GRIDFORMAT_END
 95
       16
302
GRIDFORMAT
  1
GRIDFORMAT_BEGIN
 90
        0
 91
        1
 62
     0
 92
       -2
340
14
 93
        0
 40
0.045
309
GRIDFORMAT_END
 95
       32
302
GRIDFORMAT
  1
GRIDFORMAT_BEGIN
 90
        0
 91
        1
 62
     0
 92
       -2
340
14
 93
        0
 40
0.045
309
GRIDFORMAT_END
309
TABLEFORMAT_END
  1
CELLSTYLE_BEGIN
 90
        1
 91
        1
300
_TITLE
309
CELLSTYLE_END
300
CELLSTYLE
  1
TABLEFORMAT_BEGIN
 90
        5
170
     1
 91
        0
 92
        0
 62
   257
 93
        1
300
CONTENTFORMAT
  1
CONTENTFORMAT_BEGIN
 90
        0
 91
        0
 92
        4
 93
        0
300

 40
0.0
140
1.0
 94
        5
 62
     0
340
11
144
4.5
309
CONTENTFORMAT_END
171
     1
301
MARGIN
  1
CELLMARGIN_BEGIN
 40
1.5
 40
1.5
 40
1.5
 40
1.5
 40
1.5
 40
1.5
309
CELLMARGIN_END
 94
        6
 95
        1
302
GRIDFORMAT
  1
GRIDFORMAT_BEGIN
 90
        0
 91
        1
 62
     0
 92
       -2
340
14
 93
        0
 40
0.045
309
GRIDFORMAT_END
 95
        2
302
GRIDFORMAT
  1
GRIDFORMAT_BEGIN
 90
        0
 91
        1
 62
     0
 92
       -2
340
14
 93
        0
 40
0.045
309
GRIDFORMAT_END
 95
        4
302
GRIDFORMAT
  1
GRIDFORMAT_BEGIN
 90
        0
 91
        1
 62
     0
 92
       -2
340
14
 93
        0
 40
0.045
309
GRIDFORMAT_END
 95
        8
302
GRIDFORMAT
  1
GRIDFORMAT_BEGIN
 90
        0
 91
        1
 62
     0
 92
       -2
340
14
 93
        0
 40
0.045
309
GRIDFORMAT_END
 95
       16
302
GRIDFORMAT
  1
GRIDFORMAT_BEGIN
 90
        0
 91
        1
 62
     0
 92
       -2
340
14
 93
        0
 40
0.045
309
GRIDFORMAT_END
 95
       32
302
GRIDFORMAT
  1
GRIDFORMAT_BEGIN
 90
        0
 91
        1
 62
     0
 92
       -2
340
14
 93
        0
 40
0.045
309
GRIDFORMAT_END
309
TABLEFORMAT_END
  1
CELLSTYLE_BEGIN
 90
        2
 91
        1
300
_HEADER
309
CELLSTYLE_END
300
CELLSTYLE
  1
TABLEFORMAT_BEGIN
 90
        5
170
     1
 91
        0
 92
        0
 62
   257
 93
        1
300
CONTENTFORMAT
  1
CONTENTFORMAT_BEGIN
 90
        0
 91
        0
 92
        4
 93
        0
300

 40
0.0
140
1.0
 94
        2
 62
     0
340
11
144
4.5
309
CONTENTFORMAT_END
171
     1
301
MARGIN
  1
CELLMARGIN_BEGIN
 40
1.5
 40
1.5
 40
1.5
 40
1.5
 40
1.5
 40
1.5
309
CELLMARGIN_END
 94
        6
 95
        1
302
GRIDFORMAT
  1
GRIDFORMAT_BEGIN
 90
        0
 91
        1
 62
     0
 92
       -2
340
14
 93
        0
 40
0.045
309
GRIDFORMAT_END
 95
        2
302
GRIDFORMAT
  1
GRIDFORMAT_BEGIN
 90
        0
 91
        1
 62
     0
 92
       -2
340
14
 93
        0
 40
0.045
309
GRIDFORMAT_END
 95
        4
302
GRIDFORMAT
  1
GRIDFORMAT_BEGIN
 90
        0
 91
        1
 62
     0
 92
       -2
340
14
 93
        0
 40
0.045
309
GRIDFORMAT_END
 95
        8
302
GRIDFORMAT
  1
GRIDFORMAT_BEGIN
 90
        0
 91
        1
 62
     0
 92
       -2
340
14
 93
        0
 40
0.045
309
GRIDFORMAT_END
 95
       16
302
GRIDFORMAT
  1
GRIDFORMAT_BEGIN
 90
        0
 91
        1
 62
     0
 92
       -2
340
14
 93
        0
 40
0.045
309
GRIDFORMAT_END
 95
       32
302
GRIDFORMAT
  1
GRIDFORMAT_BEGIN
 90
        0
 91
        1
 62
     0
 92
       -2
340
14
 93
        0
 40
0.045
309
GRIDFORMAT_END
309
TABLEFORMAT_END
  1
CELLSTYLE_BEGIN
 90
        3
 91
        2
300
_DATA
309
CELLSTYLE_END
  0
ENDSEC
  0
EOF