0
SECTION
  2
HEADER
  9
$ACADVER
  1
AC1027
  9
$ACADMAINTVER
 70
     8
  9
$DWGCODEPAGE
  3
ANSI_1252
  9
$REQUIREDVERSIONS
160
                 0
  9
$COMMENTS
  1
File was created by Cadenas
  9
$CUSTOMPROPERTYTAG
  1
NN
  9
$CUSTOMPROPERTY
  1
Eccentric Collar Two-Bolt Piloted Flange Metric Bore
  9
$CUSTOMPROPERTYTAG
  1
NT
  9
$CUSTOMPROPERTY
  1
Eccentric Collar 2 Bolt Piloted Flange Bearings -(Normal Duty)
  9
$CUSTOMPROPERTYTAG
  1
NB
  9
$CUSTOMPROPERTY
  1
130832
  9
$CUSTOMPROPERTYTAG
  1
NBSYN
  9
$CUSTOMPROPERTY
  1
$PN.
  9
$CUSTOMPROPERTYTAG
  1
LINA
  9
$CUSTOMPROPERTY
  1
130832
  9
$CUSTOMPROPERTYTAG
  1
SERIES
  9
$CUSTOMPROPERTY
  1
205
  9
$CUSTOMPROPERTYTAG
  1
SS
  9
$CUSTOMPROPERTY
  1
25
  9
$CUSTOMPROPERTYTAG
  1
PN
  9
$CUSTOMPROPERTY
  1
130832
  9
$CUSTOMPROPERTYTAG
  1
DESCRIPTION
  9
$CUSTOMPROPERTY
  1
F2BZ-SXR-25M
  9
$CUSTOMPROPERTYTAG
  1
W
  9
$CUSTOMPROPERTY
  1
0.7
  9
$CUSTOMPROPERTYTAG
  1
A
  9
$CUSTOMPROPERTY
  1
41.1
  9
$CUSTOMPROPERTYTAG
  1
B
  9
$CUSTOMPROPERTY
  1
124.0
  9
$CUSTOMPROPERTYTAG
  1
C
  9
$CUSTOMPROPERTY
  1
45.5
  9
$CUSTOMPROPERTYTAG
  1
D
  9
$CUSTOMPROPERTY
  1
98.8
  9
$CUSTOMPROPERTYTAG
  1
E
  9
$CUSTOMPROPERTY
  1
3.6
  9
$CUSTOMPROPERTYTAG
  1
F
  9
$CUSTOMPROPERTY
  1
M10
  9
$CUSTOMPROPERTYTAG
  1
G
  9
$CUSTOMPROPERTY
  1
41.9
  9
$CUSTOMPROPERTYTAG
  1
H
  9
$CUSTOMPROPERTY
  1
13.2
  9
$CUSTOMPROPERTYTAG
  1
J
  9
$CUSTOMPROPERTY
  1
17.8
  9
$CUSTOMPROPERTYTAG
  1
K
  9
$CUSTOMPROPERTY
  1
59.99/59.94
  9
$CUSTOMPROPERTYTAG
  1
L
  9
$CUSTOMPROPERTY
  1
38.1
  9
$CUSTOMPROPERTYTAG
  1
M
  9
$CUSTOMPROPERTY
  1
69.9
  9
$CUSTOMPROPERTYTAG
  1
N
  9
$CUSTOMPROPERTY
  1
36.6
  9
$CUSTOMPROPERTYTAG
  1
COMPANY
  9
$CUSTOMPROPERTY
  1
baldor
  9
$INSBASE
 10
0.0
 20
0.0
 30
0.0
  9
$EXTMIN
 10
1.000000000000000E+20
 20
1.000000000000000E+20
 30
1.000000000000000E+20
  9
$EXTMAX
 10
-1.000000000000000E+20
 20
-1.000000000000000E+20
 30
-1.000000000000000E+20
  9
$LIMMIN
 10
0.0
 20
0.0
  9
$LIMMAX
 10
420.0
 20
297.0
  9
$ORTHOMODE
 70
     0
  9
$REGENMODE
 70
     1
  9
$FILLMODE
 70
     1
  9
$QTEXTMODE
 70
     0
  9
$MIRRTEXT
 70
     1
  9
$LTSCALE
 40
1.0
  9
$ATTMODE
 70
     1
  9
$TEXTSIZE
 40
2.5
  9
$TRACEWID
 40
1.0
  9
$TEXTSTYLE
  7
Standard
  9
$CLAYER
  8
0
  9
$CELTYPE
  6
ByLayer
  9
$CECOLOR
 62
   256
  9
$CELTSCALE
 40
1.0
  9
$DISPSILH
 70
     0
  9
$DIMSCALE
 40
1.0
  9
$DIMASZ
 40
2.5
  9
$DIMEXO
 40
0.625
  9
$DIMDLI
 40
3.75
  9
$DIMRND
 40
0.0
  9
$DIMDLE
 40
0.0
  9
$DIMEXE
 40
1.25
  9
$DIMTP
 40
0.0
  9
$DIMTM
 40
0.0
  9
$DIMTXT
 40
2.5
  9
$DIMCEN
 40
2.5
  9
$DIMTSZ
 40
0.0
  9
$DIMTOL
 70
     0
  9
$DIMLIM
 70
     0
  9
$DIMTIH
 70
     0
  9
$DIMTOH
 70
     0
  9
$DIMSE1
 70
     0
  9
$DIMSE2
 70
     0
  9
$DIMTAD
 70
     1
  9
$DIMZIN
 70
     8
  9
$DIMBLK
  1

  9
$DIMASO
 70
     1
  9
$DIMSHO
 70
     1
  9
$DIMPOST
  1

  9
$DIMAPOST
  1

  9
$DIMALT
 70
     0
  9
$DIMALTD
 70
     3
  9
$DIMALTF
 40
0.03937007874016
  9
$DIMLFAC
 40
1.0
  9
$DIMTOFL
 70
     1
  9
$DIMTVP
 40
0.0
  9
$DIMTIX
 70
     0
  9
$DIMSOXD
 70
     0
  9
$DIMSAH
 70
     0
  9
$DIMBLK1
  1

  9
$DIMBLK2
  1

  9
$DIMSTYLE
  2
ISO-25
  9
$DIMCLRD
 70
     0
  9
$DIMCLRE
 70
     0
  9
$DIMCLRT
 70
     0
  9
$DIMTFAC
 40
1.0
  9
$DIMGAP
 40
0.625
  9
$DIMJUST
 70
     0
  9
$DIMSD1
 70
     0
  9
$DIMSD2
 70
     0
  9
$DIMTOLJ
 70
     0
  9
$DIMTZIN
 70
     8
  9
$DIMALTZ
 70
     0
  9
$DIMALTTZ
 70
     0
  9
$DIMUPT
 70
     0
  9
$DIMDEC
 70
     2
  9
$DIMTDEC
 70
     2
  9
$DIMALTU
 70
     2
  9
$DIMALTTD
 70
     3
  9
$DIMTXSTY
  7
Standard
  9
$DIMAUNIT
 70
     0
  9
$DIMADEC
 70
     0
  9
$DIMALTRND
 40
0.0
  9
$DIMAZIN
 70
     0
  9
$DIMDSEP
 70
    44
  9
$DIMATFIT
 70
     3
  9
$DIMFRAC
 70
     0
  9
$DIMLDRBLK
  1

  9
$DIMLUNIT
 70
     2
  9
$DIMLWD
 70
    -2
  9
$DIMLWE
 70
    -2
  9
$DIMTMOVE
 70
     0
  9
$DIMFXL
 40
1.0
  9
$DIMFXLON
 70
     0
  9
$DIMJOGANG
 40
0.7853981633974483
  9
$DIMTFILL
 70
     0
  9
$DIMTFILLCLR
 70
     0
  9
$DIMARCSYM
 70
     0
  9
$DIMLTYPE
  6

  9
$DIMLTEX1
  6

  9
$DIMLTEX2
  6

  9
$DIMTXTDIRECTION
 70
     0
  9
$LUNITS
 70
     2
  9
$LUPREC
 70
     4
  9
$SKETCHINC
 40
1.0
  9
$FILLETRAD
 40
10.0
  9
$AUNITS
 70
     0
  9
$AUPREC
 70
     0
  9
$MENU
  1
.
  9
$ELEVATION
 40
0.0
  9
$PELEVATION
 40
0.0
  9
$THICKNESS
 40
0.0
  9
$LIMCHECK
 70
     0
  9
$CHAMFERA
 40
0.0
  9
$CHAMFERB
 40
0.0
  9
$CHAMFERC
 40
0.0
  9
$CHAMFERD
 40
0.0
  9
$SKPOLY
 70
     0
  9
$TDCREATE
 40
2458168.987515602
  9
$TDUCREATE
 40
2458168.945848935
  9
$TDUPDATE
 40
2458168.987515602
  9
$TDUUPDATE
 40
2458168.945848935
  9
$TDINDWG
 40
0.0000000116
  9
$TDUSRTIMER
 40
0.0000000116
  9
$USRTIMER
 70
     1
  9
$ANGBASE
 50
0.0
  9
$ANGDIR
 70
     0
  9
$PDMODE
 70
     0
  9
$PDSIZE
 40
0.0
  9
$PLINEWID
 40
0.0
  9
$SPLFRAME
 70
     0
  9
$SPLINETYPE
 70
     6
  9
$SPLINESEGS
 70
     8
  9
$HANDSEED
  5
1ED
  9
$SURFTAB1
 70
     6
  9
$SURFTAB2
 70
     6
  9
$SURFTYPE
 70
     6
  9
$SURFU
 70
     6
  9
$SURFV
 70
     6
  9
$UCSBASE
  2

  9
$UCSNAME
  2

  9
$UCSORG
 10
0.0
 20
0.0
 30
0.0
  9
$UCSXDIR
 10
1.0
 20
0.0
 30
0.0
  9
$UCSYDIR
 10
0.0
 20
1.0
 30
0.0
  9
$UCSORTHOREF
  2

  9
$UCSORTHOVIEW
 70
     0
  9
$UCSORGTOP
 10
0.0
 20
0.0
 30
0.0
  9
$UCSORGBOTTOM
 10
0.0
 20
0.0
 30
0.0
  9
$UCSORGLEFT
 10
0.0
 20
0.0
 30
0.0
  9
$UCSORGRIGHT
 10
0.0
 20
0.0
 30
0.0
  9
$UCSORGFRONT
 10
0.0
 20
0.0
 30
0.0
  9
$UCSORGBACK
 10
0.0
 20
0.0
 30
0.0
  9
$PUCSBASE
  2

  9
$PUCSNAME
  2

  9
$PUCSORG
 10
0.0
 20
0.0
 30
0.0
  9
$PUCSXDIR
 10
1.0
 20
0.0
 30
0.0
  9
$PUCSYDIR
 10
0.0
 20
1.0
 30
0.0
  9
$PUCSORTHOREF
  2

  9
$PUCSORTHOVIEW
 70
     0
  9
$PUCSORGTOP
 10
0.0
 20
0.0
 30
0.0
  9
$PUCSORGBOTTOM
 10
0.0
 20
0.0
 30
0.0
  9
$PUCSORGLEFT
 10
0.0
 20
0.0
 30
0.0
  9
$PUCSORGRIGHT
 10
0.0
 20
0.0
 30
0.0
  9
$PUCSORGFRONT
 10
0.0
 20
0.0
 30
0.0
  9
$PUCSORGBACK
 10
0.0
 20
0.0
 30
0.0
  9
$USERI1
 70
     0
  9
$USERI2
 70
     0
  9
$USERI3
 70
     0
  9
$USERI4
 70
     0
  9
$USERI5
 70
     0
  9
$USERR1
 40
0.0
  9
$USERR2
 40
0.0
  9
$USERR3
 40
0.0
  9
$USERR4
 40
0.0
  9
$USERR5
 40
0.0
  9
$WORLDVIEW
 70
     1
  9
$SHADEDGE
 70
     3
  9
$SHADEDIF
 70
    70
  9
$TILEMODE
 70
     1
  9
$MAXACTVP
 70
    64
  9
$PINSBASE
 10
0.0
 20
0.0
 30
0.0
  9
$PLIMCHECK
 70
     0
  9
$PEXTMIN
 10
1.000000000000000E+20
 20
1.000000000000000E+20
 30
1.000000000000000E+20
  9
$PEXTMAX
 10
-1.000000000000000E+20
 20
-1.000000000000000E+20
 30
-1.000000000000000E+20
  9
$PLIMMIN
 10
0.0
 20
0.0
  9
$PLIMMAX
 10
420.0
 20
297.0
  9
$UNITMODE
 70
     0
  9
$VISRETAIN
 70
     1
  9
$PLINEGEN
 70
     0
  9
$PSLTSCALE
 70
     1
  9
$TREEDEPTH
 70
  3020
  9
$CMLSTYLE
  2
Standard
  9
$CMLJUST
 70
     0
  9
$CMLSCALE
 40
20.0
  9
$PROXYGRAPHICS
 70
     1
  9
$MEASUREMENT
 70
     1
  9
$CELWEIGHT
370
    -1
  9
$ENDCAPS
280
     0
  9
$JOINSTYLE
280
     0
  9
$LWDISPLAY
290
     0
  9
$INSUNITS
 70
     4
  9
$HYPERLINKBASE
  1

  9
$STYLESHEET
  1

  9
$XEDIT
290
     1
  9
$CEPSNTYPE
380
     0
  9
$PSTYLEMODE
290
     1
  9
$FINGERPRINTGUID
  2
{344CE4C2-B287-420E-A3D1-69F3481BFA56}
  9
$VERSIONGUID
  2
{FAEB1C32-E019-11D5-929B-00C0DF256EC4}
  9
$EXTNAMES
290
     1
  9
$PSVPSCALE
 40
0.0
  9
$OLESTARTUP
290
     0
  9
$SORTENTS
280
   127
  9
$INDEXCTL
280
     0
  9
$HIDETEXT
280
     1
  9
$XCLIPFRAME
280
     2
  9
$HALOGAP
280
     0
  9
$OBSCOLOR
 70
   257
  9
$OBSLTYPE
280
     0
  9
$INTERSECTIONDISPLAY
280
     0
  9
$INTERSECTIONCOLOR
 70
   257
  9
$DIMASSOC
280
     2
  9
$PROJECTNAME
  1

  9
$CAMERADISPLAY
290
     0
  9
$LENSLENGTH
 40
50.0
  9
$CAMERAHEIGHT
 40
0.0
  9
$STEPSPERSEC
 40
2.0
  9
$STEPSIZE
 40
6.0
  9
$3DDWFPREC
 40
2.0
  9
$PSOLWIDTH
 40
5.0
  9
$PSOLHEIGHT
 40
80.0
  9
$LOFTANG1
 40
1.570796326794897
  9
$LOFTANG2
 40
1.570796326794897
  9
$LOFTMAG1
 40
0.0
  9
$LOFTMAG2
 40
0.0
  9
$LOFTPARAM
 70
     7
  9
$LOFTNORMALS
280
     1
  9
$LATITUDE
 40
37.795
  9
$LONGITUDE
 40
-122.394
  9
$NORTHDIRECTION
 40
0.0
  9
$TIMEZONE
 70
 -8000
  9
$LIGHTGLYPHDISPLAY
280
     1
  9
$TILEMODELIGHTSYNCH
280
     1
  9
$CMATERIAL
347
44
  9
$SOLIDHIST
280
     0
  9
$SHOWHIST
280
     1
  9
$DWFFRAME
280
     2
  9
$DGNFRAME
280
     2
  9
$REALWORLDSCALE
290
     1
  9
$INTERFERECOLOR
 62
   256
  9
$CSHADOW
280
     0
  9
$SHADOWPLANELOCATION
 40
0.0
  0
ENDSEC
  0
SECTION
  2
CLASSES
  0
CLASS
  1
ACDBDICTIONARYWDFLT
  2
AcDbDictionaryWithDefault
  3
ObjectDBX Classes
 90
        0
 91
        4
280
     0
281
     0
  0
CLASS
  1
VISUALSTYLE
  2
AcDbVisualStyle
  3
ObjectDBX Classes
 90
     4095
 91
        4
280
     0
281
     0
  0
CLASS
  1
MATERIAL
  2
AcDbMaterial
  3
ObjectDBX Classes
 90
     1153
 91
        4
280
     0
281
     0
  0
CLASS
  1
SCALE
  2
AcDbScale
  3
ObjectDBX Classes
 90
     1153
 91
        4
280
     0
281
     0
  0
CLASS
  1
TABLESTYLE
  2
AcDbTableStyle
  3
ObjectDBX Classes
 90
     4095
 91
        4
280
     0
281
     0
  0
CLASS
  1
MLEADERSTYLE
  2
AcDbMLeaderStyle
  3
ACDB_MLEADERSTYLE_CLASS
 90
     4095
 91
        4
280
     0
281
     0
  0
CLASS
  1
SUN
  2
AcDbSun
  3
SCENEOE
 90
     1153
 91
        4
280
     0
281
     0
  0
CLASS
  1
DICTIONARYVAR
  2
AcDbDictionaryVar
  3
ObjectDBX Classes
 90
        0
 91
        4
280
     0
281
     0
  0
CLASS
  1
CELLSTYLEMAP
  2
AcDbCellStyleMap
  3
ObjectDBX Classes
 90
     1152
 91
        4
280
     0
281
     0
  0
ENDSEC
  0
SECTION
  2
TABLES
  0
TABLE
  2
VPORT
  5
8
330
0
100
AcDbSymbolTable
 70
     1
  0
VPORT
  5
29
330
8
100
AcDbSymbolTableRecord
100
AcDbViewportTableRecord
  2
*Active
 70
     0
 10
0.0
 20
0.0
 11
1.0
 21
1.0
 12
-22.75000000000006
 22
0.0
 13
0.0
 23
0.0
 14
10.0
 24
10.0
 15
10.0
 25
10.0
 16
0.0
 26
0.0
 36
1.0
 17
0.0
 27
0.0
 37
0.0
 40
126.48
 41
0.4036290322580641
 42
50.0
 43
0.0
 44
0.0
 50
0.0
 51
0.0
 71
     0
 72
   100
 73
     1
 74
     3
 75
     0
 76
     0
 77
     0
 78
     0
281
     0
 65
     1
110
0.0
120
0.0
130
0.0
111
1.0
121
0.0
131
0.0
112
0.0
122
1.0
132
0.0
 79
     0
146
0.0
348
2F
 60
     3
 61
     5
292
     1
282
     1
141
0.0
142
0.0
 63
   250
361
6D
  0
ENDTAB
  0
TABLE
  2
LTYPE
  5
5
330
0
100
AcDbSymbolTable
 70
     3
  0
LTYPE
  5
14
330
5
100
AcDbSymbolTableRecord
100
AcDbLinetypeTableRecord
  2
ByBlock
 70
     0
  3

 72
    65
 73
     0
 40
0.0
  0
LTYPE
  5
15
330
5
100
AcDbSymbolTableRecord
100
AcDbLinetypeTableRecord
  2
ByLayer
 70
     0
  3

 72
    65
 73
     0
 40
0.0
  0
LTYPE
  5
16
330
5
100
AcDbSymbolTableRecord
100
AcDbLinetypeTableRecord
  2
Continuous
 70
     0
  3
Solid line
 72
    65
 73
     0
 40
0.0
  0
LTYPE
  5
97
330
5
100
AcDbSymbolTableRecord
100
AcDbLinetypeTableRecord
  2
Dashed
 70
     0
  3

 72
    65
 73
     2
 40
2.0
 49
1.0
 74
     0
 49
-1.0
 74
     0
  0
LTYPE
  5
1B3
330
5
100
AcDbSymbolTableRecord
100
AcDbLinetypeTableRecord
  2
Center
 70
     0
  3

 72
    65
 73
     4
 40
1.5
 49
0.45
 74
     0
 49
-0.5
 74
     0
 49
0.05
 74
     0
 49
-0.5
 74
     0
  0
ENDTAB
  0
TABLE
  2
LAYER
  5
2
330
0
100
AcDbSymbolTable
 70
     6
  0
LAYER
  5
10
330
2
100
AcDbSymbolTableRecord
100
AcDbLayerTableRecord
  2
0
 70
     0
 62
     7
  6
Continuous
370
    -3
390
F
347
46
348
0
  0
LAYER
  5
72
330
2
100
AcDbSymbolTableRecord
100
AcDbLayerTableRecord
  2
AM_6
 70
     0
 62
    -2
  6
Continuous
370
    35
390
F
347
46
348
0
  0
LAYER
  5
98
330
2
100
AcDbSymbolTableRecord
100
AcDbLayerTableRecord
  2
AM_9
 70
     0
 62
     6
  6
Dashed
370
    25
390
F
347
46
348
0
  0
LAYER
  5
C7
330
2
100
AcDbSymbolTableRecord
100
AcDbLayerTableRecord
  2
AM_4
 70
     0
 62
     7
  6
Continuous
370
    50
390
F
347
46
348
0
  0
LAYER
  5
1B4
330
2
100
AcDbSymbolTableRecord
100
AcDbLayerTableRecord
  2
AM_7
 70
     0
 62
     7
  6
Center
370
    25
390
F
347
46
348
0
  0
LAYER
  5
1DC
330
2
100
AcDbSymbolTableRecord
100
AcDbLayerTableRecord
  2
ConnectionPoints
 70
     0
 62
     7
  6
Continuous
370
    50
390
F
347
46
348
0
  0
ENDTAB
  0
TABLE
  2
STYLE
  5
3
330
0
100
AcDbSymbolTable
 70
     1
  0
STYLE
  5
11
330
3
100
AcDbSymbolTableRecord
100
AcDbTextStyleTableRecord
  2
Standard
 70
     0
 40
0.0
 41
1.0
 50
0.0
 71
     0
 42
2.5
  3
txt
  4

  0
ENDTAB
  0
TABLE
  2
VIEW
  5
6
330
0
100
AcDbSymbolTable
 70
     0
  0
ENDTAB
  0
TABLE
  2
UCS
  5
7
330
0
100
AcDbSymbolTable
 70
     0
  0
ENDTAB
  0
TABLE
  2
APPID
  5
9
330
0
100
AcDbSymbolTable
 70
     1
  0
APPID
  5
12
330
9
100
AcDbSymbolTableRecord
100
AcDbRegAppTableRecord
  2
ACAD
 70
     0
  0
ENDTAB
  0
TABLE
  2
DIMSTYLE
  5
A
330
0
100
AcDbSymbolTable
 70
     1
100
AcDbDimStyleTable
  0
DIMSTYLE
105
27
330
A
100
AcDbSymbolTableRecord
100
AcDbDimStyleTableRecord
  2
ISO-25
 70
     0
 41
2.5
 42
0.625
 43
3.75
 44
1.25
 73
     0
 74
     0
 77
     1
 78
     8
140
2.5
141
2.5
143
0.03937007874016
147
0.625
171
     3
172
     1
178
     0
271
     2
272
     2
274
     3
278
    44
283
     0
284
     8
340
11
  0
ENDTAB
  0
TABLE
  2
BLOCK_RECORD
  5
1
330
0
100
AcDbSymbolTable
 70
     5
  0
BLOCK_RECORD
  5
1F
330
1
100
AcDbSymbolTableRecord
100
AcDbBlockTableRecord
  2
*Model_Space
340
22
 70
     0
280
     1
281
     0
  0
BLOCK_RECORD
  5
1B
330
1
100
AcDbSymbolTableRecord
100
AcDbBlockTableRecord
  2
*Paper_Space
340
1E
 70
     0
280
     1
281
     0
  0
BLOCK_RECORD
  5
23
330
1
100
AcDbSymbolTableRecord
100
AcDbBlockTableRecord
  2
*Paper_Space0
340
26
 70
     0
280
     1
281
     0
  0
BLOCK_RECORD
  5
6E
330
1
100
AcDbSymbolTableRecord
100
AcDbBlockTableRecord
  2
1_130832_2
340
0
102
{BLKREFS
331
6F
102
}
 70
     0
280
     1
281
     0
  0
BLOCK_RECORD
  5
8B
330
1
100
AcDbSymbolTableRecord
100
AcDbBlockTableRecord
  2
2_405015E_Metric_0_in_130832_2
340
0
102
{BLKREFS
331
8C
102
}
 70
     0
280
     1
281
     0
  0
BLOCK_RECORD
  5
FD
330
1
100
AcDbSymbolTableRecord
100
AcDbBlockTableRecord
  2
3_125627_0_in_130832_2
340
0
102
{BLKREFS
331
FE
102
}
 70
     0
280
     1
281
     0
  0
BLOCK_RECORD
  5
158
330
1
100
AcDbSymbolTableRecord
100
AcDbBlockTableRecord
  2
4_130832H_0_in_130832_2
340
0
102
{BLKREFS
331
159
102
}
 70
     0
280
     1
281
     0
  0
ENDTAB
  0
ENDSEC
  0
SECTION
  2
BLOCKS
  0
BLOCK
  5
20
330
1F
100
AcDbEntity
  8
0
100
AcDbBlockBegin
  2
*Model_Space
 70
     0
 10
0.0
 20
0.0
 30
0.0
  3
*Model_Space
  1

  0
ENDBLK
  5
21
330
1F
100
AcDbEntity
  8
0
100
AcDbBlockEnd
  0
BLOCK
  5
1C
330
1B
100
AcDbEntity
 67
     1
  8
0
100
AcDbBlockBegin
  2
*Paper_Space
 70
     0
 10
0.0
 20
0.0
 30
0.0
  3
*Paper_Space
  1

  0
ENDBLK
  5
1D
330
1B
100
AcDbEntity
 67
     1
  8
0
100
AcDbBlockEnd
  0
BLOCK
  5
24
330
23
100
AcDbEntity
  8
0
100
AcDbBlockBegin
  2
*Paper_Space0
 70
     0
 10
0.0
 20
0.0
 30
0.0
  3
*Paper_Space0
  1

  0
ENDBLK
  5
25
330
23
100
AcDbEntity
  8
0
100
AcDbBlockEnd
  0
BLOCK
  5
70
330
6E
100
AcDbEntity
  8
0
100
AcDbBlockBegin
  2
1_130832_2
 70
     2
 10
0.0
 20
0.0
 30
0.0
  3
1_130832_2
  1

  0
ATTDEF
  5
73
330
6E
100
AcDbEntity
  8
AM_6
100
AcDbText
 10
7.275
 20
62.0
 30
0.0
 40
0.5
  1
Eccentric Collar Two-Bolt Piloted Flange Metric Bore
100
AcDbAttributeDefinition
  3

  2
NN
 70
     8
280
     0
  0
ATTDEF
  5
74
330
6E
100
AcDbEntity
  8
AM_6
100
AcDbText
 10
7.275
 20
61.5
 30
0.0
 40
0.5
  1
Eccentric Collar 2 Bolt Piloted Flange Bearings -(Normal Duty)
100
AcDbAttributeDefinition
  3

  2
NT
 70
     8
280
     0
  0
ATTDEF
  5
75
330
6E
100
AcDbEntity
  8
AM_6
100
AcDbText
 10
7.275
 20
61.0
 30
0.0
 40
0.5
  1
130832
100
AcDbAttributeDefinition
  3

  2
NB
 70
     8
280
     0
  0
ATTDEF
  5
76
330
6E
100
AcDbEntity
  8
AM_6
100
AcDbText
 10
7.275
 20
60.5
 30
0.0
 40
0.5
  1
$PN.
100
AcDbAttributeDefinition
  3

  2
NBSYN
 70
     8
280
     0
  0
ATTDEF
  5
77
330
6E
100
AcDbEntity
  8
AM_6
100
AcDbText
 10
7.275
 20
60.0
 30
0.0
 40
0.5
  1
130832
100
AcDbAttributeDefinition
  3

  2
LINA
 70
     8
280
     0
  0
ATTDEF
  5
78
330
6E
100
AcDbEntity
  8
AM_6
100
AcDbText
 10
7.275
 20
59.5
 30
0.0
 40
0.5
  1
205
100
AcDbAttributeDefinition
  3

  2
SERIES
 70
     8
280
     0
  0
ATTDEF
  5
79
330
6E
100
AcDbEntity
  8
AM_6
100
AcDbText
 10
7.275
 20
59.0
 30
0.0
 40
0.5
  1
25
100
AcDbAttributeDefinition
  3

  2
SS
 70
     8
280
     0
  0
ATTDEF
  5
7A
330
6E
100
AcDbEntity
  8
AM_6
100
AcDbText
 10
7.275
 20
58.5
 30
0.0
 40
0.5
  1
130832
100
AcDbAttributeDefinition
  3

  2
PN
 70
     8
280
     0
  0
ATTDEF
  5
7B
330
6E
100
AcDbEntity
  8
AM_6
100
AcDbText
 10
7.275
 20
58.0
 30
0.0
 40
0.5
  1
F2BZ-SXR-25M
100
AcDbAttributeDefinition
  3

  2
DESCRIPTION
 70
     8
280
     0
  0
ATTDEF
  5
7C
330
6E
100
AcDbEntity
  8
AM_6
100
AcDbText
 10
7.275
 20
57.5
 30
0.0
 40
0.5
  1
0.7
100
AcDbAttributeDefinition
  3

  2
W
 70
     8
280
     0
  0
ATTDEF
  5
7D
330
6E
100
AcDbEntity
  8
AM_6
100
AcDbText
 10
7.275
 20
57.0
 30
0.0
 40
0.5
  1
41.1
100
AcDbAttributeDefinition
  3

  2
A
 70
     8
280
     0
  0
ATTDEF
  5
7E
330
6E
100
AcDbEntity
  8
AM_6
100
AcDbText
 10
7.275
 20
56.5
 30
0.0
 40
0.5
  1
124.0
100
AcDbAttributeDefinition
  3

  2
B
 70
     8
280
     0
  0
ATTDEF
  5
7F
330
6E
100
AcDbEntity
  8
AM_6
100
AcDbText
 10
7.275
 20
56.0
 30
0.0
 40
0.5
  1
45.5
100
AcDbAttributeDefinition
  3

  2
C
 70
     8
280
     0
  0
ATTDEF
  5
80
330
6E
100
AcDbEntity
  8
AM_6
100
AcDbText
 10
7.275
 20
55.5
 30
0.0
 40
0.5
  1
98.8
100
AcDbAttributeDefinition
  3

  2
D
 70
     8
280
     0
  0
ATTDEF
  5
81
330
6E
100
AcDbEntity
  8
AM_6
100
AcDbText
 10
7.275
 20
55.0
 30
0.0
 40
0.5
  1
3.6
100
AcDbAttributeDefinition
  3

  2
E
 70
     8
280
     0
  0
ATTDEF
  5
82
330
6E
100
AcDbEntity
  8
AM_6
100
AcDbText
 10
7.275
 20
54.5
 30
0.0
 40
0.5
  1
M10
100
AcDbAttributeDefinition
  3

  2
F
 70
     8
280
     0
  0
ATTDEF
  5
83
330
6E
100
AcDbEntity
  8
AM_6
100
AcDbText
 10
7.275
 20
54.0
 30
0.0
 40
0.5
  1
41.9
100
AcDbAttributeDefinition
  3

  2
G
 70
     8
280
     0
  0
ATTDEF
  5
84
330
6E
100
AcDbEntity
  8
AM_6
100
AcDbText
 10
7.275
 20
53.5
 30
0.0
 40
0.5
  1
13.2
100
AcDbAttributeDefinition
  3

  2
H
 70
     8
280
     0
  0
ATTDEF
  5
85
330
6E
100
AcDbEntity
  8
AM_6
100
AcDbText
 10
7.275
 20
53.0
 30
0.0
 40
0.5
  1
17.8
100
AcDbAttributeDefinition
  3

  2
J
 70
     8
280
     0
  0
ATTDEF
  5
86
330
6E
100
AcDbEntity
  8
AM_6
100
AcDbText
 10
7.275
 20
52.5
 30
0.0
 40
0.5
  1
59.99/59.94
100
AcDbAttributeDefinition
  3

  2
K
 70
     8
280
     0
  0
ATTDEF
  5
87
330
6E
100
AcDbEntity
  8
AM_6
100
AcDbText
 10
7.275
 20
52.0
 30
0.0
 40
0.5
  1
38.1
100
AcDbAttributeDefinition
  3

  2
L
 70
     8
280
     0
  0
ATTDEF
  5
88
330
6E
100
AcDbEntity
  8
AM_6
100
AcDbText
 10
7.275
 20
51.5
 30
0.0
 40
0.5
  1
69.9
100
AcDbAttributeDefinition
  3

  2
M
 70
     8
280
     0
  0
ATTDEF
  5
89
330
6E
100
AcDbEntity
  8
AM_6
100
AcDbText
 10
7.275
 20
51.0
 30
0.0
 40
0.5
  1
36.6
100
AcDbAttributeDefinition
  3

  2
N
 70
     8
280
     0
  0
ATTDEF
  5
8A
330
6E
100
AcDbEntity
  8
AM_6
100
AcDbText
 10
7.275
 20
50.5
 30
0.0
 40
0.5
  1
baldor
100
AcDbAttributeDefinition
  3

  2
COMPANY
 70
     8
280
     0
  0
INSERT
  5
8C
330
6E
100
AcDbEntity
  8
0
100
AcDbBlockReference
  2
2_405015E_Metric_0_in_130832_2
 10
0.0
 20
0.0
 30
0.0
  0
INSERT
  5
FE
330
6E
100
AcDbEntity
  8
0
100
AcDbBlockReference
  2
3_125627_0_in_130832_2
 10
0.0
 20
0.0
 30
0.0
  0
INSERT
  5
159
330
6E
100
AcDbEntity
  8
0
100
AcDbBlockReference
  2
4_130832H_0_in_130832_2
 10
0.0
 20
0.0
 30
0.0
  0
ENDBLK
  5
71
330
6E
100
AcDbEntity
  8
0
100
AcDbBlockEnd
  0
BLOCK
  5
8D
330
8B
100
AcDbEntity
  8
0
100
AcDbBlockBegin
  2
2_405015E_Metric_0_in_130832_2
 70
     2
 10
0.0
 20
0.0
 30
0.0
  3
2_405015E_Metric_0_in_130832_2
  1

  0
ATTDEF
  5
8F
330
8B
100
AcDbEntity
  8
AM_6
100
AcDbText
 10
-9.65983064143707
 20
38.27368466213687
 30
0.0
 40
0.5
  1
405015E -Metric
100
AcDbAttributeDefinition
  3

  2
NN
 70
     8
280
     0
  0
ATTDEF
  5
90
330
8B
100
AcDbEntity
  8
AM_6
100
AcDbText
 10
-9.65983064143707
 20
37.77368466213687
 30
0.0
 40
0.5
  1
Grease Fitting
100
AcDbAttributeDefinition
  3

  2
NT
 70
     8
280
     0
  0
ATTDEF
  5
91
330
8B
100
AcDbEntity
  8
AM_6
100
AcDbText
 10
-9.65983064143707
 20
37.27368466213687
 30
0.0
 40
0.5
  1
405015E-Metric
100
AcDbAttributeDefinition
  3

  2
NB
 70
     8
280
     0
  0
ATTDEF
  5
92
330
8B
100
AcDbEntity
  8
AM_6
100
AcDbText
 10
-9.65983064143707
 20
36.77368466213687
 30
0.0
 40
0.5
  1
$MN.-Metric
100
AcDbAttributeDefinition
  3

  2
NBSYN
 70
     8
280
     0
  0
ATTDEF
  5
93
330
8B
100
AcDbEntity
  8
AM_6
100
AcDbText
 10
-9.65983064143707
 20
36.27368466213687
 30
0.0
 40
0.5
  1
405015E
100
AcDbAttributeDefinition
  3

  2
LINA
 70
     8
280
     0
  0
ATTDEF
  5
94
330
8B
100
AcDbEntity
  8
AM_6
100
AcDbText
 10
-9.65983064143707
 20
35.77368466213687
 30
0.0
 40
0.5
  1
405015E
100
AcDbAttributeDefinition
  3

  2
MN
 70
     8
280
     0
  0
ATTDEF
  5
95
330
8B
100
AcDbEntity
  8
AM_6
100
AcDbText
 10
-9.65983064143707
 20
35.27368466213687
 30
0.0
 40
0.5
  1
1/8 x 27PTF
100
AcDbAttributeDefinition
  3

  2
T
 70
     8
280
     0
  0
ATTDEF
  5
96
330
8B
100
AcDbEntity
  8
AM_6
100
AcDbText
 10
-9.65983064143707
 20
34.77368466213687
 30
0.0
 40
0.5
  1
baldor
100
AcDbAttributeDefinition
  3

  2
COMPANY
 70
     8
280
     0
  0
ELLIPSE
  5
99
330
8B
100
AcDbEntity
  8
AM_9
100
AcDbEllipse
 10
-20.43333333333333
 20
25.10527216503148
 30
0.0
 11
-4.157993753183522
 21
5.092073740710890E-16
 31
0.0
210
0.0
220
0.0
230
1.0
 40
0.7071067811865472
 41
0.0
 42
6.283185307179586
  0
ELLIPSE
  5
9A
330
8B
100
AcDbEntity
  8
AM_9
100
AcDbEllipse
 10
-20.43333333333332
 20
29.86480790919813
 30
0.0
 11
4.999999999999979
 21
0.0
 31
0.0
210
0.0
220
0.0
230
1.0
 40
0.7071067811865485
 41
0.5235987755983
 42
2.617993877991495
  0
LINE
  5
9B
330
8B
100
AcDbEntity
  8
AM_9
100
AcDbLine
 10
-16.46043449690888
 20
32.07971076633464
 30
0.0
 11
-16.10320631441114
 21
31.6325748621645
 31
0.0
  0
LWPOLYLINE
  5
9C
330
8B
100
AcDbEntity
  8
AM_9
100
AcDbPolyline
 90
        3
 70
     0
 43
0.0
 10
-17.5465819873852
 20
33.54689635763512
 10
-16.82813905374184
 20
32.55945713311153
 10
-16.46043449690888
 20
32.07971076633464
  0
LWPOLYLINE
  5
9D
330
8B
100
AcDbEntity
  8
AM_9
100
AcDbPolyline
 90
        3
 70
     0
 43
0.0
 10
-19.80371541900439
 20
33.40782316785198
 10
-18.98995766035926
 20
33.43902469017223
 10
-17.5465819873852
 20
33.54689635763512
  0
LINE
  5
9E
330
8B
100
AcDbEntity
  8
AM_9
100
AcDbLine
 10
-20.19293315170143
 20
33.40143616519148
 30
0.0
 11
-19.80371541900439
 21
33.40782316785198
 31
0.0
  0
LINE
  5
9F
330
8B
100
AcDbEntity
  8
AM_9
100
AcDbLine
 10
-20.83546034790371
 20
33.40340070168477
 30
0.0
 11
-20.19293315170143
 21
33.40143616519148
 31
0.0
  0
LWPOLYLINE
  5
A0
330
8B
100
AcDbEntity
  8
AM_9
100
AcDbPolyline
 90
        3
 70
     0
 43
0.0
 10
-24.41836025197561
 20
32.06421768769321
 10
-24.04177251576849
 20
32.55514121368905
 10
-23.32008467928145
 20
33.54689635763512
  0
LINE
  5
A1
330
8B
100
AcDbEntity
  8
AM_9
100
AcDbLine
 10
-24.76346035225552
 20
31.6325748621645
 30
0.0
 11
-24.41836025197561
 21
32.06421768769321
 31
0.0
  0
LINE
  5
A2
330
8B
100
AcDbEntity
  8
AM_9
100
AcDbLine
 10
-21.13234293098097
 20
33.40955473073608
 30
0.0
 11
-20.83546034790371
 21
33.40340070168477
 31
0.0
  0
LWPOLYLINE
  5
A3
330
8B
100
AcDbEntity
  8
AM_9
100
AcDbPolyline
 90
        4
 70
     0
 43
0.0
 10
-23.32008467928145
 20
33.54689635763512
 10
-22.66469237811646
 20
33.49039720264053
 10
-21.55234735234794
 20
33.42377707102541
 10
-21.13234293098097
 20
33.40955473073608
  0
LINE
  5
A4
330
8B
100
AcDbEntity
  8
AM_9
100
AcDbLine
 10
-23.32008467928145
 20
35.37510761618626
 30
0.0
 11
-23.32008467928145
 21
33.54689635763512
 31
0.0
  0
LINE
  5
A5
330
8B
100
AcDbEntity
  8
AM_9
100
AcDbLine
 10
-17.5465819873852
 20
35.37510761618626
 30
0.0
 11
-17.5465819873852
 21
33.54689635763512
 31
0.0
  0
LINE
  5
A6
330
8B
100
AcDbEntity
  8
AM_9
100
AcDbLine
 10
-17.26456986637322
 20
35.07903930664973
 30
0.0
 11
-17.5465819873852
 21
35.37510761618626
 31
0.0
  0
LWPOLYLINE
  5
A7
330
8B
100
AcDbEntity
  8
AM_9
100
AcDbPolyline
 90
        3
 70
     0
 43
0.0
 10
-17.5465819873852
 20
35.37510761618626
 10
-18.98346785467192
 20
35.48263754234262
 10
-20.43333333333333
 20
35.52166215869052
  0
LINE
  5
A8
330
8B
100
AcDbEntity
  8
AM_9
100
AcDbLine
 10
-23.32008467928145
 20
35.37510761618626
 30
0.0
 11
-23.59689951240764
 21
35.08457339463671
 31
0.0
  0
LWPOLYLINE
  5
A9
330
8B
100
AcDbEntity
  8
AM_9
100
AcDbPolyline
 90
        4
 70
     0
 43
0.0
 10
-20.43333333333333
 20
35.52166215869052
 10
-21.54901285572489
 20
35.49836468836914
 10
-22.66469237811645
 20
35.43160677118086
 10
-23.32008467928145
 20
35.37510761618626
  0
ELLIPSE
  5
AA
330
8B
100
AcDbEntity
  8
AM_9
100
AcDbEllipse
 10
-20.43333333333332
 20
29.86480790919813
 30
0.0
 11
4.999999999999993
 21
0.0
 31
0.0
210
0.0
220
0.0
230
1.0
 40
0.7071067811865478
 41
4.71238898038469
 42
6.806784082777886
  0
LWPOLYLINE
  5
AB
330
8B
100
AcDbEntity
  8
AM_9
100
AcDbPolyline
 90
        3
 70
     0
 43
0.0
 10
-15.68970431372799
 20
31.13901141074018
 10
-15.3815184779241
 20
30.78737426072268
 10
-14.65983064143707
 20
30.01136245170239
  0
LINE
  5
AC
330
8B
100
AcDbEntity
  8
AM_9
100
AcDbLine
 10
-16.10320631441114
 20
31.6325748621645
 30
0.0
 11
-15.68970431372799
 21
31.13901141074018
 31
0.0
  0
ELLIPSE
  5
AD
330
8B
100
AcDbEntity
  8
AM_9
100
AcDbEllipse
 10
-20.4333333333333
 20
29.86480790919815
 30
0.0
 11
5.000000000000028
 21
0.0
 31
0.0
210
0.0
220
0.0
230
1.0
 40
0.707106781186547
 41
2.617993877991499
 42
3.665191429188091
  0
LINE
  5
AE
330
8B
100
AcDbEntity
  8
AM_9
100
AcDbLine
 10
-25.16295587459455
 20
31.15531395387652
 30
0.0
 11
-24.76346035225552
 21
31.6325748621645
 31
0.0
  0
LWPOLYLINE
  5
AF
330
8B
100
AcDbEntity
  8
AM_9
100
AcDbPolyline
 90
        3
 70
     0
 43
0.0
 10
-26.20683602522959
 20
30.01136245170239
 10
-25.48839309158623
 20
30.78374182391326
 10
-25.16295587459455
 20
31.15531395387652
  0
ELLIPSE
  5
B0
330
8B
100
AcDbEntity
  8
AM_9
100
AcDbEllipse
 10
-20.43333333333332
 20
29.86480790919813
 30
0.0
 11
4.949631665534962
 21
0.0
 31
0.0
210
0.0
220
0.0
230
1.0
 40
0.7071067811865469
 41
6.251928656212824
 42
9.456034611736142
  0
LINE
  5
B1
330
8B
100
AcDbEntity
  8
AM_9
100
AcDbLine
 10
-15.67762793319715
 20
25.42441763512631
 30
0.0
 11
-15.48611931214762
 21
29.75543000226548
 31
0.0
  0
LINE
  5
B2
330
8B
100
AcDbEntity
  8
AM_9
100
AcDbLine
 10
-25.38054735451904
 20
29.75543000226548
 30
0.0
 11
-25.18903873346951
 21
25.42441763512631
 31
0.0
  0
ELLIPSE
  5
B3
330
8B
100
AcDbEntity
  8
AM_9
100
AcDbEllipse
 10
-20.43333333333333
 20
29.86480790919813
 30
0.0
 11
4.949631665534961
 21
0.0
 31
0.0
210
0.0
220
0.0
230
1.0
 40
0.7071067811865479
 41
3.172849304556552
 42
6.251928656212828
  0
ELLIPSE
  5
B4
330
8B
100
AcDbEntity
  8
AM_9
100
AcDbEllipse
 10
-20.43333333333334
 20
29.8648079091981
 30
0.0
 11
4.999999999999979
 21
0.0
 31
0.0
210
0.0
220
0.0
230
1.0
 40
0.7071067811865456
 41
3.665191429188086
 42
4.71238898038469
  0
ELLIPSE
  5
B5
330
8B
100
AcDbEntity
  8
AM_9
100
AcDbEllipse
 10
-20.43333333333332
 20
31.98612825275778
 30
0.0
 11
5.000000000000009
 21
0.0
 31
0.0
210
0.0
220
0.0
230
1.0
 40
0.7071067811865449
 41
0.8982051386271648
 42
2.243387514962712
  0
LINE
  5
B6
330
8B
100
AcDbEntity
  8
AM_9
100
AcDbLine
 10
-22.42326216606584
 20
34.76581728316772
 30
0.0
 11
-22.83991975078728
 21
34.50199781128084
 31
0.0
  0
LINE
  5
B7
330
8B
100
AcDbEntity
  8
AM_9
100
AcDbLine
 10
-18.02674691587938
 20
34.50199781128084
 30
0.0
 11
-18.44340450060081
 21
34.76581728316772
 31
0.0
  0
ELLIPSE
  5
B8
330
8B
100
AcDbEntity
  8
AM_9
100
AcDbEllipse
 10
-20.43333333333333
 20
33.19444172228913
 30
0.0
 11
2.982994982562516
 21
0.0
 31
0.0
210
0.0
220
0.0
230
1.0
 40
0.7071067811865573
 41
0.3869422381883885
 42
2.301093308049173
  0
ELLIPSE
  5
B9
330
8B
100
AcDbEntity
  8
AM_9
100
AcDbEllipse
 10
-20.43333333333337
 20
33.19444172228916
 30
0.0
 11
2.982994982562463
 21
0.0
 31
0.0
210
0.0
220
0.0
230
1.0
 40
0.7071067811865486
 41
2.301093308049163
 42
2.754650415401407
  0
ELLIPSE
  5
BA
330
8B
100
AcDbEntity
  8
AM_9
100
AcDbEllipse
 10
-20.43333333333333
 20
32.60160267185437
 30
0.0
 11
3.60758389460112
 21
0.0
 31
0.0
210
0.0
220
0.0
230
1.0
 40
0.7071067811865465
 41
0.8404993455406231
 42
2.338287027841786
  0
ELLIPSE
  5
BB
330
8B
100
AcDbEntity
  8
AM_9
100
AcDbEllipse
 10
-20.43333333333308
 20
32.60160267185349
 30
0.0
 11
3.60758389460144
 21
0.0
 31
0.0
210
0.0
220
0.0
230
1.0
 40
0.7071067811866887
 41
-3.944898279337887
 42
-3.804975968778853
  0
LINE
  5
BC
330
8B
100
AcDbEntity
  8
AM_9
100
AcDbLine
 10
-22.91056325318891
 20
34.4853504751308
 30
0.0
 11
-23.18231045004826
 21
34.01378882426581
 31
0.0
  0
LINE
  5
BD
330
8B
100
AcDbEntity
  8
AM_9
100
AcDbLine
 10
-17.68435621661839
 20
34.01378882426581
 30
0.0
 11
-17.95610341347775
 21
34.4853504751308
 31
0.0
  0
ELLIPSE
  5
BE
330
8B
100
AcDbEntity
  8
AM_9
100
AcDbEllipse
 10
-20.43333333333333
 20
33.77157287525382
 30
0.0
 11
2.674999999999994
 21
0.0
 31
0.0
210
0.0
220
0.0
230
1.0
 40
0.7071067811865448
 41
0.0
 42
3.141592653589793
  0
ELLIPSE
  5
BF
330
8B
100
AcDbEntity
  8
AM_9
100
AcDbEllipse
 10
-20.43333333332685
 20
32.60160267184887
 30
0.0
 11
3.607583894591758
 21
5.375718913364052E-8
 31
0.0
210
0.0
220
0.0
230
1.0
 40
0.7071067811886335
 41
0.6633832981123193
 42
0.8404993303162734
  0
ELLIPSE
  5
C0
330
8B
100
AcDbEntity
  8
AM_9
100
AcDbEllipse
 10
-20.43333333333333
 20
31.98612825275778
 30
0.0
 11
4.749999999999988
 21
7.078051567077621E-8
 31
0.0
210
0.0
220
0.0
230
1.0
 40
0.7071067811865488
 41
0.8736482750686809
 42
2.267944348760955
  0
LINE
  5
C1
330
8B
100
AcDbEntity
  8
AM_9
100
AcDbLine
 10
-17.75833333333333
 20
33.88824549414959
 30
0.0
 11
-17.75833333333333
 21
34.2665476220844
 31
0.0
  0
LINE
  5
C2
330
8B
100
AcDbEntity
  8
AM_9
100
AcDbLine
 10
-23.10833333333333
 20
34.2665476220844
 30
0.0
 11
-23.10833333333333
 21
33.88824549414959
 31
0.0
  0
ELLIPSE
  5
C3
330
8B
100
AcDbEntity
  8
AM_9
100
AcDbEllipse
 10
-20.43333333333331
 20
34.2665476220844
 30
0.0
 11
2.675000000000022
 21
0.0
 31
0.0
210
0.0
220
0.0
230
1.0
 40
0.7071067811865479
 41
0.0
 42
3.536383773289551
  0
ELLIPSE
  5
C4
330
8B
100
AcDbEntity
  8
AM_9
100
AcDbEllipse
 10
-20.43333333333334
 20
34.2665476220844
 30
0.0
 11
2.675000000000011
 21
0.0
 31
0.0
210
0.0
220
0.0
230
1.0
 40
0.7071067811865481
 41
5.888394187479823
 42
6.283185307179586
  0
ELLIPSE
  5
C5
330
8B
100
AcDbEntity
  8
AM_9
100
AcDbEllipse
 10
-20.43333333333333
 20
35.18578643762689
 30
0.0
 11
3.175000000000008
 21
0.0
 31
0.0
210
0.0
220
0.0
230
1.0
 40
0.7071067811865475
 41
0.4159140521025506
 42
2.725678601487243
  0
ELLIPSE
  5
C6
330
8B
100
AcDbEntity
  8
AM_9
100
AcDbEllipse
 10
-20.43333333335722
 20
25.52956147980924
 30
0.0
 11
4.758029456535665
 21
0.0
 31
0.0
210
0.0
220
0.0
230
1.0
 40
0.7071067811865474
 41
0.0
 42
6.283185307179586
  0
LWPOLYLINE
  5
C8
330
8B
100
AcDbEntity
  8
AM_4
100
AcDbPolyline
 90
        3
 70
     0
 43
0.0
 10
-16.10320631441114
 20
33.75389520572414
 10
-16.82489415089816
 20
34.59909580716597
 10
-17.26456986637322
 20
35.07903930664973
  0
LWPOLYLINE
  5
C9
330
8B
100
AcDbEntity
  8
AM_4
100
AcDbPolyline
 90
        3
 70
     0
 43
0.0
 10
-23.59689951240764
 20
35.08457339463671
 10
-24.03852761292482
 20
34.60272824397538
 10
-24.76346035225552
 20
33.75389520572414
  0
LWPOLYLINE
  5
CA
330
8B
100
AcDbEntity
  8
AM_4
100
AcDbPolyline
 90
        3
 70
     0
 43
0.0
 10
-14.65983064143707
 20
31.83957371025352
 10
-15.37827357508043
 20
32.82701293477712
 10
-16.10320631441114
 20
33.75389520572414
  0
LWPOLYLINE
  5
CB
330
8B
100
AcDbEntity
  8
AM_4
100
AcDbPolyline
 90
        3
 70
     0
 43
0.0
 10
-24.76346035225552
 20
33.75389520572414
 10
-25.48514818874255
 20
32.8313288541996
 10
-26.20683602522959
 20
31.83957371025352
  0
LWPOLYLINE
  5
CC
330
8B
100
AcDbEntity
  8
AM_4
100
AcDbPolyline
 90
        3
 70
     0
 43
0.0
 10
-21.69074783455079
 20
26.35877149905374
 10
-22.66469237811645
 20
26.41932939077505
 10
-23.32008467928145
 20
26.47582854576965
  0
LINE
  5
CD
330
8B
100
AcDbEntity
  8
AM_4
100
AcDbLine
 10
-21.3314215032502
 20
26.34443452632613
 30
0.0
 11
-21.69074783455079
 21
26.35877149905374
 31
0.0
  0
LINE
  5
CE
330
8B
100
AcDbEntity
  8
AM_4
100
AcDbLine
 10
-20.43333333333333
 20
26.3292740032654
 30
0.0
 11
-21.3314215032502
 21
26.34443452632613
 31
0.0
  0
LINE
  5
CF
330
8B
100
AcDbEntity
  8
AM_4
100
AcDbLine
 10
-19.53521737038243
 20
26.34443545729213
 30
0.0
 11
-20.43333333333333
 21
26.3292740032654
 31
0.0
  0
LINE
  5
D0
330
8B
100
AcDbEntity
  8
AM_4
100
AcDbLine
 10
-19.1673112339822
 20
26.35917053015152
 30
0.0
 11
-19.53521737038243
 21
26.34443545729213
 31
0.0
  0
LWPOLYLINE
  5
D1
330
8B
100
AcDbEntity
  8
AM_4
100
AcDbPolyline
 90
        3
 70
     0
 43
0.0
 10
-17.5465819873852
 20
26.47582854576965
 10
-18.98346785467192
 20
26.36829861961329
 10
-19.1673112339822
 20
26.35917053015152
  0
LINE
  5
D2
330
8B
100
AcDbEntity
  8
AM_4
100
AcDbLine
 10
-14.65983064143707
 20
31.83957371025352
 30
0.0
 11
-14.65983064143707
 21
30.01136245170239
 31
0.0
  0
LWPOLYLINE
  5
D3
330
8B
100
AcDbEntity
  8
AM_4
100
AcDbPolyline
 90
        3
 70
     0
 43
0.0
 10
-16.10320631441114
 20
30.21836129979141
 10
-15.3815184779241
 20
31.06356190123323
 10
-14.65983064143707
 20
31.83957371025352
  0
LINE
  5
D4
330
8B
100
AcDbEntity
  8
AM_4
100
AcDbLine
 10
-17.5465819873852
 20
28.30403980432079
 30
0.0
 11
-17.5465819873852
 21
26.47582854576965
 31
0.0
  0
LWPOLYLINE
  5
D5
330
8B
100
AcDbEntity
  8
AM_4
100
AcDbPolyline
 90
        3
 70
     0
 43
0.0
 10
-16.57191110720814
 20
27.53950268738812
 10
-16.82489415089816
 20
27.25184035478994
 10
-17.5465819873852
 20
26.47582854576965
  0
LINE
  5
D6
330
8B
100
AcDbEntity
  8
AM_4
100
AcDbLine
 10
-16.55226464275046
 20
27.56222054890695
 30
0.0
 11
-16.57191110720814
 21
27.53950268738812
 31
0.0
  0
LINE
  5
D7
330
8B
100
AcDbEntity
  8
AM_4
100
AcDbLine
 10
-16.10320631441114
 20
28.09704095623177
 30
0.0
 11
-16.55226464275046
 21
27.56222054890695
 31
0.0
  0
LINE
  5
D8
330
8B
100
AcDbEntity
  8
AM_4
100
AcDbLine
 10
-15.65038424068271
 20
28.6670471169814
 30
0.0
 11
-16.10320631441114
 21
28.09704095623177
 31
0.0
  0
LWPOLYLINE
  5
D9
330
8B
100
AcDbEntity
  8
AM_4
100
AcDbPolyline
 90
        3
 70
     0
 43
0.0
 10
-14.65983064143707
 20
30.01136245170239
 10
-15.37827357508043
 20
29.0239232271788
 10
-15.65038424068271
 20
28.6670471169814
  0
LWPOLYLINE
  5
DA
330
8B
100
AcDbEntity
  8
AM_4
100
AcDbPolyline
 90
        3
 70
     0
 43
0.0
 10
-20.43333333333333
 20
28.45059434682504
 10
-18.98995766035926
 20
28.41191147178368
 10
-17.5465819873852
 20
28.30403980432079
  0
LWPOLYLINE
  5
DB
330
8B
100
AcDbEntity
  8
AM_4
100
AcDbPolyline
 90
        3
 70
     0
 43
0.0
 10
-17.5465819873852
 20
28.30403980432079
 10
-16.82813905374184
 20
29.29147902884438
 10
-16.10320631441114
 20
30.21836129979141
  0
LINE
  5
DC
330
8B
100
AcDbEntity
  8
AM_4
100
AcDbLine
 10
-23.32008467928145
 20
28.30403980432079
 30
0.0
 11
-23.32008467928145
 21
26.47582854576965
 31
0.0
  0
LWPOLYLINE
  5
DD
330
8B
100
AcDbEntity
  8
AM_4
100
AcDbPolyline
 90
        3
 70
     0
 43
0.0
 10
-26.20683602522959
 20
31.83957371025352
 10
-25.48839309158623
 20
31.06719433804265
 10
-24.76346035225552
 20
30.21836129979141
  0
LINE
  5
DE
330
8B
100
AcDbEntity
  8
AM_4
100
AcDbLine
 10
-26.20683602522959
 20
31.83957371025352
 30
0.0
 11
-26.20683602522959
 21
30.01136245170239
 31
0.0
  0
LWPOLYLINE
  5
DF
330
8B
100
AcDbEntity
  8
AM_4
100
AcDbPolyline
 90
        3
 70
     0
 43
0.0
 10
-25.21251868059513
 20
28.66218431808586
 10
-25.48514818874255
 20
29.01960730775631
 10
-26.20683602522959
 20
30.01136245170239
  0
LINE
  5
E0
330
8B
100
AcDbEntity
  8
AM_4
100
AcDbLine
 10
-24.76346035225552
 20
28.09704095623177
 30
0.0
 11
-25.21251868059513
 21
28.66218431808586
 31
0.0
  0
LINE
  5
E1
330
8B
100
AcDbEntity
  8
AM_4
100
AcDbLine
 10
-24.31440237076794
 20
27.56222095047494
 30
0.0
 11
-24.76346035225552
 21
28.09704095623177
 31
0.0
  0
LINE
  5
E2
330
8B
100
AcDbEntity
  8
AM_4
100
AcDbLine
 10
-24.2998963266515
 20
27.54544175214063
 30
0.0
 11
-24.31440237076794
 21
27.56222095047494
 31
0.0
  0
LWPOLYLINE
  5
E3
330
8B
100
AcDbEntity
  8
AM_4
100
AcDbPolyline
 90
        3
 70
     0
 43
0.0
 10
-23.32008467928145
 20
26.47582854576965
 10
-24.03852761292482
 20
27.24820791798052
 10
-24.2998963266515
 20
27.54544175214063
  0
LWPOLYLINE
  5
E4
330
8B
100
AcDbEntity
  8
AM_4
100
AcDbPolyline
 90
        3
 70
     0
 43
0.0
 10
-24.76346035225552
 20
30.21836129979141
 10
-24.04177251576849
 20
29.29579494826686
 10
-23.32008467928145
 20
28.30403980432079
  0
LWPOLYLINE
  5
E5
330
8B
100
AcDbEntity
  8
AM_4
100
AcDbPolyline
 90
        4
 70
     0
 43
0.0
 10
-23.32008467928145
 20
28.30403980432079
 10
-22.66469237811645
 20
28.36053895931538
 10
-21.55234735234794
 20
28.4271590909305
 10
-20.43333333333333
 20
28.45059434682504
  0
ELLIPSE
  5
E6
330
8B
100
AcDbEntity
  8
AM_4
100
AcDbEllipse
 10
-20.43333333333331
 20
31.98612825275779
 30
0.0
 11
5.000000000000014
 21
0.0
 31
0.0
210
0.0
220
0.0
230
1.0
 40
0.7071067811865483
 41
3.665191429188093
 42
4.71238898038469
  0
ELLIPSE
  5
E7
330
8B
100
AcDbEntity
  8
AM_4
100
AcDbEllipse
 10
-20.43333333333335
 20
31.98612825275779
 30
0.0
 11
5.000000000000021
 21
0.0
 31
0.0
210
0.0
220
0.0
230
1.0
 40
0.7071067811865488
 41
4.71238898038469
 42
7.181390445806743
  0
ELLIPSE
  5
E8
330
8B
100
AcDbEntity
  8
AM_4
100
AcDbEllipse
 10
-20.4333333333334
 20
31.98612825275773
 30
0.0
 11
4.999999999999901
 21
0.0
 31
0.0
210
0.0
220
0.0
230
1.0
 40
0.7071067811865595
 41
2.243387514962702
 42
2.617993877991484
  0
ELLIPSE
  5
E9
330
8B
100
AcDbEntity
  8
AM_4
100
AcDbEllipse
 10
-20.43333333333332
 20
31.98612825275779
 30
0.0
 11
5.000000000000007
 21
0.0
 31
0.0
210
0.0
220
0.0
230
1.0
 40
0.7071067811865479
 41
2.617993877991498
 42
3.665191429188094
  0
ELLIPSE
  5
EA
330
8B
100
AcDbEntity
  8
AM_4
100
AcDbEllipse
 10
-20.43333333333333
 20
32.60160267185438
 30
0.0
 11
3.607583894601117
 21
0.0
 31
0.0
210
0.0
220
0.0
230
1.0
 40
0.7071067811865472
 41
2.478209338400867
 42
6.283185307179586
  0
ELLIPSE
  5
EB
330
8B
100
AcDbEntity
  8
AM_4
100
AcDbEllipse
 10
-20.43333333333318
 20
33.19444172228899
 30
0.0
 11
2.982994982562357
 21
0.0
 31
0.0
210
0.0
220
0.0
230
1.0
 40
0.7071067811865596
 41
2.754650415401361
 42
6.670127545368055
  0
LINE
  5
EC
330
8B
100
AcDbEntity
  8
AM_4
100
AcDbLine
 10
-23.18231045004826
 20
34.01378882426581
 30
0.0
 11
-23.19578732271012
 21
33.99040246961571
 31
0.0
  0
LINE
  5
ED
330
8B
100
AcDbEntity
  8
AM_4
100
AcDbLine
 10
-17.67087934395653
 20
33.99040246961571
 30
0.0
 11
-17.68435621661839
 21
34.01378882426581
 31
0.0
  0
ELLIPSE
  5
EE
330
8B
100
AcDbEntity
  8
AM_4
100
AcDbEllipse
 10
-20.43333333333336
 20
32.60160267185436
 30
0.0
 11
3.607583894601145
 21
0.0
 31
0.0
210
0.0
220
0.0
230
1.0
 40
0.7071067811865456
 41
0.0
 42
0.6633833151889283
  0
ELLIPSE
  5
EF
330
8B
100
AcDbEntity
  8
AM_4
100
AcDbEllipse
 10
-20.43333333333333
 20
31.98612825275777
 30
0.0
 11
4.750000000000004
 21
0.0
 31
0.0
210
0.0
220
0.0
230
1.0
 40
0.7071067811865482
 41
2.267944363640978
 42
6.283185307179586
  0
ELLIPSE
  5
F0
330
8B
100
AcDbEntity
  8
AM_4
100
AcDbEllipse
 10
-20.43333333333334
 20
31.98612825275776
 30
0.0
 11
4.750000000000016
 21
0.0
 31
0.0
210
0.0
220
0.0
230
1.0
 40
0.7071067811865486
 41
0.0
 42
0.8736482899487062
  0
LINE
  5
F1
330
8B
100
AcDbEntity
  8
AM_4
100
AcDbLine
 10
-17.75833333333333
 20
33.77157287525382
 30
0.0
 11
-17.75833333333333
 21
33.88824549414959
 31
0.0
  0
LINE
  5
F2
330
8B
100
AcDbEntity
  8
AM_4
100
AcDbLine
 10
-23.10833333333333
 20
33.88824549414959
 30
0.0
 11
-23.10833333333333
 21
33.77157287525382
 31
0.0
  0
ELLIPSE
  5
F3
330
8B
100
AcDbEntity
  8
AM_4
100
AcDbEllipse
 10
-20.43333333333333
 20
33.77157287525382
 30
0.0
 11
2.675000000000004
 21
0.0
 31
0.0
210
0.0
220
0.0
230
1.0
 40
0.7071067811865474
 41
3.141592653589793
 42
6.283185307179586
  0
LINE
  5
F4
330
8B
100
AcDbEntity
  8
AM_4
100
AcDbLine
 10
-17.96410256410256
 20
33.53904352990209
 30
0.0
 11
-17.50256410256409
 21
34.32230027213949
 31
0.0
  0
LINE
  5
F5
330
8B
100
AcDbEntity
  8
AM_4
100
AcDbLine
 10
-23.36410256410256
 20
34.32230027213949
 30
0.0
 11
-22.9025641025641
 21
33.53904352990209
 31
0.0
  0
ELLIPSE
  5
F6
330
8B
100
AcDbEntity
  8
AM_4
100
AcDbEllipse
 10
-20.43333333333333
 20
35.1857864376269
 30
0.0
 11
3.174999999999986
 21
0.0
 31
0.0
210
0.0
220
0.0
230
1.0
 40
0.7071067811865477
 41
3.53638377328955
 42
5.888394187479827
  0
ELLIPSE
  5
F7
330
8B
100
AcDbEntity
  8
AM_4
100
AcDbEllipse
 10
-20.43333333333358
 20
35.18578643762676
 30
0.0
 11
3.175000000000257
 21
0.0
 31
0.0
210
0.0
220
0.0
230
1.0
 40
0.7071067811865301
 41
5.88839418747991
 42
6.69909935928217
  0
ELLIPSE
  5
F8
330
8B
100
AcDbEntity
  8
AM_4
100
AcDbEllipse
 10
-20.43333333333333
 20
34.26654762208439
 30
0.0
 11
2.674999999999986
 21
0.0
 31
0.0
210
0.0
220
0.0
230
1.0
 40
0.7071067811865467
 41
3.53638377328955
 42
5.88839418747983
  0
LINE
  5
F9
330
8B
100
AcDbEntity
  8
AM_4
100
AcDbLine
 10
-22.59849245302524
 20
37.27621249728131
 30
0.0
 11
-23.33765633359286
 21
36.09285118453406
 31
0.0
  0
LINE
  5
FA
330
8B
100
AcDbEntity
  8
AM_4
100
AcDbLine
 10
-17.5290103330738
 20
36.09285118453406
 30
0.0
 11
-18.26817421364142
 21
37.27621249728131
 31
0.0
  0
ELLIPSE
  5
FB
330
8B
100
AcDbEntity
  8
AM_4
100
AcDbEllipse
 10
-20.43333333333332
 20
35.18578643762691
 30
0.0
 11
3.175000000000008
 21
0.0
 31
0.0
210
0.0
220
0.0
230
1.0
 40
0.7071067811865452
 41
2.725678601487248
 42
3.536383773289554
  0
ELLIPSE
  5
FC
330
8B
100
AcDbEntity
  8
AM_4
100
AcDbEllipse
 10
-20.43333333333334
 20
36.60000000000009
 30
0.0
 11
2.366947548329701
 21
0.0
 31
0.0
210
0.0
220
0.0
230
1.0
 40
0.7071067811865364
 41
0.0
 42
6.283185307179586
  0
ENDBLK
  5
8E
330
8B
100
AcDbEntity
  8
0
100
AcDbBlockEnd
  0
BLOCK
  5
FF
330
FD
100
AcDbEntity
  8
0
100
AcDbBlockBegin
  2
3_125627_0_in_130832_2
 70
     2
 10
0.0
 20
0.0
 30
0.0
  3
3_125627_0_in_130832_2
  1

  0
ATTDEF
  5
101
330
FD
100
AcDbEntity
  8
AM_6
100
AcDbText
 10
0.599999999999997
 20
25.98484077835522
 30
0.0
 40
0.5
  1
Eccentric Collar Insert Metric Bore
100
AcDbAttributeDefinition
  3

  2
NN
 70
     8
280
     0
  0
ATTDEF
  5
102
330
FD
100
AcDbEntity
  8
AM_6
100
AcDbText
 10
0.599999999999997
 20
25.48484077835522
 30
0.0
 40
0.5
  1
SXR Normal Duty Bearing Inserts
100
AcDbAttributeDefinition
  3

  2
NT
 70
     8
280
     0
  0
ATTDEF
  5
103
330
FD
100
AcDbEntity
  8
AM_6
100
AcDbText
 10
0.599999999999997
 20
24.98484077835522
 30
0.0
 40
0.5
  1
125627
100
AcDbAttributeDefinition
  3

  2
NB
 70
     8
280
     0
  0
ATTDEF
  5
104
330
FD
100
AcDbEntity
  8
AM_6
100
AcDbText
 10
0.599999999999997
 20
24.48484077835522
 30
0.0
 40
0.5
  1
$PN.
100
AcDbAttributeDefinition
  3

  2
NBSYN
 70
     8
280
     0
  0
ATTDEF
  5
105
330
FD
100
AcDbEntity
  8
AM_6
100
AcDbText
 10
0.599999999999997
 20
23.98484077835522
 30
0.0
 40
0.5
  1
125627
100
AcDbAttributeDefinition
  3

  2
LINA
 70
     8
280
     0
  0
ATTDEF
  5
106
330
FD
100
AcDbEntity
  8
AM_6
100
AcDbText
 10
0.599999999999997
 20
23.48484077835522
 30
0.0
 40
0.5
  1
205
100
AcDbAttributeDefinition
  3

  2
SERIES
 70
     8
280
     0
  0
ATTDEF
  5
107
330
FD
100
AcDbEntity
  8
AM_6
100
AcDbText
 10
0.599999999999997
 20
22.98484077835522
 30
0.0
 40
0.5
  1
25
100
AcDbAttributeDefinition
  3

  2
SS
 70
     8
280
     0
  0
ATTDEF
  5
108
330
FD
100
AcDbEntity
  8
AM_6
100
AcDbText
 10
0.599999999999997
 20
22.48484077835522
 30
0.0
 40
0.5
  1
125627
100
AcDbAttributeDefinition
  3

  2
PN
 70
     8
280
     0
  0
ATTDEF
  5
109
330
FD
100
AcDbEntity
  8
AM_6
100
AcDbText
 10
0.599999999999997
 20
21.98484077835522
 30
0.0
 40
0.5
  1
INS-SXR-25M
100
AcDbAttributeDefinition
  3

  2
DESCRIPTION
 70
     8
280
     0
  0
ATTDEF
  5
10A
330
FD
100
AcDbEntity
  8
AM_6
100
AcDbText
 10
0.599999999999997
 20
21.48484077835522
 30
0.0
 40
0.5
  1
0.2
100
AcDbAttributeDefinition
  3

  2
WEIGHT
 70
     8
280
     0
  0
ATTDEF
  5
10B
330
FD
100
AcDbEntity
  8
AM_6
100
AcDbText
 10
0.599999999999997
 20
20.98484077835522
 30
0.0
 40
0.5
  1
41.1
100
AcDbAttributeDefinition
  3

  2
A
 70
     8
280
     0
  0
ATTDEF
  5
10C
330
FD
100
AcDbEntity
  8
AM_6
100
AcDbText
 10
0.599999999999997
 20
20.48484077835522
 30
0.0
 40
0.5
  1
15.0
100
AcDbAttributeDefinition
  3

  2
C
 70
     8
280
     0
  0
ATTDEF
  5
10D
330
FD
100
AcDbEntity
  8
AM_6
100
AcDbText
 10
0.599999999999997
 20
19.98484077835522
 30
0.0
 40
0.5
  1
52.000
100
AcDbAttributeDefinition
  3

  2
D
 70
     8
280
     0
  0
ATTDEF
  5
10E
330
FD
100
AcDbEntity
  8
AM_6
100
AcDbText
 10
0.599999999999997
 20
19.48484077835522
 30
0.0
 40
0.5
  1
4.1
100
AcDbAttributeDefinition
  3

  2
J
 70
     8
280
     0
  0
ATTDEF
  5
10F
330
FD
100
AcDbEntity
  8
AM_6
100
AcDbText
 10
0.599999999999997
 20
18.98484077835522
 30
0.0
 40
0.5
  1
38.1
100
AcDbAttributeDefinition
  3

  2
L
 70
     8
280
     0
  0
ATTDEF
  5
110
330
FD
100
AcDbEntity
  8
AM_6
100
AcDbText
 10
0.599999999999997
 20
18.48484077835522
 30
0.0
 40
0.5
  1
M6 x 1
100
AcDbAttributeDefinition
  3

  2
N
 70
     8
280
     0
  0
ATTDEF
  5
111
330
FD
100
AcDbEntity
  8
AM_6
100
AcDbText
 10
0.599999999999997
 20
17.98484077835522
 30
0.0
 40
0.5
  1
14.2
100
AcDbAttributeDefinition
  3

  2
W
 70
     8
280
     0
  0
ATTDEF
  5
112
330
FD
100
AcDbEntity
  8
AM_6
100
AcDbText
 10
0.599999999999997
 20
17.48484077835522
 30
0.0
 40
0.5
  1
26.9
100
AcDbAttributeDefinition
  3

  2
Y
 70
     8
280
     0
  0
ATTDEF
  5
113
330
FD
100
AcDbEntity
  8
AM_6
100
AcDbText
 10
0.599999999999997
 20
16.98484077835522
 30
0.0
 40
0.5
  1
33.5
100
AcDbAttributeDefinition
  3

  2
Z
 70
     8
280
     0
  0
ATTDEF
  5
114
330
FD
100
AcDbEntity
  8
AM_6
100
AcDbText
 10
0.599999999999997
 20
16.48484077835522
 30
0.0
 40
0.5
  1
baldor
100
AcDbAttributeDefinition
  3

  2
COMPANY
 70
     8
280
     0
  0
ARC
  5
115
330
FD
100
AcDbEntity
  8
AM_9
100
AcDbCircle
 10
-14.50000000000001
 20
-24.38962711379894
 30
0.0
 40
2.000000000000025
100
AcDbArc
 50
199.8065793941387
 51
359.2783103011749
  0
LINE
  5
116
330
FD
100
AcDbEntity
  8
AM_9
100
AcDbLine
 10
-45.2
 20
-12.5
 30
0.0
 11
-36.71213174635596
 21
-12.5
 31
0.0
  0
LINE
  5
117
330
FD
100
AcDbEntity
  8
AM_9
100
AcDbLine
 10
-36.71213174635596
 20
12.5
 30
0.0
 11
-45.2
 21
12.5
 31
0.0
  0
LINE
  5
118
330
FD
100
AcDbEntity
  8
AM_9
100
AcDbLine
 10
-36.28786767764404
 20
-12.5
 30
0.0
 11
-4.700000000000006
 21
-12.5
 31
0.0
  0
LINE
  5
119
330
FD
100
AcDbEntity
  8
AM_9
100
AcDbLine
 10
-4.700000000000006
 20
12.5
 30
0.0
 11
-36.28786767764404
 21
12.5
 31
0.0
  0
LINE
  5
11A
330
FD
100
AcDbEntity
  8
AM_9
100
AcDbLine
 10
-36.28786767764404
 20
12.5
 30
0.0
 11
-36.49999971199999
 21
12.71213203435596
 31
0.0
  0
LINE
  5
11B
330
FD
100
AcDbEntity
  8
AM_9
100
AcDbLine
 10
-36.49999971199999
 20
-12.71213203435596
 30
0.0
 11
-36.28786767764404
 21
-12.5
 31
0.0
  0
LINE
  5
11C
330
FD
100
AcDbEntity
  8
AM_9
100
AcDbLine
 10
-36.28786767764404
 20
12.5
 30
0.0
 11
-36.28786767764404
 21
-12.5
 31
0.0
  0
LINE
  5
11D
330
FD
100
AcDbEntity
  8
AM_9
100
AcDbLine
 10
-36.71213174635596
 20
-12.5
 30
0.0
 11
-36.49999971199999
 21
-12.71213203435596
 31
0.0
  0
LINE
  5
11E
330
FD
100
AcDbEntity
  8
AM_9
100
AcDbLine
 10
-36.49999971199999
 20
12.71213203435596
 30
0.0
 11
-36.71213174635596
 21
12.5
 31
0.0
  0
LINE
  5
11F
330
FD
100
AcDbEntity
  8
AM_9
100
AcDbLine
 10
-36.49999971199999
 20
12.71213203435596
 30
0.0
 11
-36.49999971199999
 21
-12.71213203435596
 31
0.0
  0
LINE
  5
120
330
FD
100
AcDbEntity
  8
AM_9
100
AcDbLine
 10
-36.71213174635596
 20
12.5
 30
0.0
 11
-36.71213174635596
 21
-12.5
 31
0.0
  0
LINE
  5
121
330
FD
100
AcDbEntity
  8
AM_9
100
AcDbLine
 10
-4.700000000000006
 20
-12.5
 30
0.0
 11
-4.400000000000003
 21
-12.8
 31
0.0
  0
LINE
  5
122
330
FD
100
AcDbEntity
  8
AM_9
100
AcDbLine
 10
-4.400000000000003
 20
12.8
 30
0.0
 11
-4.700000000000006
 21
12.5
 31
0.0
  0
LINE
  5
123
330
FD
100
AcDbEntity
  8
AM_9
100
AcDbLine
 10
-45.2
 20
12.5
 30
0.0
 11
-45.5
 21
12.8
 31
0.0
  0
LINE
  5
124
330
FD
100
AcDbEntity
  8
AM_9
100
AcDbLine
 10
-45.5
 20
-12.8
 30
0.0
 11
-45.2
 21
-12.5
 31
0.0
  0
LINE
  5
125
330
FD
100
AcDbEntity
  8
AM_9
100
AcDbLine
 10
-45.2
 20
12.5
 30
0.0
 11
-45.2
 21
-12.5
 31
0.0
  0
LWPOLYLINE
  5
126
330
FD
100
AcDbEntity
  8
AM_9
100
AcDbPolyline
 90
       20
 70
     0
 43
0.0
 10
-43.458499856
 20
3.235238063781509
 10
-43.42532862181736
 20
2.84477965557961
 10
-43.32297461677648
 20
2.450960797905311
 10
-43.16034388490639
 20
2.087421532880462
 10
-42.93302345859669
 20
1.74392805796451
 10
-42.65619136764809
 20
1.445854322300355
 10
-42.32417943719365
 20
1.189671800276982
 10
-41.96101321791993
 20
0.9959984864894968
 10
-41.55846043795472
 20
0.8626879993512849
 10
-41.15634394100113
 20
0.8023826692180099
 10
-40.7376682746504
 20
0.8116021609096422
 10
-40.34409490111583
 20
0.887930493459825
 10
-39.95802582391042
 20
1.032593576732315
 10
-39.60885883343735
 20
1.234431646087375
 10
-39.28909945287785
 20
1.497449285769866
 10
-39.02029258930802
 20
1.805102736768184
 10
-38.80068224265136
 20
2.161416711940618
 10
-38.64866102385866
 20
2.53642742332269
 10
-38.56040698412923
 20
2.940331462013184
 10
-38.54149986962599
 20
3.235488084819049
  0
LINE
  5
127
330
FD
100
AcDbEntity
  8
AM_9
100
AcDbLine
 10
-38.54149985600001
 20
3.234924556082956
 30
0.0
 11
-38.54149985600001
 21
4.868980619040171
 31
0.0
  0
LINE
  5
128
330
FD
100
AcDbEntity
  8
AM_9
100
AcDbLine
 10
-43.458499856
 20
4.868980619040173
 30
0.0
 11
-43.458499856
 21
3.23523806378151
 31
0.0
  0
LWPOLYLINE
  5
129
330
FD
100
AcDbEntity
  8
AM_9
100
AcDbPolyline
 90
        4
 70
     0
 43
0.0
 10
-43.30075696770936
 20
4.064384789068047
 10
-43.38086773775444
 20
3.823396875821264
 10
-43.43868123116847
 20
3.535154902386147
 10
-43.458499856
 20
3.235238063781509
  0
LWPOLYLINE
  5
12A
330
FD
100
AcDbEntity
  8
AM_9
100
AcDbPolyline
 90
        4
 70
     0
 43
0.0
 10
-38.54149986962599
 20
3.235488084819049
 10
-38.54352112299869
 20
3.331410858991066
 10
-38.5955285184067
 20
3.727632585414058
 10
-38.70211892595607
 20
4.071587836854333
  0
LINE
  5
12B
330
FD
100
AcDbEntity
  8
AM_9
100
AcDbLine
 10
-11.1
 20
-16.75
 30
0.0
 11
-4.700000000000003
 21
-16.75
 31
0.0
  0
LINE
  5
12C
330
FD
100
AcDbEntity
  8
AM_9
100
AcDbLine
 10
-4.700000000000003
 20
16.75
 30
0.0
 11
-11.1
 21
16.75
 31
0.0
  0
LINE
  5
12D
330
FD
100
AcDbEntity
  8
AM_9
100
AcDbLine
 10
-27.7
 20
-16.75
 30
0.0
 11
-26.1
 21
-16.75
 31
0.0
  0
LINE
  5
12E
330
FD
100
AcDbEntity
  8
AM_9
100
AcDbLine
 10
-26.1
 20
16.75
 30
0.0
 11
-27.7
 21
16.75
 31
0.0
  0
LINE
  5
12F
330
FD
100
AcDbEntity
  8
AM_9
100
AcDbLine
 10
-4.400000000000003
 20
16.45
 30
0.0
 11
-4.700000000000003
 21
16.75
 31
0.0
  0
LINE
  5
130
330
FD
100
AcDbEntity
  8
AM_9
100
AcDbLine
 10
-4.700000000000003
 20
-16.75
 30
0.0
 11
-4.400000000000003
 21
-16.45
 31
0.0
  0
LINE
  5
131
330
FD
100
AcDbEntity
  8
AM_9
100
AcDbLine
 10
-4.700000000000003
 20
16.75
 30
0.0
 11
-4.700000000000003
 21
-16.75
 31
0.0
  0
LINE
  5
132
330
FD
100
AcDbEntity
  8
AM_9
100
AcDbLine
 10
-23.52
 20
-24.76190496000001
 30
0.0
 11
-21.88
 21
-24.76190496000001
 31
0.0
  0
LINE
  5
133
330
FD
100
AcDbEntity
  8
AM_9
100
AcDbLine
 10
-21.88
 20
24.76190496000001
 30
0.0
 11
-23.52
 21
24.76190496000001
 31
0.0
  0
LINE
  5
134
330
FD
100
AcDbEntity
  8
AM_9
100
AcDbLine
 10
-11.1
 20
24.44483585545217
 30
0.0
 11
-11.1
 21
-24.44483585545217
 31
0.0
  0
ARC
  5
135
330
FD
100
AcDbEntity
  8
AM_9
100
AcDbCircle
 10
-11.70000000000001
 20
-24.44483585545216
 30
0.0
 40
0.600000000000005
100
AcDbArc
 50
285.7626860301912
 51
0.0
  0
ARC
  5
136
330
FD
100
AcDbEntity
  8
AM_9
100
AcDbCircle
 10
-11.70000000000001
 20
24.44483585545216
 30
0.0
 40
0.6000000000000068
100
AcDbArc
 50
0.0
 51
74.2373139698088
  0
LINE
  5
137
330
FD
100
AcDbEntity
  8
AM_9
100
AcDbLine
 10
-26.1
 20
24.44483585545217
 30
0.0
 11
-26.1
 21
-24.44483585545217
 31
0.0
  0
ARC
  5
138
330
FD
100
AcDbEntity
  8
AM_9
100
AcDbCircle
 10
-25.5
 20
-24.44483585545216
 30
0.0
 40
0.6000000000000085
100
AcDbArc
 50
180.0
 51
254.2373139698081
  0
ARC
  5
139
330
FD
100
AcDbEntity
  8
AM_9
100
AcDbCircle
 10
-25.5
 20
24.44483585545216
 30
0.0
 40
0.6000000000000069
100
AcDbArc
 50
105.7626860301919
 51
180.0
  0
ARC
  5
13A
330
FD
100
AcDbEntity
  8
AM_9
100
AcDbCircle
 10
-18.599999998262
 20
-0.0000000073295112
 30
0.0
 40
26.00000000752858
100
AcDbArc
 50
100.9078961833752
 51
105.7626860294876
  0
ARC
  5
13B
330
FD
100
AcDbEntity
  8
AM_9
100
AcDbCircle
 10
-18.60000000112456
 20
-0.0000000047487525
 30
0.0
 40
25.99999999512867
100
AcDbArc
 50
254.237313969354
 51
259.092103817783
  0
LINE
  5
13C
330
FD
100
AcDbEntity
  8
AM_9
100
AcDbLine
 10
-25.66299212598426
 20
25.02227292290645
 30
0.0
 11
-25.66299212598426
 21
-25.0222729229083
 31
0.0
  0
LINE
  5
13D
330
FD
100
AcDbEntity
  8
AM_9
100
AcDbLine
 10
-23.52
 20
25.53024872577891
 30
0.0
 11
-23.52
 21
-25.53024872578076
 31
0.0
  0
ARC
  5
13E
330
FD
100
AcDbEntity
  8
AM_9
100
AcDbCircle
 10
-18.59999999999998
 20
-0.0000000000002558
 30
0.0
 40
25.99999999999971
100
AcDbArc
 50
262.7526061855317
 51
285.7626860301909
  0
ARC
  5
13F
330
FD
100
AcDbEntity
  8
AM_9
100
AcDbCircle
 10
-18.60000000000006
 20
-0.0000000000008242
 30
0.0
 40
26.00000000000079
100
AcDbArc
 50
74.2373139698095
 51
97.24739381446778
  0
LINE
  5
140
330
FD
100
AcDbEntity
  8
AM_9
100
AcDbLine
 10
-21.88
 20
25.79227791413544
 30
0.0
 11
-21.88
 21
-25.79227791413542
 31
0.0
  0
LINE
  5
141
330
FD
100
AcDbEntity
  8
AM_9
100
AcDbLine
 10
-11.53700787401575
 20
25.02227292290377
 30
0.0
 11
-11.53700787401575
 21
-25.02227292290376
 31
0.0
  0
ELLIPSE
  5
142
330
FD
100
AcDbEntity
  8
AM_9
100
AcDbEllipse
 10
-14.44477705740996
 20
-24.71813125474959
 30
0.0
 11
-1.942838224024167
 21
-0.3265993646123561
 31
0.0
210
0.0
220
0.0
230
1.0
 40
0.2554730501184719
 41
0.0
 42
6.283185307179586
  0
LWPOLYLINE
  5
143
330
FD
100
AcDbEntity
  8
AM_4
100
AcDbPolyline
 90
       17
 70
     0
 43
0.0
 10
-38.70211892595607
 20
4.071587836854333
 10
-38.71065762297414
 20
4.092553835053367
 10
-38.89205358330938
 20
4.440732717349693
 10
-39.12783064611228
 20
4.748034028789696
 10
-39.42278504739967
 20
5.019844036295297
 10
-39.75804367956465
 20
5.237732108271444
 10
-40.13963700702514
 20
5.404419774395723
 10
-40.53317376001064
 20
5.505871576528262
 10
-40.95241369636221
 20
5.546354204999309
 10
-41.3539357729798
 20
5.523359850587126
 10
-41.75683787770697
 20
5.43749223741038
 10
-42.12671756335082
 20
5.296082338838152
 10
-42.47523173119782
 20
5.094630920577565
 10
-42.77899455576203
 20
4.844349458731285
 10
-43.04070182107983
 20
4.540043925884199
 10
-43.24039747134636
 20
4.202460082379699
 10
-43.30075696770936
 20
4.064384789068047
  0
LINE
  5
144
330
FD
100
AcDbEntity
  8
AM_4
100
AcDbLine
 10
-35.3
 20
-15.95238108
 30
0.0
 11
-34.70000000000001
 21
-15.95238108
 31
0.0
  0
LINE
  5
145
330
FD
100
AcDbEntity
  8
AM_4
100
AcDbLine
 10
-34.70000000000001
 20
15.95238108
 30
0.0
 11
-35.3
 21
15.95238108
 31
0.0
  0
LINE
  5
146
330
FD
100
AcDbEntity
  8
AM_4
100
AcDbLine
 10
-34.70000000000001
 20
-16.45
 30
0.0
 11
-34.4
 21
-16.75
 31
0.0
  0
LINE
  5
147
330
FD
100
AcDbEntity
  8
AM_4
100
AcDbLine
 10
-34.4
 20
16.75
 30
0.0
 11
-34.70000000000001
 21
16.45
 31
0.0
  0
LINE
  5
148
330
FD
100
AcDbEntity
  8
AM_4
100
AcDbLine
 10
-34.70000000000001
 20
16.45
 30
0.0
 11
-34.70000000000001
 21
-16.45
 31
0.0
  0
LINE
  5
149
330
FD
100
AcDbEntity
  8
AM_4
100
AcDbLine
 10
-34.4
 20
-16.75
 30
0.0
 11
-27.7
 21
-16.75
 31
0.0
  0
LINE
  5
14A
330
FD
100
AcDbEntity
  8
AM_4
100
AcDbLine
 10
-27.7
 20
16.75
 30
0.0
 11
-34.4
 21
16.75
 31
0.0
  0
LINE
  5
14B
330
FD
100
AcDbEntity
  8
AM_4
100
AcDbLine
 10
-34.4
 20
16.75
 30
0.0
 11
-34.4
 21
-16.75
 31
0.0
  0
LINE
  5
14C
330
FD
100
AcDbEntity
  8
AM_4
100
AcDbLine
 10
-35.3
 20
18.3
 30
0.0
 11
-35.3
 21
-18.3
 31
0.0
  0
ARC
  5
14D
330
FD
100
AcDbEntity
  8
AM_4
100
AcDbCircle
 10
-36.05000000000001
 20
-18.29999999999999
 30
0.0
 40
0.7500000000000178
100
AcDbArc
 50
270.0
 51
0.0
  0
ARC
  5
14E
330
FD
100
AcDbEntity
  8
AM_4
100
AcDbCircle
 10
-36.05000000000001
 20
18.29999999999999
 30
0.0
 40
0.7500000000000142
100
AcDbArc
 50
0.0
 51
90.0
  0
LINE
  5
14F
330
FD
100
AcDbEntity
  8
AM_4
100
AcDbLine
 10
-45.5
 20
18.3
 30
0.0
 11
-45.5
 21
-18.3
 31
0.0
  0
ARC
  5
150
330
FD
100
AcDbEntity
  8
AM_4
100
AcDbCircle
 10
-44.74999999999999
 20
-18.29999999999999
 30
0.0
 40
0.7500000000000142
100
AcDbArc
 50
180.0
 51
270.0
  0
ARC
  5
151
330
FD
100
AcDbEntity
  8
AM_4
100
AcDbCircle
 10
-44.74999999999999
 20
18.29999999999999
 30
0.0
 40
0.7500000000000178
100
AcDbArc
 50
90.0
 51
180.0
  0
LWPOLYLINE
  5
152
330
FD
100
AcDbEntity
  8
AM_4
100
AcDbPolyline
 90
       39
 70
     0
 43
0.0
 10
-39.12540082387256
 20
6.661541710473223
 10
-38.85916367802969
 20
6.396897687181649
 10
-38.63798479147137
 20
6.096300384897691
 10
-38.45259873615736
 20
5.723629446995986
 10
-38.33921941611079
 20
5.323214762759383
 10
-38.30410043911537
 20
4.932003598182409
 10
-38.33868014136677
 20
4.538538963578268
 10
-38.43853603388521
 20
4.165924318322357
 10
-38.59892684754566
 20
3.812299212755648
 10
-38.8208414069991
 20
3.479570010625704
 10
-39.09317089493676
 20
3.184056243388482
 10
-39.428502505923
 20
2.919159903997331
 10
-39.80185459681876
 20
2.709002264732509
 10
-40.22910810858196
 20
2.551355068449557
 10
-40.67642336191656
 20
2.463620784969056
 10
-41.14962818161496
 20
2.449449121618894
 10
-41.61868566820732
 20
2.512956981863042
 10
-42.07475454150497
 20
2.655523943935709
 10
-42.49967436383485
 20
2.872446729251038
 10
-42.87327153099172
 20
3.153805771424527
 10
-43.19101143794353
 20
3.494415417586042
 10
-43.4291652909066
 20
3.865081542801458
 10
-43.59619672349676
 20
4.269553484845614
 10
-43.67999722774749
 20
4.665811205237405
 10
-43.69190311992724
 20
5.067979849018642
 10
-43.63458022428643
 20
5.445641931242303
 10
-43.51350487510081
 20
5.807034268376468
 10
-43.33091669034662
 20
6.144797083593528
 10
-43.09448176642641
 20
6.449262493964267
 10
-42.79514041853505
 20
6.726480607084889
 10
-42.45323009925752
 20
6.95523879836958
 10
-42.0524124994887
 20
7.140749314666325
 10
-41.62486641029195
 20
7.264194084403912
 10
-41.16033444849946
 20
7.324137185868212
 10
-40.69143962990213
 20
7.313007830099619
 10
-40.22237159940035
 20
7.227850245091295
 10
-39.7755453227713
 20
7.070509834550148
 10
-39.43461598621474
 20
6.888357127792752
 10
-39.1254008237904
 20
6.661541710490265
  0
LINE
  5
153
330
FD
100
AcDbEntity
  8
AM_4
100
AcDbLine
 10
-44.75
 20
-19.05
 30
0.0
 11
-36.05
 21
-19.05
 31
0.0
  0
LINE
  5
154
330
FD
100
AcDbEntity
  8
AM_4
100
AcDbLine
 10
-36.05
 20
19.05
 30
0.0
 11
-44.75
 21
19.05
 31
0.0
  0
LINE
  5
155
330
FD
100
AcDbEntity
  8
AM_4
100
AcDbLine
 10
-44.75
 20
19.05
 30
0.0
 11
-44.75
 21
-19.05
 31
0.0
  0
LINE
  5
156
330
FD
100
AcDbEntity
  8
AM_4
100
AcDbLine
 10
-36.05
 20
19.05
 30
0.0
 11
-36.05
 21
-19.05
 31
0.0
  0
ELLIPSE
  5
157
330
FD
100
AcDbEntity
  8
AM_4
100
AcDbEllipse
 10
-40.99999985600001
 20
4.868980619040173
 30
0.0
 11
2.458500000000001
 21
0.0
 31
0.0
210
0.0
220
0.0
230
1.0
 40
0.9659258262890685
 41
0.0
 42
6.283185307179586
  0
ENDBLK
  5
100
330
FD
100
AcDbEntity
  8
0
100
AcDbBlockEnd
  0
BLOCK
  5
15A
330
158
100
AcDbEntity
  8
0
100
AcDbBlockBegin
  2
4_130832H_0_in_130832_2
 70
     2
 10
0.0
 20
0.0
 30
0.0
  3
4_130832H_0_in_130832_2
  1

  0
ATTDEF
  5
15C
330
158
100
AcDbEntity
  8
AM_6
100
AcDbText
 10
7.275
 20
62.0
 30
0.0
 40
0.5
  1
F2BZ-SXR -Metric - housing
100
AcDbAttributeDefinition
  3

  2
NN
 70
     8
280
     0
  0
ATTDEF
  5
15D
330
158
100
AcDbEntity
  8
AM_6
100
AcDbText
 10
7.275
 20
61.5
 30
0.0
 40
0.5
  1
Eccentric Collar 2 Bolt Piloted Flange Bearings -(Normal Duty)
100
AcDbAttributeDefinition
  3

  2
NT
 70
     8
280
     0
  0
ATTDEF
  5
15E
330
158
100
AcDbEntity
  8
AM_6
100
AcDbText
 10
7.275
 20
61.0
 30
0.0
 40
0.5
  1
130832H
100
AcDbAttributeDefinition
  3

  2
NB
 70
     8
280
     0
  0
ATTDEF
  5
15F
330
158
100
AcDbEntity
  8
AM_6
100
AcDbText
 10
7.275
 20
60.5
 30
0.0
 40
0.5
  1
$PN.H
100
AcDbAttributeDefinition
  3

  2
NBSYN
 70
     8
280
     0
  0
ATTDEF
  5
160
330
158
100
AcDbEntity
  8
AM_6
100
AcDbText
 10
7.275
 20
60.0
 30
0.0
 40
0.5
  1
130832
100
AcDbAttributeDefinition
  3

  2
LINA
 70
     8
280
     0
  0
ATTDEF
  5
161
330
158
100
AcDbEntity
  8
AM_6
100
AcDbText
 10
7.275
 20
59.5
 30
0.0
 40
0.5
  1
205
100
AcDbAttributeDefinition
  3

  2
SERIES
 70
     8
280
     0
  0
ATTDEF
  5
162
330
158
100
AcDbEntity
  8
AM_6
100
AcDbText
 10
7.275
 20
59.0
 30
0.0
 40
0.5
  1
25
100
AcDbAttributeDefinition
  3

  2
SS
 70
     8
280
     0
  0
ATTDEF
  5
163
330
158
100
AcDbEntity
  8
AM_6
100
AcDbText
 10
7.275
 20
58.5
 30
0.0
 40
0.5
  1
130832
100
AcDbAttributeDefinition
  3

  2
PN
 70
     8
280
     0
  0
ATTDEF
  5
164
330
158
100
AcDbEntity
  8
AM_6
100
AcDbText
 10
7.275
 20
58.0
 30
0.0
 40
0.5
  1
F2BZ-SXR-25M
100
AcDbAttributeDefinition
  3

  2
DESCRIPTION
 70
     8
280
     0
  0
ATTDEF
  5
165
330
158
100
AcDbEntity
  8
AM_6
100
AcDbText
 10
7.275
 20
57.5
 30
0.0
 40
0.5
  1
0.7
100
AcDbAttributeDefinition
  3

  2
W
 70
     8
280
     0
  0
ATTDEF
  5
166
330
158
100
AcDbEntity
  8
AM_6
100
AcDbText
 10
7.275
 20
57.0
 30
0.0
 40
0.5
  1
41.1
100
AcDbAttributeDefinition
  3

  2
A
 70
     8
280
     0
  0
ATTDEF
  5
167
330
158
100
AcDbEntity
  8
AM_6
100
AcDbText
 10
7.275
 20
56.5
 30
0.0
 40
0.5
  1
124.0
100
AcDbAttributeDefinition
  3

  2
B
 70
     8
280
     0
  0
ATTDEF
  5
168
330
158
100
AcDbEntity
  8
AM_6
100
AcDbText
 10
7.275
 20
56.0
 30
0.0
 40
0.5
  1
45.5
100
AcDbAttributeDefinition
  3

  2
C
 70
     8
280
     0
  0
ATTDEF
  5
169
330
158
100
AcDbEntity
  8
AM_6
100
AcDbText
 10
7.275
 20
55.5
 30
0.0
 40
0.5
  1
98.8
100
AcDbAttributeDefinition
  3

  2
D
 70
     8
280
     0
  0
ATTDEF
  5
16A
330
158
100
AcDbEntity
  8
AM_6
100
AcDbText
 10
7.275
 20
55.0
 30
0.0
 40
0.5
  1
3.6
100
AcDbAttributeDefinition
  3

  2
E
 70
     8
280
     0
  0
ATTDEF
  5
16B
330
158
100
AcDbEntity
  8
AM_6
100
AcDbText
 10
7.275
 20
54.5
 30
0.0
 40
0.5
  1
M10
100
AcDbAttributeDefinition
  3

  2
F
 70
     8
280
     0
  0
ATTDEF
  5
16C
330
158
100
AcDbEntity
  8
AM_6
100
AcDbText
 10
7.275
 20
54.0
 30
0.0
 40
0.5
  1
41.9
100
AcDbAttributeDefinition
  3

  2
G
 70
     8
280
     0
  0
ATTDEF
  5
16D
330
158
100
AcDbEntity
  8
AM_6
100
AcDbText
 10
7.275
 20
53.5
 30
0.0
 40
0.5
  1
13.2
100
AcDbAttributeDefinition
  3

  2
H
 70
     8
280
     0
  0
ATTDEF
  5
16E
330
158
100
AcDbEntity
  8
AM_6
100
AcDbText
 10
7.275
 20
53.0
 30
0.0
 40
0.5
  1
17.8
100
AcDbAttributeDefinition
  3

  2
J
 70
     8
280
     0
  0
ATTDEF
  5
16F
330
158
100
AcDbEntity
  8
AM_6
100
AcDbText
 10
7.275
 20
52.5
 30
0.0
 40
0.5
  1
59.99/59.94
100
AcDbAttributeDefinition
  3

  2
K
 70
     8
280
     0
  0
ATTDEF
  5
170
330
158
100
AcDbEntity
  8
AM_6
100
AcDbText
 10
7.275
 20
52.0
 30
0.0
 40
0.5
  1
59.990
100
AcDbAttributeDefinition
  3

  2
K1
 70
     8
280
     0
  0
ATTDEF
  5
171
330
158
100
AcDbEntity
  8
AM_6
100
AcDbText
 10
7.275
 20
51.5
 30
0.0
 40
0.5
  1
38.1
100
AcDbAttributeDefinition
  3

  2
L
 70
     8
280
     0
  0
ATTDEF
  5
172
330
158
100
AcDbEntity
  8
AM_6
100
AcDbText
 10
7.275
 20
51.0
 30
0.0
 40
0.5
  1
69.9
100
AcDbAttributeDefinition
  3

  2
M
 70
     8
280
     0
  0
ATTDEF
  5
173
330
158
100
AcDbEntity
  8
AM_6
100
AcDbText
 10
7.275
 20
50.5
 30
0.0
 40
0.5
  1
36.6
100
AcDbAttributeDefinition
  3

  2
N
 70
     8
280
     0
  0
ATTDEF
  5
174
330
158
100
AcDbEntity
  8
AM_6
100
AcDbText
 10
7.275
 20
50.0
 30
0.0
 40
0.5
  1
1565
100
AcDbAttributeDefinition
  3

  2
CAPS
 70
     8
280
     0
  0
ATTDEF
  5
175
330
158
100
AcDbEntity
  8
AM_6
100
AcDbText
 10
7.275
 20
49.5
 30
0.0
 40
0.5
  1
3146
100
AcDbAttributeDefinition
  3

  2
CAPD
 70
     8
280
     0
  0
ATTDEF
  5
176
330
158
100
AcDbEntity
  8
AM_6
100
AcDbText
 10
7.275
 20
49.0
 30
0.0
 40
0.5
  1
baldor
100
AcDbAttributeDefinition
  3

  2
COMPANY
 70
     8
280
     0
  0
LINE
  5
177
330
158
100
AcDbEntity
  8
AM_9
100
AcDbLine
 10
-16.8
 20
44.4
 30
0.0
 11
-3.600000000000001
 21
44.4
 31
0.0
  0
LINE
  5
178
330
158
100
AcDbEntity
  8
AM_9
100
AcDbLine
 10
-3.600000000000001
 20
54.4
 30
0.0
 11
-16.8
 21
54.4
 31
0.0
  0
LINE
  5
179
330
158
100
AcDbEntity
  8
AM_9
100
AcDbLine
 10
-16.8
 20
-54.4
 30
0.0
 11
-3.600000000000001
 21
-54.4
 31
0.0
  0
LINE
  5
17A
330
158
100
AcDbEntity
  8
AM_9
100
AcDbLine
 10
-3.600000000000001
 20
-44.4
 30
0.0
 11
-16.8
 21
-44.4
 31
0.0
  0
LINE
  5
17B
330
158
100
AcDbEntity
  8
AM_9
100
AcDbLine
 10
-22.16
 20
26.59982490015188
 30
0.0
 11
-4.081694990624414
 21
26.59982490015249
 31
0.0
  0
LINE
  5
17C
330
158
100
AcDbEntity
  8
AM_9
100
AcDbLine
 10
-22.16
 20
20.07758496356836
 30
0.0
 11
-4.08169499062492
 21
20.07758496356836
 31
0.0
  0
LINE
  5
17D
330
158
100
AcDbEntity
  8
AM_9
100
AcDbLine
 10
-4.08169499062492
 20
27.25
 30
0.0
 11
-22.16
 21
27.25
 31
0.0
  0
LINE
  5
17E
330
158
100
AcDbEntity
  8
AM_9
100
AcDbLine
 10
-27.7
 20
32.68242563013963
 30
0.0
 11
-16.8
 21
32.68242563013963
 31
0.0
  0
LINE
  5
17F
330
158
100
AcDbEntity
  8
AM_9
100
AcDbLine
 10
-27.7
 20
31.93847685435346
 30
0.0
 11
-16.8
 21
31.93847685435346
 31
0.0
  0
LINE
  5
180
330
158
100
AcDbEntity
  8
AM_9
100
AcDbLine
 10
-16.8
 20
33.64662828449033
 30
0.0
 11
-15.48
 21
33.64662828449033
 31
0.0
  0
LINE
  5
181
330
158
100
AcDbEntity
  8
AM_9
100
AcDbLine
 10
-16.8
 20
29.57788448353315
 30
0.0
 11
-16.8
 21
36.85901494524843
 31
0.0
  0
LINE
  5
182
330
158
100
AcDbEntity
  8
AM_9
100
AcDbLine
 10
-22.16
 20
-27.25
 30
0.0
 11
-22.16
 21
-18.7068451155919
 31
0.0
  0
LINE
  5
183
330
158
100
AcDbEntity
  8
AM_9
100
AcDbLine
 10
-22.16
 20
-20.07758496356837
 30
0.0
 11
-4.081694990625061
 21
-20.07758496356819
 31
0.0
  0
LINE
  5
184
330
158
100
AcDbEntity
  8
AM_9
100
AcDbLine
 10
-22.16
 20
-26.59982490015189
 30
0.0
 11
-4.081694990624928
 21
-26.59982490015187
 31
0.0
  0
LINE
  5
185
330
158
100
AcDbEntity
  8
AM_9
100
AcDbLine
 10
-22.16
 20
-27.25
 30
0.0
 11
-4.081694990624928
 21
-27.25
 31
0.0
  0
LINE
  5
186
330
158
100
AcDbEntity
  8
AM_9
100
AcDbLine
 10
-15.48
 20
15.8123987854251
 30
0.0
 11
-15.48
 21
36.85901494524842
 31
0.0
  0
LINE
  5
187
330
158
100
AcDbEntity
  8
AM_9
100
AcDbLine
 10
-3.599999999999998
 20
36.59733816004874
 30
0.0
 11
-15.48
 21
36.59733816004874
 31
0.0
  0
LINE
  5
188
330
158
100
AcDbEntity
  8
AM_9
100
AcDbLine
 10
-18.00757978808256
 20
36.85901494524843
 30
0.0
 11
-22.85908687858409
 21
36.85901494524843
 31
0.0
  0
LINE
  5
189
330
158
100
AcDbEntity
  8
AM_9
100
AcDbLine
 10
-22.16
 20
18.7068451155919
 30
0.0
 11
-22.16
 21
27.25
 31
0.0
  0
LINE
  5
18A
330
158
100
AcDbEntity
  8
AM_9
100
AcDbLine
 10
-4.400000000000001
 20
25.22908505217542
 30
0.0
 11
-22.16
 21
25.22908505217542
 31
0.0
  0
LINE
  5
18B
330
158
100
AcDbEntity
  8
AM_9
100
AcDbLine
 10
-22.16
 20
-18.7068451155919
 30
0.0
 11
-4.4
 21
-18.7068451155919
 31
0.0
  0
LINE
  5
18C
330
158
100
AcDbEntity
  8
AM_9
100
AcDbLine
 10
-4.400000000000001
 20
-25.22908505217542
 30
0.0
 11
-22.16
 21
-25.22908505217542
 31
0.0
  0
LINE
  5
18D
330
158
100
AcDbEntity
  8
AM_9
100
AcDbLine
 10
-22.16
 20
18.7068451155919
 30
0.0
 11
-4.400000000000002
 21
18.70684511559189
 31
0.0
  0
LINE
  5
18E
330
158
100
AcDbEntity
  8
AM_9
100
AcDbLine
 10
-27.7
 20
-26.0
 30
0.0
 11
-22.16
 21
-26.0
 31
0.0
  0
LINE
  5
18F
330
158
100
AcDbEntity
  8
AM_9
100
AcDbLine
 10
-22.16
 20
26.0
 30
0.0
 11
-27.7
 21
26.0
 31
0.0
  0
LWPOLYLINE
  5
190
330
158
100
AcDbEntity
  8
AM_9
100
AcDbPolyline
 90
        6
 70
     0
 43
0.0
 10
-4.399999999999999
 20
25.68808468726906
 10
-4.399954037741476
 20
25.69986443061999
 10
-4.375812161683964
 20
25.95666035161132
 10
-4.304587704999744
 20
26.21311344383878
 10
-4.210533286188735
 20
26.41262635230593
 10
-4.081694990624414
 20
26.59982490015249
  0
LINE
  5
191
330
158
100
AcDbEntity
  8
AM_9
100
AcDbLine
 10
-4.08169499062492
 20
20.07758496356836
 30
0.0
 11
-4.08169499062492
 21
27.24999999999999
 31
0.0
  0
LWPOLYLINE
  5
192
330
158
100
AcDbEntity
  8
AM_9
100
AcDbPolyline
 90
        6
 70
     0
 43
0.0
 10
-4.08169499062492
 20
20.07758496356836
 10
-4.21583757136693
 20
19.88102402183262
 10
-4.316356808136016
 20
19.65870602875044
 10
-4.376499509417942
 20
19.43061859628953
 10
-4.399799976303938
 20
19.19041640233873
 10
-4.399999999999999
 20
19.16584475068554
  0
LWPOLYLINE
  5
193
330
158
100
AcDbEntity
  8
AM_9
100
AcDbPolyline
 90
        6
 70
     0
 43
0.0
 10
-4.399999999999999
 20
-25.68808468726906
 10
-4.399954037741476
 20
-25.69986443061999
 10
-4.375812161683965
 20
-25.95666035161132
 10
-4.304587704999743
 20
-26.21311344383878
 10
-4.21053328618893
 20
-26.41262635230559
 10
-4.081694990624928
 20
-26.59982490015187
  0
LWPOLYLINE
  5
194
330
158
100
AcDbEntity
  8
AM_9
100
AcDbPolyline
 90
        6
 70
     0
 43
0.0
 10
-4.081694990625061
 20
-20.07758496356819
 10
-4.215837571366984
 20
-19.88102402183252
 10
-4.316356808136011
 20
-19.65870602875045
 10
-4.37649950941794
 20
-19.43061859628954
 10
-4.399799976303935
 20
-19.19041640233874
 10
-4.399999999999998
 20
-19.16584475068554
  0
LINE
  5
195
330
158
100
AcDbEntity
  8
AM_9
100
AcDbLine
 10
-4.399999999999999
 20
25.68808468726906
 30
0.0
 11
-4.399999999999999
 21
-25.68808468726906
 31
0.0
  0
ARC
  5
196
330
158
100
AcDbEntity
  8
AM_9
100
AcDbCircle
 10
-3.150000000000018
 20
-26.41666666666671
 30
0.0
 40
1.249999999999958
100
AcDbArc
 50
221.8103148957765
 51
270.0
  0
ARC
  5
197
330
158
100
AcDbEntity
  8
AM_9
100
AcDbCircle
 10
-3.150000000000018
 20
26.4166666666667
 30
0.0
 40
1.249999999999961
100
AcDbArc
 50
90.0
 51
138.1896851042227
  0
LINE
  5
198
330
158
100
AcDbEntity
  8
AM_9
100
AcDbLine
 10
-4.081694990624928
 20
-27.24999999999998
 30
0.0
 11
-4.081694990625061
 21
-20.07758496356819
 31
0.0
  0
LINE
  5
199
330
158
100
AcDbEntity
  8
AM_9
100
AcDbLine
 10
-3.149999999999996
 20
-27.66666666666666
 30
0.0
 11
0.0
 21
-27.66666666666666
 31
0.0
  0
LINE
  5
19A
330
158
100
AcDbEntity
  8
AM_9
100
AcDbLine
 10
0.0
 20
27.66666666666666
 30
0.0
 11
-3.149999999999996
 21
27.66666666666666
 31
0.0
  0
LINE
  5
19B
330
158
100
AcDbEntity
  8
AM_9
100
AcDbLine
 10
-3.149999999999996
 20
27.66666666666666
 30
0.0
 11
-3.149999999999996
 21
-27.66666666666666
 31
0.0
  0
ELLIPSE
  5
19C
330
158
100
AcDbEntity
  8
AM_9
100
AcDbEllipse
 10
-20.43333333333333
 20
29.86480790919809
 30
0.0
 11
5.079999999999995
 21
0.0
 31
0.0
210
0.0
220
0.0
230
1.0
 40
0.707106781186548
 41
2.47689623510498
 42
3.141592653589793
  0
ELLIPSE
  5
19D
330
158
100
AcDbEntity
  8
AM_9
100
AcDbEllipse
 10
-20.43333333333333
 20
29.86480790919815
 30
0.0
 11
5.079999999999995
 21
0.0
 31
0.0
210
0.0
220
0.0
230
1.0
 40
0.707106781186543
 41
1.709000295699135
 42
2.476896235104988
  0
ELLIPSE
  5
19E
330
158
100
AcDbEntity
  8
AM_9
100
AcDbEllipse
 10
-20.43333333333335
 20
29.8648079091977
 30
0.0
 11
5.079999999999561
 21
0.0
 31
0.0
210
0.0
220
0.0
230
1.0
 40
0.7071067811866943
 41
1.570796326794897
 42
1.709000295699145
  0
LINE
  5
19F
330
158
100
AcDbEntity
  8
AM_9
100
AcDbLine
 10
-15.35333333333333
 20
29.82888688471386
 30
0.0
 11
-15.35333333333333
 21
29.86480790919813
 31
0.0
  0
LINE
  5
1A0
330
158
100
AcDbEntity
  8
AM_9
100
AcDbLine
 10
-25.51333333333332
 20
29.86480790919813
 30
0.0
 11
-25.51333333333332
 21
29.82888688471386
 31
0.0
  0
ELLIPSE
  5
1A1
330
158
100
AcDbEntity
  8
AM_9
100
AcDbEllipse
 10
-20.43333333333327
 20
29.86480790919805
 30
0.0
 11
5.079999999999934
 21
0.0
 31
0.0
210
0.0
220
0.0
230
1.0
 40
0.7071067811865466
 41
5.94497619323328
 42
7.729443005363259
  0
ELLIPSE
  5
1A2
330
158
100
AcDbEntity
  8
AM_9
100
AcDbEllipse
 10
-20.43333333333325
 20
29.86480790919801
 30
0.0
 11
5.079999999999851
 21
0.0
 31
0.0
210
0.0
220
0.0
230
1.0
 40
0.7071067811865386
 41
4.917220026563397
 42
5.579633254405062
  0
ELLIPSE
  5
1A3
330
158
100
AcDbEntity
  8
AM_9
100
AcDbEllipse
 10
-20.43333333333327
 20
29.86480790919819
 30
0.0
 11
5.080000000000098
 21
0.0
 31
0.0
210
0.0
220
0.0
230
1.0
 40
0.7071067811865476
 41
3.843151756642108
 42
4.523350145083873
  0
ELLIPSE
  5
1A4
330
158
100
AcDbEntity
  8
AM_9
100
AcDbEllipse
 10
-20.43333333333347
 20
29.86480790919824
 30
0.0
 11
5.079999999999859
 21
7.569789886474400E-8
 31
0.0
210
0.0
220
0.0
230
1.0
 40
0.7071067811865513
 41
3.141592632516369
 42
3.486202134965597
  0
ELLIPSE
  5
1A5
330
158
100
AcDbEntity
  8
AM_9
100
AcDbEllipse
 10
-20.43333333333332
 20
29.86480790919799
 30
0.0
 11
5.080000000000183
 21
0.0
 31
0.0
210
0.0
220
0.0
230
1.0
 40
0.7071067811865483
 41
1.446257698183664
 42
1.570796326794897
  0
ELLIPSE
  5
1A6
330
158
100
AcDbEntity
  8
AM_9
100
AcDbEllipse
 10
-20.43333333333321
 20
29.82888688471384
 30
0.0
 11
5.080000000000119
 21
0.0
 31
0.0
210
0.0
220
0.0
230
1.0
 40
0.7071067811865475
 41
2.721367453989431
 42
3.141592653589793
  0
ELLIPSE
  5
1A7
330
158
100
AcDbEntity
  8
AM_9
100
AcDbEllipse
 10
-20.43333333333291
 20
29.82888688471381
 30
0.0
 11
5.080000000000488
 21
7.569789886475337E-8
 31
0.0
210
0.0
220
0.0
230
1.0
 40
0.7071067811865351
 41
1.650041804102153
 42
2.721367434669709
  0
ELLIPSE
  5
1A8
330
158
100
AcDbEntity
  8
AM_9
100
AcDbEllipse
 10
-20.43333333333335
 20
29.8288868847122
 30
0.0
 11
5.080000000000474
 21
0.0
 31
0.0
210
0.0
220
0.0
230
1.0
 40
0.7071067811868099
 41
1.523413755409462
 42
1.650041814704803
  0
ELLIPSE
  5
1A9
330
158
100
AcDbEntity
  8
AM_9
100
AcDbEllipse
 10
-20.43333333333331
 20
29.8288868847139
 30
0.0
 11
5.079999999999941
 21
0.0
 31
0.0
210
0.0
220
0.0
230
1.0
 40
0.7071067811865462
 41
0.4165273602431174
 42
1.523413755409467
  0
ELLIPSE
  5
1AA
330
158
100
AcDbEntity
  8
AM_9
100
AcDbEllipse
 10
-20.43333333333321
 20
29.82888688471388
 30
0.0
 11
5.079999999999878
 21
0.0
 31
0.0
210
0.0
220
0.0
230
1.0
 40
0.7071067811865468
 41
5.964805668245971
 42
6.699712667422716
  0
ELLIPSE
  5
1AB
330
158
100
AcDbEntity
  8
AM_9
100
AcDbEllipse
 10
-20.4333333333333
 20
29.82888688471387
 30
0.0
 11
5.080000000000046
 21
0.0
 31
0.0
210
0.0
220
0.0
230
1.0
 40
0.7071067811865442
 41
3.880037111254518
 42
4.461398090216349
  0
ELLIPSE
  5
1AC
330
158
100
AcDbEntity
  8
AM_9
100
AcDbEllipse
 10
-20.43333333333341
 20
29.82888688471385
 30
0.0
 11
5.079999999999917
 21
0.0
 31
0.0
210
0.0
220
0.0
230
1.0
 40
0.7071067811865469
 41
3.141592653589793
 42
3.457972514244323
  0
LINE
  5
1AD
330
158
100
AcDbEntity
  8
AM_9
100
AcDbLine
 10
-15.48
 20
15.8123987854251
 30
0.0
 11
-3.600000000000002
 21
15.8123987854251
 31
0.0
  0
LINE
  5
1AE
330
158
100
AcDbEntity
  8
AM_9
100
AcDbLine
 10
-27.7
 20
32.14251176472801
 30
0.0
 11
-16.8
 21
32.14251176472801
 31
0.0
  0
LINE
  5
1AF
330
158
100
AcDbEntity
  8
AM_9
100
AcDbLine
 10
-15.48
 20
29.57788448353315
 30
0.0
 11
-16.8
 21
29.57788448353315
 31
0.0
  0
LINE
  5
1B0
330
158
100
AcDbEntity
  8
AM_9
100
AcDbLine
 10
-16.8
 20
34.95000000000001
 30
0.0
 11
-27.7
 21
34.95000000000001
 31
0.0
  0
ELLIPSE
  5
1B1
330
158
100
AcDbEntity
  8
AM_9
100
AcDbEllipse
 10
-20.43333333333342
 20
29.82888688471401
 30
0.0
 11
5.080000000000176
 21
0.0
 31
0.0
210
0.0
220
0.0
230
1.0
 40
0.7071067811865542
 41
4.965109736301033
 42
5.540839348261012
  0
LINE
  5
1B2
330
158
100
AcDbEntity
  8
AM_9
100
AcDbLine
 10
-23.32378017059057
 20
36.11506616946226
 30
0.0
 11
-17.54288649607608
 21
36.11506616946226
 31
0.0
  0
LINE
  5
1B5
330
158
100
AcDbEntity
  8
AM_7
100
AcDbLine
 10
0.8400000000000001
 20
49.4
 30
0.0
 11
-17.64
 21
49.4
 31
0.0
  0
LINE
  5
1B6
330
158
100
AcDbEntity
  8
AM_7
100
AcDbLine
 10
0.8400000000000001
 20
-49.4
 30
0.0
 11
-17.64
 21
-49.4
 31
0.0
  0
LINE
  5
1B7
330
158
100
AcDbEntity
  8
AM_7
100
AcDbLine
 10
-47.775
 20
0.0
 30
0.0
 11
2.275
 21
0.0
 31
0.0
  0
LINE
  5
1B8
330
158
100
AcDbEntity
  8
AM_4
100
AcDbLine
 10
-16.8
 20
-61.99999999999999
 30
0.0
 11
-3.600000000000001
 21
-61.99999999999999
 31
0.0
  0
LINE
  5
1B9
330
158
100
AcDbEntity
  8
AM_4
100
AcDbLine
 10
-16.8
 20
-61.99999999999999
 30
0.0
 11
-16.8
 21
-29.57788448353316
 31
0.0
  0
LINE
  5
1BA
330
158
100
AcDbEntity
  8
AM_4
100
AcDbLine
 10
-16.8
 20
36.85901494524843
 30
0.0
 11
-16.8
 21
62.0
 31
0.0
  0
LINE
  5
1BB
330
158
100
AcDbEntity
  8
AM_4
100
AcDbLine
 10
-3.600000000000001
 20
62.0
 30
0.0
 11
-16.8
 21
62.0
 31
0.0
  0
LINE
  5
1BC
330
158
100
AcDbEntity
  8
AM_4
100
AcDbLine
 10
-15.48
 20
52.78947368421053
 30
0.0
 11
-16.8
 21
52.78947368421053
 31
0.0
  0
LINE
  5
1BD
330
158
100
AcDbEntity
  8
AM_4
100
AcDbLine
 10
-15.48
 20
-52.78947368421054
 30
0.0
 11
-16.8
 21
-52.78947368421054
 31
0.0
  0
LINE
  5
1BE
330
158
100
AcDbEntity
  8
AM_4
100
AcDbLine
 10
-15.48
 20
55.10060728744939
 30
0.0
 11
-3.6
 21
55.10060728744939
 31
0.0
  0
LINE
  5
1BF
330
158
100
AcDbEntity
  8
AM_4
100
AcDbLine
 10
-15.48
 20
36.85901494524842
 30
0.0
 11
-15.48
 21
55.10060728744939
 31
0.0
  0
LINE
  5
1C0
330
158
100
AcDbEntity
  8
AM_4
100
AcDbLine
 10
-27.7
 20
-34.95000000000002
 30
0.0
 11
-27.7
 21
36.85901494524843
 31
0.0
  0
LINE
  5
1C1
330
158
100
AcDbEntity
  8
AM_4
100
AcDbLine
 10
-22.85908687858409
 20
36.85901494524843
 30
0.0
 11
-27.7
 21
36.85901494524843
 31
0.0
  0
LINE
  5
1C2
330
158
100
AcDbEntity
  8
AM_4
100
AcDbLine
 10
-3.599999999999998
 20
36.85901494524843
 30
0.0
 11
-18.00757978808256
 21
36.85901494524843
 31
0.0
  0
LINE
  5
1C3
330
158
100
AcDbEntity
  8
AM_4
100
AcDbLine
 10
-2.399999999999996
 20
-29.995
 30
0.0
 11
0.0
 21
-29.995
 31
0.0
  0
LINE
  5
1C4
330
158
100
AcDbEntity
  8
AM_4
100
AcDbLine
 10
0.0
 20
29.995
 30
0.0
 11
-2.399999999999996
 21
29.995
 31
0.0
  0
LINE
  5
1C5
330
158
100
AcDbEntity
  8
AM_4
100
AcDbLine
 10
0.0
 20
29.995
 30
0.0
 11
0.0
 21
-29.995
 31
0.0
  0
LINE
  5
1C6
330
158
100
AcDbEntity
  8
AM_4
100
AcDbLine
 10
-15.48
 20
-55.10060728744939
 30
0.0
 11
-15.48
 21
-15.81239878542516
 31
0.0
  0
LINE
  5
1C7
330
158
100
AcDbEntity
  8
AM_4
100
AcDbLine
 10
-15.48
 20
-55.10060728744939
 30
0.0
 11
-3.6
 21
-55.1006072874494
 31
0.0
  0
ARC
  5
1C8
330
158
100
AcDbEntity
  8
AM_4
100
AcDbCircle
 10
-2.400000000000001
 20
-31.195
 30
0.0
 40
1.199999999999999
100
AcDbArc
 50
90.0
 51
180.0
  0
ARC
  5
1C9
330
158
100
AcDbEntity
  8
AM_4
100
AcDbCircle
 10
-2.400000000000001
 20
31.195
 30
0.0
 40
1.199999999999999
100
AcDbArc
 50
180.0
 51
270.0
  0
LINE
  5
1CA
330
158
100
AcDbEntity
  8
AM_4
100
AcDbLine
 10
-2.399999999999996
 20
29.995
 30
0.0
 11
-2.399999999999996
 21
-29.995
 31
0.0
  0
ELLIPSE
  5
1CB
330
158
100
AcDbEntity
  8
AM_4
100
AcDbEllipse
 10
-20.43333333333307
 20
29.86480790919787
 30
0.0
 11
5.079999999999714
 21
0.0
 31
0.0
210
0.0
220
0.0
230
1.0
 40
0.7071067811865325
 41
5.579633254405062
 42
5.944976193233306
  0
ELLIPSE
  5
1CC
330
158
100
AcDbEntity
  8
AM_4
100
AcDbEllipse
 10
-20.43333333333335
 20
29.86480790919829
 30
0.0
 11
5.080000000000101
 21
0.0
 31
0.0
210
0.0
220
0.0
230
1.0
 40
0.707106781186566
 41
4.523350145083889
 42
4.917220026563408
  0
ELLIPSE
  5
1CD
330
158
100
AcDbEntity
  8
AM_4
100
AcDbEllipse
 10
-20.43333333333335
 20
29.86480790919807
 30
0.0
 11
5.07999999999997
 21
0.0
 31
0.0
210
0.0
220
0.0
230
1.0
 40
0.7071067811865437
 41
3.48620215483643
 42
3.843151756642095
  0
ELLIPSE
  5
1CE
330
158
100
AcDbEntity
  8
AM_4
100
AcDbEllipse
 10
-20.43333333333329
 20
29.82888688471426
 30
0.0
 11
5.080000000000236
 21
0.0
 31
0.0
210
0.0
220
0.0
230
1.0
 40
0.7071067811865913
 41
4.461398090216358
 42
4.71238898038469
  0
ELLIPSE
  5
1CF
330
158
100
AcDbEntity
  8
AM_4
100
AcDbEllipse
 10
-20.43333333333343
 20
29.82888688471386
 30
0.0
 11
5.079999999999886
 21
0.0
 31
0.0
210
0.0
220
0.0
230
1.0
 40
0.7071067811865511
 41
3.457972514244323
 42
3.880037111254527
  0
LINE
  5
1D0
330
158
100
AcDbEntity
  8
AM_4
100
AcDbLine
 10
-15.48
 20
-29.57788448353316
 30
0.0
 11
-16.8
 21
-29.57788448353316
 31
0.0
  0
LINE
  5
1D1
330
158
100
AcDbEntity
  8
AM_4
100
AcDbLine
 10
-15.48
 20
-15.81239878542516
 30
0.0
 11
-3.599999999999999
 21
-15.81239878542515
 31
0.0
  0
LINE
  5
1D2
330
158
100
AcDbEntity
  8
AM_4
100
AcDbLine
 10
-27.7
 20
13.72448313978786
 30
0.0
 11
-3.599999999999997
 21
13.72448313978786
 31
0.0
  0
LINE
  5
1D3
330
158
100
AcDbEntity
  8
AM_4
100
AcDbLine
 10
-27.7
 20
-34.95000000000002
 30
0.0
 11
-16.8
 21
-34.95000000000002
 31
0.0
  0
LINE
  5
1D4
330
158
100
AcDbEntity
  8
AM_4
100
AcDbLine
 10
-27.7
 20
16.51796461221516
 30
0.0
 11
-3.599999999999997
 21
16.51796461221516
 31
0.0
  0
LINE
  5
1D5
330
158
100
AcDbEntity
  8
AM_4
100
AcDbLine
 10
-3.600000000000001
 20
-61.99999999999999
 30
0.0
 11
-3.600000000000001
 21
62.0
 31
0.0
  0
ELLIPSE
  5
1D6
330
158
100
AcDbEntity
  8
AM_4
100
AcDbEllipse
 10
-20.43333333333337
 20
29.82888688471382
 30
0.0
 11
5.080000000000036
 21
0.0
 31
0.0
210
0.0
220
0.0
230
1.0
 40
0.7071067811865451
 41
5.540839348261035
 42
5.964805668245992
  0
ELLIPSE
  5
1D7
330
158
100
AcDbEntity
  8
AM_4
100
AcDbEllipse
 10
-20.43333333333336
 20
29.82888688471422
 30
0.0
 11
5.080000000000351
 21
7.569789886475134E-8
 31
0.0
210
0.0
220
0.0
230
1.0
 40
0.7071067811865696
 41
4.712388969847983
 42
4.965109725105549
  0
LINE
  5
1D8
330
158
100
AcDbEntity
  8
AM_4
100
AcDbLine
 10
-17.54288649607608
 20
36.11506616946226
 30
0.0
 11
-3.599999999999998
 21
36.11506616946226
 31
0.0
  0
LINE
  5
1D9
330
158
100
AcDbEntity
  8
AM_4
100
AcDbLine
 10
-27.7
 20
36.11506616946226
 30
0.0
 11
-23.32378017059057
 21
36.11506616946226
 31
0.0
  0
LINE
  5
1DA
330
158
100
AcDbEntity
  8
AM_4
100
AcDbLine
 10
-27.7
 20
19.95060515153779
 30
0.0
 11
-3.599999999999997
 21
19.95060515153779
 31
0.0
  0
LINE
  5
1DB
330
158
100
AcDbEntity
  8
AM_4
100
AcDbLine
 10
-27.7
 20
23.54270759996545
 30
0.0
 11
-3.599999999999997
 21
23.54270759996545
 31
0.0
  0
ENDBLK
  5
15B
330
158
100
AcDbEntity
  8
0
100
AcDbBlockEnd
  0
ENDSEC
  0
SECTION
  2
ENTITIES
  0
INSERT
  5
6F
330
1F
100
AcDbEntity
  8
0
100
AcDbBlockReference
  2
1_130832_2
 10
0.0
 20
0.0
 30
0.0
  0
POINT
  5
1DD
330
1F
100
AcDbEntity
  8
ConnectionPoints
100
AcDbPoint
 10
-18.6
 20
0.0
 30
0.0000000000000011
  0
POINT
  5
1DE
330
1F
100
AcDbEntity
  8
ConnectionPoints
100
AcDbPoint
 10
-45.5
 20
0.0
 30
0.0000000000000028
  0
POINT
  5
1DF
330
1F
100
AcDbEntity
  8
ConnectionPoints
100
AcDbPoint
 10
-20.43333333333333
 20
31.10063602257947
 30
31.10063602257947
  0
POINT
  5
1E0
330
1F
100
AcDbEntity
  8
ConnectionPoints
100
AcDbPoint
 10
-20.43333333333333
 20
29.86480790919813
 30
29.86480790919814
  0
POINT
  5
1E1
330
1F
100
AcDbEntity
  8
ConnectionPoints
100
AcDbPoint
 10
-45.5
 20
0.0
 30
0.0000000000000028
  0
POINT
  5
1E2
330
1F
100
AcDbEntity
  8
ConnectionPoints
100
AcDbPoint
 10
0.0
 20
0.0
 30
0.0
  0
POINT
  5
1E3
330
1F
100
AcDbEntity
  8
ConnectionPoints
100
AcDbPoint
 10
-1.98
 20
0.0
 30
0.0000000000000001
  0
ENDSEC
  0
SECTION
  2
OBJECTS
  0
DICTIONARY
  5
C
330
0
100
AcDbDictionary
281
     1
  3
ACAD_DETAILVIEWSTYLE
350
1EB
  3
ACAD_GROUP
350
D
  3
ACAD_LAYOUT
350
1A
  3
ACAD_MATERIAL
350
43
  3
ACAD_MLEADERSTYLE
350
6B
  3
ACAD_MLINESTYLE
350
17
  3
ACAD_PLOTSETTINGS
350
19
  3
ACAD_PLOTSTYLENAME
350
E
  3
ACAD_SCALELIST
350
47
  3
ACAD_SECTIONVIEWSTYLE
350
1EC
  3
ACAD_TABLESTYLE
350
69
  3
ACAD_VISUALSTYLE
350
2A
  3
ACDB_RECOMPOSE_DATA
350
1E8
  3
AcDbVariableDictionary
350
1E4
  0
SUN
  5
6D
330
29
100
AcDbSun
 90
        1
290
     0
 63
     7
421
 16777215
 40
1.0
291
     1
 91
  2455826
 92
 54000000
292
     0
 70
     2
 71
   256
280
     1
  0
DICTIONARY
  5
1EB
102
{ACAD_REACTORS
330
C
102
}
330
C
100
AcDbDictionary
281
     1
  0
DICTIONARY
  5
D
102
{ACAD_REACTORS
330
C
102
}
330
C
100
AcDbDictionary
281
     1
  0
DICTIONARY
  5
1A
102
{ACAD_REACTORS
330
C
102
}
330
C
100
AcDbDictionary
281
     1
  3
Layout1
350
1E
  3
Layout2
350
26
  3
Model
350
22
  0
DICTIONARY
  5
43
102
{ACAD_REACTORS
330
C
102
}
330
C
100
AcDbDictionary
281
     1
  3
ByBlock
350
45
  3
ByLayer
350
44
  3
Global
350
46
  0
DICTIONARY
  5
6B
102
{ACAD_REACTORS
330
C
102
}
330
C
100
AcDbDictionary
281
     1
  3
Standard
350
6C
  0
DICTIONARY
  5
17
102
{ACAD_REACTORS
330
C
102
}
330
C
100
AcDbDictionary
281
     1
  3
Standard
350
18
  0
DICTIONARY
  5
19
102
{ACAD_REACTORS
330
C
102
}
330
C
100
AcDbDictionary
281
     1
  0
ACDBDICTIONARYWDFLT
  5
E
102
{ACAD_REACTORS
330
C
102
}
330
C
100
AcDbDictionary
281
     1
  3
Normal
350
F
100
AcDbDictionaryWithDefault
340
F
  0
DICTIONARY
  5
47
102
{ACAD_REACTORS
330
C
102
}
330
C
100
AcDbDictionary
281
     1
  3
A0
350
48
  3
A1
350
49
  3
A2
350
4A
  3
A3
350
4B
  3
A4
350
4C
  3
A5
350
4D
  3
A6
350
4E
  3
A7
350
4F
  3
A8
350
50
  3
A9
350
51
  3
B0
350
52
  3
B1
350
53
  3
B2
350
54
  3
B3
350
55
  3
B4
350
56
  3
B5
350
57
  3
B6
350
58
  3
B7
350
59
  3
B8
350
5A
  3
B9
350
5B
  3
C0
350
5C
  3
C1
350
5D
  3
C2
350
5E
  3
C3
350
5F
  3
C4
350
60
  3
C5
350
61
  3
C6
350
62
  3
C7
350
63
  3
C8
350
64
  3
C9
350
65
  3
D0
350
66
  3
D1
350
67
  3
D2
350
68
  0
DICTIONARY
  5
1EC
102
{ACAD_REACTORS
330
C
102
}
330
C
100
AcDbDictionary
281
     1
  0
DICTIONARY
  5
69
102
{ACAD_REACTORS
330
C
102
}
330
C
100
AcDbDictionary
281
     1
  3
Standard
350
6A
  0
DICTIONARY
  5
2A
102
{ACAD_REACTORS
330
C
102
}
330
C
100
AcDbDictionary
281
     1
  3
2dWireframe
350
2F
  3
Basic
350
32
  3
Brighten
350
36
  3
ColorChange
350
3A
  3
Conceptual
350
34
  3
Dim
350
35
  3
EdgeColorOff
350
3D
  3
Facepattern
350
39
  3
Flat
350
2B
  3
FlatWithEdges
350
2C
  3
Gouraud
350
2D
  3
GouraudWithEdges
350
2E
  3
Hidden
350
31
  3
JitterOff
350
3B
  3
Linepattern
350
38
  3
OverhangOff
350
3C
  3
Realistic
350
33
  3
Shaded
350
42
  3
Shaded with edges
350
41
  3
Shades of Gray
350
3E
  3
Sketchy
350
3F
  3
Thicken
350
37
  3
Wireframe
350
30
  3
X-Ray
350
40
  0
XRECORD
  5
1E8
102
{ACAD_REACTORS
330
C
102
}
330
C
100
AcDbXrecord
280
     1
 90
        1
330
6A
  0
DICTIONARY
  5
1E4
102
{ACAD_REACTORS
330
C
102
}
330
C
100
AcDbDictionary
281
     1
  3
CANNOSCALE
350
1E5
  3
CMLEADERSTYLE
350
1EA
  3
CTABLESTYLE
350
1E9
  0
LAYOUT
  5
1E
102
{ACAD_REACTORS
330
1A
102
}
330
1A
100
AcDbPlotSettings
  1

  2
none_device
  4

  6

 40
0.0
 41
0.0
 42
0.0
 43
0.0
 44
0.0
 45
0.0
 46
0.0
 47
0.0
 48
0.0
 49
0.0
140
0.0
141
0.0
142
1.0
143
1.0
 70
   688
 72
     1
 73
     0
 74
     5
  7

 75
    16
 76
     0
 77
     2
 78
   300
147
1.0
148
0.0
149
0.0
100
AcDbLayout
  1
Layout1
 70
     1
 71
     1
 10
0.0
 20
0.0
 11
420.0
 21
297.0
 12
0.0
 22
0.0
 32
0.0
 14
1.000000000000000E+20
 24
1.000000000000000E+20
 34
1.000000000000000E+20
 15
-1.000000000000000E+20
 25
-1.000000000000000E+20
 35
-1.000000000000000E+20
146
0.0
 13
0.0
 23
0.0
 33
0.0
 16
1.0
 26
0.0
 36
0.0
 17
0.0
 27
1.0
 37
0.0
 76
     0
330
1B
  0
LAYOUT
  5
26
102
{ACAD_REACTORS
330
1A
102
}
330
1A
100
AcDbPlotSettings
  1

  2
none_device
  4

  6

 40
0.0
 41
0.0
 42
0.0
 43
0.0
 44
0.0
 45
0.0
 46
0.0
 47
0.0
 48
0.0
 49
0.0
140
0.0
141
0.0
142
1.0
143
1.0
 70
   688
 72
     1
 73
     0
 74
     5
  7

 75
    16
 76
     0
 77
     2
 78
   300
147
1.0
148
0.0
149
0.0
100
AcDbLayout
  1
Layout2
 70
     1
 71
     2
 10
0.0
 20
0.0
 11
0.0
 21
0.0
 12
0.0
 22
0.0
 32
0.0
 14
0.0
 24
0.0
 34
0.0
 15
0.0
 25
0.0
 35
0.0
146
0.0
 13
0.0
 23
0.0
 33
0.0
 16
1.0
 26
0.0
 36
0.0
 17
0.0
 27
1.0
 37
0.0
 76
     0
330
23
  0
LAYOUT
  5
22
102
{ACAD_REACTORS
330
1A
102
}
330
1A
100
AcDbPlotSettings
  1

  2
none_device
  4
Letter_(8.50_x_11.00_Inches)
  6

 40
6.35
 41
6.35
 42
6.35000508
 43
6.35000508
 44
215.9
 45
279.4
 46
0.0
 47
0.0
 48
0.0
 49
0.0
140
0.0
141
0.0
142
1.0
143
1.0
 70
  1712
 72
     1
 73
     0
 74
     0
  7

 75
     0
 76
     0
 77
     2
 78
   300
147
1.0
148
0.0
149
0.0
100
AcDbLayout
  1
Model
 70
     1
 71
     0
 10
0.0
 20
0.0
 11
420.0
 21
297.0
 12
0.0
 22
0.0
 32
0.0
 14
1.000000000000000E+20
 24
1.000000000000000E+20
 34
1.000000000000000E+20
 15
-1.000000000000000E+20
 25
-1.000000000000000E+20
 35
-1.000000000000000E+20
146
0.0
 13
0.0
 23
0.0
 33
0.0
 16
1.0
 26
0.0
 36
0.0
 17
0.0
 27
1.0
 37
0.0
 76
     0
330
1F
331
29
  0
MATERIAL
  5
45
102
{ACAD_REACTORS
330
43
102
}
330
43
100
AcDbMaterial
  1
ByBlock
 72
     1
 94
      127
  0
MATERIAL
  5
44
102
{ACAD_REACTORS
330
43
102
}
330
43
100
AcDbMaterial
  1
ByLayer
 72
     1
 94
      127
  0
MATERIAL
  5
46
102
{ACAD_REACTORS
330
43
102
}
330
43
100
AcDbMaterial
  1
Global
 72
     1
 94
      127
  0
MLEADERSTYLE
  5
6C
102
{ACAD_REACTORS
330
6B
102
}
330
6B
100
AcDbMLeaderStyle
179
     2
170
     2
171
     1
172
     0
 90
        2
 40
0.0
 41
0.0
173
     1
 91
-1056964608
340
14
 92
       -2
290
     1
 42
2.0
291
     1
 43
8.0
  3
Standard
341
0
 44
4.0
300

342
11
174
     1
178
     6
175
     1
176
     0
 93
-1056964608
 45
4.0
292
     0
297
     0
 46
4.0
343
0
 94
-1056964608
 47
1.0
 49
1.0
140
1.0
293
     1
141
0.0
294
     1
177
     0
142
1.0
295
     0
296
     0
143
3.75
271
     0
272
     9
273
     9
298
     0
  0
MLINESTYLE
  5
18
102
{ACAD_REACTORS
330
17
102
}
330
17
100
AcDbMlineStyle
  2
Standard
 70
     0
  3

 62
   256
 51
90.0
 52
90.0
 71
     2
 49
0.5
 62
   256
  6
BYLAYER
 49
-0.5
 62
   256
  6
BYLAYER
  0
ACDBPLACEHOLDER
  5
F
102
{ACAD_REACTORS
330
E
102
}
330
E
  0
SCALE
  5
48
102
{ACAD_REACTORS
330
47
102
}
330
47
100
AcDbScale
 70
     0
300
1:1
140
1.0
141
1.0
290
     1
  0
SCALE
  5
49
102
{ACAD_REACTORS
330
47
102
}
330
47
100
AcDbScale
 70
     0
300
1:2
140
1.0
141
2.0
290
     0
  0
SCALE
  5
4A
102
{ACAD_REACTORS
330
47
102
}
330
47
100
AcDbScale
 70
     0
300
1:4
140
1.0
141
4.0
290
     0
  0
SCALE
  5
4B
102
{ACAD_REACTORS
330
47
102
}
330
47
100
AcDbScale
 70
     0
300
1:5
140
1.0
141
5.0
290
     0
  0
SCALE
  5
4C
102
{ACAD_REACTORS
330
47
102
}
330
47
100
AcDbScale
 70
     0
300
1:8
140
1.0
141
8.0
290
     0
  0
SCALE
  5
4D
102
{ACAD_REACTORS
330
47
102
}
330
47
100
AcDbScale
 70
     0
300
1:10
140
1.0
141
10.0
290
     0
  0
SCALE
  5
4E
102
{ACAD_REACTORS
330
47
102
}
330
47
100
AcDbScale
 70
     0
300
1:16
140
1.0
141
16.0
290
     0
  0
SCALE
  5
4F
102
{ACAD_REACTORS
330
47
102
}
330
47
100
AcDbScale
 70
     0
300
1:20
140
1.0
141
20.0
290
     0
  0
SCALE
  5
50
102
{ACAD_REACTORS
330
47
102
}
330
47
100
AcDbScale
 70
     0
300
1:30
140
1.0
141
30.0
290
     0
  0
SCALE
  5
51
102
{ACAD_REACTORS
330
47
102
}
330
47
100
AcDbScale
 70
     0
300
1:40
140
1.0
141
40.0
290
     0
  0
SCALE
  5
52
102
{ACAD_REACTORS
330
47
102
}
330
47
100
AcDbScale
 70
     0
300
1:50
140
1.0
141
50.0
290
     0
  0
SCALE
  5
53
102
{ACAD_REACTORS
330
47
102
}
330
47
100
AcDbScale
 70
     0
300
1:100
140
1.0
141
100.0
290
     0
  0
SCALE
  5
54
102
{ACAD_REACTORS
330
47
102
}
330
47
100
AcDbScale
 70
     0
300
2:1
140
2.0
141
1.0
290
     0
  0
SCALE
  5
55
102
{ACAD_REACTORS
330
47
102
}
330
47
100
AcDbScale
 70
     0
300
4:1
140
4.0
141
1.0
290
     0
  0
SCALE
  5
56
102
{ACAD_REACTORS
330
47
102
}
330
47
100
AcDbScale
 70
     0
300
8:1
140
8.0
141
1.0
290
     0
  0
SCALE
  5
57
102
{ACAD_REACTORS
330
47
102
}
330
47
100
AcDbScale
 70
     0
300
10:1
140
10.0
141
1.0
290
     0
  0
SCALE
  5
58
102
{ACAD_REACTORS
330
47
102
}
330
47
100
AcDbScale
 70
     0
300
100:1
140
100.0
141
1.0
290
     0
  0
SCALE
  5
59
102
{ACAD_REACTORS
330
47
102
}
330
47
100
AcDbScale
 70
     0
300
1/128" = 1'-0"
140
0.0078125
141
12.0
290
     0
  0
SCALE
  5
5A
102
{ACAD_REACTORS
330
47
102
}
330
47
100
AcDbScale
 70
     0
300
1/64" = 1'-0"
140
0.015625
141
12.0
290
     0
  0
SCALE
  5
5B
102
{ACAD_REACTORS
330
47
102
}
330
47
100
AcDbScale
 70
     0
300
1/32" = 1'-0"
140
0.03125
141
12.0
290
     0
  0
SCALE
  5
5C
102
{ACAD_REACTORS
330
47
102
}
330
47
100
AcDbScale
 70
     0
300
1/16" = 1'-0"
140
0.0625
141
12.0
290
     0
  0
SCALE
  5
5D
102
{ACAD_REACTORS
330
47
102
}
330
47
100
AcDbScale
 70
     0
300
3/32" = 1'-0"
140
0.09375
141
12.0
290
     0
  0
SCALE
  5
5E
102
{ACAD_REACTORS
330
47
102
}
330
47
100
AcDbScale
 70
     0
300
1/8" = 1'-0"
140
0.125
141
12.0
290
     0
  0
SCALE
  5
5F
102
{ACAD_REACTORS
330
47
102
}
330
47
100
AcDbScale
 70
     0
300
3/16" = 1'-0"
140
0.1875
141
12.0
290
     0
  0
SCALE
  5
60
102
{ACAD_REACTORS
330
47
102
}
330
47
100
AcDbScale
 70
     0
300
1/4" = 1'-0"
140
0.25
141
12.0
290
     0
  0
SCALE
  5
61
102
{ACAD_REACTORS
330
47
102
}
330
47
100
AcDbScale
 70
     0
300
3/8" = 1'-0"
140
0.375
141
12.0
290
     0
  0
SCALE
  5
62
102
{ACAD_REACTORS
330
47
102
}
330
47
100
AcDbScale
 70
     0
300
1/2" = 1'-0"
140
0.5
141
12.0
290
     0
  0
SCALE
  5
63
102
{ACAD_REACTORS
330
47
102
}
330
47
100
AcDbScale
 70
     0
300
3/4" = 1'-0"
140
0.75
141
12.0
290
     0
  0
SCALE
  5
64
102
{ACAD_REACTORS
330
47
102
}
330
47
100
AcDbScale
 70
     0
300
1" = 1'-0"
140
1.0
141
12.0
290
     0
  0
SCALE
  5
65
102
{ACAD_REACTORS
330
47
102
}
330
47
100
AcDbScale
 70
     0
300
1-1/2" = 1'-0"
140
1.5
141
12.0
290
     0
  0
SCALE
  5
66
102
{ACAD_REACTORS
330
47
102
}
330
47
100
AcDbScale
 70
     0
300
3" = 1'-0"
140
3.0
141
12.0
290
     0
  0
SCALE
  5
67
102
{ACAD_REACTORS
330
47
102
}
330
47
100
AcDbScale
 70
     0
300
6" = 1'-0"
140
6.0
141
12.0
290
     0
  0
SCALE
  5
68
102
{ACAD_REACTORS
330
47
102
}
330
47
100
AcDbScale
 70
     0
300
1'-0" = 1'-0"
140
12.0
141
12.0
290
     0
  0
TABLESTYLE
  5
6A
102
{ACAD_REACTORS
330
69
102
}
102
{ACAD_XDICTIONARY
360
1E6
102
}
330
69
100
AcDbTableStyle
  3
Standard
 70
     0
 71
     0
 40
0.06
 41
0.06
280
     0
281
     0
  7
Standard
140
4.5
170
     2
 62
     0
 63
   257
283
     0
 90
        4
 91
        0
  1

274
    -2
284
     1
 64
     0
275
    -2
285
     1
 65
     0
276
    -2
286
     1
 66
     0
277
    -2
287
     1
 67
     0
278
    -2
288
     1
 68
     0
279
    -2
289
     1
 69
     0
  7
Standard
140
6.0
170
     5
 62
     0
 63
   257
283
     0
 90
        4
 91
        0
  1

274
    -2
284
     1
 64
     0
275
    -2
285
     1
 65
     0
276
    -2
286
     1
 66
     0
277
    -2
287
     1
 67
     0
278
    -2
288
     1
 68
     0
279
    -2
289
     1
 69
     0
  7
Standard
140
4.5
170
     5
 62
     0
 63
   257
283
     0
 90
        4
 91
        0
  1

274
    -2
284
     1
 64
     0
275
    -2
285
     1
 65
     0
276
    -2
286
     1
 66
     0
277
    -2
287
     1
 67
     0
278
    -2
288
     1
 68
     0
279
    -2
289
     1
 69
     0
  0
VISUALSTYLE
  5
2F
102
{ACAD_REACTORS
330
2A
102
}
330
2A
100
AcDbVisualStyle
  2
2dWireframe
 70
     4
177
     3
291
     0
 70
    58
 90
        0
176
     1
 90
        2
176
     1
 90
        0
176
     1
 90
        0
176
     1
 40
0.6
176
     1
 40
30.0
176
     1
 62
     7
420
 16777215
176
     1
 90
        1
176
     1
 90
        4
176
     1
 62
     7
176
     1
 62
   257
176
     1
 90
        1
176
     1
 90
        1
176
     1
 40
1.0
176
     1
 90
        0
176
     1
 62
   257
176
     1
 40
1.0
176
     1
 90
        1
176
     1
 90
        6
176
     1
 90
        2
176
     1
 62
     7
176
     1
 90
        5
176
     1
 90
        0
176
     1
 90
        0
176
     1
290
     0
176
     1
 90
        1
176
     1
 40
0.0
176
     1
 90
        0
176
     1
290
     1
176
     1
290
     1
176
     1
290
     0
176
     1
290
     0
176
     1
290
     0
176
     1
290
     0
176
     1
290
     0
176
     1
290
     0
176
     1
290
     0
176
     1
 90
       50
176
     1
 40
0.0
176
     1
 40
1.0
176
     1
 90
        0
176
     1
 62
    18
420
        0
176
     1
 90
       50
176
     1
 90
        3
176
     1
 62
     5
420
      255
176
     1
290
     0
176
     1
 90
       50
176
     1
 90
       50
176
     1
 90
       50
176
     1
290
     0
176
     1
 90
       50
176
     1
 62
   256
176
     0
 40
1.0
176
     0
 90
        2
176
     1
  1
strokes_ogs.tif
176
     1
290
     0
176
     1
 40
1.0
176
     1
 40
1.0
176
     1
  0
VISUALSTYLE
  5
32
102
{ACAD_REACTORS
330
2A
102
}
330
2A
100
AcDbVisualStyle
  2
Basic
 70
     7
177
     3
291
     1
 70
    58
 90
        1
176
     1
 90
        0
176
     1
 90
        1
176
     1
 90
        0
176
     1
 40
0.6
176
     1
 40
30.0
176
     1
 62
     7
420
 16777215
176
     1
 90
        0
176
     1
 90
        4
176
     1
 62
     7
176
     1
 62
   257
176
     1
 90
        1
176
     1
 90
        1
176
     1
 40
1.0
176
     1
 90
        8
176
     1
 62
     7
176
     1
 40
1.0
176
     1
 90
        1
176
     1
 90
        6
176
     1
 90
        2
176
     1
 62
     7
176
     1
 90
        5
176
     1
 90
        0
176
     1
 90
        0
176
     1
290
     0
176
     1
 90
        1
176
     1
 40
0.0
176
     1
 90
        0
176
     1
290
     0
176
     1
290
     1
176
     1
290
     1
176
     1
290
     0
176
     1
290
     0
176
     1
290
     0
176
     1
290
     0
176
     1
290
     0
176
     1
290
     0
176
     1
 90
       50
176
     1
 40
0.0
176
     1
 40
1.0
176
     1
 90
        0
176
     1
 62
    18
420
        0
176
     1
 90
       50
176
     1
 90
        3
176
     1
 62
     5
420
      255
176
     1
290
     0
176
     1
 90
       50
176
     1
 90
       50
176
     1
 90
       50
176
     1
290
     0
176
     1
 90
       50
176
     1
 62
   256
176
     0
 40
1.0
176
     0
 90
        2
176
     1
  1
strokes_ogs.tif
176
     1
290
     0
176
     1
 40
1.0
176
     1
 40
1.0
176
     1
  0
VISUALSTYLE
  5
36
102
{ACAD_REACTORS
330
2A
102
}
330
2A
100
AcDbVisualStyle
  2
Brighten
 70
    12
177
     3
291
     1
 70
    58
 90
        2
176
     1
 90
        2
176
     1
 90
        0
176
     1
 90
        0
176
     1
 40
0.6
176
     1
 40
30.0
176
     1
 62
     7
420
 16777215
176
     1
 90
        1
176
     1
 90
        4
176
     1
 62
     7
176
     1
 62
   257
176
     1
 90
        1
176
     1
 90
        1
176
     1
 40
1.0
176
     1
 90
        8
176
     1
 62
     7
176
     1
 40
1.0
176
     1
 90
        1
176
     1
 90
        6
176
     1
 90
        2
176
     1
 62
     7
176
     1
 90
        5
176
     1
 90
        0
176
     1
 90
        0
176
     1
290
     0
176
     1
 90
        1
176
     1
 40
50.0
176
     1
 90
        0
176
     1
290
     0
176
     1
290
     1
176
     1
290
     1
176
     1
290
     0
176
     1
290
     0
176
     1
290
     0
176
     1
290
     0
176
     1
290
     0
176
     1
290
     0
176
     1
 90
       50
176
     1
 40
0.0
176
     1
 40
1.0
176
     1
 90
        0
176
     1
 62
    18
420
        0
176
     1
 90
       50
176
     1
 90
        3
176
     1
 62
     5
420
      255
176
     1
290
     0
176
     1
 90
       50
176
     1
 90
       50
176
     1
 90
       50
176
     1
290
     0
176
     1
 90
       50
176
     1
 62
   256
176
     0
 40
1.0
176
     0
 90
        2
176
     1
  1
strokes_ogs.tif
176
     1
290
     0
176
     1
 40
1.0
176
     1
 40
1.0
176
     1
  0
VISUALSTYLE
  5
3A
102
{ACAD_REACTORS
330
2A
102
}
330
2A
100
AcDbVisualStyle
  2
ColorChange
 70
    16
177
     3
291
     1
 70
    58
 90
        2
176
     1
 90
        2
176
     1
 90
        3
176
     1
 90
        0
176
     1
 40
0.6
176
     1
 40
30.0
176
     1
 62
     8
420
  8421504
176
     1
 90
        1
176
     1
 90
        4
176
     1
 62
     7
176
     1
 62
   257
176
     1
 90
        1
176
     1
 90
        1
176
     1
 40
1.0
176
     1
 90
        8
176
     1
 62
     8
420
  8421504
176
     1
 40
1.0
176
     1
 90
        1
176
     1
 90
        6
176
     1
 90
        2
176
     1
 62
     7
176
     1
 90
        5
176
     1
 90
        0
176
     1
 90
        0
176
     1
290
     0
176
     1
 90
        1
176
     1
 40
0.0
176
     1
 90
        0
176
     1
290
     0
176
     1
290
     1
176
     1
290
     1
176
     1
290
     0
176
     1
290
     0
176
     1
290
     0
176
     1
290
     0
176
     1
290
     0
176
     1
290
     0
176
     1
 90
       50
176
     1
 40
0.0
176
     1
 40
1.0
176
     1
 90
        0
176
     1
 62
    18
420
        0
176
     1
 90
       50
176
     1
 90
        3
176
     1
 62
     5
420
      255
176
     1
290
     0
176
     1
 90
       50
176
     1
 90
       50
176
     1
 90
       50
176
     1
290
     0
176
     1
 90
       50
176
     1
 62
   256
176
     0
 40
1.0
176
     0
 90
        2
176
     1
  1
strokes_ogs.tif
176
     1
290
     0
176
     1
 40
1.0
176
     1
 40
1.0
176
     1
  0
VISUALSTYLE
  5
34
102
{ACAD_REACTORS
330
2A
102
}
330
2A
100
AcDbVisualStyle
  2
Conceptual
 70
     9
177
     3
291
     0
 70
    58
 90
        3
176
     1
 90
        2
176
     1
 90
        0
176
     1
 90
        0
176
     1
 40
0.6
176
     1
 40
30.0
176
     1
 62
     7
420
 16777215
176
     1
 90
        2
176
     1
 90
        2
176
     1
 62
     7
176
     1
 62
   257
176
     1
 90
        1
176
     1
 90
        1
176
     1
 40
179.0
176
     1
 90
        8
176
     1
 62
     7
176
     1
 40
1.0
176
     1
 90
        1
176
     1
 90
        6
176
     1
 90
        2
176
     1
 62
     7
176
     1
 90
        3
176
     1
 90
        0
176
     1
 90
        0
176
     1
290
     0
176
     1
 90
        1
176
     1
 40
0.0
176
     1
 90
        0
176
     1
290
     0
176
     1
290
     1
176
     1
290
     1
176
     1
290
     0
176
     1
290
     0
176
     1
290
     0
176
     1
290
     0
176
     1
290
     0
176
     1
290
     0
176
     1
 90
       50
176
     1
 40
0.0
176
     1
 40
1.0
176
     1
 90
        0
176
     1
 62
    18
420
        0
176
     1
 90
       50
176
     1
 90
        3
176
     1
 62
     5
420
      255
176
     1
290
     0
176
     1
 90
       50
176
     1
 90
       50
176
     1
 90
       50
176
     1
290
     0
176
     1
 90
       50
176
     1
 62
   256
176
     0
 40
1.0
176
     0
 90
        2
176
     1
  1
strokes_ogs.tif
176
     1
290
     0
176
     1
 40
1.0
176
     1
 40
1.0
176
     1
  0
VISUALSTYLE
  5
35
102
{ACAD_REACTORS
330
2A
102
}
330
2A
100
AcDbVisualStyle
  2
Dim
 70
    11
177
     3
291
     1
 70
    58
 90
        2
176
     1
 90
        2
176
     1
 90
        0
176
     1
 90
        0
176
     1
 40
0.6
176
     1
 40
30.0
176
     1
 62
     7
420
 16777215
176
     1
 90
        1
176
     1
 90
        4
176
     1
 62
     7
176
     1
 62
   257
176
     1
 90
        1
176
     1
 90
        1
176
     1
 40
1.0
176
     1
 90
        8
176
     1
 62
     7
176
     1
 40
1.0
176
     1
 90
        1
176
     1
 90
        6
176
     1
 90
        2
176
     1
 62
     7
176
     1
 90
        5
176
     1
 90
        0
176
     1
 90
        0
176
     1
290
     0
176
     1
 90
        1
176
     1
 40
-50.0
176
     1
 90
        0
176
     1
290
     0
176
     1
290
     1
176
     1
290
     1
176
     1
290
     0
176
     1
290
     0
176
     1
290
     0
176
     1
290
     0
176
     1
290
     0
176
     1
290
     0
176
     1
 90
       50
176
     1
 40
0.0
176
     1
 40
1.0
176
     1
 90
        0
176
     1
 62
    18
420
        0
176
     1
 90
       50
176
     1
 90
        3
176
     1
 62
     5
420
      255
176
     1
290
     0
176
     1
 90
       50
176
     1
 90
       50
176
     1
 90
       50
176
     1
290
     0
176
     1
 90
       50
176
     1
 62
   256
176
     0
 40
1.0
176
     0
 90
        2
176
     1
  1
strokes_ogs.tif
176
     1
290
     0
176
     1
 40
1.0
176
     1
 40
1.0
176
     1
  0
VISUALSTYLE
  5
3D
102
{ACAD_REACTORS
330
2A
102
}
330
2A
100
AcDbVisualStyle
  2
EdgeColorOff
 70
    22
177
     3
291
     1
 70
    58
 90
        2
176
     0
 90
        2
176
     0
 90
        0
176
     0
 90
        0
176
     0
 40
0.6
176
     0
 40
30.0
176
     0
 62
     7
420
 16777215
176
     0
 90
        1
176
     0
 90
        4
176
     0
 62
     7
176
     0
 62
   257
176
     0
 90
        1
176
     0
 90
        1
176
     0
 40
1.0
176
     0
 90
        8
176
     2
 62
     7
176
     0
 40
1.0
176
     0
 90
        1
176
     0
 90
        6
176
     0
 90
        2
176
     0
 62
     7
176
     0
 90
        5
176
     0
 90
        0
176
     0
 90
        0
176
     0
290
     0
176
     0
 90
        1
176
     0
 40
0.0
176
     0
 90
        0
176
     0
290
     0
176
     0
290
     1
176
     0
290
     1
176
     0
290
     0
176
     0
290
     0
176
     0
290
     0
176
     0
290
     0
176
     0
290
     0
176
     0
290
     0
176
     0
 90
       50
176
     0
 40
0.0
176
     0
 40
1.0
176
     0
 90
        0
176
     0
 62
    18
420
        0
176
     0
 90
       50
176
     0
 90
        3
176
     0
 62
     5
420
      255
176
     0
290
     0
176
     0
 90
       50
176
     0
 90
       50
176
     0
 90
       50
176
     0
290
     0
176
     0
 90
       50
176
     0
 62
   256
176
     0
 40
1.0
176
     0
 90
        2
176
     0
  1
strokes_ogs.tif
176
     0
290
     0
176
     0
 40
1.0
176
     0
 40
1.0
176
     0
  0
VISUALSTYLE
  5
39
102
{ACAD_REACTORS
330
2A
102
}
330
2A
100
AcDbVisualStyle
  2
Facepattern
 70
    15
177
     3
291
     1
 70
    58
 90
        2
176
     1
 90
        2
176
     1
 90
        0
176
     1
 90
        0
176
     1
 40
0.6
176
     1
 40
30.0
176
     1
 62
     7
420
 16777215
176
     1
 90
        1
176
     1
 90
        4
176
     1
 62
     7
176
     1
 62
   257
176
     1
 90
        1
176
     1
 90
        1
176
     1
 40
1.0
176
     1
 90
        8
176
     1
 62
     7
176
     1
 40
1.0
176
     1
 90
        1
176
     1
 90
        6
176
     1
 90
        2
176
     1
 62
     7
176
     1
 90
        5
176
     1
 90
        0
176
     1
 90
        0
176
     1
290
     0
176
     1
 90
        1
176
     1
 40
0.0
176
     1
 90
        0
176
     1
290
     0
176
     1
290
     1
176
     1
290
     1
176
     1
290
     0
176
     1
290
     0
176
     1
290
     0
176
     1
290
     0
176
     1
290
     0
176
     1
290
     0
176
     1
 90
       50
176
     1
 40
0.0
176
     1
 40
1.0
176
     1
 90
        0
176
     1
 62
    18
420
        0
176
     1
 90
       50
176
     1
 90
        3
176
     1
 62
     5
420
      255
176
     1
290
     0
176
     1
 90
       50
176
     1
 90
       50
176
     1
 90
       50
176
     1
290
     0
176
     1
 90
       50
176
     1
 62
   256
176
     0
 40
1.0
176
     0
 90
        2
176
     1
  1
strokes_ogs.tif
176
     1
290
     0
176
     1
 40
1.0
176
     1
 40
1.0
176
     1
  0
VISUALSTYLE
  5
2B
102
{ACAD_REACTORS
330
2A
102
}
330
2A
100
AcDbVisualStyle
  2
Flat
 70
     0
177
     3
291
     1
 70
    58
 90
        2
176
     1
 90
        1
176
     1
 90
        1
176
     1
 90
        2
176
     1
 40
0.6
176
     1
 40
30.0
176
     1
 62
     7
420
 16777215
176
     1
 90
        0
176
     1
 90
        0
176
     1
 62
     7
176
     1
 62
   257
176
     1
 90
        1
176
     1
 90
        1
176
     1
 40
1.0
176
     1
 90
        8
176
     1
 62
     7
176
     1
 40
1.0
176
     1
 90
        1
176
     1
 90
        6
176
     1
 90
        2
176
     1
 62
     7
176
     1
 90
        5
176
     1
 90
        0
176
     1
 90
        0
176
     1
290
     0
176
     1
 90
       13
176
     1
 40
0.0
176
     1
 90
        0
176
     1
290
     0
176
     1
290
     1
176
     1
290
     1
176
     1
290
     0
176
     1
290
     0
176
     1
290
     0
176
     1
290
     0
176
     1
290
     0
176
     1
290
     0
176
     1
 90
       50
176
     1
 40
0.0
176
     1
 40
1.0
176
     1
 90
        0
176
     1
 62
    18
420
        0
176
     1
 90
       50
176
     1
 90
        3
176
     1
 62
     5
420
      255
176
     1
290
     0
176
     1
 90
       50
176
     1
 90
       50
176
     1
 90
       50
176
     1
290
     0
176
     1
 90
       50
176
     1
 62
   256
176
     0
 40
1.0
176
     0
 90
        2
176
     1
  1
strokes_ogs.tif
176
     1
290
     0
176
     1
 40
1.0
176
     1
 40
1.0
176
     1
  0
VISUALSTYLE
  5
2C
102
{ACAD_REACTORS
330
2A
102
}
330
2A
100
AcDbVisualStyle
  2
FlatWithEdges
 70
     1
177
     3
291
     1
 70
    58
 90
        2
176
     1
 90
        1
176
     1
 90
        1
176
     1
 90
        2
176
     1
 40
0.6
176
     1
 40
30.0
176
     1
 62
     7
420
 16777215
176
     1
 90
        1
176
     1
 90
        0
176
     1
 62
     7
176
     1
 62
   257
176
     1
 90
        1
176
     1
 90
        1
176
     1
 40
1.0
176
     1
 90
        0
176
     1
 62
   257
176
     1
 40
1.0
176
     1
 90
        1
176
     1
 90
        6
176
     1
 90
        2
176
     1
 62
     7
176
     1
 90
        5
176
     1
 90
        0
176
     1
 90
        0
176
     1
290
     0
176
     1
 90
       13
176
     1
 40
0.0
176
     1
 90
        0
176
     1
290
     0
176
     1
290
     1
176
     1
290
     1
176
     1
290
     0
176
     1
290
     0
176
     1
290
     0
176
     1
290
     0
176
     1
290
     0
176
     1
290
     0
176
     1
 90
       50
176
     1
 40
0.0
176
     1
 40
1.0
176
     1
 90
        0
176
     1
 62
    18
420
        0
176
     1
 90
       50
176
     1
 90
        3
176
     1
 62
     5
420
      255
176
     1
290
     0
176
     1
 90
       50
176
     1
 90
       50
176
     1
 90
       50
176
     1
290
     0
176
     1
 90
       50
176
     1
 62
   256
176
     0
 40
1.0
176
     0
 90
        2
176
     1
  1
strokes_ogs.tif
176
     1
290
     0
176
     1
 40
1.0
176
     1
 40
1.0
176
     1
  0
VISUALSTYLE
  5
2D
102
{ACAD_REACTORS
330
2A
102
}
330
2A
100
AcDbVisualStyle
  2
Gouraud
 70
     2
177
     3
291
     1
 70
    58
 90
        2
176
     1
 90
        2
176
     1
 90
        1
176
     1
 90
        2
176
     1
 40
0.6
176
     1
 40
30.0
176
     1
 62
     7
420
 16777215
176
     1
 90
        0
176
     1
 90
        0
176
     1
 62
     7
176
     1
 62
   257
176
     1
 90
        1
176
     1
 90
        1
176
     1
 40
1.0
176
     1
 90
        0
176
     1
 62
     7
176
     1
 40
1.0
176
     1
 90
        1
176
     1
 90
        6
176
     1
 90
        2
176
     1
 62
     7
176
     1
 90
        5
176
     1
 90
        0
176
     1
 90
        0
176
     1
290
     0
176
     1
 90
       13
176
     1
 40
0.0
176
     1
 90
        0
176
     1
290
     0
176
     1
290
     1
176
     1
290
     1
176
     1
290
     0
176
     1
290
     0
176
     1
290
     0
176
     1
290
     0
176
     1
290
     0
176
     1
290
     0
176
     1
 90
       50
176
     1
 40
0.0
176
     1
 40
1.0
176
     1
 90
        0
176
     1
 62
    18
420
        0
176
     1
 90
       50
176
     1
 90
        3
176
     1
 62
     5
420
      255
176
     1
290
     0
176
     1
 90
       50
176
     1
 90
       50
176
     1
 90
       50
176
     1
290
     0
176
     1
 90
       50
176
     1
 62
   256
176
     0
 40
1.0
176
     0
 90
        2
176
     1
  1
strokes_ogs.tif
176
     1
290
     0
176
     1
 40
1.0
176
     1
 40
1.0
176
     1
  0
VISUALSTYLE
  5
2E
102
{ACAD_REACTORS
330
2A
102
}
330
2A
100
AcDbVisualStyle
  2
GouraudWithEdges
 70
     3
177
     3
291
     1
 70
    58
 90
        2
176
     1
 90
        2
176
     1
 90
        1
176
     1
 90
        2
176
     1
 40
0.6
176
     1
 40
30.0
176
     1
 62
     7
420
 16777215
176
     1
 90
        1
176
     1
 90
        0
176
     1
 62
     7
176
     1
 62
   257
176
     1
 90
        1
176
     1
 90
        1
176
     1
 40
1.0
176
     1
 90
        0
176
     1
 62
   257
176
     1
 40
1.0
176
     1
 90
        1
176
     1
 90
        6
176
     1
 90
        2
176
     1
 62
     7
176
     1
 90
        5
176
     1
 90
        0
176
     1
 90
        0
176
     1
290
     0
176
     1
 90
       13
176
     1
 40
0.0
176
     1
 90
        0
176
     1
290
     0
176
     1
290
     1
176
     1
290
     1
176
     1
290
     0
176
     1
290
     0
176
     1
290
     0
176
     1
290
     0
176
     1
290
     0
176
     1
290
     0
176
     1
 90
       50
176
     1
 40
0.0
176
     1
 40
1.0
176
     1
 90
        0
176
     1
 62
    18
420
        0
176
     1
 90
       50
176
     1
 90
        3
176
     1
 62
     5
420
      255
176
     1
290
     0
176
     1
 90
       50
176
     1
 90
       50
176
     1
 90
       50
176
     1
290
     0
176
     1
 90
       50
176
     1
 62
   256
176
     0
 40
1.0
176
     0
 90
        2
176
     1
  1
strokes_ogs.tif
176
     1
290
     0
176
     1
 40
1.0
176
     1
 40
1.0
176
     1
  0
VISUALSTYLE
  5
31
102
{ACAD_REACTORS
330
2A
102
}
330
2A
100
AcDbVisualStyle
  2
Hidden
 70
     6
177
     3
291
     0
 70
    58
 90
        1
176
     1
 90
        2
176
     1
 90
        2
176
     1
 90
        0
176
     1
 40
0.6
176
     1
 40
30.0
176
     1
 62
     7
420
 16777215
176
     1
 90
        2
176
     1
 90
        2
176
     1
 62
     7
176
     1
 62
   257
176
     1
 90
        2
176
     1
 90
        1
176
     1
 40
40.0
176
     1
 90
        0
176
     1
 62
   257
176
     1
 40
1.0
176
     1
 90
        1
176
     1
 90
        6
176
     1
 90
        2
176
     1
 62
     7
176
     1
 90
        3
176
     1
 90
        0
176
     1
 90
        0
176
     1
290
     0
176
     1
 90
        1
176
     1
 40
0.0
176
     1
 90
        0
176
     1
290
     0
176
     1
290
     1
176
     1
290
     1
176
     1
290
     0
176
     1
290
     0
176
     1
290
     0
176
     1
290
     0
176
     1
290
     0
176
     1
290
     0
176
     1
 90
       50
176
     1
 40
0.0
176
     1
 40
1.0
176
     1
 90
        0
176
     1
 62
    18
420
        0
176
     1
 90
       50
176
     1
 90
        3
176
     1
 62
     5
420
      255
176
     1
290
     0
176
     1
 90
       50
176
     1
 90
       50
176
     1
 90
       50
176
     1
290
     0
176
     1
 90
       50
176
     1
 62
   256
176
     0
 40
1.0
176
     0
 90
        2
176
     1
  1
strokes_ogs.tif
176
     1
290
     0
176
     1
 40
1.0
176
     1
 40
1.0
176
     1
  0
VISUALSTYLE
  5
3B
102
{ACAD_REACTORS
330
2A
102
}
330
2A
100
AcDbVisualStyle
  2
JitterOff
 70
    20
177
     3
291
     1
 70
    58
 90
        2
176
     0
 90
        2
176
     0
 90
        0
176
     0
 90
        0
176
     0
 40
0.6
176
     0
 40
30.0
176
     0
 62
     7
420
 16777215
176
     0
 90
        1
176
     0
 90
        4
176
     0
 62
     7
176
     0
 62
   257
176
     0
 90
        1
176
     0
 90
        1
176
     0
 40
1.0
176
     0
 90
       10
176
     2
 62
     7
176
     0
 40
1.0
176
     0
 90
        1
176
     0
 90
        6
176
     0
 90
        2
176
     0
 62
     7
176
     0
 90
        5
176
     0
 90
        0
176
     0
 90
        0
176
     0
290
     0
176
     0
 90
        1
176
     0
 40
0.0
176
     0
 90
        0
176
     0
290
     0
176
     0
290
     1
176
     0
290
     1
176
     0
290
     0
176
     0
290
     0
176
     0
290
     0
176
     0
290
     0
176
     0
290
     0
176
     0
290
     0
176
     0
 90
       50
176
     0
 40
0.0
176
     0
 40
1.0
176
     0
 90
        0
176
     0
 62
    18
420
        0
176
     0
 90
       50
176
     0
 90
        3
176
     0
 62
     5
420
      255
176
     0
290
     0
176
     0
 90
       50
176
     0
 90
       50
176
     0
 90
       50
176
     0
290
     0
176
     0
 90
       50
176
     0
 62
   256
176
     0
 40
1.0
176
     0
 90
        2
176
     0
  1
strokes_ogs.tif
176
     0
290
     0
176
     0
 40
1.0
176
     0
 40
1.0
176
     0
  0
VISUALSTYLE
  5
38
102
{ACAD_REACTORS
330
2A
102
}
330
2A
100
AcDbVisualStyle
  2
Linepattern
 70
    14
177
     3
291
     1
 70
    58
 90
        2
176
     1
 90
        2
176
     1
 90
        0
176
     1
 90
        0
176
     1
 40
0.6
176
     1
 40
30.0
176
     1
 62
     7
420
 16777215
176
     1
 90
        1
176
     1
 90
        4
176
     1
 62
     7
176
     1
 62
   257
176
     1
 90
        7
176
     1
 90
        7
176
     1
 40
1.0
176
     1
 90
        8
176
     1
 62
     7
176
     1
 40
1.0
176
     1
 90
        1
176
     1
 90
        6
176
     1
 90
        2
176
     1
 62
     7
176
     1
 90
        5
176
     1
 90
        0
176
     1
 90
        0
176
     1
290
     0
176
     1
 90
        1
176
     1
 40
0.0
176
     1
 90
        0
176
     1
290
     0
176
     1
290
     1
176
     1
290
     1
176
     1
290
     0
176
     1
290
     0
176
     1
290
     0
176
     1
290
     0
176
     1
290
     0
176
     1
290
     0
176
     1
 90
       50
176
     1
 40
0.0
176
     1
 40
1.0
176
     1
 90
        0
176
     1
 62
    18
420
        0
176
     1
 90
       50
176
     1
 90
        3
176
     1
 62
     5
420
      255
176
     1
290
     0
176
     1
 90
       50
176
     1
 90
       50
176
     1
 90
       50
176
     1
290
     0
176
     1
 90
       50
176
     1
 62
   256
176
     0
 40
1.0
176
     0
 90
        2
176
     1
  1
strokes_ogs.tif
176
     1
290
     0
176
     1
 40
1.0
176
     1
 40
1.0
176
     1
  0
VISUALSTYLE
  5
3C
102
{ACAD_REACTORS
330
2A
102
}
330
2A
100
AcDbVisualStyle
  2
OverhangOff
 70
    21
177
     3
291
     1
 70
    58
 90
        2
176
     0
 90
        2
176
     0
 90
        0
176
     0
 90
        0
176
     0
 40
0.6
176
     0
 40
30.0
176
     0
 62
     7
420
 16777215
176
     0
 90
        1
176
     0
 90
        4
176
     0
 62
     7
176
     0
 62
   257
176
     0
 90
        1
176
     0
 90
        1
176
     0
 40
1.0
176
     0
 90
        9
176
     2
 62
     7
176
     0
 40
1.0
176
     0
 90
        1
176
     0
 90
        6
176
     0
 90
        2
176
     0
 62
     7
176
     0
 90
        5
176
     0
 90
        0
176
     0
 90
        0
176
     0
290
     0
176
     0
 90
        1
176
     0
 40
0.0
176
     0
 90
        0
176
     0
290
     0
176
     0
290
     1
176
     0
290
     1
176
     0
290
     0
176
     0
290
     0
176
     0
290
     0
176
     0
290
     0
176
     0
290
     0
176
     0
290
     0
176
     0
 90
       50
176
     0
 40
0.0
176
     0
 40
1.0
176
     0
 90
        0
176
     0
 62
    18
420
        0
176
     0
 90
       50
176
     0
 90
        3
176
     0
 62
     5
420
      255
176
     0
290
     0
176
     0
 90
       50
176
     0
 90
       50
176
     0
 90
       50
176
     0
290
     0
176
     0
 90
       50
176
     0
 62
   256
176
     0
 40
1.0
176
     0
 90
        2
176
     0
  1
strokes_ogs.tif
176
     0
290
     0
176
     0
 40
1.0
176
     0
 40
1.0
176
     0
  0
VISUALSTYLE
  5
33
102
{ACAD_REACTORS
330
2A
102
}
330
2A
100
AcDbVisualStyle
  2
Realistic
 70
     8
177
     3
291
     0
 70
    58
 90
        2
176
     1
 90
        3
176
     1
 90
        0
176
     1
 90
        2
176
     1
 40
0.6
176
     1
 40
30.0
176
     1
 62
     7
420
 16777215
176
     1
 90
        0
176
     1
 90
        0
176
     1
 62
     7
176
     1
 62
   257
176
     1
 90
        1
176
     1
 90
        1
176
     1
 40
1.0
176
     1
 90
        8
176
     1
 62
   257
176
     1
 40
1.0
176
     1
 90
        1
176
     1
 90
        6
176
     1
 90
        2
176
     1
 62
     7
176
     1
 90
        3
176
     1
 90
        0
176
     1
 90
        0
176
     1
290
     0
176
     1
 90
       13
176
     1
 40
0.0
176
     1
 90
        0
176
     1
290
     0
176
     1
290
     1
176
     1
290
     1
176
     1
290
     0
176
     1
290
     0
176
     1
290
     0
176
     1
290
     0
176
     1
290
     0
176
     1
290
     0
176
     1
 90
       50
176
     1
 40
0.0
176
     1
 40
1.0
176
     1
 90
        0
176
     1
 62
    18
420
        0
176
     1
 90
       50
176
     1
 90
        3
176
     1
 62
     5
420
      255
176
     1
290
     0
176
     1
 90
       50
176
     1
 90
       50
176
     1
 90
       50
176
     1
290
     0
176
     1
 90
       50
176
     1
 62
   256
176
     0
 40
1.0
176
     0
 90
        2
176
     1
  1
strokes_ogs.tif
176
     1
290
     0
176
     1
 40
1.0
176
     1
 40
1.0
176
     1
  0
VISUALSTYLE
  5
42
102
{ACAD_REACTORS
330
2A
102
}
330
2A
100
AcDbVisualStyle
  2
Shaded
 70
    27
177
     3
291
     0
 70
    58
 90
        2
176
     1
 90
        2
176
     1
 90
        1
176
     1
 90
        2
176
     1
 40
0.6
176
     1
 40
30.0
176
     1
 62
     7
420
 16777215
176
     1
 90
        0
176
     1
 90
        4
176
     1
 62
     7
176
     1
 62
   257
176
     1
 90
        1
176
     1
 90
        1
176
     1
 40
1.0
176
     1
 90
        8
176
     1
 62
   257
176
     1
 40
1.0
176
     1
 90
        1
176
     1
 90
        6
176
     1
 90
        2
176
     1
 62
     8
420
  7895160
176
     1
 90
        3
176
     1
 90
        0
176
     1
 90
        0
176
     1
290
     0
176
     1
 90
        5
176
     1
 40
0.0
176
     1
 90
        0
176
     1
290
     0
176
     1
290
     1
176
     1
290
     1
176
     1
290
     0
176
     1
290
     0
176
     1
290
     0
176
     1
290
     0
176
     1
290
     0
176
     1
290
     0
176
     1
 90
       50
176
     1
 40
0.0
176
     1
 40
1.0
176
     1
 90
        0
176
     1
 62
    18
420
        0
176
     1
 90
       50
176
     1
 90
        3
176
     1
 62
     5
420
      255
176
     1
290
     0
176
     1
 90
       50
176
     1
 90
       50
176
     1
 90
       50
176
     1
290
     0
176
     1
 90
       50
176
     1
 62
   256
176
     0
 40
1.0
176
     0
 90
        2
176
     1
  1
strokes_ogs.tif
176
     1
290
     0
176
     1
 40
1.0
176
     1
 40
1.0
176
     1
  0
VISUALSTYLE
  5
41
102
{ACAD_REACTORS
330
2A
102
}
330
2A
100
AcDbVisualStyle
  2
Shaded with edges
 70
    26
177
     3
291
     0
 70
    58
 90
        2
176
     1
 90
        2
176
     1
 90
        1
176
     1
 90
        2
176
     1
 40
0.6
176
     1
 40
30.0
176
     1
 62
     7
420
 16777215
176
     1
 90
        1
176
     1
 90
       10
176
     1
 62
     7
176
     1
 62
   257
176
     1
 90
        2
176
     1
 90
        1
176
     1
 40
1.0
176
     1
 90
        8
176
     1
 62
   257
176
     1
 40
1.0
176
     1
 90
        1
176
     1
 90
        6
176
     1
 90
        2
176
     1
 62
     7
176
     1
 90
        3
176
     1
 90
        0
176
     1
 90
        0
176
     1
290
     0
176
     1
 90
        5
176
     1
 40
0.0
176
     1
 90
        0
176
     1
290
     0
176
     1
290
     1
176
     1
290
     1
176
     1
290
     0
176
     1
290
     0
176
     1
290
     0
176
     1
290
     0
176
     1
290
     0
176
     1
290
     0
176
     1
 90
       50
176
     1
 40
0.0
176
     1
 40
1.0
176
     1
 90
        0
176
     1
 62
    18
420
        0
176
     1
 90
       50
176
     1
 90
        3
176
     1
 62
     5
420
      255
176
     1
290
     0
176
     1
 90
       50
176
     1
 90
       50
176
     1
 90
       50
176
     1
290
     0
176
     1
 90
       50
176
     1
 62
   256
176
     0
 40
1.0
176
     0
 90
        2
176
     1
  1
strokes_ogs.tif
176
     1
290
     0
176
     1
 40
1.0
176
     1
 40
1.0
176
     1
  0
VISUALSTYLE
  5
3E
102
{ACAD_REACTORS
330
2A
102
}
330
2A
100
AcDbVisualStyle
  2
Shades of Gray
 70
    23
177
     3
291
     0
 70
    58
 90
        2
176
     1
 90
        2
176
     1
 90
        3
176
     1
 90
        0
176
     1
 40
0.6
176
     1
 40
30.0
176
     1
 62
     7
420
 16777215
176
     1
 90
        2
176
     1
 90
        2
176
     1
 62
     7
176
     1
 62
     7
176
     1
 90
        1
176
     1
 90
        1
176
     1
 40
40.0
176
     1
 90
        8
176
     1
 62
     7
176
     1
 40
1.0
176
     1
 90
        1
176
     1
 90
        6
176
     1
 90
        2
176
     1
 62
     7
176
     1
 90
        3
176
     1
 90
        0
176
     1
 90
        0
176
     1
290
     0
176
     1
 90
        1
176
     1
 40
0.0
176
     1
 90
        0
176
     1
290
     0
176
     1
290
     1
176
     1
290
     1
176
     1
290
     0
176
     1
290
     0
176
     1
290
     0
176
     1
290
     0
176
     1
290
     0
176
     1
290
     0
176
     1
 90
       50
176
     1
 40
0.0
176
     1
 40
1.0
176
     1
 90
        0
176
     1
 62
    18
420
        0
176
     1
 90
       50
176
     1
 90
        3
176
     1
 62
     5
420
      255
176
     1
290
     0
176
     1
 90
       50
176
     1
 90
       50
176
     1
 90
       50
176
     1
290
     0
176
     1
 90
       50
176
     1
 62
   256
176
     0
 40
1.0
176
     0
 90
        2
176
     1
  1
strokes_ogs.tif
176
     1
290
     0
176
     1
 40
1.0
176
     1
 40
1.0
176
     1
  0
VISUALSTYLE
  5
3F
102
{ACAD_REACTORS
330
2A
102
}
330
2A
100
AcDbVisualStyle
  2
Sketchy
 70
    24
177
     3
291
     0
 70
    58
 90
        1
176
     1
 90
        2
176
     1
 90
        2
176
     1
 90
        0
176
     1
 40
0.6
176
     1
 40
30.0
176
     1
 62
     7
420
 16777215
176
     1
 90
        2
176
     1
 90
        2
176
     1
 62
     7
176
     1
 62
     7
176
     1
 90
        1
176
     1
 90
        1
176
     1
 40
40.0
176
     1
 90
       11
176
     1
 62
     7
176
     1
 40
1.0
176
     1
 90
        1
176
     1
 90
        6
176
     1
 90
        2
176
     1
 62
     7
176
     1
 90
        6
176
     1
 90
        0
176
     1
 90
        0
176
     1
290
     0
176
     1
 90
        1
176
     1
 40
0.0
176
     1
 90
        0
176
     1
290
     0
176
     1
290
     1
176
     1
290
     1
176
     1
290
     0
176
     1
290
     0
176
     1
290
     0
176
     1
290
     0
176
     1
290
     0
176
     1
290
     0
176
     1
 90
       50
176
     1
 40
0.0
176
     1
 40
1.0
176
     1
 90
        0
176
     1
 62
    18
420
        0
176
     1
 90
       50
176
     1
 90
        3
176
     1
 62
     5
420
      255
176
     1
290
     0
176
     1
 90
       50
176
     1
 90
       50
176
     1
 90
       50
176
     1
290
     0
176
     1
 90
       50
176
     1
 62
   256
176
     0
 40
1.0
176
     0
 90
        2
176
     1
  1
strokes_ogs.tif
176
     1
290
     0
176
     1
 40
1.0
176
     1
 40
1.0
176
     1
  0
VISUALSTYLE
  5
37
102
{ACAD_REACTORS
330
2A
102
}
330
2A
100
AcDbVisualStyle
  2
Thicken
 70
    13
177
     3
291
     1
 70
    58
 90
        2
176
     1
 90
        2
176
     1
 90
        0
176
     1
 90
        0
176
     1
 40
0.6
176
     1
 40
30.0
176
     1
 62
     7
420
 16777215
176
     1
 90
        1
176
     1
 90
        4
176
     1
 62
     7
176
     1
 62
   257
176
     1
 90
        1
176
     1
 90
        1
176
     1
 40
1.0
176
     1
 90
       12
176
     1
 62
     7
176
     1
 40
1.0
176
     1
 90
        1
176
     1
 90
        6
176
     1
 90
        2
176
     1
 62
     7
176
     1
 90
        5
176
     1
 90
        0
176
     1
 90
        0
176
     1
290
     0
176
     1
 90
        1
176
     1
 40
0.0
176
     1
 90
        0
176
     1
290
     0
176
     1
290
     1
176
     1
290
     1
176
     1
290
     0
176
     1
290
     0
176
     1
290
     0
176
     1
290
     0
176
     1
290
     0
176
     1
290
     0
176
     1
 90
       50
176
     1
 40
0.0
176
     1
 40
1.0
176
     1
 90
        0
176
     1
 62
    18
420
        0
176
     1
 90
       50
176
     1
 90
        3
176
     1
 62
     5
420
      255
176
     1
290
     0
176
     1
 90
       50
176
     1
 90
       50
176
     1
 90
       50
176
     1
290
     0
176
     1
 90
       50
176
     1
 62
   256
176
     0
 40
1.0
176
     0
 90
        2
176
     1
  1
strokes_ogs.tif
176
     1
290
     0
176
     1
 40
1.0
176
     1
 40
1.0
176
     1
  0
VISUALSTYLE
  5
30
102
{ACAD_REACTORS
330
2A
102
}
330
2A
100
AcDbVisualStyle
  2
Wireframe
 70
     5
177
     3
291
     0
 70
    58
 90
        0
176
     1
 90
        2
176
     1
 90
        0
176
     1
 90
        0
176
     1
 40
0.6
176
     1
 40
30.0
176
     1
 62
     7
420
 16777215
176
     1
 90
        1
176
     1
 90
        4
176
     1
 62
     7
176
     1
 62
   257
176
     1
 90
        1
176
     1
 90
        1
176
     1
 40
1.0
176
     1
 90
        0
176
     1
 62
   257
176
     1
 40
1.0
176
     1
 90
        1
176
     1
 90
        6
176
     1
 90
        2
176
     1
 62
     7
176
     1
 90
        3
176
     1
 90
        0
176
     1
 90
        0
176
     1
290
     0
176
     1
 90
        1
176
     1
 40
0.0
176
     1
 90
        0
176
     1
290
     0
176
     1
290
     1
176
     1
290
     1
176
     1
290
     0
176
     1
290
     0
176
     1
290
     0
176
     1
290
     0
176
     1
290
     0
176
     1
290
     0
176
     1
 90
       50
176
     1
 40
0.0
176
     1
 40
1.0
176
     1
 90
        0
176
     1
 62
    18
420
        0
176
     1
 90
       50
176
     1
 90
        3
176
     1
 62
     5
420
      255
176
     1
290
     0
176
     1
 90
       50
176
     1
 90
       50
176
     1
 90
       50
176
     1
290
     0
176
     1
 90
       50
176
     1
 62
   256
176
     0
 40
1.0
176
     0
 90
        2
176
     1
  1
strokes_ogs.tif
176
     1
290
     0
176
     1
 40
1.0
176
     1
 40
1.0
176
     1
  0
VISUALSTYLE
  5
40
102
{ACAD_REACTORS
330
2A
102
}
330
2A
100
AcDbVisualStyle
  2
X-Ray
 70
    25
177
     3
291
     0
 70
    58
 90
        2
176
     1
 90
        2
176
     1
 90
        1
176
     1
 90
        1
176
     1
 40
0.5
176
     1
 40
30.0
176
     1
 62
     7
420
 16777215
176
     1
 90
        1
176
     1
 90
        0
176
     1
 62
     7
176
     1
 62
   257
176
     1
 90
        1
176
     1
 90
        1
176
     1
 40
1.0
176
     1
 90
        8
176
     1
 62
     7
176
     1
 40
1.0
176
     1
 90
        1
176
     1
 90
        6
176
     1
 90
        2
176
     1
 62
     7
176
     1
 90
        3
176
     1
 90
        0
176
     1
 90
        0
176
     1
290
     0
176
     1
 90
       13
176
     1
 40
0.0
176
     1
 90
        0
176
     1
290
     0
176
     1
290
     1
176
     1
290
     1
176
     1
290
     0
176
     1
290
     0
176
     1
290
     0
176
     1
290
     0
176
     1
290
     0
176
     1
290
     0
176
     1
 90
       50
176
     1
 40
0.0
176
     1
 40
1.0
176
     1
 90
        0
176
     1
 62
    18
420
        0
176
     1
 90
       50
176
     1
 90
        3
176
     1
 62
     5
420
      255
176
     1
290
     0
176
     1
 90
       50
176
     1
 90
       50
176
     1
 90
       50
176
     1
290
     0
176
     1
 90
       50
176
     1
 62
   256
176
     0
 40
1.0
176
     0
 90
        2
176
     1
  1
strokes_ogs.tif
176
     1
290
     0
176
     1
 40
1.0
176
     1
 40
1.0
176
     1
  0
DICTIONARYVAR
  5
1E5
102
{ACAD_REACTORS
330
1E4
102
}
330
1E4
100
DictionaryVariables
280
     0
  1
1:1
  0
DICTIONARYVAR
  5
1EA
102
{ACAD_REACTORS
330
1E4
102
}
330
1E4
100
DictionaryVariables
280
     0
  1
Standard
  0
DICTIONARYVAR
  5
1E9
102
{ACAD_REACTORS
330
1E4
102
}
330
1E4
100
DictionaryVariables
280
     0
  1
Standard
  0
DICTIONARY
  5
1E6
330
6A
100
AcDbDictionary
280
     1
281
     1
  3
ACAD_ROUNDTRIP_2008_TABLESTYLE_CELLSTYLEMAP
360
1E7
  0
CELLSTYLEMAP
  5
1E7
102
{ACAD_REACTORS
330
1E6
102
}
330
1E6
100
AcDbCellStyleMap
 90
        3
300
CELLSTYLE
  1
TABLEFORMAT_BEGIN
 90
        5
170
     1
 91
        0
 92
    32768
 62
   257
 93
        1
300
CONTENTFORMAT
  1
CONTENTFORMAT_BEGIN
 90
        0
 91
        0
 92
        4
 93
        0
300

 40
0.0
140
1.0
 94
        5
 62
     0
340
11
144
6.0
309
CONTENTFORMAT_END
171
     1
301
MARGIN
  1
CELLMARGIN_BEGIN
 40
1.5
 40
1.5
 40
1.5
 40
1.5
 40
1.5
 40
1.5
309
CELLMARGIN_END
 94
        6
 95
        1
302
GRIDFORMAT
  1
GRIDFORMAT_BEGIN
 90
        0
 91
        1
 62
     0
 92
       -2
340
14
 93
        0
 40
0.045
309
GRIDFORMAT_END
 95
        2
302
GRIDFORMAT
  1
GRIDFORMAT_BEGIN
 90
        0
 91
        1
 62
     0
 92
       -2
340
14
 93
        0
 40
0.045
309
GRIDFORMAT_END
 95
        4
302
GRIDFORMAT
  1
GRIDFORMAT_BEGIN
 90
        0
 91
        1
 62
     0
 92
       -2
340
14
 93
        0
 40
0.045
309
GRIDFORMAT_END
 95
        8
302
GRIDFORMAT
  1
GRIDFORMAT_BEGIN
 90
        0
 91
        1
 62
     0
 92
       -2
340
14
 93
        0
 40
0.045
309
GRIDFORMAT_END
 95
       16
302
GRIDFORMAT
  1
GRIDFORMAT_BEGIN
 90
        0
 91
        1
 62
     0
 92
       -2
340
14
 93
        0
 40
0.045
309
GRIDFORMAT_END
 95
       32
302
GRIDFORMAT
  1
GRIDFORMAT_BEGIN
 90
        0
 91
        1
 62
     0
 92
       -2
340
14
 93
        0
 40
0.045
309
GRIDFORMAT_END
309
TABLEFORMAT_END
  1
CELLSTYLE_BEGIN
 90
        1
 91
        1
300
_TITLE
309
CELLSTYLE_END
300
CELLSTYLE
  1
TABLEFORMAT_BEGIN
 90
        5
170
     1
 91
        0
 92
        0
 62
   257
 93
        1
300
CONTENTFORMAT
  1
CONTENTFORMAT_BEGIN
 90
        0
 91
        0
 92
        4
 93
        0
300

 40
0.0
140
1.0
 94
        5
 62
     0
340
11
144
4.5
309
CONTENTFORMAT_END
171
     1
301
MARGIN
  1
CELLMARGIN_BEGIN
 40
1.5
 40
1.5
 40
1.5
 40
1.5
 40
1.5
 40
1.5
309
CELLMARGIN_END
 94
        6
 95
        1
302
GRIDFORMAT
  1
GRIDFORMAT_BEGIN
 90
        0
 91
        1
 62
     0
 92
       -2
340
14
 93
        0
 40
0.045
309
GRIDFORMAT_END
 95
        2
302
GRIDFORMAT
  1
GRIDFORMAT_BEGIN
 90
        0
 91
        1
 62
     0
 92
       -2
340
14
 93
        0
 40
0.045
309
GRIDFORMAT_END
 95
        4
302
GRIDFORMAT
  1
GRIDFORMAT_BEGIN
 90
        0
 91
        1
 62
     0
 92
       -2
340
14
 93
        0
 40
0.045
309
GRIDFORMAT_END
 95
        8
302
GRIDFORMAT
  1
GRIDFORMAT_BEGIN
 90
        0
 91
        1
 62
     0
 92
       -2
340
14
 93
        0
 40
0.045
309
GRIDFORMAT_END
 95
       16
302
GRIDFORMAT
  1
GRIDFORMAT_BEGIN
 90
        0
 91
        1
 62
     0
 92
       -2
340
14
 93
        0
 40
0.045
309
GRIDFORMAT_END
 95
       32
302
GRIDFORMAT
  1
GRIDFORMAT_BEGIN
 90
        0
 91
        1
 62
     0
 92
       -2
340
14
 93
        0
 40
0.045
309
GRIDFORMAT_END
309
TABLEFORMAT_END
  1
CELLSTYLE_BEGIN
 90
        2
 91
        1
300
_HEADER
309
CELLSTYLE_END
300
CELLSTYLE
  1
TABLEFORMAT_BEGIN
 90
        5
170
     1
 91
        0
 92
        0
 62
   257
 93
        1
300
CONTENTFORMAT
  1
CONTENTFORMAT_BEGIN
 90
        0
 91
        0
 92
        4
 93
        0
300

 40
0.0
140
1.0
 94
        2
 62
     0
340
11
144
4.5
309
CONTENTFORMAT_END
171
     1
301
MARGIN
  1
CELLMARGIN_BEGIN
 40
1.5
 40
1.5
 40
1.5
 40
1.5
 40
1.5
 40
1.5
309
CELLMARGIN_END
 94
        6
 95
        1
302
GRIDFORMAT
  1
GRIDFORMAT_BEGIN
 90
        0
 91
        1
 62
     0
 92
       -2
340
14
 93
        0
 40
0.045
309
GRIDFORMAT_END
 95
        2
302
GRIDFORMAT
  1
GRIDFORMAT_BEGIN
 90
        0
 91
        1
 62
     0
 92
       -2
340
14
 93
        0
 40
0.045
309
GRIDFORMAT_END
 95
        4
302
GRIDFORMAT
  1
GRIDFORMAT_BEGIN
 90
        0
 91
        1
 62
     0
 92
       -2
340
14
 93
        0
 40
0.045
309
GRIDFORMAT_END
 95
        8
302
GRIDFORMAT
  1
GRIDFORMAT_BEGIN
 90
        0
 91
        1
 62
     0
 92
       -2
340
14
 93
        0
 40
0.045
309
GRIDFORMAT_END
 95
       16
302
GRIDFORMAT
  1
GRIDFORMAT_BEGIN
 90
        0
 91
        1
 62
     0
 92
       -2
340
14
 93
        0
 40
0.045
309
GRIDFORMAT_END
 95
       32
302
GRIDFORMAT
  1
GRIDFORMAT_BEGIN
 90
        0
 91
        1
 62
     0
 92
       -2
340
14
 93
        0
 40
0.045
309
GRIDFORMAT_END
309
TABLEFORMAT_END
  1
CELLSTYLE_BEGIN
 90
        3
 91
        2
300
_DATA
309
CELLSTYLE_END
  0
ENDSEC
  0
EOF