0
SECTION
  2
HEADER
  9
$ACADVER
  1
AC1027
  9
$ACADMAINTVER
 70
     8
  9
$DWGCODEPAGE
  3
ANSI_1252
  9
$REQUIREDVERSIONS
160
                 0
  9
$COMMENTS
  1
File was created by Cadenas
  9
$CUSTOMPROPERTYTAG
  1
NN
  9
$CUSTOMPROPERTY
  1
Eccentric Collar Two-Bolt Piloted Flange Metric Bore
  9
$CUSTOMPROPERTYTAG
  1
NT
  9
$CUSTOMPROPERTY
  1
Eccentric Collar 2 Bolt Piloted Flange Bearings -(Normal Duty)
  9
$CUSTOMPROPERTYTAG
  1
NB
  9
$CUSTOMPROPERTY
  1
130831
  9
$CUSTOMPROPERTYTAG
  1
NBSYN
  9
$CUSTOMPROPERTY
  1
$PN.
  9
$CUSTOMPROPERTYTAG
  1
LINA
  9
$CUSTOMPROPERTY
  1
130831
  9
$CUSTOMPROPERTYTAG
  1
SERIES
  9
$CUSTOMPROPERTY
  1
204
  9
$CUSTOMPROPERTYTAG
  1
SS
  9
$CUSTOMPROPERTY
  1
20
  9
$CUSTOMPROPERTYTAG
  1
PN
  9
$CUSTOMPROPERTY
  1
130831
  9
$CUSTOMPROPERTYTAG
  1
DESCRIPTION
  9
$CUSTOMPROPERTY
  1
F2BZ-SXR-20M
  9
$CUSTOMPROPERTYTAG
  1
W
  9
$CUSTOMPROPERTY
  1
0.6
  9
$CUSTOMPROPERTYTAG
  1
A
  9
$CUSTOMPROPERTY
  1
39.4
  9
$CUSTOMPROPERTYTAG
  1
B
  9
$CUSTOMPROPERTY
  1
112.0
  9
$CUSTOMPROPERTYTAG
  1
C
  9
$CUSTOMPROPERTY
  1
45.7
  9
$CUSTOMPROPERTYTAG
  1
D
  9
$CUSTOMPROPERTY
  1
89.7
  9
$CUSTOMPROPERTYTAG
  1
E
  9
$CUSTOMPROPERTY
  1
3.6
  9
$CUSTOMPROPERTYTAG
  1
F
  9
$CUSTOMPROPERTY
  1
M10
  9
$CUSTOMPROPERTYTAG
  1
G
  9
$CUSTOMPROPERTY
  1
42.1
  9
$CUSTOMPROPERTYTAG
  1
H
  9
$CUSTOMPROPERTY
  1
12.7
  9
$CUSTOMPROPERTYTAG
  1
J
  9
$CUSTOMPROPERTY
  1
17.3
  9
$CUSTOMPROPERTYTAG
  1
K
  9
$CUSTOMPROPERTY
  1
54.99/54.94
  9
$CUSTOMPROPERTYTAG
  1
L
  9
$CUSTOMPROPERTY
  1
33.3
  9
$CUSTOMPROPERTYTAG
  1
M
  9
$CUSTOMPROPERTY
  1
60.5
  9
$CUSTOMPROPERTYTAG
  1
N
  9
$CUSTOMPROPERTY
  1
38.1
  9
$CUSTOMPROPERTYTAG
  1
COMPANY
  9
$CUSTOMPROPERTY
  1
baldor
  9
$INSBASE
 10
0.0
 20
0.0
 30
0.0
  9
$EXTMIN
 10
1.000000000000000E+20
 20
1.000000000000000E+20
 30
1.000000000000000E+20
  9
$EXTMAX
 10
-1.000000000000000E+20
 20
-1.000000000000000E+20
 30
-1.000000000000000E+20
  9
$LIMMIN
 10
0.0
 20
0.0
  9
$LIMMAX
 10
420.0
 20
297.0
  9
$ORTHOMODE
 70
     0
  9
$REGENMODE
 70
     1
  9
$FILLMODE
 70
     1
  9
$QTEXTMODE
 70
     0
  9
$MIRRTEXT
 70
     1
  9
$LTSCALE
 40
1.0
  9
$ATTMODE
 70
     1
  9
$TEXTSIZE
 40
2.5
  9
$TRACEWID
 40
1.0
  9
$TEXTSTYLE
  7
Standard
  9
$CLAYER
  8
0
  9
$CELTYPE
  6
ByLayer
  9
$CECOLOR
 62
   256
  9
$CELTSCALE
 40
1.0
  9
$DISPSILH
 70
     0
  9
$DIMSCALE
 40
1.0
  9
$DIMASZ
 40
2.5
  9
$DIMEXO
 40
0.625
  9
$DIMDLI
 40
3.75
  9
$DIMRND
 40
0.0
  9
$DIMDLE
 40
0.0
  9
$DIMEXE
 40
1.25
  9
$DIMTP
 40
0.0
  9
$DIMTM
 40
0.0
  9
$DIMTXT
 40
2.5
  9
$DIMCEN
 40
2.5
  9
$DIMTSZ
 40
0.0
  9
$DIMTOL
 70
     0
  9
$DIMLIM
 70
     0
  9
$DIMTIH
 70
     0
  9
$DIMTOH
 70
     0
  9
$DIMSE1
 70
     0
  9
$DIMSE2
 70
     0
  9
$DIMTAD
 70
     1
  9
$DIMZIN
 70
     8
  9
$DIMBLK
  1

  9
$DIMASO
 70
     1
  9
$DIMSHO
 70
     1
  9
$DIMPOST
  1

  9
$DIMAPOST
  1

  9
$DIMALT
 70
     0
  9
$DIMALTD
 70
     3
  9
$DIMALTF
 40
0.03937007874016
  9
$DIMLFAC
 40
1.0
  9
$DIMTOFL
 70
     1
  9
$DIMTVP
 40
0.0
  9
$DIMTIX
 70
     0
  9
$DIMSOXD
 70
     0
  9
$DIMSAH
 70
     0
  9
$DIMBLK1
  1

  9
$DIMBLK2
  1

  9
$DIMSTYLE
  2
ISO-25
  9
$DIMCLRD
 70
     0
  9
$DIMCLRE
 70
     0
  9
$DIMCLRT
 70
     0
  9
$DIMTFAC
 40
1.0
  9
$DIMGAP
 40
0.625
  9
$DIMJUST
 70
     0
  9
$DIMSD1
 70
     0
  9
$DIMSD2
 70
     0
  9
$DIMTOLJ
 70
     0
  9
$DIMTZIN
 70
     8
  9
$DIMALTZ
 70
     0
  9
$DIMALTTZ
 70
     0
  9
$DIMUPT
 70
     0
  9
$DIMDEC
 70
     2
  9
$DIMTDEC
 70
     2
  9
$DIMALTU
 70
     2
  9
$DIMALTTD
 70
     3
  9
$DIMTXSTY
  7
Standard
  9
$DIMAUNIT
 70
     0
  9
$DIMADEC
 70
     0
  9
$DIMALTRND
 40
0.0
  9
$DIMAZIN
 70
     0
  9
$DIMDSEP
 70
    44
  9
$DIMATFIT
 70
     3
  9
$DIMFRAC
 70
     0
  9
$DIMLDRBLK
  1

  9
$DIMLUNIT
 70
     2
  9
$DIMLWD
 70
    -2
  9
$DIMLWE
 70
    -2
  9
$DIMTMOVE
 70
     0
  9
$DIMFXL
 40
1.0
  9
$DIMFXLON
 70
     0
  9
$DIMJOGANG
 40
0.7853981633974483
  9
$DIMTFILL
 70
     0
  9
$DIMTFILLCLR
 70
     0
  9
$DIMARCSYM
 70
     0
  9
$DIMLTYPE
  6

  9
$DIMLTEX1
  6

  9
$DIMLTEX2
  6

  9
$DIMTXTDIRECTION
 70
     0
  9
$LUNITS
 70
     2
  9
$LUPREC
 70
     4
  9
$SKETCHINC
 40
1.0
  9
$FILLETRAD
 40
10.0
  9
$AUNITS
 70
     0
  9
$AUPREC
 70
     0
  9
$MENU
  1
.
  9
$ELEVATION
 40
0.0
  9
$PELEVATION
 40
0.0
  9
$THICKNESS
 40
0.0
  9
$LIMCHECK
 70
     0
  9
$CHAMFERA
 40
0.0
  9
$CHAMFERB
 40
0.0
  9
$CHAMFERC
 40
0.0
  9
$CHAMFERD
 40
0.0
  9
$SKPOLY
 70
     0
  9
$TDCREATE
 40
2458168.976584387
  9
$TDUCREATE
 40
2458168.93491772
  9
$TDUPDATE
 40
2458168.97658456
  9
$TDUUPDATE
 40
2458168.934917894
  9
$TDINDWG
 40
0.0000000116
  9
$TDUSRTIMER
 40
0.0000000116
  9
$USRTIMER
 70
     1
  9
$ANGBASE
 50
0.0
  9
$ANGDIR
 70
     0
  9
$PDMODE
 70
     0
  9
$PDSIZE
 40
0.0
  9
$PLINEWID
 40
0.0
  9
$SPLFRAME
 70
     0
  9
$SPLINETYPE
 70
     6
  9
$SPLINESEGS
 70
     8
  9
$HANDSEED
  5
1E6
  9
$SURFTAB1
 70
     6
  9
$SURFTAB2
 70
     6
  9
$SURFTYPE
 70
     6
  9
$SURFU
 70
     6
  9
$SURFV
 70
     6
  9
$UCSBASE
  2

  9
$UCSNAME
  2

  9
$UCSORG
 10
0.0
 20
0.0
 30
0.0
  9
$UCSXDIR
 10
1.0
 20
0.0
 30
0.0
  9
$UCSYDIR
 10
0.0
 20
1.0
 30
0.0
  9
$UCSORTHOREF
  2

  9
$UCSORTHOVIEW
 70
     0
  9
$UCSORGTOP
 10
0.0
 20
0.0
 30
0.0
  9
$UCSORGBOTTOM
 10
0.0
 20
0.0
 30
0.0
  9
$UCSORGLEFT
 10
0.0
 20
0.0
 30
0.0
  9
$UCSORGRIGHT
 10
0.0
 20
0.0
 30
0.0
  9
$UCSORGFRONT
 10
0.0
 20
0.0
 30
0.0
  9
$UCSORGBACK
 10
0.0
 20
0.0
 30
0.0
  9
$PUCSBASE
  2

  9
$PUCSNAME
  2

  9
$PUCSORG
 10
0.0
 20
0.0
 30
0.0
  9
$PUCSXDIR
 10
1.0
 20
0.0
 30
0.0
  9
$PUCSYDIR
 10
0.0
 20
1.0
 30
0.0
  9
$PUCSORTHOREF
  2

  9
$PUCSORTHOVIEW
 70
     0
  9
$PUCSORGTOP
 10
0.0
 20
0.0
 30
0.0
  9
$PUCSORGBOTTOM
 10
0.0
 20
0.0
 30
0.0
  9
$PUCSORGLEFT
 10
0.0
 20
0.0
 30
0.0
  9
$PUCSORGRIGHT
 10
0.0
 20
0.0
 30
0.0
  9
$PUCSORGFRONT
 10
0.0
 20
0.0
 30
0.0
  9
$PUCSORGBACK
 10
0.0
 20
0.0
 30
0.0
  9
$USERI1
 70
     0
  9
$USERI2
 70
     0
  9
$USERI3
 70
     0
  9
$USERI4
 70
     0
  9
$USERI5
 70
     0
  9
$USERR1
 40
0.0
  9
$USERR2
 40
0.0
  9
$USERR3
 40
0.0
  9
$USERR4
 40
0.0
  9
$USERR5
 40
0.0
  9
$WORLDVIEW
 70
     1
  9
$SHADEDGE
 70
     3
  9
$SHADEDIF
 70
    70
  9
$TILEMODE
 70
     1
  9
$MAXACTVP
 70
    64
  9
$PINSBASE
 10
0.0
 20
0.0
 30
0.0
  9
$PLIMCHECK
 70
     0
  9
$PEXTMIN
 10
1.000000000000000E+20
 20
1.000000000000000E+20
 30
1.000000000000000E+20
  9
$PEXTMAX
 10
-1.000000000000000E+20
 20
-1.000000000000000E+20
 30
-1.000000000000000E+20
  9
$PLIMMIN
 10
0.0
 20
0.0
  9
$PLIMMAX
 10
420.0
 20
297.0
  9
$UNITMODE
 70
     0
  9
$VISRETAIN
 70
     1
  9
$PLINEGEN
 70
     0
  9
$PSLTSCALE
 70
     1
  9
$TREEDEPTH
 70
  3020
  9
$CMLSTYLE
  2
Standard
  9
$CMLJUST
 70
     0
  9
$CMLSCALE
 40
20.0
  9
$PROXYGRAPHICS
 70
     1
  9
$MEASUREMENT
 70
     1
  9
$CELWEIGHT
370
    -1
  9
$ENDCAPS
280
     0
  9
$JOINSTYLE
280
     0
  9
$LWDISPLAY
290
     0
  9
$INSUNITS
 70
     4
  9
$HYPERLINKBASE
  1

  9
$STYLESHEET
  1

  9
$XEDIT
290
     1
  9
$CEPSNTYPE
380
     0
  9
$PSTYLEMODE
290
     1
  9
$FINGERPRINTGUID
  2
{A3888307-D30D-48A1-819C-49B72961F170}
  9
$VERSIONGUID
  2
{FAEB1C32-E019-11D5-929B-00C0DF256EC4}
  9
$EXTNAMES
290
     1
  9
$PSVPSCALE
 40
0.0
  9
$OLESTARTUP
290
     0
  9
$SORTENTS
280
   127
  9
$INDEXCTL
280
     0
  9
$HIDETEXT
280
     1
  9
$XCLIPFRAME
280
     2
  9
$HALOGAP
280
     0
  9
$OBSCOLOR
 70
   257
  9
$OBSLTYPE
280
     0
  9
$INTERSECTIONDISPLAY
280
     0
  9
$INTERSECTIONCOLOR
 70
   257
  9
$DIMASSOC
280
     2
  9
$PROJECTNAME
  1

  9
$CAMERADISPLAY
290
     0
  9
$LENSLENGTH
 40
50.0
  9
$CAMERAHEIGHT
 40
0.0
  9
$STEPSPERSEC
 40
2.0
  9
$STEPSIZE
 40
6.0
  9
$3DDWFPREC
 40
2.0
  9
$PSOLWIDTH
 40
5.0
  9
$PSOLHEIGHT
 40
80.0
  9
$LOFTANG1
 40
1.570796326794897
  9
$LOFTANG2
 40
1.570796326794897
  9
$LOFTMAG1
 40
0.0
  9
$LOFTMAG2
 40
0.0
  9
$LOFTPARAM
 70
     7
  9
$LOFTNORMALS
280
     1
  9
$LATITUDE
 40
37.795
  9
$LONGITUDE
 40
-122.394
  9
$NORTHDIRECTION
 40
0.0
  9
$TIMEZONE
 70
 -8000
  9
$LIGHTGLYPHDISPLAY
280
     1
  9
$TILEMODELIGHTSYNCH
280
     1
  9
$CMATERIAL
347
44
  9
$SOLIDHIST
280
     0
  9
$SHOWHIST
280
     1
  9
$DWFFRAME
280
     2
  9
$DGNFRAME
280
     2
  9
$REALWORLDSCALE
290
     1
  9
$INTERFERECOLOR
 62
   256
  9
$CSHADOW
280
     0
  9
$SHADOWPLANELOCATION
 40
0.0
  0
ENDSEC
  0
SECTION
  2
CLASSES
  0
CLASS
  1
ACDBDICTIONARYWDFLT
  2
AcDbDictionaryWithDefault
  3
ObjectDBX Classes
 90
        0
 91
        4
280
     0
281
     0
  0
CLASS
  1
VISUALSTYLE
  2
AcDbVisualStyle
  3
ObjectDBX Classes
 90
     4095
 91
        4
280
     0
281
     0
  0
CLASS
  1
MATERIAL
  2
AcDbMaterial
  3
ObjectDBX Classes
 90
     1153
 91
        4
280
     0
281
     0
  0
CLASS
  1
SCALE
  2
AcDbScale
  3
ObjectDBX Classes
 90
     1153
 91
        4
280
     0
281
     0
  0
CLASS
  1
TABLESTYLE
  2
AcDbTableStyle
  3
ObjectDBX Classes
 90
     4095
 91
        4
280
     0
281
     0
  0
CLASS
  1
MLEADERSTYLE
  2
AcDbMLeaderStyle
  3
ACDB_MLEADERSTYLE_CLASS
 90
     4095
 91
        4
280
     0
281
     0
  0
CLASS
  1
SUN
  2
AcDbSun
  3
SCENEOE
 90
     1153
 91
        4
280
     0
281
     0
  0
CLASS
  1
DICTIONARYVAR
  2
AcDbDictionaryVar
  3
ObjectDBX Classes
 90
        0
 91
        4
280
     0
281
     0
  0
CLASS
  1
CELLSTYLEMAP
  2
AcDbCellStyleMap
  3
ObjectDBX Classes
 90
     1152
 91
        4
280
     0
281
     0
  0
ENDSEC
  0
SECTION
  2
TABLES
  0
TABLE
  2
VPORT
  5
8
330
0
100
AcDbSymbolTable
 70
     1
  0
VPORT
  5
29
330
8
100
AcDbSymbolTableRecord
100
AcDbViewportTableRecord
  2
*Active
 70
     0
 10
0.0
 20
0.0
 11
1.0
 21
1.0
 12
-22.85000000000002
 22
0.0
 13
0.0
 23
0.0
 14
10.0
 24
10.0
 15
10.0
 25
10.0
 16
0.0
 26
0.0
 36
1.0
 17
0.0
 27
0.0
 37
0.0
 40
114.24
 41
0.4488392857142856
 42
50.0
 43
0.0
 44
0.0
 50
0.0
 51
0.0
 71
     0
 72
   100
 73
     1
 74
     3
 75
     0
 76
     0
 77
     0
 78
     0
281
     0
 65
     1
110
0.0
120
0.0
130
0.0
111
1.0
121
0.0
131
0.0
112
0.0
122
1.0
132
0.0
 79
     0
146
0.0
348
2F
 60
     3
 61
     5
292
     1
282
     1
141
0.0
142
0.0
 63
   250
361
6D
  0
ENDTAB
  0
TABLE
  2
LTYPE
  5
5
330
0
100
AcDbSymbolTable
 70
     3
  0
LTYPE
  5
14
330
5
100
AcDbSymbolTableRecord
100
AcDbLinetypeTableRecord
  2
ByBlock
 70
     0
  3

 72
    65
 73
     0
 40
0.0
  0
LTYPE
  5
15
330
5
100
AcDbSymbolTableRecord
100
AcDbLinetypeTableRecord
  2
ByLayer
 70
     0
  3

 72
    65
 73
     0
 40
0.0
  0
LTYPE
  5
16
330
5
100
AcDbSymbolTableRecord
100
AcDbLinetypeTableRecord
  2
Continuous
 70
     0
  3
Solid line
 72
    65
 73
     0
 40
0.0
  0
LTYPE
  5
97
330
5
100
AcDbSymbolTableRecord
100
AcDbLinetypeTableRecord
  2
Dashed
 70
     0
  3

 72
    65
 73
     2
 40
2.0
 49
1.0
 74
     0
 49
-1.0
 74
     0
  0
LTYPE
  5
1AD
330
5
100
AcDbSymbolTableRecord
100
AcDbLinetypeTableRecord
  2
Center
 70
     0
  3

 72
    65
 73
     4
 40
1.5
 49
0.45
 74
     0
 49
-0.5
 74
     0
 49
0.05
 74
     0
 49
-0.5
 74
     0
  0
ENDTAB
  0
TABLE
  2
LAYER
  5
2
330
0
100
AcDbSymbolTable
 70
     6
  0
LAYER
  5
10
330
2
100
AcDbSymbolTableRecord
100
AcDbLayerTableRecord
  2
0
 70
     0
 62
     7
  6
Continuous
370
    -3
390
F
347
46
348
0
  0
LAYER
  5
72
330
2
100
AcDbSymbolTableRecord
100
AcDbLayerTableRecord
  2
AM_6
 70
     0
 62
    -2
  6
Continuous
370
    35
390
F
347
46
348
0
  0
LAYER
  5
98
330
2
100
AcDbSymbolTableRecord
100
AcDbLayerTableRecord
  2
AM_9
 70
     0
 62
     6
  6
Dashed
370
    25
390
F
347
46
348
0
  0
LAYER
  5
C9
330
2
100
AcDbSymbolTableRecord
100
AcDbLayerTableRecord
  2
AM_4
 70
     0
 62
     7
  6
Continuous
370
    50
390
F
347
46
348
0
  0
LAYER
  5
1AE
330
2
100
AcDbSymbolTableRecord
100
AcDbLayerTableRecord
  2
AM_7
 70
     0
 62
     7
  6
Center
370
    25
390
F
347
46
348
0
  0
LAYER
  5
1D5
330
2
100
AcDbSymbolTableRecord
100
AcDbLayerTableRecord
  2
ConnectionPoints
 70
     0
 62
     7
  6
Continuous
370
    50
390
F
347
46
348
0
  0
ENDTAB
  0
TABLE
  2
STYLE
  5
3
330
0
100
AcDbSymbolTable
 70
     1
  0
STYLE
  5
11
330
3
100
AcDbSymbolTableRecord
100
AcDbTextStyleTableRecord
  2
Standard
 70
     0
 40
0.0
 41
1.0
 50
0.0
 71
     0
 42
2.5
  3
txt
  4

  0
ENDTAB
  0
TABLE
  2
VIEW
  5
6
330
0
100
AcDbSymbolTable
 70
     0
  0
ENDTAB
  0
TABLE
  2
UCS
  5
7
330
0
100
AcDbSymbolTable
 70
     0
  0
ENDTAB
  0
TABLE
  2
APPID
  5
9
330
0
100
AcDbSymbolTable
 70
     1
  0
APPID
  5
12
330
9
100
AcDbSymbolTableRecord
100
AcDbRegAppTableRecord
  2
ACAD
 70
     0
  0
ENDTAB
  0
TABLE
  2
DIMSTYLE
  5
A
330
0
100
AcDbSymbolTable
 70
     1
100
AcDbDimStyleTable
  0
DIMSTYLE
105
27
330
A
100
AcDbSymbolTableRecord
100
AcDbDimStyleTableRecord
  2
ISO-25
 70
     0
 41
2.5
 42
0.625
 43
3.75
 44
1.25
 73
     0
 74
     0
 77
     1
 78
     8
140
2.5
141
2.5
143
0.03937007874016
147
0.625
171
     3
172
     1
178
     0
271
     2
272
     2
274
     3
278
    44
283
     0
284
     8
340
11
  0
ENDTAB
  0
TABLE
  2
BLOCK_RECORD
  5
1
330
0
100
AcDbSymbolTable
 70
     5
  0
BLOCK_RECORD
  5
1F
330
1
100
AcDbSymbolTableRecord
100
AcDbBlockTableRecord
  2
*Model_Space
340
22
 70
     0
280
     1
281
     0
  0
BLOCK_RECORD
  5
1B
330
1
100
AcDbSymbolTableRecord
100
AcDbBlockTableRecord
  2
*Paper_Space
340
1E
 70
     0
280
     1
281
     0
  0
BLOCK_RECORD
  5
23
330
1
100
AcDbSymbolTableRecord
100
AcDbBlockTableRecord
  2
*Paper_Space0
340
26
 70
     0
280
     1
281
     0
  0
BLOCK_RECORD
  5
6E
330
1
100
AcDbSymbolTableRecord
100
AcDbBlockTableRecord
  2
1_130831_2
340
0
102
{BLKREFS
331
6F
102
}
 70
     0
280
     1
281
     0
  0
BLOCK_RECORD
  5
8B
330
1
100
AcDbSymbolTableRecord
100
AcDbBlockTableRecord
  2
2_405015E_Metric_0_in_130831_2
340
0
102
{BLKREFS
331
8C
102
}
 70
     0
280
     1
281
     0
  0
BLOCK_RECORD
  5
FB
330
1
100
AcDbSymbolTableRecord
100
AcDbBlockTableRecord
  2
3_125626_0_in_130831_2
340
0
102
{BLKREFS
331
FC
102
}
 70
     0
280
     1
281
     0
  0
BLOCK_RECORD
  5
157
330
1
100
AcDbSymbolTableRecord
100
AcDbBlockTableRecord
  2
4_130831H_0_in_130831_2
340
0
102
{BLKREFS
331
158
102
}
 70
     0
280
     1
281
     0
  0
ENDTAB
  0
ENDSEC
  0
SECTION
  2
BLOCKS
  0
BLOCK
  5
20
330
1F
100
AcDbEntity
  8
0
100
AcDbBlockBegin
  2
*Model_Space
 70
     0
 10
0.0
 20
0.0
 30
0.0
  3
*Model_Space
  1

  0
ENDBLK
  5
21
330
1F
100
AcDbEntity
  8
0
100
AcDbBlockEnd
  0
BLOCK
  5
1C
330
1B
100
AcDbEntity
 67
     1
  8
0
100
AcDbBlockBegin
  2
*Paper_Space
 70
     0
 10
0.0
 20
0.0
 30
0.0
  3
*Paper_Space
  1

  0
ENDBLK
  5
1D
330
1B
100
AcDbEntity
 67
     1
  8
0
100
AcDbBlockEnd
  0
BLOCK
  5
24
330
23
100
AcDbEntity
  8
0
100
AcDbBlockBegin
  2
*Paper_Space0
 70
     0
 10
0.0
 20
0.0
 30
0.0
  3
*Paper_Space0
  1

  0
ENDBLK
  5
25
330
23
100
AcDbEntity
  8
0
100
AcDbBlockEnd
  0
BLOCK
  5
70
330
6E
100
AcDbEntity
  8
0
100
AcDbBlockBegin
  2
1_130831_2
 70
     2
 10
0.0
 20
0.0
 30
0.0
  3
1_130831_2
  1

  0
ATTDEF
  5
73
330
6E
100
AcDbEntity
  8
AM_6
100
AcDbText
 10
7.284999999999986
 20
56.0
 30
0.0
 40
0.5
  1
Eccentric Collar Two-Bolt Piloted Flange Metric Bore
100
AcDbAttributeDefinition
  3

  2
NN
 70
     8
280
     0
  0
ATTDEF
  5
74
330
6E
100
AcDbEntity
  8
AM_6
100
AcDbText
 10
7.284999999999986
 20
55.5
 30
0.0
 40
0.5
  1
Eccentric Collar 2 Bolt Piloted Flange Bearings -(Normal Duty)
100
AcDbAttributeDefinition
  3

  2
NT
 70
     8
280
     0
  0
ATTDEF
  5
75
330
6E
100
AcDbEntity
  8
AM_6
100
AcDbText
 10
7.284999999999986
 20
55.0
 30
0.0
 40
0.5
  1
130831
100
AcDbAttributeDefinition
  3

  2
NB
 70
     8
280
     0
  0
ATTDEF
  5
76
330
6E
100
AcDbEntity
  8
AM_6
100
AcDbText
 10
7.284999999999986
 20
54.5
 30
0.0
 40
0.5
  1
$PN.
100
AcDbAttributeDefinition
  3

  2
NBSYN
 70
     8
280
     0
  0
ATTDEF
  5
77
330
6E
100
AcDbEntity
  8
AM_6
100
AcDbText
 10
7.284999999999986
 20
54.0
 30
0.0
 40
0.5
  1
130831
100
AcDbAttributeDefinition
  3

  2
LINA
 70
     8
280
     0
  0
ATTDEF
  5
78
330
6E
100
AcDbEntity
  8
AM_6
100
AcDbText
 10
7.284999999999986
 20
53.5
 30
0.0
 40
0.5
  1
204
100
AcDbAttributeDefinition
  3

  2
SERIES
 70
     8
280
     0
  0
ATTDEF
  5
79
330
6E
100
AcDbEntity
  8
AM_6
100
AcDbText
 10
7.284999999999986
 20
53.0
 30
0.0
 40
0.5
  1
20
100
AcDbAttributeDefinition
  3

  2
SS
 70
     8
280
     0
  0
ATTDEF
  5
7A
330
6E
100
AcDbEntity
  8
AM_6
100
AcDbText
 10
7.284999999999986
 20
52.5
 30
0.0
 40
0.5
  1
130831
100
AcDbAttributeDefinition
  3

  2
PN
 70
     8
280
     0
  0
ATTDEF
  5
7B
330
6E
100
AcDbEntity
  8
AM_6
100
AcDbText
 10
7.284999999999986
 20
52.0
 30
0.0
 40
0.5
  1
F2BZ-SXR-20M
100
AcDbAttributeDefinition
  3

  2
DESCRIPTION
 70
     8
280
     0
  0
ATTDEF
  5
7C
330
6E
100
AcDbEntity
  8
AM_6
100
AcDbText
 10
7.284999999999986
 20
51.5
 30
0.0
 40
0.5
  1
0.6
100
AcDbAttributeDefinition
  3

  2
W
 70
     8
280
     0
  0
ATTDEF
  5
7D
330
6E
100
AcDbEntity
  8
AM_6
100
AcDbText
 10
7.284999999999986
 20
51.0
 30
0.0
 40
0.5
  1
39.4
100
AcDbAttributeDefinition
  3

  2
A
 70
     8
280
     0
  0
ATTDEF
  5
7E
330
6E
100
AcDbEntity
  8
AM_6
100
AcDbText
 10
7.284999999999986
 20
50.5
 30
0.0
 40
0.5
  1
112.0
100
AcDbAttributeDefinition
  3

  2
B
 70
     8
280
     0
  0
ATTDEF
  5
7F
330
6E
100
AcDbEntity
  8
AM_6
100
AcDbText
 10
7.284999999999986
 20
50.0
 30
0.0
 40
0.5
  1
45.7
100
AcDbAttributeDefinition
  3

  2
C
 70
     8
280
     0
  0
ATTDEF
  5
80
330
6E
100
AcDbEntity
  8
AM_6
100
AcDbText
 10
7.284999999999986
 20
49.5
 30
0.0
 40
0.5
  1
89.7
100
AcDbAttributeDefinition
  3

  2
D
 70
     8
280
     0
  0
ATTDEF
  5
81
330
6E
100
AcDbEntity
  8
AM_6
100
AcDbText
 10
7.284999999999986
 20
49.0
 30
0.0
 40
0.5
  1
3.6
100
AcDbAttributeDefinition
  3

  2
E
 70
     8
280
     0
  0
ATTDEF
  5
82
330
6E
100
AcDbEntity
  8
AM_6
100
AcDbText
 10
7.284999999999986
 20
48.5
 30
0.0
 40
0.5
  1
M10
100
AcDbAttributeDefinition
  3

  2
F
 70
     8
280
     0
  0
ATTDEF
  5
83
330
6E
100
AcDbEntity
  8
AM_6
100
AcDbText
 10
7.284999999999986
 20
48.0
 30
0.0
 40
0.5
  1
42.1
100
AcDbAttributeDefinition
  3

  2
G
 70
     8
280
     0
  0
ATTDEF
  5
84
330
6E
100
AcDbEntity
  8
AM_6
100
AcDbText
 10
7.284999999999986
 20
47.5
 30
0.0
 40
0.5
  1
12.7
100
AcDbAttributeDefinition
  3

  2
H
 70
     8
280
     0
  0
ATTDEF
  5
85
330
6E
100
AcDbEntity
  8
AM_6
100
AcDbText
 10
7.284999999999986
 20
47.0
 30
0.0
 40
0.5
  1
17.3
100
AcDbAttributeDefinition
  3

  2
J
 70
     8
280
     0
  0
ATTDEF
  5
86
330
6E
100
AcDbEntity
  8
AM_6
100
AcDbText
 10
7.284999999999986
 20
46.5
 30
0.0
 40
0.5
  1
54.99/54.94
100
AcDbAttributeDefinition
  3

  2
K
 70
     8
280
     0
  0
ATTDEF
  5
87
330
6E
100
AcDbEntity
  8
AM_6
100
AcDbText
 10
7.284999999999986
 20
46.0
 30
0.0
 40
0.5
  1
33.3
100
AcDbAttributeDefinition
  3

  2
L
 70
     8
280
     0
  0
ATTDEF
  5
88
330
6E
100
AcDbEntity
  8
AM_6
100
AcDbText
 10
7.284999999999986
 20
45.5
 30
0.0
 40
0.5
  1
60.5
100
AcDbAttributeDefinition
  3

  2
M
 70
     8
280
     0
  0
ATTDEF
  5
89
330
6E
100
AcDbEntity
  8
AM_6
100
AcDbText
 10
7.284999999999986
 20
45.0
 30
0.0
 40
0.5
  1
38.1
100
AcDbAttributeDefinition
  3

  2
N
 70
     8
280
     0
  0
ATTDEF
  5
8A
330
6E
100
AcDbEntity
  8
AM_6
100
AcDbText
 10
7.284999999999986
 20
44.5
 30
0.0
 40
0.5
  1
baldor
100
AcDbAttributeDefinition
  3

  2
COMPANY
 70
     8
280
     0
  0
INSERT
  5
8C
330
6E
100
AcDbEntity
  8
0
100
AcDbBlockReference
  2
2_405015E_Metric_0_in_130831_2
 10
0.0
 20
0.0
 30
0.0
  0
INSERT
  5
FC
330
6E
100
AcDbEntity
  8
0
100
AcDbBlockReference
  2
3_125626_0_in_130831_2
 10
0.0
 20
0.0
 30
0.0
  0
INSERT
  5
158
330
6E
100
AcDbEntity
  8
0
100
AcDbBlockReference
  2
4_130831H_0_in_130831_2
 10
0.0
 20
0.0
 30
0.0
  0
ENDBLK
  5
71
330
6E
100
AcDbEntity
  8
0
100
AcDbBlockEnd
  0
BLOCK
  5
8D
330
8B
100
AcDbEntity
  8
0
100
AcDbBlockBegin
  2
2_405015E_Metric_0_in_130831_2
 70
     2
 10
0.0
 20
0.0
 30
0.0
  3
2_405015E_Metric_0_in_130831_2
  1

  0
ATTDEF
  5
8F
330
8B
100
AcDbEntity
  8
AM_6
100
AcDbText
 10
-9.559830641437074
 20
39.77368466213677
 30
0.0
 40
0.5
  1
405015E -Metric
100
AcDbAttributeDefinition
  3

  2
NN
 70
     8
280
     0
  0
ATTDEF
  5
90
330
8B
100
AcDbEntity
  8
AM_6
100
AcDbText
 10
-9.559830641437074
 20
39.27368466213677
 30
0.0
 40
0.5
  1
Grease Fitting
100
AcDbAttributeDefinition
  3

  2
NT
 70
     8
280
     0
  0
ATTDEF
  5
91
330
8B
100
AcDbEntity
  8
AM_6
100
AcDbText
 10
-9.559830641437074
 20
38.77368466213677
 30
0.0
 40
0.5
  1
405015E-Metric
100
AcDbAttributeDefinition
  3

  2
NB
 70
     8
280
     0
  0
ATTDEF
  5
92
330
8B
100
AcDbEntity
  8
AM_6
100
AcDbText
 10
-9.559830641437074
 20
38.27368466213677
 30
0.0
 40
0.5
  1
$MN.-Metric
100
AcDbAttributeDefinition
  3

  2
NBSYN
 70
     8
280
     0
  0
ATTDEF
  5
93
330
8B
100
AcDbEntity
  8
AM_6
100
AcDbText
 10
-9.559830641437074
 20
37.77368466213677
 30
0.0
 40
0.5
  1
405015E
100
AcDbAttributeDefinition
  3

  2
LINA
 70
     8
280
     0
  0
ATTDEF
  5
94
330
8B
100
AcDbEntity
  8
AM_6
100
AcDbText
 10
-9.559830641437074
 20
37.27368466213677
 30
0.0
 40
0.5
  1
405015E
100
AcDbAttributeDefinition
  3

  2
MN
 70
     8
280
     0
  0
ATTDEF
  5
95
330
8B
100
AcDbEntity
  8
AM_6
100
AcDbText
 10
-9.559830641437074
 20
36.77368466213677
 30
0.0
 40
0.5
  1
1/8 x 27PTF
100
AcDbAttributeDefinition
  3

  2
T
 70
     8
280
     0
  0
ATTDEF
  5
96
330
8B
100
AcDbEntity
  8
AM_6
100
AcDbText
 10
-9.559830641437074
 20
36.27368466213677
 30
0.0
 40
0.5
  1
baldor
100
AcDbAttributeDefinition
  3

  2
COMPANY
 70
     8
280
     0
  0
ELLIPSE
  5
99
330
8B
100
AcDbEntity
  8
AM_9
100
AcDbEllipse
 10
-20.33333333333333
 20
26.60527216503149
 30
0.0
 11
-4.157993753183522
 21
5.092073740710890E-16
 31
0.0
210
0.0
220
0.0
230
1.0
 40
0.7071067811865481
 41
0.0
 42
6.283185307179586
  0
LINE
  5
9A
330
8B
100
AcDbEntity
  8
AM_9
100
AcDbLine
 10
-16.35077635328737
 20
33.56737116693522
 30
0.0
 11
-16.00320631441114
 21
33.1325748621645
 31
0.0
  0
LWPOLYLINE
  5
9B
330
8B
100
AcDbEntity
  8
AM_9
100
AcDbPolyline
 90
        3
 70
     0
 43
0.0
 10
-17.4465819873852
 20
35.04689635763513
 10
-16.72813905374185
 20
34.05945713311154
 10
-16.35077635328737
 20
33.56737116693522
  0
LWPOLYLINE
  5
9C
330
8B
100
AcDbEntity
  8
AM_9
100
AcDbPolyline
 90
        3
 70
     0
 43
0.0
 10
-19.68832028086047
 20
34.90819198016144
 10
-18.88995766035926
 20
34.93902469017224
 10
-17.4465819873852
 20
35.04689635763513
  0
LINE
  5
9D
330
8B
100
AcDbEntity
  8
AM_9
100
AcDbLine
 10
-20.05783266415968
 20
34.901778804361
 30
0.0
 11
-19.68832028086047
 21
34.90819198016144
 31
0.0
  0
LINE
  5
9E
330
8B
100
AcDbEntity
  8
AM_9
100
AcDbLine
 10
-20.7260920854694
 20
34.90326005376246
 30
0.0
 11
-20.05783266415968
 21
34.901778804361
 31
0.0
  0
ELLIPSE
  5
9F
330
8B
100
AcDbEntity
  8
AM_9
100
AcDbEllipse
 10
-20.33333333333335
 20
31.36480790919814
 30
0.0
 11
4.999999999999977
 21
0.0
 31
0.0
210
0.0
220
0.0
230
1.0
 40
0.7071067811865493
 41
1.570796326794897
 42
2.617993877991496
  0
LWPOLYLINE
  5
A0
330
8B
100
AcDbEntity
  8
AM_9
100
AcDbPolyline
 90
        3
 70
     0
 43
0.0
 10
-24.31764909309689
 20
33.56512556338217
 10
-23.94177251576849
 20
34.05514121368905
 10
-23.22008467928146
 20
35.04689635763513
  0
LINE
  5
A1
330
8B
100
AcDbEntity
  8
AM_9
100
AcDbLine
 10
-24.66346035225553
 20
33.1325748621645
 30
0.0
 11
-24.31764909309689
 21
33.56512556338217
 31
0.0
  0
LINE
  5
A2
330
8B
100
AcDbEntity
  8
AM_9
100
AcDbLine
 10
-21.03120133726327
 20
34.90952480732755
 30
0.0
 11
-20.7260920854694
 21
34.90326005376246
 31
0.0
  0
LWPOLYLINE
  5
A3
330
8B
100
AcDbEntity
  8
AM_9
100
AcDbPolyline
 90
        4
 70
     0
 43
0.0
 10
-23.22008467928146
 20
35.04689635763513
 10
-22.56469237811646
 20
34.99039720264053
 10
-21.45234735234795
 20
34.92377707102541
 10
-21.03120133726327
 20
34.90952480732755
  0
LINE
  5
A4
330
8B
100
AcDbEntity
  8
AM_9
100
AcDbLine
 10
-17.4465819873852
 20
36.87510761618626
 30
0.0
 11
-17.4465819873852
 21
35.04689635763513
 31
0.0
  0
LINE
  5
A5
330
8B
100
AcDbEntity
  8
AM_9
100
AcDbLine
 10
-23.22008467928146
 20
36.87510761618626
 30
0.0
 11
-23.22008467928146
 21
35.04689635763513
 31
0.0
  0
LINE
  5
A6
330
8B
100
AcDbEntity
  8
AM_9
100
AcDbLine
 10
-17.16350896192283
 20
36.57790927725082
 30
0.0
 11
-17.4465819873852
 21
36.87510761618626
 31
0.0
  0
LWPOLYLINE
  5
A7
330
8B
100
AcDbEntity
  8
AM_9
100
AcDbPolyline
 90
        3
 70
     0
 43
0.0
 10
-17.4465819873852
 20
36.87510761618626
 10
-18.88346785467192
 20
36.98263754234262
 10
-20.33333333333333
 20
37.02166215869052
  0
LINE
  5
A8
330
8B
100
AcDbEntity
  8
AM_9
100
AcDbLine
 10
-23.22008467928146
 20
36.87510761618626
 30
0.0
 11
-23.49500573704287
 21
36.58658913466874
 31
0.0
  0
LWPOLYLINE
  5
A9
330
8B
100
AcDbEntity
  8
AM_9
100
AcDbPolyline
 90
        4
 70
     0
 43
0.0
 10
-20.33333333333333
 20
37.02166215869052
 10
-21.4490128557249
 20
36.99836468836914
 10
-22.56469237811645
 20
36.93160677118086
 10
-23.22008467928146
 20
36.87510761618626
  0
ELLIPSE
  5
AA
330
8B
100
AcDbEntity
  8
AM_9
100
AcDbEllipse
 10
-20.33333333333331
 20
31.36480790919815
 30
0.0
 11
5.000000000000025
 21
0.0
 31
0.0
210
0.0
220
0.0
230
1.0
 40
0.7071067811865476
 41
2.617993877991501
 42
3.66519142918809
  0
LINE
  5
AB
330
8B
100
AcDbEntity
  8
AM_9
100
AcDbLine
 10
-25.0649404141841
 20
32.65300235187047
 30
0.0
 11
-24.66346035225553
 21
33.1325748621645
 31
0.0
  0
LWPOLYLINE
  5
AC
330
8B
100
AcDbEntity
  8
AM_9
100
AcDbPolyline
 90
        3
 70
     0
 43
0.0
 10
-26.10683602522959
 20
31.51136245170239
 10
-25.38839309158623
 20
32.28374182391326
 10
-25.0649404141841
 20
32.65300235187047
  0
LWPOLYLINE
  5
AD
330
8B
100
AcDbEntity
  8
AM_9
100
AcDbPolyline
 90
        3
 70
     0
 43
0.0
 10
-15.59884111549213
 20
32.64964275417127
 10
-15.28151847792411
 20
32.28737426072268
 10
-14.55983064143707
 20
31.51136245170239
  0
LINE
  5
AE
330
8B
100
AcDbEntity
  8
AM_9
100
AcDbLine
 10
-16.00320631441114
 20
33.1325748621645
 30
0.0
 11
-15.59884111549213
 21
32.64964275417127
 31
0.0
  0
ELLIPSE
  5
AF
330
8B
100
AcDbEntity
  8
AM_9
100
AcDbEllipse
 10
-20.33333333333333
 20
31.36480790919813
 30
0.0
 11
4.949631665534969
 21
0.0
 31
0.0
210
0.0
220
0.0
230
1.0
 40
0.7071067811865481
 41
0.0
 42
3.172849304556548
  0
LINE
  5
B0
330
8B
100
AcDbEntity
  8
AM_9
100
AcDbLine
 10
-15.57762793319715
 20
26.92441763512632
 30
0.0
 11
-15.38611931214762
 21
31.25543000226549
 31
0.0
  0
LINE
  5
B1
330
8B
100
AcDbEntity
  8
AM_9
100
AcDbLine
 10
-25.28054735451904
 20
31.25543000226549
 30
0.0
 11
-25.08903873346951
 21
26.92441763512632
 31
0.0
  0
ELLIPSE
  5
B2
330
8B
100
AcDbEntity
  8
AM_9
100
AcDbEllipse
 10
-20.33333333333333
 20
31.36480790919813
 30
0.0
 11
4.949631665534962
 21
0.0
 31
0.0
210
0.0
220
0.0
230
1.0
 40
0.7071067811865477
 41
3.172849304556555
 42
6.283185307179586
  0
ELLIPSE
  5
B3
330
8B
100
AcDbEntity
  8
AM_9
100
AcDbEllipse
 10
-20.33333333333333
 20
31.36480790919813
 30
0.0
 11
5.000000000000002
 21
0.0
 31
0.0
210
0.0
220
0.0
230
1.0
 40
0.7071067811865487
 41
3.665191429188091
 42
7.853981633974483
  0
ELLIPSE
  5
B4
330
8B
100
AcDbEntity
  8
AM_9
100
AcDbEllipse
 10
-20.33333333333334
 20
33.48612825275777
 30
0.0
 11
5.00000000000003
 21
0.0
 31
0.0
210
0.0
220
0.0
230
1.0
 40
0.7071067811865447
 41
0.8982051386271763
 42
1.570796326794897
  0
ELLIPSE
  5
B5
330
8B
100
AcDbEntity
  8
AM_9
100
AcDbEllipse
 10
-20.33333333333336
 20
33.48612825275783
 30
0.0
 11
4.999999999999941
 21
0.0
 31
0.0
210
0.0
220
0.0
230
1.0
 40
0.7071067811865474
 41
1.570796326794897
 42
2.243387514962713
  0
LINE
  5
B6
330
8B
100
AcDbEntity
  8
AM_9
100
AcDbLine
 10
-22.32326216606584
 20
36.26581728316773
 30
0.0
 11
-22.73991975078727
 21
36.00199781128085
 31
0.0
  0
LINE
  5
B7
330
8B
100
AcDbEntity
  8
AM_9
100
AcDbLine
 10
-17.92674691587939
 20
36.00199781128084
 30
0.0
 11
-18.34340450060082
 21
36.26581728316773
 31
0.0
  0
ELLIPSE
  5
B8
330
8B
100
AcDbEntity
  8
AM_9
100
AcDbEllipse
 10
-20.33333333333333
 20
34.69444172228915
 30
0.0
 11
2.982994982562509
 21
0.0
 31
0.0
210
0.0
220
0.0
230
1.0
 40
0.7071067811865471
 41
0.386942238188384
 42
2.301093308049169
  0
ELLIPSE
  5
B9
330
8B
100
AcDbEntity
  8
AM_9
100
AcDbEllipse
 10
-20.33333333333317
 20
34.69444172228913
 30
0.0
 11
2.982994982562705
 21
0.0
 31
0.0
210
0.0
220
0.0
230
1.0
 40
0.7071067811865366
 41
2.301093308049198
 42
2.754650415401418
  0
ELLIPSE
  5
BA
330
8B
100
AcDbEntity
  8
AM_9
100
AcDbEllipse
 10
-20.33333333333334
 20
34.10160267185436
 30
0.0
 11
3.607583894601113
 21
5.375718913377991E-8
 31
0.0
210
0.0
220
0.0
230
1.0
 40
0.7071067811865518
 41
0.8404993303149677
 42
2.301093292823509
  0
ELLIPSE
  5
BB
330
8B
100
AcDbEntity
  8
AM_9
100
AcDbEllipse
 10
-20.33333333333351
 20
34.10160267185449
 30
0.0
 11
3.607583894600864
 21
0.0
 31
0.0
210
0.0
220
0.0
230
1.0
 40
0.7071067811865474
 41
-3.944898279337797
 42
-3.804975968778713
  0
ELLIPSE
  5
BC
330
8B
100
AcDbEntity
  8
AM_9
100
AcDbEllipse
 10
-20.33333333331486
 20
34.10160267185063
 30
0.0
 11
3.607583894628209
 21
5.375718913418368E-8
 31
0.0
210
0.0
220
0.0
230
1.0
 40
0.7071067811844787
 41
-3.982092014354695
 42
-3.944898294953013
  0
LINE
  5
BD
330
8B
100
AcDbEntity
  8
AM_9
100
AcDbLine
 10
-22.81056325318891
 20
35.98535047513079
 30
0.0
 11
-23.08231045004827
 21
35.51378882426582
 31
0.0
  0
LINE
  5
BE
330
8B
100
AcDbEntity
  8
AM_9
100
AcDbLine
 10
-17.58435621661839
 20
35.51378882426582
 30
0.0
 11
-17.85610341347775
 21
35.98535047513079
 31
0.0
  0
ELLIPSE
  5
BF
330
8B
100
AcDbEntity
  8
AM_9
100
AcDbEllipse
 10
-20.33333333333333
 20
35.27157287525381
 30
0.0
 11
2.674999999999994
 21
0.0
 31
0.0
210
0.0
220
0.0
230
1.0
 40
0.7071067811865475
 41
0.0
 42
2.754650415401408
  0
ELLIPSE
  5
C0
330
8B
100
AcDbEntity
  8
AM_9
100
AcDbEllipse
 10
-20.3333333333332
 20
35.27157287525389
 30
0.0
 11
2.675000000000128
 21
3.986060619354440E-8
 31
0.0
210
0.0
220
0.0
230
1.0
 40
0.7071067811865384
 41
2.754650395828458
 42
3.141592638688632
  0
ELLIPSE
  5
C1
330
8B
100
AcDbEntity
  8
AM_9
100
AcDbEllipse
 10
-20.33333333332732
 20
34.1016026718487
 30
0.0
 11
3.607583894592246
 21
0.0
 31
0.0
210
0.0
220
0.0
230
1.0
 40
0.7071067811886503
 41
0.6633833151902611
 42
0.8404993455418714
  0
ELLIPSE
  5
C2
330
8B
100
AcDbEntity
  8
AM_9
100
AcDbEllipse
 10
-20.33333333333334
 20
33.48612825275779
 30
0.0
 11
4.749999999999996
 21
0.0
 31
0.0
210
0.0
220
0.0
230
1.0
 40
0.7071067811865462
 41
0.8736482899485409
 42
2.267944363641271
  0
LINE
  5
C3
330
8B
100
AcDbEntity
  8
AM_9
100
AcDbLine
 10
-17.65833333333333
 20
35.38824549414958
 30
0.0
 11
-17.65833333333333
 21
35.76654762208439
 31
0.0
  0
LINE
  5
C4
330
8B
100
AcDbEntity
  8
AM_9
100
AcDbLine
 10
-23.00833333333333
 20
35.76654762208439
 30
0.0
 11
-23.00833333333333
 21
35.38824549414958
 31
0.0
  0
ELLIPSE
  5
C5
330
8B
100
AcDbEntity
  8
AM_9
100
AcDbEllipse
 10
-20.33333333333329
 20
35.76654762208457
 30
0.0
 11
2.675000000000043
 21
0.0
 31
0.0
210
0.0
220
0.0
230
1.0
 40
0.7071067811865609
 41
3.141592653589793
 42
3.536383773289628
  0
ELLIPSE
  5
C6
330
8B
100
AcDbEntity
  8
AM_9
100
AcDbEllipse
 10
-20.33333333333333
 20
35.76654762208438
 30
0.0
 11
2.675000000000004
 21
0.0
 31
0.0
210
0.0
220
0.0
230
1.0
 40
0.7071067811865474
 41
5.888394187479829
 42
9.42477796076938
  0
ELLIPSE
  5
C7
330
8B
100
AcDbEntity
  8
AM_9
100
AcDbEllipse
 10
-20.33333333333333
 20
36.68578643762689
 30
0.0
 11
3.175000000000011
 21
0.0
 31
0.0
210
0.0
220
0.0
230
1.0
 40
0.7071067811865489
 41
0.4159140521025488
 42
2.725678601487244
  0
ELLIPSE
  5
C8
330
8B
100
AcDbEntity
  8
AM_9
100
AcDbEllipse
 10
-20.33333333334193
 20
27.02956147980899
 30
0.0
 11
4.758029456520369
 21
0.0
 31
0.0
210
0.0
220
0.0
230
1.0
 40
0.7071067811865477
 41
0.0
 42
6.283185307179586
  0
LWPOLYLINE
  5
CA
330
8B
100
AcDbEntity
  8
AM_4
100
AcDbPolyline
 90
        3
 70
     0
 43
0.0
 10
-16.00320631441114
 20
35.25389520572415
 10
-16.72489415089817
 20
36.09909580716597
 10
-17.16350896192283
 20
36.57790927725082
  0
LWPOLYLINE
  5
CB
330
8B
100
AcDbEntity
  8
AM_4
100
AcDbPolyline
 90
        3
 70
     0
 43
0.0
 10
-23.49500573704287
 20
36.58658913466874
 10
-23.93852761292482
 20
36.10272824397539
 10
-24.66346035225553
 20
35.25389520572415
  0
LWPOLYLINE
  5
CC
330
8B
100
AcDbEntity
  8
AM_4
100
AcDbPolyline
 90
        3
 70
     0
 43
0.0
 10
-14.55983064143707
 20
33.33957371025352
 10
-15.27827357508043
 20
34.32701293477712
 10
-16.00320631441114
 20
35.25389520572415
  0
LWPOLYLINE
  5
CD
330
8B
100
AcDbEntity
  8
AM_4
100
AcDbPolyline
 90
        3
 70
     0
 43
0.0
 10
-24.66346035225553
 20
35.25389520572415
 10
-25.38514818874255
 20
34.3313288541996
 10
-26.10683602522959
 20
33.33957371025352
  0
LWPOLYLINE
  5
CE
330
8B
100
AcDbEntity
  8
AM_4
100
AcDbPolyline
 90
        3
 70
     0
 43
0.0
 10
-21.58495868045649
 20
27.85850456556254
 10
-22.56469237811645
 20
27.91932939077505
 10
-23.22008467928146
 20
27.97582854576964
  0
LINE
  5
CF
330
8B
100
AcDbEntity
  8
AM_4
100
AcDbLine
 10
-21.2314215032502
 20
27.84443452632612
 30
0.0
 11
-21.58495868045649
 21
27.85850456556254
 31
0.0
  0
LINE
  5
D0
330
8B
100
AcDbEntity
  8
AM_4
100
AcDbLine
 10
-20.33333333333333
 20
27.82927400326539
 30
0.0
 11
-21.2314215032502
 21
27.84443452632612
 31
0.0
  0
LINE
  5
D1
330
8B
100
AcDbEntity
  8
AM_4
100
AcDbLine
 10
-19.43521737038245
 20
27.84443545729212
 30
0.0
 11
-20.33333333333333
 21
27.82927400326539
 31
0.0
  0
LINE
  5
D2
330
8B
100
AcDbEntity
  8
AM_4
100
AcDbLine
 10
-19.06766199992432
 20
27.85915421932966
 30
0.0
 11
-19.43521737038245
 21
27.84443545729212
 31
0.0
  0
LWPOLYLINE
  5
D3
330
8B
100
AcDbEntity
  8
AM_4
100
AcDbPolyline
 90
        3
 70
     0
 43
0.0
 10
-17.4465819873852
 20
27.97582854576964
 10
-18.88346785467192
 20
27.86829861961329
 10
-19.06766199992432
 20
27.85915421932966
  0
LINE
  5
D4
330
8B
100
AcDbEntity
  8
AM_4
100
AcDbLine
 10
-14.55983064143707
 20
33.33957371025352
 30
0.0
 11
-14.55983064143707
 21
31.51136245170239
 31
0.0
  0
LWPOLYLINE
  5
D5
330
8B
100
AcDbEntity
  8
AM_4
100
AcDbPolyline
 90
        3
 70
     0
 43
0.0
 10
-16.00320631441114
 20
31.71836129979141
 10
-15.28151847792411
 20
32.56356190123323
 10
-14.55983064143707
 20
33.33957371025352
  0
LINE
  5
D6
330
8B
100
AcDbEntity
  8
AM_4
100
AcDbLine
 10
-17.4465819873852
 20
29.80403980432078
 30
0.0
 11
-17.4465819873852
 21
27.97582854576964
 31
0.0
  0
LWPOLYLINE
  5
D7
330
8B
100
AcDbEntity
  8
AM_4
100
AcDbPolyline
 90
        3
 70
     0
 43
0.0
 10
-16.46851737006059
 20
29.04342300302523
 10
-16.72489415089817
 20
28.75184035478994
 10
-17.4465819873852
 20
27.97582854576964
  0
LINE
  5
D8
330
8B
100
AcDbEntity
  8
AM_4
100
AcDbLine
 10
-16.45226464275017
 20
29.06222054890729
 30
0.0
 11
-16.46851737006059
 21
29.04342300302523
 31
0.0
  0
LINE
  5
D9
330
8B
100
AcDbEntity
  8
AM_4
100
AcDbLine
 10
-16.00320631441114
 20
29.59704095623177
 30
0.0
 11
-16.45226464275017
 21
29.06222054890729
 31
0.0
  0
LINE
  5
DA
330
8B
100
AcDbEntity
  8
AM_4
100
AcDbLine
 10
-15.56059705584142
 20
30.15385681195447
 30
0.0
 11
-16.00320631441114
 21
29.59704095623177
 31
0.0
  0
LWPOLYLINE
  5
DB
330
8B
100
AcDbEntity
  8
AM_4
100
AcDbPolyline
 90
        3
 70
     0
 43
0.0
 10
-14.55983064143707
 20
31.51136245170239
 10
-15.27827357508043
 20
30.5239232271788
 10
-15.56059705584142
 20
30.15385681195447
  0
LWPOLYLINE
  5
DC
330
8B
100
AcDbEntity
  8
AM_4
100
AcDbPolyline
 90
        3
 70
     0
 43
0.0
 10
-20.33333333333333
 20
29.95059434682504
 10
-18.88995766035926
 20
29.91191147178368
 10
-17.4465819873852
 20
29.80403980432078
  0
LWPOLYLINE
  5
DD
330
8B
100
AcDbEntity
  8
AM_4
100
AcDbPolyline
 90
        3
 70
     0
 43
0.0
 10
-17.4465819873852
 20
29.80403980432078
 10
-16.72813905374185
 20
30.79147902884437
 10
-16.00320631441114
 20
31.71836129979141
  0
LINE
  5
DE
330
8B
100
AcDbEntity
  8
AM_4
100
AcDbLine
 10
-23.22008467928146
 20
29.80403980432078
 30
0.0
 11
-23.22008467928146
 21
27.97582854576964
 31
0.0
  0
LWPOLYLINE
  5
DF
330
8B
100
AcDbEntity
  8
AM_4
100
AcDbPolyline
 90
        3
 70
     0
 43
0.0
 10
-26.10683602522959
 20
33.33957371025352
 10
-25.38839309158623
 20
32.56719433804265
 10
-24.66346035225553
 20
31.71836129979141
  0
LINE
  5
E0
330
8B
100
AcDbEntity
  8
AM_4
100
AcDbLine
 10
-26.10683602522959
 20
33.33957371025352
 30
0.0
 11
-26.10683602522959
 21
31.51136245170239
 31
0.0
  0
LWPOLYLINE
  5
E1
330
8B
100
AcDbEntity
  8
AM_4
100
AcDbPolyline
 90
        3
 70
     0
 43
0.0
 10
-25.11251868059455
 20
30.16218431808511
 10
-25.38514818874255
 20
30.51960730775631
 10
-26.10683602522959
 20
31.51136245170239
  0
LINE
  5
E2
330
8B
100
AcDbEntity
  8
AM_4
100
AcDbLine
 10
-24.66346035225553
 20
29.59704095623177
 30
0.0
 11
-25.11251868059455
 21
30.16218431808511
 31
0.0
  0
LINE
  5
E3
330
8B
100
AcDbEntity
  8
AM_4
100
AcDbLine
 10
-24.21440237077037
 20
29.06222095047774
 30
0.0
 11
-24.66346035225553
 21
29.59704095623177
 31
0.0
  0
LINE
  5
E4
330
8B
100
AcDbEntity
  8
AM_4
100
AcDbLine
 10
-24.19890942448415
 20
29.04430130107736
 30
0.0
 11
-24.21440237077037
 21
29.06222095047774
 31
0.0
  0
LWPOLYLINE
  5
E5
330
8B
100
AcDbEntity
  8
AM_4
100
AcDbPolyline
 90
        3
 70
     0
 43
0.0
 10
-23.22008467928146
 20
27.97582854576964
 10
-23.93852761292482
 20
28.74820791798052
 10
-24.19890942448415
 20
29.04430130107736
  0
LWPOLYLINE
  5
E6
330
8B
100
AcDbEntity
  8
AM_4
100
AcDbPolyline
 90
        3
 70
     0
 43
0.0
 10
-24.66346035225553
 20
31.71836129979141
 10
-23.94177251576849
 20
30.79579494826686
 10
-23.22008467928146
 20
29.80403980432078
  0
LWPOLYLINE
  5
E7
330
8B
100
AcDbEntity
  8
AM_4
100
AcDbPolyline
 90
        4
 70
     0
 43
0.0
 10
-23.22008467928146
 20
29.80403980432078
 10
-22.56469237811645
 20
29.86053895931538
 10
-21.45234735234795
 20
29.92715909093049
 10
-20.33333333333333
 20
29.95059434682504
  0
ELLIPSE
  5
E8
330
8B
100
AcDbEntity
  8
AM_4
100
AcDbEllipse
 10
-20.3333333333333
 20
33.48612825275782
 30
0.0
 11
5.000000000000057
 21
0.0
 31
0.0
210
0.0
220
0.0
230
1.0
 40
0.7071067811865495
 41
2.617993877991509
 42
7.181390445806756
  0
ELLIPSE
  5
E9
330
8B
100
AcDbEntity
  8
AM_4
100
AcDbEllipse
 10
-20.33333333333331
 20
33.48612825275787
 30
0.0
 11
5.000000000000032
 21
0.0
 31
0.0
210
0.0
220
0.0
230
1.0
 40
0.707106781186533
 41
2.243387514962719
 42
2.617993877991509
  0
ELLIPSE
  5
EA
330
8B
100
AcDbEntity
  8
AM_4
100
AcDbEllipse
 10
-20.33333333333334
 20
34.10160267185437
 30
0.0
 11
3.607583894601113
 21
5.375718913377991E-8
 31
0.0
210
0.0
220
0.0
230
1.0
 40
0.7071067811865498
 41
2.478209321322884
 42
6.946568605290529
  0
ELLIPSE
  5
EB
330
8B
100
AcDbEntity
  8
AM_4
100
AcDbEllipse
 10
-20.33333333333316
 20
34.69444172228917
 30
0.0
 11
2.982994982562332
 21
0.0
 31
0.0
210
0.0
220
0.0
230
1.0
 40
0.7071067811865536
 41
2.754650415401443
 42
6.670127545367981
  0
LINE
  5
EC
330
8B
100
AcDbEntity
  8
AM_4
100
AcDbLine
 10
-23.08231045004827
 20
35.51378882426582
 30
0.0
 11
-23.09578732271013
 21
35.49040246961571
 31
0.0
  0
LINE
  5
ED
330
8B
100
AcDbEntity
  8
AM_4
100
AcDbLine
 10
-17.57087934395653
 20
35.49040246961571
 30
0.0
 11
-17.58435621661839
 21
35.51378882426582
 31
0.0
  0
ELLIPSE
  5
EE
330
8B
100
AcDbEntity
  8
AM_4
100
AcDbEllipse
 10
-20.33333333333331
 20
33.48612825275777
 30
0.0
 11
4.75
 21
0.0
 31
0.0
210
0.0
220
0.0
230
1.0
 40
0.7071067811865487
 41
2.267944363641274
 42
6.283185307179586
  0
ELLIPSE
  5
EF
330
8B
100
AcDbEntity
  8
AM_4
100
AcDbEllipse
 10
-20.33333333333333
 20
33.48612825275777
 30
0.0
 11
4.750000000000004
 21
0.0
 31
0.0
210
0.0
220
0.0
230
1.0
 40
0.7071067811865482
 41
0.0
 42
0.8736482899485428
  0
LINE
  5
F0
330
8B
100
AcDbEntity
  8
AM_4
100
AcDbLine
 10
-17.65833333333333
 20
35.27157287525381
 30
0.0
 11
-17.65833333333333
 21
35.38824549414958
 31
0.0
  0
LINE
  5
F1
330
8B
100
AcDbEntity
  8
AM_4
100
AcDbLine
 10
-23.00833333333333
 20
35.38824549414958
 30
0.0
 11
-23.00833333333333
 21
35.27157287525381
 31
0.0
  0
ELLIPSE
  5
F2
330
8B
100
AcDbEntity
  8
AM_4
100
AcDbEllipse
 10
-20.33333333333333
 20
35.27157287525382
 30
0.0
 11
2.675000000000008
 21
0.0
 31
0.0
210
0.0
220
0.0
230
1.0
 40
0.707106781186549
 41
3.141592653589793
 42
6.283185307179586
  0
LINE
  5
F3
330
8B
100
AcDbEntity
  8
AM_4
100
AcDbLine
 10
-17.86410256410256
 20
35.03904352990207
 30
0.0
 11
-17.4025641025641
 21
35.82230027213948
 31
0.0
  0
LINE
  5
F4
330
8B
100
AcDbEntity
  8
AM_4
100
AcDbLine
 10
-23.26410256410256
 20
35.82230027213948
 30
0.0
 11
-22.8025641025641
 21
35.03904352990207
 31
0.0
  0
ELLIPSE
  5
F5
330
8B
100
AcDbEntity
  8
AM_4
100
AcDbEllipse
 10
-20.33333333333333
 20
36.68578643762691
 30
0.0
 11
3.174999999999997
 21
0.0
 31
0.0
210
0.0
220
0.0
230
1.0
 40
0.7071067811865498
 41
2.72567860148725
 42
5.88839418747982
  0
ELLIPSE
  5
F6
330
8B
100
AcDbEntity
  8
AM_4
100
AcDbEllipse
 10
-20.33333333333339
 20
36.68578643762682
 30
0.0
 11
3.175000000000058
 21
0.0
 31
0.0
210
0.0
220
0.0
230
1.0
 40
0.7071067811865386
 41
5.888394187479862
 42
6.699099359282163
  0
ELLIPSE
  5
F7
330
8B
100
AcDbEntity
  8
AM_4
100
AcDbEllipse
 10
-20.33333333333333
 20
35.7665476220844
 30
0.0
 11
2.675000000000008
 21
0.0
 31
0.0
210
0.0
220
0.0
230
1.0
 40
0.707106781186549
 41
3.536383773289561
 42
5.888394187479818
  0
LINE
  5
F8
330
8B
100
AcDbEntity
  8
AM_4
100
AcDbLine
 10
-22.49849245302524
 20
38.77621249728132
 30
0.0
 11
-23.23765633359286
 21
37.59285118453406
 31
0.0
  0
LINE
  5
F9
330
8B
100
AcDbEntity
  8
AM_4
100
AcDbLine
 10
-17.4290103330738
 20
37.59285118453406
 30
0.0
 11
-18.16817421364143
 21
38.77621249728132
 31
0.0
  0
ELLIPSE
  5
FA
330
8B
100
AcDbEntity
  8
AM_4
100
AcDbEllipse
 10
-20.33333333333339
 20
38.09999999999991
 30
0.0
 11
2.366947548329748
 21
0.0
 31
0.0
210
0.0
220
0.0
230
1.0
 40
0.7071067811865586
 41
0.0
 42
6.283185307179586
  0
ENDBLK
  5
8E
330
8B
100
AcDbEntity
  8
0
100
AcDbBlockEnd
  0
BLOCK
  5
FD
330
FB
100
AcDbEntity
  8
0
100
AcDbBlockBegin
  2
3_125626_0_in_130831_2
 70
     2
 10
0.0
 20
0.0
 30
0.0
  3
3_125626_0_in_130831_2
  1

  0
ATTDEF
  5
FF
330
FB
100
AcDbEntity
  8
AM_6
100
AcDbText
 10
-1.300000000000003
 20
23.479274918064
 30
0.0
 40
0.5
  1
Eccentric Collar Insert Metric Bore
100
AcDbAttributeDefinition
  3

  2
NN
 70
     8
280
     0
  0
ATTDEF
  5
100
330
FB
100
AcDbEntity
  8
AM_6
100
AcDbText
 10
-1.300000000000003
 20
22.979274918064
 30
0.0
 40
0.5
  1
SXR Normal Duty Bearing Inserts
100
AcDbAttributeDefinition
  3

  2
NT
 70
     8
280
     0
  0
ATTDEF
  5
101
330
FB
100
AcDbEntity
  8
AM_6
100
AcDbText
 10
-1.300000000000003
 20
22.479274918064
 30
0.0
 40
0.5
  1
125626
100
AcDbAttributeDefinition
  3

  2
NB
 70
     8
280
     0
  0
ATTDEF
  5
102
330
FB
100
AcDbEntity
  8
AM_6
100
AcDbText
 10
-1.300000000000003
 20
21.979274918064
 30
0.0
 40
0.5
  1
$PN.
100
AcDbAttributeDefinition
  3

  2
NBSYN
 70
     8
280
     0
  0
ATTDEF
  5
103
330
FB
100
AcDbEntity
  8
AM_6
100
AcDbText
 10
-1.300000000000003
 20
21.479274918064
 30
0.0
 40
0.5
  1
125626
100
AcDbAttributeDefinition
  3

  2
LINA
 70
     8
280
     0
  0
ATTDEF
  5
104
330
FB
100
AcDbEntity
  8
AM_6
100
AcDbText
 10
-1.300000000000003
 20
20.979274918064
 30
0.0
 40
0.5
  1
204
100
AcDbAttributeDefinition
  3

  2
SERIES
 70
     8
280
     0
  0
ATTDEF
  5
105
330
FB
100
AcDbEntity
  8
AM_6
100
AcDbText
 10
-1.300000000000003
 20
20.479274918064
 30
0.0
 40
0.5
  1
20
100
AcDbAttributeDefinition
  3

  2
SS
 70
     8
280
     0
  0
ATTDEF
  5
106
330
FB
100
AcDbEntity
  8
AM_6
100
AcDbText
 10
-1.300000000000003
 20
19.979274918064
 30
0.0
 40
0.5
  1
125626
100
AcDbAttributeDefinition
  3

  2
PN
 70
     8
280
     0
  0
ATTDEF
  5
107
330
FB
100
AcDbEntity
  8
AM_6
100
AcDbText
 10
-1.300000000000003
 20
19.479274918064
 30
0.0
 40
0.5
  1
INS-SXR-20M
100
AcDbAttributeDefinition
  3

  2
DESCRIPTION
 70
     8
280
     0
  0
ATTDEF
  5
108
330
FB
100
AcDbEntity
  8
AM_6
100
AcDbText
 10
-1.300000000000003
 20
18.979274918064
 30
0.0
 40
0.5
  1
0.2
100
AcDbAttributeDefinition
  3

  2
WEIGHT
 70
     8
280
     0
  0
ATTDEF
  5
109
330
FB
100
AcDbEntity
  8
AM_6
100
AcDbText
 10
-1.300000000000003
 20
18.479274918064
 30
0.0
 40
0.5
  1
39.4
100
AcDbAttributeDefinition
  3

  2
A
 70
     8
280
     0
  0
ATTDEF
  5
10A
330
FB
100
AcDbEntity
  8
AM_6
100
AcDbText
 10
-1.300000000000003
 20
17.979274918064
 30
0.0
 40
0.5
  1
14.7
100
AcDbAttributeDefinition
  3

  2
C
 70
     8
280
     0
  0
ATTDEF
  5
10B
330
FB
100
AcDbEntity
  8
AM_6
100
AcDbText
 10
-1.300000000000003
 20
17.479274918064
 30
0.0
 40
0.5
  1
47.000
100
AcDbAttributeDefinition
  3

  2
D
 70
     8
280
     0
  0
ATTDEF
  5
10C
330
FB
100
AcDbEntity
  8
AM_6
100
AcDbText
 10
-1.300000000000003
 20
16.979274918064
 30
0.0
 40
0.5
  1
3.8
100
AcDbAttributeDefinition
  3

  2
J
 70
     8
280
     0
  0
ATTDEF
  5
10D
330
FB
100
AcDbEntity
  8
AM_6
100
AcDbText
 10
-1.300000000000003
 20
16.479274918064
 30
0.0
 40
0.5
  1
33.3
100
AcDbAttributeDefinition
  3

  2
L
 70
     8
280
     0
  0
ATTDEF
  5
10E
330
FB
100
AcDbEntity
  8
AM_6
100
AcDbText
 10
-1.300000000000003
 20
15.979274918064
 30
0.0
 40
0.5
  1
M6 x 1
100
AcDbAttributeDefinition
  3

  2
N
 70
     8
280
     0
  0
ATTDEF
  5
10F
330
FB
100
AcDbEntity
  8
AM_6
100
AcDbText
 10
-1.300000000000003
 20
15.479274918064
 30
0.0
 40
0.5
  1
12.7
100
AcDbAttributeDefinition
  3

  2
W
 70
     8
280
     0
  0
ATTDEF
  5
110
330
FB
100
AcDbEntity
  8
AM_6
100
AcDbText
 10
-1.300000000000003
 20
14.979274918064
 30
0.0
 40
0.5
  1
26.7
100
AcDbAttributeDefinition
  3

  2
Y
 70
     8
280
     0
  0
ATTDEF
  5
111
330
FB
100
AcDbEntity
  8
AM_6
100
AcDbText
 10
-1.300000000000003
 20
14.479274918064
 30
0.0
 40
0.5
  1
28.4
100
AcDbAttributeDefinition
  3

  2
Z
 70
     8
280
     0
  0
ATTDEF
  5
112
330
FB
100
AcDbEntity
  8
AM_6
100
AcDbText
 10
-1.300000000000003
 20
13.979274918064
 30
0.0
 40
0.5
  1
baldor
100
AcDbAttributeDefinition
  3

  2
COMPANY
 70
     8
280
     0
  0
ARC
  5
113
330
FB
100
AcDbEntity
  8
AM_9
100
AcDbCircle
 10
-15.2
 20
-21.73333109150405
 30
0.0
 40
1.999999999999986
100
AcDbArc
 50
208.1148291003811
 51
351.7206103342818
  0
LINE
  5
114
330
FB
100
AcDbEntity
  8
AM_9
100
AcDbLine
 10
-45.406
 20
-10.0
 30
0.0
 11
-36.90788910566885
 21
-10.0
 31
0.0
  0
LINE
  5
115
330
FB
100
AcDbEntity
  8
AM_9
100
AcDbLine
 10
-36.90788910566885
 20
10.0
 30
0.0
 11
-45.406
 21
10.0
 31
0.0
  0
LINE
  5
116
330
FB
100
AcDbEntity
  8
AM_9
100
AcDbLine
 10
-36.49211031833116
 20
-10.0
 30
0.0
 11
-6.594000000000007
 21
-10.0
 31
0.0
  0
LINE
  5
117
330
FB
100
AcDbEntity
  8
AM_9
100
AcDbLine
 10
-6.594000000000007
 20
10.0
 30
0.0
 11
-36.49211031833116
 21
10.0
 31
0.0
  0
LINE
  5
118
330
FB
100
AcDbEntity
  8
AM_9
100
AcDbLine
 10
-36.49211031833116
 20
10.0
 30
0.0
 11
-36.69999971200001
 21
10.20788939366884
 31
0.0
  0
LINE
  5
119
330
FB
100
AcDbEntity
  8
AM_9
100
AcDbLine
 10
-36.69999971200001
 20
-10.20788939366884
 30
0.0
 11
-36.49211031833116
 21
-10.0
 31
0.0
  0
LINE
  5
11A
330
FB
100
AcDbEntity
  8
AM_9
100
AcDbLine
 10
-36.49211031833116
 20
10.0
 30
0.0
 11
-36.49211031833116
 21
-10.0
 31
0.0
  0
LINE
  5
11B
330
FB
100
AcDbEntity
  8
AM_9
100
AcDbLine
 10
-36.90788910566885
 20
-10.0
 30
0.0
 11
-36.69999971200001
 21
-10.20788939366884
 31
0.0
  0
LINE
  5
11C
330
FB
100
AcDbEntity
  8
AM_9
100
AcDbLine
 10
-36.69999971200001
 20
10.20788939366884
 30
0.0
 11
-36.90788910566885
 21
10.0
 31
0.0
  0
LINE
  5
11D
330
FB
100
AcDbEntity
  8
AM_9
100
AcDbLine
 10
-36.69999971200001
 20
10.20788939366884
 30
0.0
 11
-36.69999971200001
 21
-10.20788939366884
 31
0.0
  0
LINE
  5
11E
330
FB
100
AcDbEntity
  8
AM_9
100
AcDbLine
 10
-36.90788910566885
 20
10.0
 30
0.0
 11
-36.90788910566885
 21
-10.0
 31
0.0
  0
LINE
  5
11F
330
FB
100
AcDbEntity
  8
AM_9
100
AcDbLine
 10
-6.594000000000007
 20
-10.0
 30
0.0
 11
-6.300000000000003
 21
-10.294
 31
0.0
  0
LINE
  5
120
330
FB
100
AcDbEntity
  8
AM_9
100
AcDbLine
 10
-6.300000000000003
 20
10.294
 30
0.0
 11
-6.594000000000007
 21
10.0
 31
0.0
  0
LINE
  5
121
330
FB
100
AcDbEntity
  8
AM_9
100
AcDbLine
 10
-45.406
 20
10.0
 30
0.0
 11
-45.7
 21
10.294
 31
0.0
  0
LINE
  5
122
330
FB
100
AcDbEntity
  8
AM_9
100
AcDbLine
 10
-45.7
 20
-10.294
 30
0.0
 11
-45.406
 21
-10.0
 31
0.0
  0
LINE
  5
123
330
FB
100
AcDbEntity
  8
AM_9
100
AcDbLine
 10
-45.406
 20
10.0
 30
0.0
 11
-45.406
 21
-10.0
 31
0.0
  0
LWPOLYLINE
  5
124
330
FB
100
AcDbEntity
  8
AM_9
100
AcDbPolyline
 90
       20
 70
     0
 43
0.0
 10
-43.65849985600001
 20
2.588190451025207
 10
-43.62572837137237
 20
2.199671352063088
 10
-43.52464360745151
 20
1.806997861371504
 10
-43.36421200375759
 20
1.443902817055159
 10
-43.14022909223547
 20
1.100087918581719
 10
-42.86561791182015
 20
0.7988416665915578
 10
-42.53595603445059
 20
0.538951208617455
 10
-42.17268773325831
 20
0.3403917894389363
 10
-41.76895922491318
 20
0.2028104653024427
 10
-41.36793953958466
 20
0.1399482766891295
 10
-40.94974097691205
 20
0.147196143963137
 10
-40.55995604368074
 20
0.2213752407288459
 10
-40.17730946662989
 20
0.3631638740456775
 10
-39.8294268655611
 20
0.5622368250018466
 10
-39.51007935239397
 20
0.8218318634035655
 10
-39.23765258993705
 20
1.129094278417517
 10
-39.01374791546434
 20
1.485580141593714
 10
-38.85691807987123
 20
1.861935484659339
 10
-38.76376207823914
 20
2.267925273655351
 10
-38.74149986925468
 20
2.588437041834588
  0
LINE
  5
125
330
FB
100
AcDbEntity
  8
AM_9
100
AcDbLine
 10
-38.741499856
 20
2.587884381905307
 30
0.0
 11
-38.741499856
 21
4.238808861781123
 31
0.0
  0
LINE
  5
126
330
FB
100
AcDbEntity
  8
AM_9
100
AcDbLine
 10
-43.65849985600001
 20
4.238808861781125
 30
0.0
 11
-43.65849985600001
 21
2.588190451025208
 31
0.0
  0
LWPOLYLINE
  5
127
330
FB
100
AcDbEntity
  8
AM_9
100
AcDbPolyline
 90
        4
 70
     0
 43
0.0
 10
-43.49718270583594
 20
3.42428259433323
 10
-43.56586803500657
 20
3.228120589406952
 10
-43.63473875886435
 20
2.91604870628638
 10
-43.65849985600001
 20
2.588190451025207
  0
LWPOLYLINE
  5
128
330
FB
100
AcDbEntity
  8
AM_9
100
AcDbPolyline
 90
        5
 70
     0
 43
0.0
 10
-38.74149986925468
 20
2.588437041834588
 10
-38.74254944295705
 20
2.657507263777548
 10
-38.78952304777282
 20
3.052239411310854
 10
-38.89853407754994
 20
3.413607625082975
 10
-38.90580039532691
 20
3.431624240080687
  0
LINE
  5
129
330
FB
100
AcDbEntity
  8
AM_9
100
AcDbLine
 10
-28.4
 20
-14.2
 30
0.0
 11
-26.35
 21
-14.2
 31
0.0
  0
LINE
  5
12A
330
FB
100
AcDbEntity
  8
AM_9
100
AcDbLine
 10
-26.35
 20
14.2
 30
0.0
 11
-28.4
 21
14.2
 31
0.0
  0
LINE
  5
12B
330
FB
100
AcDbEntity
  8
AM_9
100
AcDbLine
 10
-6.300000000000003
 20
13.906
 30
0.0
 11
-6.594000000000005
 21
14.2
 31
0.0
  0
LINE
  5
12C
330
FB
100
AcDbEntity
  8
AM_9
100
AcDbLine
 10
-6.594000000000005
 20
-14.2
 30
0.0
 11
-6.300000000000003
 21
-13.906
 31
0.0
  0
LINE
  5
12D
330
FB
100
AcDbEntity
  8
AM_9
100
AcDbLine
 10
-11.65
 20
-14.2
 30
0.0
 11
-6.594000000000005
 21
-14.2
 31
0.0
  0
LINE
  5
12E
330
FB
100
AcDbEntity
  8
AM_9
100
AcDbLine
 10
-6.594000000000005
 20
14.2
 30
0.0
 11
-11.65
 21
14.2
 31
0.0
  0
LINE
  5
12F
330
FB
100
AcDbEntity
  8
AM_9
100
AcDbLine
 10
-6.594000000000005
 20
14.2
 30
0.0
 11
-6.594000000000005
 21
-14.2
 31
0.0
  0
LINE
  5
130
330
FB
100
AcDbEntity
  8
AM_9
100
AcDbLine
 10
-23.56
 20
-22.38095256000002
 30
0.0
 11
-22.04
 21
-22.38095256000002
 31
0.0
  0
LINE
  5
131
330
FB
100
AcDbEntity
  8
AM_9
100
AcDbLine
 10
-22.04
 20
22.38095256000002
 30
0.0
 11
-23.56
 21
22.38095256000002
 31
0.0
  0
LINE
  5
132
330
FB
100
AcDbEntity
  8
AM_9
100
AcDbLine
 10
-11.65
 20
21.89143896595196
 30
0.0
 11
-11.65
 21
-21.89143896595196
 31
0.0
  0
ARC
  5
133
330
FB
100
AcDbEntity
  8
AM_9
100
AcDbCircle
 10
-12.23799999999999
 20
-21.89143896595197
 30
0.0
 40
0.5879999999999851
100
AcDbArc
 50
287.1652843255022
 51
0.0
  0
ARC
  5
134
330
FB
100
AcDbEntity
  8
AM_9
100
AcDbCircle
 10
-12.23799999999999
 20
21.89143896595197
 30
0.0
 40
0.5879999999999832
100
AcDbArc
 50
0.0
 51
72.8347156744978
  0
LINE
  5
135
330
FB
100
AcDbEntity
  8
AM_9
100
AcDbLine
 10
-26.35
 20
21.89143896595196
 30
0.0
 11
-26.35
 21
-21.89143896595196
 31
0.0
  0
ARC
  5
136
330
FB
100
AcDbEntity
  8
AM_9
100
AcDbCircle
 10
-25.762
 20
-21.89143896595197
 30
0.0
 40
0.588000000000001
100
AcDbArc
 50
180.0
 51
252.8347156744966
  0
ARC
  5
137
330
FB
100
AcDbEntity
  8
AM_9
100
AcDbCircle
 10
-25.762
 20
21.89143896595197
 30
0.0
 40
0.588
100
AcDbArc
 50
107.1652843255034
 51
180.0
  0
ARC
  5
138
330
FB
100
AcDbEntity
  8
AM_9
100
AcDbCircle
 10
-19.00000000010849
 20
0.0000000004299032
 30
0.0
 40
23.49999999955782
100
AcDbArc
 50
101.1887976479817
 51
107.1652843255595
  0
ARC
  5
139
330
FB
100
AcDbEntity
  8
AM_9
100
AcDbCircle
 10
-19.00000000018493
 20
-0.0000000007332304
 30
0.0
 40
23.49999999924586
100
AcDbArc
 50
252.8347156744006
 51
258.8112023520578
  0
LINE
  5
13A
330
FB
100
AcDbEntity
  8
AM_9
100
AcDbLine
 10
-25.93553596368715
 20
22.45324789192936
 30
0.0
 11
-25.93553596368715
 21
-22.45324789192979
 31
0.0
  0
LINE
  5
13B
330
FB
100
AcDbEntity
  8
AM_9
100
AcDbLine
 10
-23.56
 20
23.05333815307511
 30
0.0
 11
-23.56
 21
-23.05333815307555
 31
0.0
  0
ARC
  5
13C
330
FB
100
AcDbEntity
  8
AM_9
100
AcDbCircle
 10
-19.00000000000015
 20
-0.0000000000015739
 30
0.0
 40
23.50000000000163
100
AcDbArc
 50
72.83471567449747
 51
97.43270909175502
  0
ARC
  5
13D
330
FB
100
AcDbEntity
  8
AM_9
100
AcDbCircle
 10
-18.99999999999958
 20
-0.0000000000054747
 30
0.0
 40
23.49999999999477
100
AcDbArc
 50
262.5672909082414
 51
287.1652843255062
  0
LINE
  5
13E
330
FB
100
AcDbEntity
  8
AM_9
100
AcDbLine
 10
-22.04
 20
23.3025406340168
 30
0.0
 11
-22.04
 21
-23.30254063401686
 31
0.0
  0
LINE
  5
13F
330
FB
100
AcDbEntity
  8
AM_9
100
AcDbLine
 10
-12.06446403631285
 20
22.45324789192881
 30
0.0
 11
-12.06446403631285
 21
-22.45324789192886
 31
0.0
  0
ELLIPSE
  5
140
330
FB
100
AcDbEntity
  8
AM_9
100
AcDbEllipse
 10
-15.09943344408378
 20
-22.30850115899339
 30
0.0
 11
-1.878157145742577
 21
-0.3283894734669472
 31
0.0
210
0.0
220
0.0
230
1.0
 40
0.2552049713866743
 41
0.0
 42
6.283185307179586
  0
ELLIPSE
  5
141
330
FB
100
AcDbEntity
  8
AM_4
100
AcDbEllipse
 10
-41.19999985600001
 20
4.238808861781121
 30
0.0
 11
2.458500000000001
 21
0.0
 31
0.0
210
0.0
220
0.0
230
1.0
 40
0.9659258262890686
 41
0.0
 42
3.141592653589793
  0
LWPOLYLINE
  5
142
330
FB
100
AcDbEntity
  8
AM_4
100
AcDbPolyline
 90
       16
 70
     0
 43
0.0
 10
-38.90580039532691
 20
3.431624240080687
 10
-39.07243028462473
 20
3.758435501496847
 10
-39.30128472027602
 20
4.064978314627273
 10
-39.58886253218283
 20
4.336899401651777
 10
-39.92030743313069
 20
4.558186609162063
 10
-40.29945698158567
 20
4.729236860621258
 10
-40.69176180834543
 20
4.835631007770425
 10
-41.11158110028229
 20
4.88205014133692
 10
-41.51053730248995
 20
4.865749020951371
 10
-41.91207710852736
 20
4.788452090387837
 10
-42.28070893657651
 20
4.657286645622512
 10
-42.62944631149522
 20
4.46795663116667
 10
-42.93810549965442
 20
4.22825924064756
 10
-43.2063203874279
 20
3.934395501440541
 10
-43.41532386201569
 20
3.603210393735444
 10
-43.49718270583594
 20
3.42428259433323
  0
LINE
  5
143
330
FB
100
AcDbEntity
  8
AM_4
100
AcDbLine
 10
-35.50000000000001
 20
-13.523809632
 30
0.0
 11
-34.9
 21
-13.523809632
 31
0.0
  0
LINE
  5
144
330
FB
100
AcDbEntity
  8
AM_4
100
AcDbLine
 10
-34.9
 20
13.523809632
 30
0.0
 11
-35.50000000000001
 21
13.523809632
 31
0.0
  0
ELLIPSE
  5
145
330
FB
100
AcDbEntity
  8
AM_4
100
AcDbEllipse
 10
-41.19999985600001
 20
4.238808861781128
 30
0.0
 11
2.458500000000001
 21
0.0
 31
0.0
210
0.0
220
0.0
230
1.0
 40
0.9659258262890694
 41
3.141592653589793
 42
6.283185307179586
  0
LINE
  5
146
330
FB
100
AcDbEntity
  8
AM_4
100
AcDbLine
 10
-34.9
 20
-13.906
 30
0.0
 11
-34.60600000000001
 21
-14.2
 31
0.0
  0
LINE
  5
147
330
FB
100
AcDbEntity
  8
AM_4
100
AcDbLine
 10
-34.60600000000001
 20
14.2
 30
0.0
 11
-34.9
 21
13.906
 31
0.0
  0
LINE
  5
148
330
FB
100
AcDbEntity
  8
AM_4
100
AcDbLine
 10
-34.9
 20
13.906
 30
0.0
 11
-34.9
 21
-13.906
 31
0.0
  0
LINE
  5
149
330
FB
100
AcDbEntity
  8
AM_4
100
AcDbLine
 10
-34.60600000000001
 20
-14.2
 30
0.0
 11
-28.4
 21
-14.2
 31
0.0
  0
LINE
  5
14A
330
FB
100
AcDbEntity
  8
AM_4
100
AcDbLine
 10
-28.4
 20
14.2
 30
0.0
 11
-34.60600000000001
 21
14.2
 31
0.0
  0
LINE
  5
14B
330
FB
100
AcDbEntity
  8
AM_4
100
AcDbLine
 10
-34.60600000000001
 20
14.2
 30
0.0
 11
-34.60600000000001
 21
-14.2
 31
0.0
  0
LINE
  5
14C
330
FB
100
AcDbEntity
  8
AM_4
100
AcDbLine
 10
-35.50000000000001
 20
15.9
 30
0.0
 11
-35.50000000000001
 21
-15.9
 31
0.0
  0
ARC
  5
14D
330
FB
100
AcDbEntity
  8
AM_4
100
AcDbCircle
 10
-36.25
 20
-15.9
 30
0.0
 40
0.7499999999999929
100
AcDbArc
 50
270.0
 51
0.0
  0
ARC
  5
14E
330
FB
100
AcDbEntity
  8
AM_4
100
AcDbCircle
 10
-36.25
 20
15.9
 30
0.0
 40
0.7499999999999929
100
AcDbArc
 50
0.0
 51
90.0
  0
LWPOLYLINE
  5
14F
330
FB
100
AcDbEntity
  8
AM_4
100
AcDbPolyline
 90
       39
 70
     0
 43
0.0
 10
-39.30822946598223
 20
6.048634191835852
 10
-39.03771594726326
 20
5.78512705660656
 10
-38.81230266984441
 20
5.484969187991495
 10
-38.62258290885535
 20
5.111474418003551
 10
-38.50597068594053
 20
4.708973920927659
 10
-38.46933519831332
 20
4.31905457720601
 10
-38.50249691657724
 20
3.926328358854054
 10
-38.6002801940337
 20
3.556250476078383
 10
-38.75783270188113
 20
3.204512890561053
 10
-38.97678738062147
 20
2.871777794976864
 10
-39.24563274094342
 20
2.575354681107573
 10
-39.57984834304958
 20
2.306094402010702
 10
-39.95239962204565
 20
2.09100063529854
 10
-40.3830587982147
 20
1.926245838355113
 10
-40.83475950213336
 20
1.831842474684328
 10
-41.31579763946128
 20
1.811392875995168
 10
-41.79363578163805
 20
1.870057922796984
 10
-42.2600734259755
 20
2.009621793119594
 10
-42.69577967777683
 20
2.225528815770585
 10
-43.08007265118906
 20
2.508042480920957
 10
-43.4079431707875
 20
2.852008598022145
 10
-43.6534130091904
 20
3.226010831461923
 10
-43.82637974531314
 20
3.635221439869977
 10
-43.91313106163413
 20
4.032112127435962
 10
-43.92737558481732
 20
4.435131950957198
 10
-43.87236771459943
 20
4.810048152193692
 10
-43.75415884998692
 20
5.168847088527404
 10
-43.57506943311842
 20
5.504360208531454
 10
-43.34278660556544
 20
5.807214646417643
 10
-43.04613195542404
 20
6.085738171851801
 10
-42.70682762633707
 20
6.316617811377136
 10
-42.30472371739481
 20
6.507141708992457
 10
-41.87496765318689
 20
6.636013399685911
 10
-41.4040875710911
 20
6.702431617268196
 10
-40.92768183549157
 20
6.697476785442826
 10
-40.44873899374904
 20
6.617924865806469
 10
-39.99125967776074
 20
6.465189054289263
 10
-39.63306144974002
 20
6.280902199727604
 10
-39.3082294658585
 20
6.048634191857578
  0
LINE
  5
150
330
FB
100
AcDbEntity
  8
AM_4
100
AcDbLine
 10
-44.95
 20
-16.65
 30
0.0
 11
-36.25000000000001
 21
-16.65
 31
0.0
  0
LINE
  5
151
330
FB
100
AcDbEntity
  8
AM_4
100
AcDbLine
 10
-36.25000000000001
 20
16.65
 30
0.0
 11
-44.95
 21
16.65
 31
0.0
  0
LINE
  5
152
330
FB
100
AcDbEntity
  8
AM_4
100
AcDbLine
 10
-36.25000000000001
 20
16.65
 30
0.0
 11
-36.25000000000001
 21
-16.65
 31
0.0
  0
LINE
  5
153
330
FB
100
AcDbEntity
  8
AM_4
100
AcDbLine
 10
-45.7
 20
15.9
 30
0.0
 11
-45.7
 21
-15.9
 31
0.0
  0
ARC
  5
154
330
FB
100
AcDbEntity
  8
AM_4
100
AcDbCircle
 10
-44.95
 20
-15.89999999999999
 30
0.0
 40
0.7500000000000071
100
AcDbArc
 50
179.9999991462263
 51
270.0
  0
ARC
  5
155
330
FB
100
AcDbEntity
  8
AM_4
100
AcDbCircle
 10
-44.95
 20
15.89999999999999
 30
0.0
 40
0.7500000000000089
100
AcDbArc
 50
90.0
 51
179.9999991462263
  0
LINE
  5
156
330
FB
100
AcDbEntity
  8
AM_4
100
AcDbLine
 10
-44.95
 20
16.65
 30
0.0
 11
-44.95
 21
-16.65
 31
0.0
  0
ENDBLK
  5
FE
330
FB
100
AcDbEntity
  8
0
100
AcDbBlockEnd
  0
BLOCK
  5
159
330
157
100
AcDbEntity
  8
0
100
AcDbBlockBegin
  2
4_130831H_0_in_130831_2
 70
     2
 10
0.0
 20
0.0
 30
0.0
  3
4_130831H_0_in_130831_2
  1

  0
ATTDEF
  5
15B
330
157
100
AcDbEntity
  8
AM_6
100
AcDbText
 10
7.284999999999986
 20
56.0
 30
0.0
 40
0.5
  1
F2BZ-SXR -Metric - housing
100
AcDbAttributeDefinition
  3

  2
NN
 70
     8
280
     0
  0
ATTDEF
  5
15C
330
157
100
AcDbEntity
  8
AM_6
100
AcDbText
 10
7.284999999999986
 20
55.5
 30
0.0
 40
0.5
  1
Eccentric Collar 2 Bolt Piloted Flange Bearings -(Normal Duty)
100
AcDbAttributeDefinition
  3

  2
NT
 70
     8
280
     0
  0
ATTDEF
  5
15D
330
157
100
AcDbEntity
  8
AM_6
100
AcDbText
 10
7.284999999999986
 20
55.0
 30
0.0
 40
0.5
  1
130831H
100
AcDbAttributeDefinition
  3

  2
NB
 70
     8
280
     0
  0
ATTDEF
  5
15E
330
157
100
AcDbEntity
  8
AM_6
100
AcDbText
 10
7.284999999999986
 20
54.5
 30
0.0
 40
0.5
  1
$PN.H
100
AcDbAttributeDefinition
  3

  2
NBSYN
 70
     8
280
     0
  0
ATTDEF
  5
15F
330
157
100
AcDbEntity
  8
AM_6
100
AcDbText
 10
7.284999999999986
 20
54.0
 30
0.0
 40
0.5
  1
130831
100
AcDbAttributeDefinition
  3

  2
LINA
 70
     8
280
     0
  0
ATTDEF
  5
160
330
157
100
AcDbEntity
  8
AM_6
100
AcDbText
 10
7.284999999999986
 20
53.5
 30
0.0
 40
0.5
  1
204
100
AcDbAttributeDefinition
  3

  2
SERIES
 70
     8
280
     0
  0
ATTDEF
  5
161
330
157
100
AcDbEntity
  8
AM_6
100
AcDbText
 10
7.284999999999986
 20
53.0
 30
0.0
 40
0.5
  1
20
100
AcDbAttributeDefinition
  3

  2
SS
 70
     8
280
     0
  0
ATTDEF
  5
162
330
157
100
AcDbEntity
  8
AM_6
100
AcDbText
 10
7.284999999999986
 20
52.5
 30
0.0
 40
0.5
  1
130831
100
AcDbAttributeDefinition
  3

  2
PN
 70
     8
280
     0
  0
ATTDEF
  5
163
330
157
100
AcDbEntity
  8
AM_6
100
AcDbText
 10
7.284999999999986
 20
52.0
 30
0.0
 40
0.5
  1
F2BZ-SXR-20M
100
AcDbAttributeDefinition
  3

  2
DESCRIPTION
 70
     8
280
     0
  0
ATTDEF
  5
164
330
157
100
AcDbEntity
  8
AM_6
100
AcDbText
 10
7.284999999999986
 20
51.5
 30
0.0
 40
0.5
  1
0.6
100
AcDbAttributeDefinition
  3

  2
W
 70
     8
280
     0
  0
ATTDEF
  5
165
330
157
100
AcDbEntity
  8
AM_6
100
AcDbText
 10
7.284999999999986
 20
51.0
 30
0.0
 40
0.5
  1
39.4
100
AcDbAttributeDefinition
  3

  2
A
 70
     8
280
     0
  0
ATTDEF
  5
166
330
157
100
AcDbEntity
  8
AM_6
100
AcDbText
 10
7.284999999999986
 20
50.5
 30
0.0
 40
0.5
  1
112.0
100
AcDbAttributeDefinition
  3

  2
B
 70
     8
280
     0
  0
ATTDEF
  5
167
330
157
100
AcDbEntity
  8
AM_6
100
AcDbText
 10
7.284999999999986
 20
50.0
 30
0.0
 40
0.5
  1
45.7
100
AcDbAttributeDefinition
  3

  2
C
 70
     8
280
     0
  0
ATTDEF
  5
168
330
157
100
AcDbEntity
  8
AM_6
100
AcDbText
 10
7.284999999999986
 20
49.5
 30
0.0
 40
0.5
  1
89.7
100
AcDbAttributeDefinition
  3

  2
D
 70
     8
280
     0
  0
ATTDEF
  5
169
330
157
100
AcDbEntity
  8
AM_6
100
AcDbText
 10
7.284999999999986
 20
49.0
 30
0.0
 40
0.5
  1
3.6
100
AcDbAttributeDefinition
  3

  2
E
 70
     8
280
     0
  0
ATTDEF
  5
16A
330
157
100
AcDbEntity
  8
AM_6
100
AcDbText
 10
7.284999999999986
 20
48.5
 30
0.0
 40
0.5
  1
M10
100
AcDbAttributeDefinition
  3

  2
F
 70
     8
280
     0
  0
ATTDEF
  5
16B
330
157
100
AcDbEntity
  8
AM_6
100
AcDbText
 10
7.284999999999986
 20
48.0
 30
0.0
 40
0.5
  1
42.1
100
AcDbAttributeDefinition
  3

  2
G
 70
     8
280
     0
  0
ATTDEF
  5
16C
330
157
100
AcDbEntity
  8
AM_6
100
AcDbText
 10
7.284999999999986
 20
47.5
 30
0.0
 40
0.5
  1
12.7
100
AcDbAttributeDefinition
  3

  2
H
 70
     8
280
     0
  0
ATTDEF
  5
16D
330
157
100
AcDbEntity
  8
AM_6
100
AcDbText
 10
7.284999999999986
 20
47.0
 30
0.0
 40
0.5
  1
17.3
100
AcDbAttributeDefinition
  3

  2
J
 70
     8
280
     0
  0
ATTDEF
  5
16E
330
157
100
AcDbEntity
  8
AM_6
100
AcDbText
 10
7.284999999999986
 20
46.5
 30
0.0
 40
0.5
  1
54.99/54.94
100
AcDbAttributeDefinition
  3

  2
K
 70
     8
280
     0
  0
ATTDEF
  5
16F
330
157
100
AcDbEntity
  8
AM_6
100
AcDbText
 10
7.284999999999986
 20
46.0
 30
0.0
 40
0.5
  1
54.990
100
AcDbAttributeDefinition
  3

  2
K1
 70
     8
280
     0
  0
ATTDEF
  5
170
330
157
100
AcDbEntity
  8
AM_6
100
AcDbText
 10
7.284999999999986
 20
45.5
 30
0.0
 40
0.5
  1
33.3
100
AcDbAttributeDefinition
  3

  2
L
 70
     8
280
     0
  0
ATTDEF
  5
171
330
157
100
AcDbEntity
  8
AM_6
100
AcDbText
 10
7.284999999999986
 20
45.0
 30
0.0
 40
0.5
  1
60.5
100
AcDbAttributeDefinition
  3

  2
M
 70
     8
280
     0
  0
ATTDEF
  5
172
330
157
100
AcDbEntity
  8
AM_6
100
AcDbText
 10
7.284999999999986
 20
44.5
 30
0.0
 40
0.5
  1
38.1
100
AcDbAttributeDefinition
  3

  2
N
 70
     8
280
     0
  0
ATTDEF
  5
173
330
157
100
AcDbEntity
  8
AM_6
100
AcDbText
 10
7.284999999999986
 20
44.0
 30
0.0
 40
0.5
  1
1390
100
AcDbAttributeDefinition
  3

  2
CAPS
 70
     8
280
     0
  0
ATTDEF
  5
174
330
157
100
AcDbEntity
  8
AM_6
100
AcDbText
 10
7.284999999999986
 20
43.5
 30
0.0
 40
0.5
  1
2899
100
AcDbAttributeDefinition
  3

  2
CAPD
 70
     8
280
     0
  0
ATTDEF
  5
175
330
157
100
AcDbEntity
  8
AM_6
100
AcDbText
 10
7.284999999999986
 20
43.0
 30
0.0
 40
0.5
  1
baldor
100
AcDbAttributeDefinition
  3

  2
COMPANY
 70
     8
280
     0
  0
LINE
  5
176
330
157
100
AcDbEntity
  8
AM_9
100
AcDbLine
 10
-16.3
 20
39.85
 30
0.0
 11
-3.600000000000001
 21
39.85
 31
0.0
  0
LINE
  5
177
330
157
100
AcDbEntity
  8
AM_9
100
AcDbLine
 10
-3.600000000000001
 20
49.85
 30
0.0
 11
-16.3
 21
49.85
 31
0.0
  0
LINE
  5
178
330
157
100
AcDbEntity
  8
AM_9
100
AcDbLine
 10
-16.3
 20
-49.85
 30
0.0
 11
-3.600000000000001
 21
-49.85
 31
0.0
  0
LINE
  5
179
330
157
100
AcDbEntity
  8
AM_9
100
AcDbLine
 10
-3.600000000000001
 20
-39.85
 30
0.0
 11
-16.3
 21
-39.85
 31
0.0
  0
LINE
  5
17A
330
157
100
AcDbEntity
  8
AM_9
100
AcDbLine
 10
-22.72
 20
23.95824091669542
 30
0.0
 11
-6.045355992499291
 21
23.95824091669621
 31
0.0
  0
LINE
  5
17B
330
157
100
AcDbEntity
  8
AM_9
100
AcDbLine
 10
-22.72
 20
18.18657621090922
 30
0.0
 11
-6.045355992499966
 21
18.18657621090919
 31
0.0
  0
LINE
  5
17C
330
157
100
AcDbEntity
  8
AM_9
100
AcDbLine
 10
-6.045355992499966
 20
24.5
 30
0.0
 11
-22.72
 21
24.5
 31
0.0
  0
LINE
  5
17D
330
157
100
AcDbEntity
  8
AM_9
100
AcDbLine
 10
-28.4
 20
29.05868397469375
 30
0.0
 11
-16.3
 21
29.05868397469375
 31
0.0
  0
LINE
  5
17E
330
157
100
AcDbEntity
  8
AM_9
100
AcDbLine
 10
-28.4
 20
28.31473519890758
 30
0.0
 11
-16.3
 21
28.31473519890758
 31
0.0
  0
LINE
  5
17F
330
157
100
AcDbEntity
  8
AM_9
100
AcDbLine
 10
-16.3
 20
31.21801895133122
 30
0.0
 11
-15.03
 21
31.21801895133122
 31
0.0
  0
LINE
  5
180
330
157
100
AcDbEntity
  8
AM_9
100
AcDbLine
 10
-16.3
 20
25.29540299717203
 30
0.0
 11
-16.3
 21
38.35901494524843
 31
0.0
  0
LINE
  5
181
330
157
100
AcDbEntity
  8
AM_9
100
AcDbLine
 10
-22.72
 20
-24.5
 30
0.0
 11
-22.72
 21
-17.09570394912788
 31
0.0
  0
LINE
  5
182
330
157
100
AcDbEntity
  8
AM_9
100
AcDbLine
 10
-22.72
 20
-18.18657621090921
 30
0.0
 11
-6.045355992500117
 21
-18.18657621090899
 31
0.0
  0
LINE
  5
183
330
157
100
AcDbEntity
  8
AM_9
100
AcDbLine
 10
-22.72
 20
-23.95824091669542
 30
0.0
 11
-6.045355992499937
 21
-23.95824091669542
 31
0.0
  0
LINE
  5
184
330
157
100
AcDbEntity
  8
AM_9
100
AcDbLine
 10
-22.72
 20
-24.5
 30
0.0
 11
-6.045355992499937
 21
-24.5
 31
0.0
  0
LINE
  5
185
330
157
100
AcDbEntity
  8
AM_9
100
AcDbLine
 10
-3.599999999999998
 20
33.72438839098932
 30
0.0
 11
-15.03
 21
33.72438839098932
 31
0.0
  0
LINE
  5
186
330
157
100
AcDbEntity
  8
AM_9
100
AcDbLine
 10
-15.03
 20
12.88238573021182
 30
0.0
 11
-15.03
 21
38.35901494524843
 31
0.0
  0
LINE
  5
187
330
157
100
AcDbEntity
  8
AM_9
100
AcDbLine
 10
-22.72
 20
17.09570394912788
 30
0.0
 11
-22.72
 21
24.5
 31
0.0
  0
LINE
  5
188
330
157
100
AcDbEntity
  8
AM_9
100
AcDbLine
 10
-6.300000000000007
 20
22.8673686549141
 30
0.0
 11
-22.72
 21
22.8673686549141
 31
0.0
  0
LINE
  5
189
330
157
100
AcDbEntity
  8
AM_9
100
AcDbLine
 10
-22.72
 20
-17.09570394912788
 30
0.0
 11
-6.300000000000006
 21
-17.09570394912789
 31
0.0
  0
LINE
  5
18A
330
157
100
AcDbEntity
  8
AM_9
100
AcDbLine
 10
-6.300000000000007
 20
-22.8673686549141
 30
0.0
 11
-22.72
 21
-22.8673686549141
 31
0.0
  0
LINE
  5
18B
330
157
100
AcDbEntity
  8
AM_9
100
AcDbLine
 10
-22.72
 20
17.09570394912788
 30
0.0
 11
-6.300000000000008
 21
17.09570394912789
 31
0.0
  0
LINE
  5
18C
330
157
100
AcDbEntity
  8
AM_9
100
AcDbLine
 10
-28.4
 20
-23.5
 30
0.0
 11
-22.72
 21
-23.5
 31
0.0
  0
LINE
  5
18D
330
157
100
AcDbEntity
  8
AM_9
100
AcDbLine
 10
-22.72
 20
23.5
 30
0.0
 11
-28.4
 21
23.5
 31
0.0
  0
LWPOLYLINE
  5
18E
330
157
100
AcDbEntity
  8
AM_9
100
AcDbPolyline
 90
        5
 70
     0
 43
0.0
 10
-6.300000000000004
 20
23.23239619210886
 10
-6.299907010891689
 20
23.24729897661776
 10
-6.279864763499651
 20
23.45035418687234
 10
-6.22263036840527
 20
23.65297629687973
 10
-6.045355992499291
 20
23.95824091669621
  0
LINE
  5
18F
330
157
100
AcDbEntity
  8
AM_9
100
AcDbLine
 10
-6.045355992499966
 20
18.18657621090919
 30
0.0
 11
-6.045355992499966
 21
24.49999999999996
 31
0.0
  0
LWPOLYLINE
  5
190
330
157
100
AcDbEntity
  8
AM_9
100
AcDbPolyline
 90
        4
 70
     0
 43
0.0
 10
-6.045355992499966
 20
18.18657621090919
 10
-6.232791440981243
 20
17.85381287861855
 10
-6.299822028545663
 20
17.48134746714979
 10
-6.300000000000005
 20
17.46073148632265
  0
LWPOLYLINE
  5
191
330
157
100
AcDbEntity
  8
AM_9
100
AcDbPolyline
 90
        5
 70
     0
 43
0.0
 10
-6.300000000000004
 20
-23.23239619210886
 10
-6.299907010891689
 20
-23.24729897661775
 10
-6.279864763499651
 20
-23.45035418687234
 10
-6.22263036840527
 20
-23.65297629687973
 10
-6.045355992499937
 20
-23.95824091669542
  0
LWPOLYLINE
  5
192
330
157
100
AcDbEntity
  8
AM_9
100
AcDbPolyline
 90
        4
 70
     0
 43
0.0
 10
-6.045355992500117
 20
-18.18657621090899
 10
-6.232791440981243
 20
-17.85381287861855
 10
-6.299822028545661
 20
-17.48134746714979
 10
-6.300000000000003
 20
-17.46073148632265
  0
LINE
  5
193
330
157
100
AcDbEntity
  8
AM_9
100
AcDbLine
 10
-6.300000000000004
 20
23.23239619210886
 30
0.0
 11
-6.300000000000004
 21
-23.23239619210886
 31
0.0
  0
ARC
  5
194
330
157
100
AcDbEntity
  8
AM_9
100
AcDbCircle
 10
-5.300000000000008
 20
-23.83333333333334
 30
0.0
 40
0.9999999999999932
100
AcDbArc
 50
221.8103148957782
 51
270.0
  0
ARC
  5
195
330
157
100
AcDbEntity
  8
AM_9
100
AcDbCircle
 10
-5.300000000000016
 20
23.83333333333335
 30
0.0
 40
0.9999999999999822
100
AcDbArc
 50
90.0
 51
138.1896851042243
  0
LINE
  5
196
330
157
100
AcDbEntity
  8
AM_9
100
AcDbLine
 10
-6.045355992499937
 20
-24.49999999999999
 30
0.0
 11
-6.045355992500117
 21
-18.18657621090899
 31
0.0
  0
LINE
  5
197
330
157
100
AcDbEntity
  8
AM_9
100
AcDbLine
 10
-5.300000000000006
 20
-24.83333333333333
 30
0.0
 11
0.0
 21
-24.83333333333333
 31
0.0
  0
LINE
  5
198
330
157
100
AcDbEntity
  8
AM_9
100
AcDbLine
 10
0.0
 20
24.83333333333333
 30
0.0
 11
-5.300000000000006
 21
24.83333333333333
 31
0.0
  0
LINE
  5
199
330
157
100
AcDbEntity
  8
AM_9
100
AcDbLine
 10
-5.300000000000006
 20
24.83333333333333
 30
0.0
 11
-5.300000000000006
 21
-24.83333333333333
 31
0.0
  0
LINE
  5
19A
330
157
100
AcDbEntity
  8
AM_9
100
AcDbLine
 10
-17.90757978808258
 20
38.35901494524843
 30
0.0
 11
-22.75908687858409
 21
38.35901494524843
 31
0.0
  0
LINE
  5
19B
330
157
100
AcDbEntity
  8
AM_9
100
AcDbLine
 10
-15.03
 20
12.88238573021182
 30
0.0
 11
-3.600000000000002
 21
12.88238573021182
 31
0.0
  0
LINE
  5
19C
330
157
100
AcDbEntity
  8
AM_9
100
AcDbLine
 10
-28.4
 20
28.46464597947472
 30
0.0
 11
-16.3
 21
28.46464597947472
 31
0.0
  0
LINE
  5
19D
330
157
100
AcDbEntity
  8
AM_9
100
AcDbLine
 10
-15.03
 20
25.29540299717203
 30
0.0
 11
-16.3
 21
25.29540299717203
 31
0.0
  0
LINE
  5
19E
330
157
100
AcDbEntity
  8
AM_9
100
AcDbLine
 10
-16.3
 20
30.25000000000002
 30
0.0
 11
-28.4
 21
30.25000000000002
 31
0.0
  0
ELLIPSE
  5
19F
330
157
100
AcDbEntity
  8
AM_9
100
AcDbEllipse
 10
-20.33333333333325
 20
31.36480790919806
 30
0.0
 11
5.08000000000008
 21
0.0
 31
0.0
210
0.0
220
0.0
230
1.0
 40
0.7071067811865487
 41
2.476614203758781
 42
3.48516665388921
  0
ELLIPSE
  5
1A0
330
157
100
AcDbEntity
  8
AM_9
100
AcDbEllipse
 10
-20.33333333333333
 20
31.36480790919816
 30
0.0
 11
5.080000000000014
 21
0.0
 31
0.0
210
0.0
220
0.0
230
1.0
 40
0.7071067811865438
 41
1.708777428808538
 42
2.476614203758791
  0
LINE
  5
1A1
330
157
100
AcDbEntity
  8
AM_9
100
AcDbLine
 10
-15.25333333333333
 20
31.32888688471386
 30
0.0
 11
-15.25333333333333
 21
31.36480790919814
 31
0.0
  0
LINE
  5
1A2
330
157
100
AcDbEntity
  8
AM_9
100
AcDbLine
 10
-25.41333333333333
 20
31.36480790919814
 30
0.0
 11
-25.41333333333333
 21
31.32888688471386
 31
0.0
  0
ELLIPSE
  5
1A3
330
157
100
AcDbEntity
  8
AM_9
100
AcDbEllipse
 10
-20.33333333333313
 20
31.364807909198
 30
0.0
 11
5.079999999999796
 21
0.0
 31
0.0
210
0.0
220
0.0
230
1.0
 40
0.7071067811865435
 41
5.940868839103592
 42
7.991962735988158
  0
ELLIPSE
  5
1A4
330
157
100
AcDbEntity
  8
AM_9
100
AcDbEllipse
 10
-20.33333333333332
 20
31.36480790919817
 30
0.0
 11
5.079999999999988
 21
0.0
 31
0.0
210
0.0
220
0.0
230
1.0
 40
0.7071067811865531
 41
4.914864992287614
 42
5.580926148833097
  0
ELLIPSE
  5
1A5
330
157
100
AcDbEntity
  8
AM_9
100
AcDbEllipse
 10
-20.33333333333333
 20
31.36480790919813
 30
0.0
 11
5.079999999999995
 21
0.0
 31
0.0
210
0.0
220
0.0
230
1.0
 40
0.7071067811865445
 41
3.843534195210715
 42
4.522826109951653
  0
ELLIPSE
  5
1A6
330
157
100
AcDbEntity
  8
AM_9
100
AcDbEllipse
 10
-20.33333333333306
 20
31.32888688471381
 30
0.0
 11
5.080000000000283
 21
0.0
 31
0.0
210
0.0
220
0.0
230
1.0
 40
0.7071067811865485
 41
2.492660139869353
 42
3.459482591195939
  0
ELLIPSE
  5
1A7
330
157
100
AcDbEntity
  8
AM_9
100
AcDbEllipse
 10
-20.33333333333331
 20
31.32888688471387
 30
0.0
 11
5.080000000000023
 21
0.0
 31
0.0
210
0.0
220
0.0
230
1.0
 40
0.7071067811865419
 41
1.648168736343834
 42
2.492660139869332
  0
ELLIPSE
  5
1A8
330
157
100
AcDbEntity
  8
AM_9
100
AcDbEllipse
 10
-20.33333333333332
 20
31.32888688471274
 30
0.0
 11
5.080000000002158
 21
0.0
 31
0.0
210
0.0
220
0.0
230
1.0
 40
0.7071067811864671
 41
0.6476877912796768
 42
1.6481687363438
  0
ELLIPSE
  5
1A9
330
157
100
AcDbEntity
  8
AM_9
100
AcDbEllipse
 10
-20.33333333333334
 20
31.32888688471359
 30
0.0
 11
5.080000000000005
 21
0.0
 31
0.0
210
0.0
220
0.0
230
1.0
 40
0.7071067811865738
 41
5.964990481864358
 42
6.930873098458999
  0
ELLIPSE
  5
1AA
330
157
100
AcDbEntity
  8
AM_9
100
AcDbEllipse
 10
-20.33333333333334
 20
31.3288868847138
 30
0.0
 11
5.079999999999975
 21
0.0
 31
0.0
210
0.0
220
0.0
230
1.0
 40
0.7071067811865402
 41
3.882689219422787
 42
4.462554527798276
  0
ELLIPSE
  5
1AB
330
157
100
AcDbEntity
  8
AM_9
100
AcDbEllipse
 10
-20.33333333333339
 20
31.32888688471402
 30
0.0
 11
5.080000000000119
 21
0.0
 31
0.0
210
0.0
220
0.0
230
1.0
 40
0.7071067811865628
 41
4.965043391728674
 42
5.541308136278252
  0
LINE
  5
1AC
330
157
100
AcDbEntity
  8
AM_9
100
AcDbLine
 10
-23.22378017059057
 20
37.61506616946227
 30
0.0
 11
-17.44288649607609
 21
37.61506616946227
 31
0.0
  0
LINE
  5
1AF
330
157
100
AcDbEntity
  8
AM_7
100
AcDbLine
 10
0.8150000000000001
 20
44.85
 30
0.0
 11
-17.115
 21
44.85
 31
0.0
  0
LINE
  5
1B0
330
157
100
AcDbEntity
  8
AM_7
100
AcDbLine
 10
0.8150000000000001
 20
-44.85
 30
0.0
 11
-17.115
 21
-44.85
 31
0.0
  0
LINE
  5
1B1
330
157
100
AcDbEntity
  8
AM_7
100
AcDbLine
 10
-47.985
 20
0.0
 30
0.0
 11
2.284999999999986
 21
0.0
 31
0.0
  0
LINE
  5
1B2
330
157
100
AcDbEntity
  8
AM_4
100
AcDbLine
 10
-16.3
 20
-56.00000000000001
 30
0.0
 11
-3.600000000000001
 21
-56.00000000000001
 31
0.0
  0
LINE
  5
1B3
330
157
100
AcDbEntity
  8
AM_4
100
AcDbLine
 10
-16.3
 20
-56.00000000000001
 30
0.0
 11
-16.3
 21
-25.29540299717204
 31
0.0
  0
LINE
  5
1B4
330
157
100
AcDbEntity
  8
AM_4
100
AcDbLine
 10
-16.3
 20
38.35901494524843
 30
0.0
 11
-16.3
 21
56.0
 31
0.0
  0
LINE
  5
1B5
330
157
100
AcDbEntity
  8
AM_4
100
AcDbLine
 10
-3.600000000000001
 20
56.0
 30
0.0
 11
-16.3
 21
56.0
 31
0.0
  0
LINE
  5
1B6
330
157
100
AcDbEntity
  8
AM_4
100
AcDbLine
 10
-15.03
 20
47.64866427185268
 30
0.0
 11
-16.3
 21
47.64866427185268
 31
0.0
  0
LINE
  5
1B7
330
157
100
AcDbEntity
  8
AM_4
100
AcDbLine
 10
-15.03
 20
-47.64866427185267
 30
0.0
 11
-16.3
 21
-47.64866427185267
 31
0.0
  0
LINE
  5
1B8
330
157
100
AcDbEntity
  8
AM_4
100
AcDbLine
 10
-15.03
 20
49.59838350055741
 30
0.0
 11
-3.600000000000001
 21
49.59838350055741
 31
0.0
  0
LINE
  5
1B9
330
157
100
AcDbEntity
  8
AM_4
100
AcDbLine
 10
-15.03
 20
38.35901494524843
 30
0.0
 11
-15.03
 21
49.59838350055741
 31
0.0
  0
LINE
  5
1BA
330
157
100
AcDbEntity
  8
AM_4
100
AcDbLine
 10
-22.75908687858409
 20
38.35901494524843
 30
0.0
 11
-28.4
 21
38.35901494524843
 31
0.0
  0
LINE
  5
1BB
330
157
100
AcDbEntity
  8
AM_4
100
AcDbLine
 10
-3.599999999999998
 20
38.35901494524843
 30
0.0
 11
-17.90757978808258
 21
38.35901494524843
 31
0.0
  0
LINE
  5
1BC
330
157
100
AcDbEntity
  8
AM_4
100
AcDbLine
 10
-15.03
 20
-49.59838350055742
 30
0.0
 11
-15.03
 21
-12.88238573021181
 31
0.0
  0
LINE
  5
1BD
330
157
100
AcDbEntity
  8
AM_4
100
AcDbLine
 10
-15.03
 20
-49.59838350055742
 30
0.0
 11
-3.600000000000001
 21
-49.59838350055742
 31
0.0
  0
LINE
  5
1BE
330
157
100
AcDbEntity
  8
AM_4
100
AcDbLine
 10
-2.4
 20
-27.495
 30
0.0
 11
0.0
 21
-27.495
 31
0.0
  0
LINE
  5
1BF
330
157
100
AcDbEntity
  8
AM_4
100
AcDbLine
 10
0.0
 20
27.495
 30
0.0
 11
-2.4
 21
27.495
 31
0.0
  0
LINE
  5
1C0
330
157
100
AcDbEntity
  8
AM_4
100
AcDbLine
 10
0.0
 20
27.495
 30
0.0
 11
0.0
 21
-27.495
 31
0.0
  0
ARC
  5
1C1
330
157
100
AcDbEntity
  8
AM_4
100
AcDbCircle
 10
-2.399999999999991
 20
-28.69500000000001
 30
0.0
 40
1.20000000000001
100
AcDbArc
 50
90.0
 51
180.0
  0
ARC
  5
1C2
330
157
100
AcDbEntity
  8
AM_4
100
AcDbCircle
 10
-2.399999999999994
 20
28.69500000000001
 30
0.0
 40
1.200000000000006
100
AcDbArc
 50
180.0
 51
270.0
  0
LINE
  5
1C3
330
157
100
AcDbEntity
  8
AM_4
100
AcDbLine
 10
-2.4
 20
27.495
 30
0.0
 11
-2.4
 21
-27.495
 31
0.0
  0
LINE
  5
1C4
330
157
100
AcDbEntity
  8
AM_4
100
AcDbLine
 10
-3.600000000000001
 20
-56.00000000000001
 30
0.0
 11
-3.600000000000001
 21
56.0
 31
0.0
  0
LINE
  5
1C5
330
157
100
AcDbEntity
  8
AM_4
100
AcDbLine
 10
-15.03
 20
-25.29540299717203
 30
0.0
 11
-16.3
 21
-25.29540299717204
 31
0.0
  0
LINE
  5
1C6
330
157
100
AcDbEntity
  8
AM_4
100
AcDbLine
 10
-15.03
 20
-12.88238573021181
 30
0.0
 11
-3.599999999999999
 21
-12.88238573021182
 31
0.0
  0
LINE
  5
1C7
330
157
100
AcDbEntity
  8
AM_4
100
AcDbLine
 10
-28.4
 20
10.23847803933522
 30
0.0
 11
-3.599999999999997
 21
10.23847803933522
 31
0.0
  0
LINE
  5
1C8
330
157
100
AcDbEntity
  8
AM_4
100
AcDbLine
 10
-28.4
 20
-30.25000000000002
 30
0.0
 11
-16.3
 21
-30.25000000000002
 31
0.0
  0
LINE
  5
1C9
330
157
100
AcDbEntity
  8
AM_4
100
AcDbLine
 10
-28.4
 20
-30.25000000000002
 30
0.0
 11
-28.4
 21
38.35901494524843
 31
0.0
  0
ELLIPSE
  5
1CA
330
157
100
AcDbEntity
  8
AM_4
100
AcDbEllipse
 10
-20.33333333333319
 20
31.36480790919808
 30
0.0
 11
5.079999999999833
 21
0.0
 31
0.0
210
0.0
220
0.0
230
1.0
 40
0.7071067811865474
 41
5.580926148833097
 42
5.940868839103578
  0
ELLIPSE
  5
1CB
330
157
100
AcDbEntity
  8
AM_4
100
AcDbEllipse
 10
-20.33333333333334
 20
31.36480790919818
 30
0.0
 11
5.079999999999984
 21
0.0
 31
0.0
210
0.0
220
0.0
230
1.0
 40
0.7071067811865565
 41
4.522826109951655
 42
4.91486499228762
  0
ELLIPSE
  5
1CC
330
157
100
AcDbEntity
  8
AM_4
100
AcDbEllipse
 10
-20.33333333333314
 20
31.36480790919827
 30
0.0
 11
5.080000000000211
 21
0.0
 31
0.0
210
0.0
220
0.0
230
1.0
 40
0.7071067811865541
 41
3.485166653889255
 42
3.843534195210714
  0
ELLIPSE
  5
1CD
330
157
100
AcDbEntity
  8
AM_4
100
AcDbEllipse
 10
-20.33333333333326
 20
31.32888688471424
 30
0.0
 11
5.080000000000537
 21
0.0
 31
0.0
210
0.0
220
0.0
230
1.0
 40
0.7071067811865481
 41
4.462554527798289
 42
4.965043391728626
  0
ELLIPSE
  5
1CE
330
157
100
AcDbEntity
  8
AM_4
100
AcDbEllipse
 10
-20.33333333333343
 20
31.32888688471371
 30
0.0
 11
5.079999999999888
 21
0.0
 31
0.0
210
0.0
220
0.0
230
1.0
 40
0.7071067811865355
 41
3.459482591195941
 42
3.882689219422784
  0
ELLIPSE
  5
1CF
330
157
100
AcDbEntity
  8
AM_4
100
AcDbEllipse
 10
-20.33333333333344
 20
31.32888688471397
 30
0.0
 11
5.080000000000121
 21
0.0
 31
0.0
210
0.0
220
0.0
230
1.0
 40
0.7071067811865556
 41
5.541308136278264
 42
5.964990481864258
  0
LINE
  5
1D0
330
157
100
AcDbEntity
  8
AM_4
100
AcDbLine
 10
-17.44288649607609
 20
37.61506616946227
 30
0.0
 11
-3.599999999999997
 21
37.61506616946227
 31
0.0
  0
LINE
  5
1D1
330
157
100
AcDbEntity
  8
AM_4
100
AcDbLine
 10
-28.4
 20
37.61506616946227
 30
0.0
 11
-23.22378017059057
 21
37.61506616946227
 31
0.0
  0
LINE
  5
1D2
330
157
100
AcDbEntity
  8
AM_4
100
AcDbLine
 10
-28.4
 20
12.89422295676927
 30
0.0
 11
-3.599999999999997
 21
12.89422295676927
 31
0.0
  0
LINE
  5
1D3
330
157
100
AcDbEntity
  8
AM_4
100
AcDbLine
 10
-28.4
 20
21.45060515153778
 30
0.0
 11
-3.599999999999997
 21
21.45060515153779
 31
0.0
  0
LINE
  5
1D4
330
157
100
AcDbEntity
  8
AM_4
100
AcDbLine
 10
-28.4
 20
25.04270759996545
 30
0.0
 11
-3.599999999999997
 21
25.04270759996545
 31
0.0
  0
ENDBLK
  5
15A
330
157
100
AcDbEntity
  8
0
100
AcDbBlockEnd
  0
ENDSEC
  0
SECTION
  2
ENTITIES
  0
INSERT
  5
6F
330
1F
100
AcDbEntity
  8
0
100
AcDbBlockReference
  2
1_130831_2
 10
0.0
 20
0.0
 30
0.0
  0
POINT
  5
1D6
330
1F
100
AcDbEntity
  8
ConnectionPoints
100
AcDbPoint
 10
-19.0
 20
0.0
 30
0.0000000000000012
  0
POINT
  5
1D7
330
1F
100
AcDbEntity
  8
ConnectionPoints
100
AcDbPoint
 10
-45.7
 20
0.0
 30
0.0000000000000028
  0
POINT
  5
1D8
330
1F
100
AcDbEntity
  8
ConnectionPoints
100
AcDbPoint
 10
-20.33333333333334
 20
27.68718650071171
 30
27.68718650071173
  0
POINT
  5
1D9
330
1F
100
AcDbEntity
  8
ConnectionPoints
100
AcDbPoint
 10
-20.33333333333333
 20
31.36480790919813
 30
31.36480790919813
  0
POINT
  5
1DA
330
1F
100
AcDbEntity
  8
ConnectionPoints
100
AcDbPoint
 10
-45.7
 20
0.0
 30
0.0000000000000028
  0
POINT
  5
1DB
330
1F
100
AcDbEntity
  8
ConnectionPoints
100
AcDbPoint
 10
0.0
 20
0.0
 30
0.0
  0
POINT
  5
1DC
330
1F
100
AcDbEntity
  8
ConnectionPoints
100
AcDbPoint
 10
-1.98
 20
0.0
 30
0.0000000000000001
  0
ENDSEC
  0
SECTION
  2
OBJECTS
  0
DICTIONARY
  5
C
330
0
100
AcDbDictionary
281
     1
  3
ACAD_DETAILVIEWSTYLE
350
1E4
  3
ACAD_GROUP
350
D
  3
ACAD_LAYOUT
350
1A
  3
ACAD_MATERIAL
350
43
  3
ACAD_MLEADERSTYLE
350
6B
  3
ACAD_MLINESTYLE
350
17
  3
ACAD_PLOTSETTINGS
350
19
  3
ACAD_PLOTSTYLENAME
350
E
  3
ACAD_SCALELIST
350
47
  3
ACAD_SECTIONVIEWSTYLE
350
1E5
  3
ACAD_TABLESTYLE
350
69
  3
ACAD_VISUALSTYLE
350
2A
  3
ACDB_RECOMPOSE_DATA
350
1E1
  3
AcDbVariableDictionary
350
1DD
  0
SUN
  5
6D
330
29
100
AcDbSun
 90
        1
290
     0
 63
     7
421
 16777215
 40
1.0
291
     1
 91
  2455826
 92
 54000000
292
     0
 70
     2
 71
   256
280
     1
  0
DICTIONARY
  5
1E4
102
{ACAD_REACTORS
330
C
102
}
330
C
100
AcDbDictionary
281
     1
  0
DICTIONARY
  5
D
102
{ACAD_REACTORS
330
C
102
}
330
C
100
AcDbDictionary
281
     1
  0
DICTIONARY
  5
1A
102
{ACAD_REACTORS
330
C
102
}
330
C
100
AcDbDictionary
281
     1
  3
Layout1
350
1E
  3
Layout2
350
26
  3
Model
350
22
  0
DICTIONARY
  5
43
102
{ACAD_REACTORS
330
C
102
}
330
C
100
AcDbDictionary
281
     1
  3
ByBlock
350
45
  3
ByLayer
350
44
  3
Global
350
46
  0
DICTIONARY
  5
6B
102
{ACAD_REACTORS
330
C
102
}
330
C
100
AcDbDictionary
281
     1
  3
Standard
350
6C
  0
DICTIONARY
  5
17
102
{ACAD_REACTORS
330
C
102
}
330
C
100
AcDbDictionary
281
     1
  3
Standard
350
18
  0
DICTIONARY
  5
19
102
{ACAD_REACTORS
330
C
102
}
330
C
100
AcDbDictionary
281
     1
  0
ACDBDICTIONARYWDFLT
  5
E
102
{ACAD_REACTORS
330
C
102
}
330
C
100
AcDbDictionary
281
     1
  3
Normal
350
F
100
AcDbDictionaryWithDefault
340
F
  0
DICTIONARY
  5
47
102
{ACAD_REACTORS
330
C
102
}
330
C
100
AcDbDictionary
281
     1
  3
A0
350
48
  3
A1
350
49
  3
A2
350
4A
  3
A3
350
4B
  3
A4
350
4C
  3
A5
350
4D
  3
A6
350
4E
  3
A7
350
4F
  3
A8
350
50
  3
A9
350
51
  3
B0
350
52
  3
B1
350
53
  3
B2
350
54
  3
B3
350
55
  3
B4
350
56
  3
B5
350
57
  3
B6
350
58
  3
B7
350
59
  3
B8
350
5A
  3
B9
350
5B
  3
C0
350
5C
  3
C1
350
5D
  3
C2
350
5E
  3
C3
350
5F
  3
C4
350
60
  3
C5
350
61
  3
C6
350
62
  3
C7
350
63
  3
C8
350
64
  3
C9
350
65
  3
D0
350
66
  3
D1
350
67
  3
D2
350
68
  0
DICTIONARY
  5
1E5
102
{ACAD_REACTORS
330
C
102
}
330
C
100
AcDbDictionary
281
     1
  0
DICTIONARY
  5
69
102
{ACAD_REACTORS
330
C
102
}
330
C
100
AcDbDictionary
281
     1
  3
Standard
350
6A
  0
DICTIONARY
  5
2A
102
{ACAD_REACTORS
330
C
102
}
330
C
100
AcDbDictionary
281
     1
  3
2dWireframe
350
2F
  3
Basic
350
32
  3
Brighten
350
36
  3
ColorChange
350
3A
  3
Conceptual
350
34
  3
Dim
350
35
  3
EdgeColorOff
350
3D
  3
Facepattern
350
39
  3
Flat
350
2B
  3
FlatWithEdges
350
2C
  3
Gouraud
350
2D
  3
GouraudWithEdges
350
2E
  3
Hidden
350
31
  3
JitterOff
350
3B
  3
Linepattern
350
38
  3
OverhangOff
350
3C
  3
Realistic
350
33
  3
Shaded
350
42
  3
Shaded with edges
350
41
  3
Shades of Gray
350
3E
  3
Sketchy
350
3F
  3
Thicken
350
37
  3
Wireframe
350
30
  3
X-Ray
350
40
  0
XRECORD
  5
1E1
102
{ACAD_REACTORS
330
C
102
}
330
C
100
AcDbXrecord
280
     1
 90
        1
330
6A
  0
DICTIONARY
  5
1DD
102
{ACAD_REACTORS
330
C
102
}
330
C
100
AcDbDictionary
281
     1
  3
CANNOSCALE
350
1DE
  3
CMLEADERSTYLE
350
1E3
  3
CTABLESTYLE
350
1E2
  0
LAYOUT
  5
1E
102
{ACAD_REACTORS
330
1A
102
}
330
1A
100
AcDbPlotSettings
  1

  2
none_device
  4

  6

 40
0.0
 41
0.0
 42
0.0
 43
0.0
 44
0.0
 45
0.0
 46
0.0
 47
0.0
 48
0.0
 49
0.0
140
0.0
141
0.0
142
1.0
143
1.0
 70
   688
 72
     1
 73
     0
 74
     5
  7

 75
    16
 76
     0
 77
     2
 78
   300
147
1.0
148
0.0
149
0.0
100
AcDbLayout
  1
Layout1
 70
     1
 71
     1
 10
0.0
 20
0.0
 11
420.0
 21
297.0
 12
0.0
 22
0.0
 32
0.0
 14
1.000000000000000E+20
 24
1.000000000000000E+20
 34
1.000000000000000E+20
 15
-1.000000000000000E+20
 25
-1.000000000000000E+20
 35
-1.000000000000000E+20
146
0.0
 13
0.0
 23
0.0
 33
0.0
 16
1.0
 26
0.0
 36
0.0
 17
0.0
 27
1.0
 37
0.0
 76
     0
330
1B
  0
LAYOUT
  5
26
102
{ACAD_REACTORS
330
1A
102
}
330
1A
100
AcDbPlotSettings
  1

  2
none_device
  4

  6

 40
0.0
 41
0.0
 42
0.0
 43
0.0
 44
0.0
 45
0.0
 46
0.0
 47
0.0
 48
0.0
 49
0.0
140
0.0
141
0.0
142
1.0
143
1.0
 70
   688
 72
     1
 73
     0
 74
     5
  7

 75
    16
 76
     0
 77
     2
 78
   300
147
1.0
148
0.0
149
0.0
100
AcDbLayout
  1
Layout2
 70
     1
 71
     2
 10
0.0
 20
0.0
 11
0.0
 21
0.0
 12
0.0
 22
0.0
 32
0.0
 14
0.0
 24
0.0
 34
0.0
 15
0.0
 25
0.0
 35
0.0
146
0.0
 13
0.0
 23
0.0
 33
0.0
 16
1.0
 26
0.0
 36
0.0
 17
0.0
 27
1.0
 37
0.0
 76
     0
330
23
  0
LAYOUT
  5
22
102
{ACAD_REACTORS
330
1A
102
}
330
1A
100
AcDbPlotSettings
  1

  2
none_device
  4
Letter_(8.50_x_11.00_Inches)
  6

 40
6.35
 41
6.35
 42
6.35000508
 43
6.35000508
 44
215.9
 45
279.4
 46
0.0
 47
0.0
 48
0.0
 49
0.0
140
0.0
141
0.0
142
1.0
143
1.0
 70
  1712
 72
     1
 73
     0
 74
     0
  7

 75
     0
 76
     0
 77
     2
 78
   300
147
1.0
148
0.0
149
0.0
100
AcDbLayout
  1
Model
 70
     1
 71
     0
 10
0.0
 20
0.0
 11
420.0
 21
297.0
 12
0.0
 22
0.0
 32
0.0
 14
1.000000000000000E+20
 24
1.000000000000000E+20
 34
1.000000000000000E+20
 15
-1.000000000000000E+20
 25
-1.000000000000000E+20
 35
-1.000000000000000E+20
146
0.0
 13
0.0
 23
0.0
 33
0.0
 16
1.0
 26
0.0
 36
0.0
 17
0.0
 27
1.0
 37
0.0
 76
     0
330
1F
331
29
  0
MATERIAL
  5
45
102
{ACAD_REACTORS
330
43
102
}
330
43
100
AcDbMaterial
  1
ByBlock
 72
     1
 94
      127
  0
MATERIAL
  5
44
102
{ACAD_REACTORS
330
43
102
}
330
43
100
AcDbMaterial
  1
ByLayer
 72
     1
 94
      127
  0
MATERIAL
  5
46
102
{ACAD_REACTORS
330
43
102
}
330
43
100
AcDbMaterial
  1
Global
 72
     1
 94
      127
  0
MLEADERSTYLE
  5
6C
102
{ACAD_REACTORS
330
6B
102
}
330
6B
100
AcDbMLeaderStyle
179
     2
170
     2
171
     1
172
     0
 90
        2
 40
0.0
 41
0.0
173
     1
 91
-1056964608
340
14
 92
       -2
290
     1
 42
2.0
291
     1
 43
8.0
  3
Standard
341
0
 44
4.0
300

342
11
174
     1
178
     6
175
     1
176
     0
 93
-1056964608
 45
4.0
292
     0
297
     0
 46
4.0
343
0
 94
-1056964608
 47
1.0
 49
1.0
140
1.0
293
     1
141
0.0
294
     1
177
     0
142
1.0
295
     0
296
     0
143
3.75
271
     0
272
     9
273
     9
298
     0
  0
MLINESTYLE
  5
18
102
{ACAD_REACTORS
330
17
102
}
330
17
100
AcDbMlineStyle
  2
Standard
 70
     0
  3

 62
   256
 51
90.0
 52
90.0
 71
     2
 49
0.5
 62
   256
  6
BYLAYER
 49
-0.5
 62
   256
  6
BYLAYER
  0
ACDBPLACEHOLDER
  5
F
102
{ACAD_REACTORS
330
E
102
}
330
E
  0
SCALE
  5
48
102
{ACAD_REACTORS
330
47
102
}
330
47
100
AcDbScale
 70
     0
300
1:1
140
1.0
141
1.0
290
     1
  0
SCALE
  5
49
102
{ACAD_REACTORS
330
47
102
}
330
47
100
AcDbScale
 70
     0
300
1:2
140
1.0
141
2.0
290
     0
  0
SCALE
  5
4A
102
{ACAD_REACTORS
330
47
102
}
330
47
100
AcDbScale
 70
     0
300
1:4
140
1.0
141
4.0
290
     0
  0
SCALE
  5
4B
102
{ACAD_REACTORS
330
47
102
}
330
47
100
AcDbScale
 70
     0
300
1:5
140
1.0
141
5.0
290
     0
  0
SCALE
  5
4C
102
{ACAD_REACTORS
330
47
102
}
330
47
100
AcDbScale
 70
     0
300
1:8
140
1.0
141
8.0
290
     0
  0
SCALE
  5
4D
102
{ACAD_REACTORS
330
47
102
}
330
47
100
AcDbScale
 70
     0
300
1:10
140
1.0
141
10.0
290
     0
  0
SCALE
  5
4E
102
{ACAD_REACTORS
330
47
102
}
330
47
100
AcDbScale
 70
     0
300
1:16
140
1.0
141
16.0
290
     0
  0
SCALE
  5
4F
102
{ACAD_REACTORS
330
47
102
}
330
47
100
AcDbScale
 70
     0
300
1:20
140
1.0
141
20.0
290
     0
  0
SCALE
  5
50
102
{ACAD_REACTORS
330
47
102
}
330
47
100
AcDbScale
 70
     0
300
1:30
140
1.0
141
30.0
290
     0
  0
SCALE
  5
51
102
{ACAD_REACTORS
330
47
102
}
330
47
100
AcDbScale
 70
     0
300
1:40
140
1.0
141
40.0
290
     0
  0
SCALE
  5
52
102
{ACAD_REACTORS
330
47
102
}
330
47
100
AcDbScale
 70
     0
300
1:50
140
1.0
141
50.0
290
     0
  0
SCALE
  5
53
102
{ACAD_REACTORS
330
47
102
}
330
47
100
AcDbScale
 70
     0
300
1:100
140
1.0
141
100.0
290
     0
  0
SCALE
  5
54
102
{ACAD_REACTORS
330
47
102
}
330
47
100
AcDbScale
 70
     0
300
2:1
140
2.0
141
1.0
290
     0
  0
SCALE
  5
55
102
{ACAD_REACTORS
330
47
102
}
330
47
100
AcDbScale
 70
     0
300
4:1
140
4.0
141
1.0
290
     0
  0
SCALE
  5
56
102
{ACAD_REACTORS
330
47
102
}
330
47
100
AcDbScale
 70
     0
300
8:1
140
8.0
141
1.0
290
     0
  0
SCALE
  5
57
102
{ACAD_REACTORS
330
47
102
}
330
47
100
AcDbScale
 70
     0
300
10:1
140
10.0
141
1.0
290
     0
  0
SCALE
  5
58
102
{ACAD_REACTORS
330
47
102
}
330
47
100
AcDbScale
 70
     0
300
100:1
140
100.0
141
1.0
290
     0
  0
SCALE
  5
59
102
{ACAD_REACTORS
330
47
102
}
330
47
100
AcDbScale
 70
     0
300
1/128" = 1'-0"
140
0.0078125
141
12.0
290
     0
  0
SCALE
  5
5A
102
{ACAD_REACTORS
330
47
102
}
330
47
100
AcDbScale
 70
     0
300
1/64" = 1'-0"
140
0.015625
141
12.0
290
     0
  0
SCALE
  5
5B
102
{ACAD_REACTORS
330
47
102
}
330
47
100
AcDbScale
 70
     0
300
1/32" = 1'-0"
140
0.03125
141
12.0
290
     0
  0
SCALE
  5
5C
102
{ACAD_REACTORS
330
47
102
}
330
47
100
AcDbScale
 70
     0
300
1/16" = 1'-0"
140
0.0625
141
12.0
290
     0
  0
SCALE
  5
5D
102
{ACAD_REACTORS
330
47
102
}
330
47
100
AcDbScale
 70
     0
300
3/32" = 1'-0"
140
0.09375
141
12.0
290
     0
  0
SCALE
  5
5E
102
{ACAD_REACTORS
330
47
102
}
330
47
100
AcDbScale
 70
     0
300
1/8" = 1'-0"
140
0.125
141
12.0
290
     0
  0
SCALE
  5
5F
102
{ACAD_REACTORS
330
47
102
}
330
47
100
AcDbScale
 70
     0
300
3/16" = 1'-0"
140
0.1875
141
12.0
290
     0
  0
SCALE
  5
60
102
{ACAD_REACTORS
330
47
102
}
330
47
100
AcDbScale
 70
     0
300
1/4" = 1'-0"
140
0.25
141
12.0
290
     0
  0
SCALE
  5
61
102
{ACAD_REACTORS
330
47
102
}
330
47
100
AcDbScale
 70
     0
300
3/8" = 1'-0"
140
0.375
141
12.0
290
     0
  0
SCALE
  5
62
102
{ACAD_REACTORS
330
47
102
}
330
47
100
AcDbScale
 70
     0
300
1/2" = 1'-0"
140
0.5
141
12.0
290
     0
  0
SCALE
  5
63
102
{ACAD_REACTORS
330
47
102
}
330
47
100
AcDbScale
 70
     0
300
3/4" = 1'-0"
140
0.75
141
12.0
290
     0
  0
SCALE
  5
64
102
{ACAD_REACTORS
330
47
102
}
330
47
100
AcDbScale
 70
     0
300
1" = 1'-0"
140
1.0
141
12.0
290
     0
  0
SCALE
  5
65
102
{ACAD_REACTORS
330
47
102
}
330
47
100
AcDbScale
 70
     0
300
1-1/2" = 1'-0"
140
1.5
141
12.0
290
     0
  0
SCALE
  5
66
102
{ACAD_REACTORS
330
47
102
}
330
47
100
AcDbScale
 70
     0
300
3" = 1'-0"
140
3.0
141
12.0
290
     0
  0
SCALE
  5
67
102
{ACAD_REACTORS
330
47
102
}
330
47
100
AcDbScale
 70
     0
300
6" = 1'-0"
140
6.0
141
12.0
290
     0
  0
SCALE
  5
68
102
{ACAD_REACTORS
330
47
102
}
330
47
100
AcDbScale
 70
     0
300
1'-0" = 1'-0"
140
12.0
141
12.0
290
     0
  0
TABLESTYLE
  5
6A
102
{ACAD_REACTORS
330
69
102
}
102
{ACAD_XDICTIONARY
360
1DF
102
}
330
69
100
AcDbTableStyle
  3
Standard
 70
     0
 71
     0
 40
0.06
 41
0.06
280
     0
281
     0
  7
Standard
140
4.5
170
     2
 62
     0
 63
   257
283
     0
 90
        4
 91
        0
  1

274
    -2
284
     1
 64
     0
275
    -2
285
     1
 65
     0
276
    -2
286
     1
 66
     0
277
    -2
287
     1
 67
     0
278
    -2
288
     1
 68
     0
279
    -2
289
     1
 69
     0
  7
Standard
140
6.0
170
     5
 62
     0
 63
   257
283
     0
 90
        4
 91
        0
  1

274
    -2
284
     1
 64
     0
275
    -2
285
     1
 65
     0
276
    -2
286
     1
 66
     0
277
    -2
287
     1
 67
     0
278
    -2
288
     1
 68
     0
279
    -2
289
     1
 69
     0
  7
Standard
140
4.5
170
     5
 62
     0
 63
   257
283
     0
 90
        4
 91
        0
  1

274
    -2
284
     1
 64
     0
275
    -2
285
     1
 65
     0
276
    -2
286
     1
 66
     0
277
    -2
287
     1
 67
     0
278
    -2
288
     1
 68
     0
279
    -2
289
     1
 69
     0
  0
VISUALSTYLE
  5
2F
102
{ACAD_REACTORS
330
2A
102
}
330
2A
100
AcDbVisualStyle
  2
2dWireframe
 70
     4
177
     3
291
     0
 70
    58
 90
        0
176
     1
 90
        2
176
     1
 90
        0
176
     1
 90
        0
176
     1
 40
0.6
176
     1
 40
30.0
176
     1
 62
     7
420
 16777215
176
     1
 90
        1
176
     1
 90
        4
176
     1
 62
     7
176
     1
 62
   257
176
     1
 90
        1
176
     1
 90
        1
176
     1
 40
1.0
176
     1
 90
        0
176
     1
 62
   257
176
     1
 40
1.0
176
     1
 90
        1
176
     1
 90
        6
176
     1
 90
        2
176
     1
 62
     7
176
     1
 90
        5
176
     1
 90
        0
176
     1
 90
        0
176
     1
290
     0
176
     1
 90
        1
176
     1
 40
0.0
176
     1
 90
        0
176
     1
290
     1
176
     1
290
     1
176
     1
290
     0
176
     1
290
     0
176
     1
290
     0
176
     1
290
     0
176
     1
290
     0
176
     1
290
     0
176
     1
290
     0
176
     1
 90
       50
176
     1
 40
0.0
176
     1
 40
1.0
176
     1
 90
        0
176
     1
 62
    18
420
        0
176
     1
 90
       50
176
     1
 90
        3
176
     1
 62
     5
420
      255
176
     1
290
     0
176
     1
 90
       50
176
     1
 90
       50
176
     1
 90
       50
176
     1
290
     0
176
     1
 90
       50
176
     1
 62
   256
176
     0
 40
1.0
176
     0
 90
        2
176
     1
  1
strokes_ogs.tif
176
     1
290
     0
176
     1
 40
1.0
176
     1
 40
1.0
176
     1
  0
VISUALSTYLE
  5
32
102
{ACAD_REACTORS
330
2A
102
}
330
2A
100
AcDbVisualStyle
  2
Basic
 70
     7
177
     3
291
     1
 70
    58
 90
        1
176
     1
 90
        0
176
     1
 90
        1
176
     1
 90
        0
176
     1
 40
0.6
176
     1
 40
30.0
176
     1
 62
     7
420
 16777215
176
     1
 90
        0
176
     1
 90
        4
176
     1
 62
     7
176
     1
 62
   257
176
     1
 90
        1
176
     1
 90
        1
176
     1
 40
1.0
176
     1
 90
        8
176
     1
 62
     7
176
     1
 40
1.0
176
     1
 90
        1
176
     1
 90
        6
176
     1
 90
        2
176
     1
 62
     7
176
     1
 90
        5
176
     1
 90
        0
176
     1
 90
        0
176
     1
290
     0
176
     1
 90
        1
176
     1
 40
0.0
176
     1
 90
        0
176
     1
290
     0
176
     1
290
     1
176
     1
290
     1
176
     1
290
     0
176
     1
290
     0
176
     1
290
     0
176
     1
290
     0
176
     1
290
     0
176
     1
290
     0
176
     1
 90
       50
176
     1
 40
0.0
176
     1
 40
1.0
176
     1
 90
        0
176
     1
 62
    18
420
        0
176
     1
 90
       50
176
     1
 90
        3
176
     1
 62
     5
420
      255
176
     1
290
     0
176
     1
 90
       50
176
     1
 90
       50
176
     1
 90
       50
176
     1
290
     0
176
     1
 90
       50
176
     1
 62
   256
176
     0
 40
1.0
176
     0
 90
        2
176
     1
  1
strokes_ogs.tif
176
     1
290
     0
176
     1
 40
1.0
176
     1
 40
1.0
176
     1
  0
VISUALSTYLE
  5
36
102
{ACAD_REACTORS
330
2A
102
}
330
2A
100
AcDbVisualStyle
  2
Brighten
 70
    12
177
     3
291
     1
 70
    58
 90
        2
176
     1
 90
        2
176
     1
 90
        0
176
     1
 90
        0
176
     1
 40
0.6
176
     1
 40
30.0
176
     1
 62
     7
420
 16777215
176
     1
 90
        1
176
     1
 90
        4
176
     1
 62
     7
176
     1
 62
   257
176
     1
 90
        1
176
     1
 90
        1
176
     1
 40
1.0
176
     1
 90
        8
176
     1
 62
     7
176
     1
 40
1.0
176
     1
 90
        1
176
     1
 90
        6
176
     1
 90
        2
176
     1
 62
     7
176
     1
 90
        5
176
     1
 90
        0
176
     1
 90
        0
176
     1
290
     0
176
     1
 90
        1
176
     1
 40
50.0
176
     1
 90
        0
176
     1
290
     0
176
     1
290
     1
176
     1
290
     1
176
     1
290
     0
176
     1
290
     0
176
     1
290
     0
176
     1
290
     0
176
     1
290
     0
176
     1
290
     0
176
     1
 90
       50
176
     1
 40
0.0
176
     1
 40
1.0
176
     1
 90
        0
176
     1
 62
    18
420
        0
176
     1
 90
       50
176
     1
 90
        3
176
     1
 62
     5
420
      255
176
     1
290
     0
176
     1
 90
       50
176
     1
 90
       50
176
     1
 90
       50
176
     1
290
     0
176
     1
 90
       50
176
     1
 62
   256
176
     0
 40
1.0
176
     0
 90
        2
176
     1
  1
strokes_ogs.tif
176
     1
290
     0
176
     1
 40
1.0
176
     1
 40
1.0
176
     1
  0
VISUALSTYLE
  5
3A
102
{ACAD_REACTORS
330
2A
102
}
330
2A
100
AcDbVisualStyle
  2
ColorChange
 70
    16
177
     3
291
     1
 70
    58
 90
        2
176
     1
 90
        2
176
     1
 90
        3
176
     1
 90
        0
176
     1
 40
0.6
176
     1
 40
30.0
176
     1
 62
     8
420
  8421504
176
     1
 90
        1
176
     1
 90
        4
176
     1
 62
     7
176
     1
 62
   257
176
     1
 90
        1
176
     1
 90
        1
176
     1
 40
1.0
176
     1
 90
        8
176
     1
 62
     8
420
  8421504
176
     1
 40
1.0
176
     1
 90
        1
176
     1
 90
        6
176
     1
 90
        2
176
     1
 62
     7
176
     1
 90
        5
176
     1
 90
        0
176
     1
 90
        0
176
     1
290
     0
176
     1
 90
        1
176
     1
 40
0.0
176
     1
 90
        0
176
     1
290
     0
176
     1
290
     1
176
     1
290
     1
176
     1
290
     0
176
     1
290
     0
176
     1
290
     0
176
     1
290
     0
176
     1
290
     0
176
     1
290
     0
176
     1
 90
       50
176
     1
 40
0.0
176
     1
 40
1.0
176
     1
 90
        0
176
     1
 62
    18
420
        0
176
     1
 90
       50
176
     1
 90
        3
176
     1
 62
     5
420
      255
176
     1
290
     0
176
     1
 90
       50
176
     1
 90
       50
176
     1
 90
       50
176
     1
290
     0
176
     1
 90
       50
176
     1
 62
   256
176
     0
 40
1.0
176
     0
 90
        2
176
     1
  1
strokes_ogs.tif
176
     1
290
     0
176
     1
 40
1.0
176
     1
 40
1.0
176
     1
  0
VISUALSTYLE
  5
34
102
{ACAD_REACTORS
330
2A
102
}
330
2A
100
AcDbVisualStyle
  2
Conceptual
 70
     9
177
     3
291
     0
 70
    58
 90
        3
176
     1
 90
        2
176
     1
 90
        0
176
     1
 90
        0
176
     1
 40
0.6
176
     1
 40
30.0
176
     1
 62
     7
420
 16777215
176
     1
 90
        2
176
     1
 90
        2
176
     1
 62
     7
176
     1
 62
   257
176
     1
 90
        1
176
     1
 90
        1
176
     1
 40
179.0
176
     1
 90
        8
176
     1
 62
     7
176
     1
 40
1.0
176
     1
 90
        1
176
     1
 90
        6
176
     1
 90
        2
176
     1
 62
     7
176
     1
 90
        3
176
     1
 90
        0
176
     1
 90
        0
176
     1
290
     0
176
     1
 90
        1
176
     1
 40
0.0
176
     1
 90
        0
176
     1
290
     0
176
     1
290
     1
176
     1
290
     1
176
     1
290
     0
176
     1
290
     0
176
     1
290
     0
176
     1
290
     0
176
     1
290
     0
176
     1
290
     0
176
     1
 90
       50
176
     1
 40
0.0
176
     1
 40
1.0
176
     1
 90
        0
176
     1
 62
    18
420
        0
176
     1
 90
       50
176
     1
 90
        3
176
     1
 62
     5
420
      255
176
     1
290
     0
176
     1
 90
       50
176
     1
 90
       50
176
     1
 90
       50
176
     1
290
     0
176
     1
 90
       50
176
     1
 62
   256
176
     0
 40
1.0
176
     0
 90
        2
176
     1
  1
strokes_ogs.tif
176
     1
290
     0
176
     1
 40
1.0
176
     1
 40
1.0
176
     1
  0
VISUALSTYLE
  5
35
102
{ACAD_REACTORS
330
2A
102
}
330
2A
100
AcDbVisualStyle
  2
Dim
 70
    11
177
     3
291
     1
 70
    58
 90
        2
176
     1
 90
        2
176
     1
 90
        0
176
     1
 90
        0
176
     1
 40
0.6
176
     1
 40
30.0
176
     1
 62
     7
420
 16777215
176
     1
 90
        1
176
     1
 90
        4
176
     1
 62
     7
176
     1
 62
   257
176
     1
 90
        1
176
     1
 90
        1
176
     1
 40
1.0
176
     1
 90
        8
176
     1
 62
     7
176
     1
 40
1.0
176
     1
 90
        1
176
     1
 90
        6
176
     1
 90
        2
176
     1
 62
     7
176
     1
 90
        5
176
     1
 90
        0
176
     1
 90
        0
176
     1
290
     0
176
     1
 90
        1
176
     1
 40
-50.0
176
     1
 90
        0
176
     1
290
     0
176
     1
290
     1
176
     1
290
     1
176
     1
290
     0
176
     1
290
     0
176
     1
290
     0
176
     1
290
     0
176
     1
290
     0
176
     1
290
     0
176
     1
 90
       50
176
     1
 40
0.0
176
     1
 40
1.0
176
     1
 90
        0
176
     1
 62
    18
420
        0
176
     1
 90
       50
176
     1
 90
        3
176
     1
 62
     5
420
      255
176
     1
290
     0
176
     1
 90
       50
176
     1
 90
       50
176
     1
 90
       50
176
     1
290
     0
176
     1
 90
       50
176
     1
 62
   256
176
     0
 40
1.0
176
     0
 90
        2
176
     1
  1
strokes_ogs.tif
176
     1
290
     0
176
     1
 40
1.0
176
     1
 40
1.0
176
     1
  0
VISUALSTYLE
  5
3D
102
{ACAD_REACTORS
330
2A
102
}
330
2A
100
AcDbVisualStyle
  2
EdgeColorOff
 70
    22
177
     3
291
     1
 70
    58
 90
        2
176
     0
 90
        2
176
     0
 90
        0
176
     0
 90
        0
176
     0
 40
0.6
176
     0
 40
30.0
176
     0
 62
     7
420
 16777215
176
     0
 90
        1
176
     0
 90
        4
176
     0
 62
     7
176
     0
 62
   257
176
     0
 90
        1
176
     0
 90
        1
176
     0
 40
1.0
176
     0
 90
        8
176
     2
 62
     7
176
     0
 40
1.0
176
     0
 90
        1
176
     0
 90
        6
176
     0
 90
        2
176
     0
 62
     7
176
     0
 90
        5
176
     0
 90
        0
176
     0
 90
        0
176
     0
290
     0
176
     0
 90
        1
176
     0
 40
0.0
176
     0
 90
        0
176
     0
290
     0
176
     0
290
     1
176
     0
290
     1
176
     0
290
     0
176
     0
290
     0
176
     0
290
     0
176
     0
290
     0
176
     0
290
     0
176
     0
290
     0
176
     0
 90
       50
176
     0
 40
0.0
176
     0
 40
1.0
176
     0
 90
        0
176
     0
 62
    18
420
        0
176
     0
 90
       50
176
     0
 90
        3
176
     0
 62
     5
420
      255
176
     0
290
     0
176
     0
 90
       50
176
     0
 90
       50
176
     0
 90
       50
176
     0
290
     0
176
     0
 90
       50
176
     0
 62
   256
176
     0
 40
1.0
176
     0
 90
        2
176
     0
  1
strokes_ogs.tif
176
     0
290
     0
176
     0
 40
1.0
176
     0
 40
1.0
176
     0
  0
VISUALSTYLE
  5
39
102
{ACAD_REACTORS
330
2A
102
}
330
2A
100
AcDbVisualStyle
  2
Facepattern
 70
    15
177
     3
291
     1
 70
    58
 90
        2
176
     1
 90
        2
176
     1
 90
        0
176
     1
 90
        0
176
     1
 40
0.6
176
     1
 40
30.0
176
     1
 62
     7
420
 16777215
176
     1
 90
        1
176
     1
 90
        4
176
     1
 62
     7
176
     1
 62
   257
176
     1
 90
        1
176
     1
 90
        1
176
     1
 40
1.0
176
     1
 90
        8
176
     1
 62
     7
176
     1
 40
1.0
176
     1
 90
        1
176
     1
 90
        6
176
     1
 90
        2
176
     1
 62
     7
176
     1
 90
        5
176
     1
 90
        0
176
     1
 90
        0
176
     1
290
     0
176
     1
 90
        1
176
     1
 40
0.0
176
     1
 90
        0
176
     1
290
     0
176
     1
290
     1
176
     1
290
     1
176
     1
290
     0
176
     1
290
     0
176
     1
290
     0
176
     1
290
     0
176
     1
290
     0
176
     1
290
     0
176
     1
 90
       50
176
     1
 40
0.0
176
     1
 40
1.0
176
     1
 90
        0
176
     1
 62
    18
420
        0
176
     1
 90
       50
176
     1
 90
        3
176
     1
 62
     5
420
      255
176
     1
290
     0
176
     1
 90
       50
176
     1
 90
       50
176
     1
 90
       50
176
     1
290
     0
176
     1
 90
       50
176
     1
 62
   256
176
     0
 40
1.0
176
     0
 90
        2
176
     1
  1
strokes_ogs.tif
176
     1
290
     0
176
     1
 40
1.0
176
     1
 40
1.0
176
     1
  0
VISUALSTYLE
  5
2B
102
{ACAD_REACTORS
330
2A
102
}
330
2A
100
AcDbVisualStyle
  2
Flat
 70
     0
177
     3
291
     1
 70
    58
 90
        2
176
     1
 90
        1
176
     1
 90
        1
176
     1
 90
        2
176
     1
 40
0.6
176
     1
 40
30.0
176
     1
 62
     7
420
 16777215
176
     1
 90
        0
176
     1
 90
        0
176
     1
 62
     7
176
     1
 62
   257
176
     1
 90
        1
176
     1
 90
        1
176
     1
 40
1.0
176
     1
 90
        8
176
     1
 62
     7
176
     1
 40
1.0
176
     1
 90
        1
176
     1
 90
        6
176
     1
 90
        2
176
     1
 62
     7
176
     1
 90
        5
176
     1
 90
        0
176
     1
 90
        0
176
     1
290
     0
176
     1
 90
       13
176
     1
 40
0.0
176
     1
 90
        0
176
     1
290
     0
176
     1
290
     1
176
     1
290
     1
176
     1
290
     0
176
     1
290
     0
176
     1
290
     0
176
     1
290
     0
176
     1
290
     0
176
     1
290
     0
176
     1
 90
       50
176
     1
 40
0.0
176
     1
 40
1.0
176
     1
 90
        0
176
     1
 62
    18
420
        0
176
     1
 90
       50
176
     1
 90
        3
176
     1
 62
     5
420
      255
176
     1
290
     0
176
     1
 90
       50
176
     1
 90
       50
176
     1
 90
       50
176
     1
290
     0
176
     1
 90
       50
176
     1
 62
   256
176
     0
 40
1.0
176
     0
 90
        2
176
     1
  1
strokes_ogs.tif
176
     1
290
     0
176
     1
 40
1.0
176
     1
 40
1.0
176
     1
  0
VISUALSTYLE
  5
2C
102
{ACAD_REACTORS
330
2A
102
}
330
2A
100
AcDbVisualStyle
  2
FlatWithEdges
 70
     1
177
     3
291
     1
 70
    58
 90
        2
176
     1
 90
        1
176
     1
 90
        1
176
     1
 90
        2
176
     1
 40
0.6
176
     1
 40
30.0
176
     1
 62
     7
420
 16777215
176
     1
 90
        1
176
     1
 90
        0
176
     1
 62
     7
176
     1
 62
   257
176
     1
 90
        1
176
     1
 90
        1
176
     1
 40
1.0
176
     1
 90
        0
176
     1
 62
   257
176
     1
 40
1.0
176
     1
 90
        1
176
     1
 90
        6
176
     1
 90
        2
176
     1
 62
     7
176
     1
 90
        5
176
     1
 90
        0
176
     1
 90
        0
176
     1
290
     0
176
     1
 90
       13
176
     1
 40
0.0
176
     1
 90
        0
176
     1
290
     0
176
     1
290
     1
176
     1
290
     1
176
     1
290
     0
176
     1
290
     0
176
     1
290
     0
176
     1
290
     0
176
     1
290
     0
176
     1
290
     0
176
     1
 90
       50
176
     1
 40
0.0
176
     1
 40
1.0
176
     1
 90
        0
176
     1
 62
    18
420
        0
176
     1
 90
       50
176
     1
 90
        3
176
     1
 62
     5
420
      255
176
     1
290
     0
176
     1
 90
       50
176
     1
 90
       50
176
     1
 90
       50
176
     1
290
     0
176
     1
 90
       50
176
     1
 62
   256
176
     0
 40
1.0
176
     0
 90
        2
176
     1
  1
strokes_ogs.tif
176
     1
290
     0
176
     1
 40
1.0
176
     1
 40
1.0
176
     1
  0
VISUALSTYLE
  5
2D
102
{ACAD_REACTORS
330
2A
102
}
330
2A
100
AcDbVisualStyle
  2
Gouraud
 70
     2
177
     3
291
     1
 70
    58
 90
        2
176
     1
 90
        2
176
     1
 90
        1
176
     1
 90
        2
176
     1
 40
0.6
176
     1
 40
30.0
176
     1
 62
     7
420
 16777215
176
     1
 90
        0
176
     1
 90
        0
176
     1
 62
     7
176
     1
 62
   257
176
     1
 90
        1
176
     1
 90
        1
176
     1
 40
1.0
176
     1
 90
        0
176
     1
 62
     7
176
     1
 40
1.0
176
     1
 90
        1
176
     1
 90
        6
176
     1
 90
        2
176
     1
 62
     7
176
     1
 90
        5
176
     1
 90
        0
176
     1
 90
        0
176
     1
290
     0
176
     1
 90
       13
176
     1
 40
0.0
176
     1
 90
        0
176
     1
290
     0
176
     1
290
     1
176
     1
290
     1
176
     1
290
     0
176
     1
290
     0
176
     1
290
     0
176
     1
290
     0
176
     1
290
     0
176
     1
290
     0
176
     1
 90
       50
176
     1
 40
0.0
176
     1
 40
1.0
176
     1
 90
        0
176
     1
 62
    18
420
        0
176
     1
 90
       50
176
     1
 90
        3
176
     1
 62
     5
420
      255
176
     1
290
     0
176
     1
 90
       50
176
     1
 90
       50
176
     1
 90
       50
176
     1
290
     0
176
     1
 90
       50
176
     1
 62
   256
176
     0
 40
1.0
176
     0
 90
        2
176
     1
  1
strokes_ogs.tif
176
     1
290
     0
176
     1
 40
1.0
176
     1
 40
1.0
176
     1
  0
VISUALSTYLE
  5
2E
102
{ACAD_REACTORS
330
2A
102
}
330
2A
100
AcDbVisualStyle
  2
GouraudWithEdges
 70
     3
177
     3
291
     1
 70
    58
 90
        2
176
     1
 90
        2
176
     1
 90
        1
176
     1
 90
        2
176
     1
 40
0.6
176
     1
 40
30.0
176
     1
 62
     7
420
 16777215
176
     1
 90
        1
176
     1
 90
        0
176
     1
 62
     7
176
     1
 62
   257
176
     1
 90
        1
176
     1
 90
        1
176
     1
 40
1.0
176
     1
 90
        0
176
     1
 62
   257
176
     1
 40
1.0
176
     1
 90
        1
176
     1
 90
        6
176
     1
 90
        2
176
     1
 62
     7
176
     1
 90
        5
176
     1
 90
        0
176
     1
 90
        0
176
     1
290
     0
176
     1
 90
       13
176
     1
 40
0.0
176
     1
 90
        0
176
     1
290
     0
176
     1
290
     1
176
     1
290
     1
176
     1
290
     0
176
     1
290
     0
176
     1
290
     0
176
     1
290
     0
176
     1
290
     0
176
     1
290
     0
176
     1
 90
       50
176
     1
 40
0.0
176
     1
 40
1.0
176
     1
 90
        0
176
     1
 62
    18
420
        0
176
     1
 90
       50
176
     1
 90
        3
176
     1
 62
     5
420
      255
176
     1
290
     0
176
     1
 90
       50
176
     1
 90
       50
176
     1
 90
       50
176
     1
290
     0
176
     1
 90
       50
176
     1
 62
   256
176
     0
 40
1.0
176
     0
 90
        2
176
     1
  1
strokes_ogs.tif
176
     1
290
     0
176
     1
 40
1.0
176
     1
 40
1.0
176
     1
  0
VISUALSTYLE
  5
31
102
{ACAD_REACTORS
330
2A
102
}
330
2A
100
AcDbVisualStyle
  2
Hidden
 70
     6
177
     3
291
     0
 70
    58
 90
        1
176
     1
 90
        2
176
     1
 90
        2
176
     1
 90
        0
176
     1
 40
0.6
176
     1
 40
30.0
176
     1
 62
     7
420
 16777215
176
     1
 90
        2
176
     1
 90
        2
176
     1
 62
     7
176
     1
 62
   257
176
     1
 90
        2
176
     1
 90
        1
176
     1
 40
40.0
176
     1
 90
        0
176
     1
 62
   257
176
     1
 40
1.0
176
     1
 90
        1
176
     1
 90
        6
176
     1
 90
        2
176
     1
 62
     7
176
     1
 90
        3
176
     1
 90
        0
176
     1
 90
        0
176
     1
290
     0
176
     1
 90
        1
176
     1
 40
0.0
176
     1
 90
        0
176
     1
290
     0
176
     1
290
     1
176
     1
290
     1
176
     1
290
     0
176
     1
290
     0
176
     1
290
     0
176
     1
290
     0
176
     1
290
     0
176
     1
290
     0
176
     1
 90
       50
176
     1
 40
0.0
176
     1
 40
1.0
176
     1
 90
        0
176
     1
 62
    18
420
        0
176
     1
 90
       50
176
     1
 90
        3
176
     1
 62
     5
420
      255
176
     1
290
     0
176
     1
 90
       50
176
     1
 90
       50
176
     1
 90
       50
176
     1
290
     0
176
     1
 90
       50
176
     1
 62
   256
176
     0
 40
1.0
176
     0
 90
        2
176
     1
  1
strokes_ogs.tif
176
     1
290
     0
176
     1
 40
1.0
176
     1
 40
1.0
176
     1
  0
VISUALSTYLE
  5
3B
102
{ACAD_REACTORS
330
2A
102
}
330
2A
100
AcDbVisualStyle
  2
JitterOff
 70
    20
177
     3
291
     1
 70
    58
 90
        2
176
     0
 90
        2
176
     0
 90
        0
176
     0
 90
        0
176
     0
 40
0.6
176
     0
 40
30.0
176
     0
 62
     7
420
 16777215
176
     0
 90
        1
176
     0
 90
        4
176
     0
 62
     7
176
     0
 62
   257
176
     0
 90
        1
176
     0
 90
        1
176
     0
 40
1.0
176
     0
 90
       10
176
     2
 62
     7
176
     0
 40
1.0
176
     0
 90
        1
176
     0
 90
        6
176
     0
 90
        2
176
     0
 62
     7
176
     0
 90
        5
176
     0
 90
        0
176
     0
 90
        0
176
     0
290
     0
176
     0
 90
        1
176
     0
 40
0.0
176
     0
 90
        0
176
     0
290
     0
176
     0
290
     1
176
     0
290
     1
176
     0
290
     0
176
     0
290
     0
176
     0
290
     0
176
     0
290
     0
176
     0
290
     0
176
     0
290
     0
176
     0
 90
       50
176
     0
 40
0.0
176
     0
 40
1.0
176
     0
 90
        0
176
     0
 62
    18
420
        0
176
     0
 90
       50
176
     0
 90
        3
176
     0
 62
     5
420
      255
176
     0
290
     0
176
     0
 90
       50
176
     0
 90
       50
176
     0
 90
       50
176
     0
290
     0
176
     0
 90
       50
176
     0
 62
   256
176
     0
 40
1.0
176
     0
 90
        2
176
     0
  1
strokes_ogs.tif
176
     0
290
     0
176
     0
 40
1.0
176
     0
 40
1.0
176
     0
  0
VISUALSTYLE
  5
38
102
{ACAD_REACTORS
330
2A
102
}
330
2A
100
AcDbVisualStyle
  2
Linepattern
 70
    14
177
     3
291
     1
 70
    58
 90
        2
176
     1
 90
        2
176
     1
 90
        0
176
     1
 90
        0
176
     1
 40
0.6
176
     1
 40
30.0
176
     1
 62
     7
420
 16777215
176
     1
 90
        1
176
     1
 90
        4
176
     1
 62
     7
176
     1
 62
   257
176
     1
 90
        7
176
     1
 90
        7
176
     1
 40
1.0
176
     1
 90
        8
176
     1
 62
     7
176
     1
 40
1.0
176
     1
 90
        1
176
     1
 90
        6
176
     1
 90
        2
176
     1
 62
     7
176
     1
 90
        5
176
     1
 90
        0
176
     1
 90
        0
176
     1
290
     0
176
     1
 90
        1
176
     1
 40
0.0
176
     1
 90
        0
176
     1
290
     0
176
     1
290
     1
176
     1
290
     1
176
     1
290
     0
176
     1
290
     0
176
     1
290
     0
176
     1
290
     0
176
     1
290
     0
176
     1
290
     0
176
     1
 90
       50
176
     1
 40
0.0
176
     1
 40
1.0
176
     1
 90
        0
176
     1
 62
    18
420
        0
176
     1
 90
       50
176
     1
 90
        3
176
     1
 62
     5
420
      255
176
     1
290
     0
176
     1
 90
       50
176
     1
 90
       50
176
     1
 90
       50
176
     1
290
     0
176
     1
 90
       50
176
     1
 62
   256
176
     0
 40
1.0
176
     0
 90
        2
176
     1
  1
strokes_ogs.tif
176
     1
290
     0
176
     1
 40
1.0
176
     1
 40
1.0
176
     1
  0
VISUALSTYLE
  5
3C
102
{ACAD_REACTORS
330
2A
102
}
330
2A
100
AcDbVisualStyle
  2
OverhangOff
 70
    21
177
     3
291
     1
 70
    58
 90
        2
176
     0
 90
        2
176
     0
 90
        0
176
     0
 90
        0
176
     0
 40
0.6
176
     0
 40
30.0
176
     0
 62
     7
420
 16777215
176
     0
 90
        1
176
     0
 90
        4
176
     0
 62
     7
176
     0
 62
   257
176
     0
 90
        1
176
     0
 90
        1
176
     0
 40
1.0
176
     0
 90
        9
176
     2
 62
     7
176
     0
 40
1.0
176
     0
 90
        1
176
     0
 90
        6
176
     0
 90
        2
176
     0
 62
     7
176
     0
 90
        5
176
     0
 90
        0
176
     0
 90
        0
176
     0
290
     0
176
     0
 90
        1
176
     0
 40
0.0
176
     0
 90
        0
176
     0
290
     0
176
     0
290
     1
176
     0
290
     1
176
     0
290
     0
176
     0
290
     0
176
     0
290
     0
176
     0
290
     0
176
     0
290
     0
176
     0
290
     0
176
     0
 90
       50
176
     0
 40
0.0
176
     0
 40
1.0
176
     0
 90
        0
176
     0
 62
    18
420
        0
176
     0
 90
       50
176
     0
 90
        3
176
     0
 62
     5
420
      255
176
     0
290
     0
176
     0
 90
       50
176
     0
 90
       50
176
     0
 90
       50
176
     0
290
     0
176
     0
 90
       50
176
     0
 62
   256
176
     0
 40
1.0
176
     0
 90
        2
176
     0
  1
strokes_ogs.tif
176
     0
290
     0
176
     0
 40
1.0
176
     0
 40
1.0
176
     0
  0
VISUALSTYLE
  5
33
102
{ACAD_REACTORS
330
2A
102
}
330
2A
100
AcDbVisualStyle
  2
Realistic
 70
     8
177
     3
291
     0
 70
    58
 90
        2
176
     1
 90
        3
176
     1
 90
        0
176
     1
 90
        2
176
     1
 40
0.6
176
     1
 40
30.0
176
     1
 62
     7
420
 16777215
176
     1
 90
        0
176
     1
 90
        0
176
     1
 62
     7
176
     1
 62
   257
176
     1
 90
        1
176
     1
 90
        1
176
     1
 40
1.0
176
     1
 90
        8
176
     1
 62
   257
176
     1
 40
1.0
176
     1
 90
        1
176
     1
 90
        6
176
     1
 90
        2
176
     1
 62
     7
176
     1
 90
        3
176
     1
 90
        0
176
     1
 90
        0
176
     1
290
     0
176
     1
 90
       13
176
     1
 40
0.0
176
     1
 90
        0
176
     1
290
     0
176
     1
290
     1
176
     1
290
     1
176
     1
290
     0
176
     1
290
     0
176
     1
290
     0
176
     1
290
     0
176
     1
290
     0
176
     1
290
     0
176
     1
 90
       50
176
     1
 40
0.0
176
     1
 40
1.0
176
     1
 90
        0
176
     1
 62
    18
420
        0
176
     1
 90
       50
176
     1
 90
        3
176
     1
 62
     5
420
      255
176
     1
290
     0
176
     1
 90
       50
176
     1
 90
       50
176
     1
 90
       50
176
     1
290
     0
176
     1
 90
       50
176
     1
 62
   256
176
     0
 40
1.0
176
     0
 90
        2
176
     1
  1
strokes_ogs.tif
176
     1
290
     0
176
     1
 40
1.0
176
     1
 40
1.0
176
     1
  0
VISUALSTYLE
  5
42
102
{ACAD_REACTORS
330
2A
102
}
330
2A
100
AcDbVisualStyle
  2
Shaded
 70
    27
177
     3
291
     0
 70
    58
 90
        2
176
     1
 90
        2
176
     1
 90
        1
176
     1
 90
        2
176
     1
 40
0.6
176
     1
 40
30.0
176
     1
 62
     7
420
 16777215
176
     1
 90
        0
176
     1
 90
        4
176
     1
 62
     7
176
     1
 62
   257
176
     1
 90
        1
176
     1
 90
        1
176
     1
 40
1.0
176
     1
 90
        8
176
     1
 62
   257
176
     1
 40
1.0
176
     1
 90
        1
176
     1
 90
        6
176
     1
 90
        2
176
     1
 62
     8
420
  7895160
176
     1
 90
        3
176
     1
 90
        0
176
     1
 90
        0
176
     1
290
     0
176
     1
 90
        5
176
     1
 40
0.0
176
     1
 90
        0
176
     1
290
     0
176
     1
290
     1
176
     1
290
     1
176
     1
290
     0
176
     1
290
     0
176
     1
290
     0
176
     1
290
     0
176
     1
290
     0
176
     1
290
     0
176
     1
 90
       50
176
     1
 40
0.0
176
     1
 40
1.0
176
     1
 90
        0
176
     1
 62
    18
420
        0
176
     1
 90
       50
176
     1
 90
        3
176
     1
 62
     5
420
      255
176
     1
290
     0
176
     1
 90
       50
176
     1
 90
       50
176
     1
 90
       50
176
     1
290
     0
176
     1
 90
       50
176
     1
 62
   256
176
     0
 40
1.0
176
     0
 90
        2
176
     1
  1
strokes_ogs.tif
176
     1
290
     0
176
     1
 40
1.0
176
     1
 40
1.0
176
     1
  0
VISUALSTYLE
  5
41
102
{ACAD_REACTORS
330
2A
102
}
330
2A
100
AcDbVisualStyle
  2
Shaded with edges
 70
    26
177
     3
291
     0
 70
    58
 90
        2
176
     1
 90
        2
176
     1
 90
        1
176
     1
 90
        2
176
     1
 40
0.6
176
     1
 40
30.0
176
     1
 62
     7
420
 16777215
176
     1
 90
        1
176
     1
 90
       10
176
     1
 62
     7
176
     1
 62
   257
176
     1
 90
        2
176
     1
 90
        1
176
     1
 40
1.0
176
     1
 90
        8
176
     1
 62
   257
176
     1
 40
1.0
176
     1
 90
        1
176
     1
 90
        6
176
     1
 90
        2
176
     1
 62
     7
176
     1
 90
        3
176
     1
 90
        0
176
     1
 90
        0
176
     1
290
     0
176
     1
 90
        5
176
     1
 40
0.0
176
     1
 90
        0
176
     1
290
     0
176
     1
290
     1
176
     1
290
     1
176
     1
290
     0
176
     1
290
     0
176
     1
290
     0
176
     1
290
     0
176
     1
290
     0
176
     1
290
     0
176
     1
 90
       50
176
     1
 40
0.0
176
     1
 40
1.0
176
     1
 90
        0
176
     1
 62
    18
420
        0
176
     1
 90
       50
176
     1
 90
        3
176
     1
 62
     5
420
      255
176
     1
290
     0
176
     1
 90
       50
176
     1
 90
       50
176
     1
 90
       50
176
     1
290
     0
176
     1
 90
       50
176
     1
 62
   256
176
     0
 40
1.0
176
     0
 90
        2
176
     1
  1
strokes_ogs.tif
176
     1
290
     0
176
     1
 40
1.0
176
     1
 40
1.0
176
     1
  0
VISUALSTYLE
  5
3E
102
{ACAD_REACTORS
330
2A
102
}
330
2A
100
AcDbVisualStyle
  2
Shades of Gray
 70
    23
177
     3
291
     0
 70
    58
 90
        2
176
     1
 90
        2
176
     1
 90
        3
176
     1
 90
        0
176
     1
 40
0.6
176
     1
 40
30.0
176
     1
 62
     7
420
 16777215
176
     1
 90
        2
176
     1
 90
        2
176
     1
 62
     7
176
     1
 62
     7
176
     1
 90
        1
176
     1
 90
        1
176
     1
 40
40.0
176
     1
 90
        8
176
     1
 62
     7
176
     1
 40
1.0
176
     1
 90
        1
176
     1
 90
        6
176
     1
 90
        2
176
     1
 62
     7
176
     1
 90
        3
176
     1
 90
        0
176
     1
 90
        0
176
     1
290
     0
176
     1
 90
        1
176
     1
 40
0.0
176
     1
 90
        0
176
     1
290
     0
176
     1
290
     1
176
     1
290
     1
176
     1
290
     0
176
     1
290
     0
176
     1
290
     0
176
     1
290
     0
176
     1
290
     0
176
     1
290
     0
176
     1
 90
       50
176
     1
 40
0.0
176
     1
 40
1.0
176
     1
 90
        0
176
     1
 62
    18
420
        0
176
     1
 90
       50
176
     1
 90
        3
176
     1
 62
     5
420
      255
176
     1
290
     0
176
     1
 90
       50
176
     1
 90
       50
176
     1
 90
       50
176
     1
290
     0
176
     1
 90
       50
176
     1
 62
   256
176
     0
 40
1.0
176
     0
 90
        2
176
     1
  1
strokes_ogs.tif
176
     1
290
     0
176
     1
 40
1.0
176
     1
 40
1.0
176
     1
  0
VISUALSTYLE
  5
3F
102
{ACAD_REACTORS
330
2A
102
}
330
2A
100
AcDbVisualStyle
  2
Sketchy
 70
    24
177
     3
291
     0
 70
    58
 90
        1
176
     1
 90
        2
176
     1
 90
        2
176
     1
 90
        0
176
     1
 40
0.6
176
     1
 40
30.0
176
     1
 62
     7
420
 16777215
176
     1
 90
        2
176
     1
 90
        2
176
     1
 62
     7
176
     1
 62
     7
176
     1
 90
        1
176
     1
 90
        1
176
     1
 40
40.0
176
     1
 90
       11
176
     1
 62
     7
176
     1
 40
1.0
176
     1
 90
        1
176
     1
 90
        6
176
     1
 90
        2
176
     1
 62
     7
176
     1
 90
        6
176
     1
 90
        0
176
     1
 90
        0
176
     1
290
     0
176
     1
 90
        1
176
     1
 40
0.0
176
     1
 90
        0
176
     1
290
     0
176
     1
290
     1
176
     1
290
     1
176
     1
290
     0
176
     1
290
     0
176
     1
290
     0
176
     1
290
     0
176
     1
290
     0
176
     1
290
     0
176
     1
 90
       50
176
     1
 40
0.0
176
     1
 40
1.0
176
     1
 90
        0
176
     1
 62
    18
420
        0
176
     1
 90
       50
176
     1
 90
        3
176
     1
 62
     5
420
      255
176
     1
290
     0
176
     1
 90
       50
176
     1
 90
       50
176
     1
 90
       50
176
     1
290
     0
176
     1
 90
       50
176
     1
 62
   256
176
     0
 40
1.0
176
     0
 90
        2
176
     1
  1
strokes_ogs.tif
176
     1
290
     0
176
     1
 40
1.0
176
     1
 40
1.0
176
     1
  0
VISUALSTYLE
  5
37
102
{ACAD_REACTORS
330
2A
102
}
330
2A
100
AcDbVisualStyle
  2
Thicken
 70
    13
177
     3
291
     1
 70
    58
 90
        2
176
     1
 90
        2
176
     1
 90
        0
176
     1
 90
        0
176
     1
 40
0.6
176
     1
 40
30.0
176
     1
 62
     7
420
 16777215
176
     1
 90
        1
176
     1
 90
        4
176
     1
 62
     7
176
     1
 62
   257
176
     1
 90
        1
176
     1
 90
        1
176
     1
 40
1.0
176
     1
 90
       12
176
     1
 62
     7
176
     1
 40
1.0
176
     1
 90
        1
176
     1
 90
        6
176
     1
 90
        2
176
     1
 62
     7
176
     1
 90
        5
176
     1
 90
        0
176
     1
 90
        0
176
     1
290
     0
176
     1
 90
        1
176
     1
 40
0.0
176
     1
 90
        0
176
     1
290
     0
176
     1
290
     1
176
     1
290
     1
176
     1
290
     0
176
     1
290
     0
176
     1
290
     0
176
     1
290
     0
176
     1
290
     0
176
     1
290
     0
176
     1
 90
       50
176
     1
 40
0.0
176
     1
 40
1.0
176
     1
 90
        0
176
     1
 62
    18
420
        0
176
     1
 90
       50
176
     1
 90
        3
176
     1
 62
     5
420
      255
176
     1
290
     0
176
     1
 90
       50
176
     1
 90
       50
176
     1
 90
       50
176
     1
290
     0
176
     1
 90
       50
176
     1
 62
   256
176
     0
 40
1.0
176
     0
 90
        2
176
     1
  1
strokes_ogs.tif
176
     1
290
     0
176
     1
 40
1.0
176
     1
 40
1.0
176
     1
  0
VISUALSTYLE
  5
30
102
{ACAD_REACTORS
330
2A
102
}
330
2A
100
AcDbVisualStyle
  2
Wireframe
 70
     5
177
     3
291
     0
 70
    58
 90
        0
176
     1
 90
        2
176
     1
 90
        0
176
     1
 90
        0
176
     1
 40
0.6
176
     1
 40
30.0
176
     1
 62
     7
420
 16777215
176
     1
 90
        1
176
     1
 90
        4
176
     1
 62
     7
176
     1
 62
   257
176
     1
 90
        1
176
     1
 90
        1
176
     1
 40
1.0
176
     1
 90
        0
176
     1
 62
   257
176
     1
 40
1.0
176
     1
 90
        1
176
     1
 90
        6
176
     1
 90
        2
176
     1
 62
     7
176
     1
 90
        3
176
     1
 90
        0
176
     1
 90
        0
176
     1
290
     0
176
     1
 90
        1
176
     1
 40
0.0
176
     1
 90
        0
176
     1
290
     0
176
     1
290
     1
176
     1
290
     1
176
     1
290
     0
176
     1
290
     0
176
     1
290
     0
176
     1
290
     0
176
     1
290
     0
176
     1
290
     0
176
     1
 90
       50
176
     1
 40
0.0
176
     1
 40
1.0
176
     1
 90
        0
176
     1
 62
    18
420
        0
176
     1
 90
       50
176
     1
 90
        3
176
     1
 62
     5
420
      255
176
     1
290
     0
176
     1
 90
       50
176
     1
 90
       50
176
     1
 90
       50
176
     1
290
     0
176
     1
 90
       50
176
     1
 62
   256
176
     0
 40
1.0
176
     0
 90
        2
176
     1
  1
strokes_ogs.tif
176
     1
290
     0
176
     1
 40
1.0
176
     1
 40
1.0
176
     1
  0
VISUALSTYLE
  5
40
102
{ACAD_REACTORS
330
2A
102
}
330
2A
100
AcDbVisualStyle
  2
X-Ray
 70
    25
177
     3
291
     0
 70
    58
 90
        2
176
     1
 90
        2
176
     1
 90
        1
176
     1
 90
        1
176
     1
 40
0.5
176
     1
 40
30.0
176
     1
 62
     7
420
 16777215
176
     1
 90
        1
176
     1
 90
        0
176
     1
 62
     7
176
     1
 62
   257
176
     1
 90
        1
176
     1
 90
        1
176
     1
 40
1.0
176
     1
 90
        8
176
     1
 62
     7
176
     1
 40
1.0
176
     1
 90
        1
176
     1
 90
        6
176
     1
 90
        2
176
     1
 62
     7
176
     1
 90
        3
176
     1
 90
        0
176
     1
 90
        0
176
     1
290
     0
176
     1
 90
       13
176
     1
 40
0.0
176
     1
 90
        0
176
     1
290
     0
176
     1
290
     1
176
     1
290
     1
176
     1
290
     0
176
     1
290
     0
176
     1
290
     0
176
     1
290
     0
176
     1
290
     0
176
     1
290
     0
176
     1
 90
       50
176
     1
 40
0.0
176
     1
 40
1.0
176
     1
 90
        0
176
     1
 62
    18
420
        0
176
     1
 90
       50
176
     1
 90
        3
176
     1
 62
     5
420
      255
176
     1
290
     0
176
     1
 90
       50
176
     1
 90
       50
176
     1
 90
       50
176
     1
290
     0
176
     1
 90
       50
176
     1
 62
   256
176
     0
 40
1.0
176
     0
 90
        2
176
     1
  1
strokes_ogs.tif
176
     1
290
     0
176
     1
 40
1.0
176
     1
 40
1.0
176
     1
  0
DICTIONARYVAR
  5
1DE
102
{ACAD_REACTORS
330
1DD
102
}
330
1DD
100
DictionaryVariables
280
     0
  1
1:1
  0
DICTIONARYVAR
  5
1E3
102
{ACAD_REACTORS
330
1DD
102
}
330
1DD
100
DictionaryVariables
280
     0
  1
Standard
  0
DICTIONARYVAR
  5
1E2
102
{ACAD_REACTORS
330
1DD
102
}
330
1DD
100
DictionaryVariables
280
     0
  1
Standard
  0
DICTIONARY
  5
1DF
330
6A
100
AcDbDictionary
280
     1
281
     1
  3
ACAD_ROUNDTRIP_2008_TABLESTYLE_CELLSTYLEMAP
360
1E0
  0
CELLSTYLEMAP
  5
1E0
102
{ACAD_REACTORS
330
1DF
102
}
330
1DF
100
AcDbCellStyleMap
 90
        3
300
CELLSTYLE
  1
TABLEFORMAT_BEGIN
 90
        5
170
     1
 91
        0
 92
    32768
 62
   257
 93
        1
300
CONTENTFORMAT
  1
CONTENTFORMAT_BEGIN
 90
        0
 91
        0
 92
        4
 93
        0
300

 40
0.0
140
1.0
 94
        5
 62
     0
340
11
144
6.0
309
CONTENTFORMAT_END
171
     1
301
MARGIN
  1
CELLMARGIN_BEGIN
 40
1.5
 40
1.5
 40
1.5
 40
1.5
 40
1.5
 40
1.5
309
CELLMARGIN_END
 94
        6
 95
        1
302
GRIDFORMAT
  1
GRIDFORMAT_BEGIN
 90
        0
 91
        1
 62
     0
 92
       -2
340
14
 93
        0
 40
0.045
309
GRIDFORMAT_END
 95
        2
302
GRIDFORMAT
  1
GRIDFORMAT_BEGIN
 90
        0
 91
        1
 62
     0
 92
       -2
340
14
 93
        0
 40
0.045
309
GRIDFORMAT_END
 95
        4
302
GRIDFORMAT
  1
GRIDFORMAT_BEGIN
 90
        0
 91
        1
 62
     0
 92
       -2
340
14
 93
        0
 40
0.045
309
GRIDFORMAT_END
 95
        8
302
GRIDFORMAT
  1
GRIDFORMAT_BEGIN
 90
        0
 91
        1
 62
     0
 92
       -2
340
14
 93
        0
 40
0.045
309
GRIDFORMAT_END
 95
       16
302
GRIDFORMAT
  1
GRIDFORMAT_BEGIN
 90
        0
 91
        1
 62
     0
 92
       -2
340
14
 93
        0
 40
0.045
309
GRIDFORMAT_END
 95
       32
302
GRIDFORMAT
  1
GRIDFORMAT_BEGIN
 90
        0
 91
        1
 62
     0
 92
       -2
340
14
 93
        0
 40
0.045
309
GRIDFORMAT_END
309
TABLEFORMAT_END
  1
CELLSTYLE_BEGIN
 90
        1
 91
        1
300
_TITLE
309
CELLSTYLE_END
300
CELLSTYLE
  1
TABLEFORMAT_BEGIN
 90
        5
170
     1
 91
        0
 92
        0
 62
   257
 93
        1
300
CONTENTFORMAT
  1
CONTENTFORMAT_BEGIN
 90
        0
 91
        0
 92
        4
 93
        0
300

 40
0.0
140
1.0
 94
        5
 62
     0
340
11
144
4.5
309
CONTENTFORMAT_END
171
     1
301
MARGIN
  1
CELLMARGIN_BEGIN
 40
1.5
 40
1.5
 40
1.5
 40
1.5
 40
1.5
 40
1.5
309
CELLMARGIN_END
 94
        6
 95
        1
302
GRIDFORMAT
  1
GRIDFORMAT_BEGIN
 90
        0
 91
        1
 62
     0
 92
       -2
340
14
 93
        0
 40
0.045
309
GRIDFORMAT_END
 95
        2
302
GRIDFORMAT
  1
GRIDFORMAT_BEGIN
 90
        0
 91
        1
 62
     0
 92
       -2
340
14
 93
        0
 40
0.045
309
GRIDFORMAT_END
 95
        4
302
GRIDFORMAT
  1
GRIDFORMAT_BEGIN
 90
        0
 91
        1
 62
     0
 92
       -2
340
14
 93
        0
 40
0.045
309
GRIDFORMAT_END
 95
        8
302
GRIDFORMAT
  1
GRIDFORMAT_BEGIN
 90
        0
 91
        1
 62
     0
 92
       -2
340
14
 93
        0
 40
0.045
309
GRIDFORMAT_END
 95
       16
302
GRIDFORMAT
  1
GRIDFORMAT_BEGIN
 90
        0
 91
        1
 62
     0
 92
       -2
340
14
 93
        0
 40
0.045
309
GRIDFORMAT_END
 95
       32
302
GRIDFORMAT
  1
GRIDFORMAT_BEGIN
 90
        0
 91
        1
 62
     0
 92
       -2
340
14
 93
        0
 40
0.045
309
GRIDFORMAT_END
309
TABLEFORMAT_END
  1
CELLSTYLE_BEGIN
 90
        2
 91
        1
300
_HEADER
309
CELLSTYLE_END
300
CELLSTYLE
  1
TABLEFORMAT_BEGIN
 90
        5
170
     1
 91
        0
 92
        0
 62
   257
 93
        1
300
CONTENTFORMAT
  1
CONTENTFORMAT_BEGIN
 90
        0
 91
        0
 92
        4
 93
        0
300

 40
0.0
140
1.0
 94
        2
 62
     0
340
11
144
4.5
309
CONTENTFORMAT_END
171
     1
301
MARGIN
  1
CELLMARGIN_BEGIN
 40
1.5
 40
1.5
 40
1.5
 40
1.5
 40
1.5
 40
1.5
309
CELLMARGIN_END
 94
        6
 95
        1
302
GRIDFORMAT
  1
GRIDFORMAT_BEGIN
 90
        0
 91
        1
 62
     0
 92
       -2
340
14
 93
        0
 40
0.045
309
GRIDFORMAT_END
 95
        2
302
GRIDFORMAT
  1
GRIDFORMAT_BEGIN
 90
        0
 91
        1
 62
     0
 92
       -2
340
14
 93
        0
 40
0.045
309
GRIDFORMAT_END
 95
        4
302
GRIDFORMAT
  1
GRIDFORMAT_BEGIN
 90
        0
 91
        1
 62
     0
 92
       -2
340
14
 93
        0
 40
0.045
309
GRIDFORMAT_END
 95
        8
302
GRIDFORMAT
  1
GRIDFORMAT_BEGIN
 90
        0
 91
        1
 62
     0
 92
       -2
340
14
 93
        0
 40
0.045
309
GRIDFORMAT_END
 95
       16
302
GRIDFORMAT
  1
GRIDFORMAT_BEGIN
 90
        0
 91
        1
 62
     0
 92
       -2
340
14
 93
        0
 40
0.045
309
GRIDFORMAT_END
 95
       32
302
GRIDFORMAT
  1
GRIDFORMAT_BEGIN
 90
        0
 91
        1
 62
     0
 92
       -2
340
14
 93
        0
 40
0.045
309
GRIDFORMAT_END
309
TABLEFORMAT_END
  1
CELLSTYLE_BEGIN
 90
        3
 91
        2
300
_DATA
309
CELLSTYLE_END
  0
ENDSEC
  0
EOF