0
SECTION
  2
HEADER
  9
$ACADVER
  1
AC1027
  9
$ACADMAINTVER
 70
     8
  9
$DWGCODEPAGE
  3
ANSI_1252
  9
$REQUIREDVERSIONS
160
                 0
  9
$COMMENTS
  1
File was created by Cadenas
  9
$CUSTOMPROPERTYTAG
  1
NN
  9
$CUSTOMPROPERTY
  1
Eccentric Collar Intermediate Duty Wide Slot Take Up Metric Bore
  9
$CUSTOMPROPERTYTAG
  1
NT
  9
$CUSTOMPROPERTY
  1
Eccentric Collar Take-Up Bearings -(Intermediate Duty) -Wide Slot
  9
$CUSTOMPROPERTYTAG
  1
NB
  9
$CUSTOMPROPERTY
  1
130796
  9
$CUSTOMPROPERTYTAG
  1
NBSYN
  9
$CUSTOMPROPERTY
  1
$PN.
  9
$CUSTOMPROPERTYTAG
  1
LINA
  9
$CUSTOMPROPERTY
  1
130796
  9
$CUSTOMPROPERTYTAG
  1
SERIES
  9
$CUSTOMPROPERTY
  1
207
  9
$CUSTOMPROPERTYTAG
  1
SS
  9
$CUSTOMPROPERTY
  1
35
  9
$CUSTOMPROPERTYTAG
  1
PN
  9
$CUSTOMPROPERTY
  1
130796
  9
$CUSTOMPROPERTYTAG
  1
DESCRIPTION
  9
$CUSTOMPROPERTY
  1
WSTU-SXV-35M
  9
$CUSTOMPROPERTYTAG
  1
W
  9
$CUSTOMPROPERTY
  1
1.2
  9
$CUSTOMPROPERTYTAG
  1
FS
  9
$CUSTOMPROPERTY
  1
WS308
  9
$CUSTOMPROPERTYTAG
  1
A
  9
$CUSTOMPROPERTY
  1
38.9
  9
$CUSTOMPROPERTYTAG
  1
B
  9
$CUSTOMPROPERTY
  1
123.7
  9
$CUSTOMPROPERTYTAG
  1
C
  9
$CUSTOMPROPERTY
  1
13.49
  9
$CUSTOMPROPERTYTAG
  1
D
  9
$CUSTOMPROPERTY
  1
63.5
  9
$CUSTOMPROPERTYTAG
  1
E
  9
$CUSTOMPROPERTY
  1
77.7
  9
$CUSTOMPROPERTYTAG
  1
F
  9
$CUSTOMPROPERTY
  1
19.1
  9
$CUSTOMPROPERTYTAG
  1
G
  9
$CUSTOMPROPERTY
  1
12.7
  9
$CUSTOMPROPERTYTAG
  1
H
  9
$CUSTOMPROPERTY
  1
16.0
  9
$CUSTOMPROPERTYTAG
  1
J
  9
$CUSTOMPROPERTY
  1
63.5
  9
$CUSTOMPROPERTYTAG
  1
K
  9
$CUSTOMPROPERTY
  1
36.6
  9
$CUSTOMPROPERTYTAG
  1
L
  9
$CUSTOMPROPERTY
  1
54.1
  9
$CUSTOMPROPERTYTAG
  1
M
  9
$CUSTOMPROPERTY
  1
88.39/89.15
  9
$CUSTOMPROPERTYTAG
  1
N
  9
$CUSTOMPROPERTY
  1
104.9
  9
$CUSTOMPROPERTYTAG
  1
R
  9
$CUSTOMPROPERTY
  1
9.4
  9
$CUSTOMPROPERTYTAG
  1
S
  9
$CUSTOMPROPERTY
  1
29.5
  9
$CUSTOMPROPERTYTAG
  1
T
  9
$CUSTOMPROPERTY
  1
41.3
  9
$CUSTOMPROPERTYTAG
  1
COMPANY
  9
$CUSTOMPROPERTY
  1
baldor
  9
$INSBASE
 10
0.0
 20
0.0
 30
0.0
  9
$EXTMIN
 10
1.000000000000000E+20
 20
1.000000000000000E+20
 30
1.000000000000000E+20
  9
$EXTMAX
 10
-1.000000000000000E+20
 20
-1.000000000000000E+20
 30
-1.000000000000000E+20
  9
$LIMMIN
 10
0.0
 20
0.0
  9
$LIMMAX
 10
420.0
 20
297.0
  9
$ORTHOMODE
 70
     0
  9
$REGENMODE
 70
     1
  9
$FILLMODE
 70
     1
  9
$QTEXTMODE
 70
     0
  9
$MIRRTEXT
 70
     1
  9
$LTSCALE
 40
1.0
  9
$ATTMODE
 70
     1
  9
$TEXTSIZE
 40
2.5
  9
$TRACEWID
 40
1.0
  9
$TEXTSTYLE
  7
Standard
  9
$CLAYER
  8
0
  9
$CELTYPE
  6
ByLayer
  9
$CECOLOR
 62
   256
  9
$CELTSCALE
 40
1.0
  9
$DISPSILH
 70
     0
  9
$DIMSCALE
 40
1.0
  9
$DIMASZ
 40
2.5
  9
$DIMEXO
 40
0.625
  9
$DIMDLI
 40
3.75
  9
$DIMRND
 40
0.0
  9
$DIMDLE
 40
0.0
  9
$DIMEXE
 40
1.25
  9
$DIMTP
 40
0.0
  9
$DIMTM
 40
0.0
  9
$DIMTXT
 40
2.5
  9
$DIMCEN
 40
2.5
  9
$DIMTSZ
 40
0.0
  9
$DIMTOL
 70
     0
  9
$DIMLIM
 70
     0
  9
$DIMTIH
 70
     0
  9
$DIMTOH
 70
     0
  9
$DIMSE1
 70
     0
  9
$DIMSE2
 70
     0
  9
$DIMTAD
 70
     1
  9
$DIMZIN
 70
     8
  9
$DIMBLK
  1

  9
$DIMASO
 70
     1
  9
$DIMSHO
 70
     1
  9
$DIMPOST
  1

  9
$DIMAPOST
  1

  9
$DIMALT
 70
     0
  9
$DIMALTD
 70
     3
  9
$DIMALTF
 40
0.03937007874016
  9
$DIMLFAC
 40
1.0
  9
$DIMTOFL
 70
     1
  9
$DIMTVP
 40
0.0
  9
$DIMTIX
 70
     0
  9
$DIMSOXD
 70
     0
  9
$DIMSAH
 70
     0
  9
$DIMBLK1
  1

  9
$DIMBLK2
  1

  9
$DIMSTYLE
  2
ISO-25
  9
$DIMCLRD
 70
     0
  9
$DIMCLRE
 70
     0
  9
$DIMCLRT
 70
     0
  9
$DIMTFAC
 40
1.0
  9
$DIMGAP
 40
0.625
  9
$DIMJUST
 70
     0
  9
$DIMSD1
 70
     0
  9
$DIMSD2
 70
     0
  9
$DIMTOLJ
 70
     0
  9
$DIMTZIN
 70
     8
  9
$DIMALTZ
 70
     0
  9
$DIMALTTZ
 70
     0
  9
$DIMUPT
 70
     0
  9
$DIMDEC
 70
     2
  9
$DIMTDEC
 70
     2
  9
$DIMALTU
 70
     2
  9
$DIMALTTD
 70
     3
  9
$DIMTXSTY
  7
Standard
  9
$DIMAUNIT
 70
     0
  9
$DIMADEC
 70
     0
  9
$DIMALTRND
 40
0.0
  9
$DIMAZIN
 70
     0
  9
$DIMDSEP
 70
    44
  9
$DIMATFIT
 70
     3
  9
$DIMFRAC
 70
     0
  9
$DIMLDRBLK
  1

  9
$DIMLUNIT
 70
     2
  9
$DIMLWD
 70
    -2
  9
$DIMLWE
 70
    -2
  9
$DIMTMOVE
 70
     0
  9
$DIMFXL
 40
1.0
  9
$DIMFXLON
 70
     0
  9
$DIMJOGANG
 40
0.7853981633974483
  9
$DIMTFILL
 70
     0
  9
$DIMTFILLCLR
 70
     0
  9
$DIMARCSYM
 70
     0
  9
$DIMLTYPE
  6

  9
$DIMLTEX1
  6

  9
$DIMLTEX2
  6

  9
$DIMTXTDIRECTION
 70
     0
  9
$LUNITS
 70
     2
  9
$LUPREC
 70
     4
  9
$SKETCHINC
 40
1.0
  9
$FILLETRAD
 40
10.0
  9
$AUNITS
 70
     0
  9
$AUPREC
 70
     0
  9
$MENU
  1
.
  9
$ELEVATION
 40
0.0
  9
$PELEVATION
 40
0.0
  9
$THICKNESS
 40
0.0
  9
$LIMCHECK
 70
     0
  9
$CHAMFERA
 40
0.0
  9
$CHAMFERB
 40
0.0
  9
$CHAMFERC
 40
0.0
  9
$CHAMFERD
 40
0.0
  9
$SKPOLY
 70
     0
  9
$TDCREATE
 40
2458168.985826701
  9
$TDUCREATE
 40
2458168.944160035
  9
$TDUPDATE
 40
2458168.985826887
  9
$TDUUPDATE
 40
2458168.94416022
  9
$TDINDWG
 40
0.0000000116
  9
$TDUSRTIMER
 40
0.0000000116
  9
$USRTIMER
 70
     1
  9
$ANGBASE
 50
0.0
  9
$ANGDIR
 70
     0
  9
$PDMODE
 70
     0
  9
$PDSIZE
 40
0.0
  9
$PLINEWID
 40
0.0
  9
$SPLFRAME
 70
     0
  9
$SPLINETYPE
 70
     6
  9
$SPLINESEGS
 70
     8
  9
$HANDSEED
  5
1A5
  9
$SURFTAB1
 70
     6
  9
$SURFTAB2
 70
     6
  9
$SURFTYPE
 70
     6
  9
$SURFU
 70
     6
  9
$SURFV
 70
     6
  9
$UCSBASE
  2

  9
$UCSNAME
  2

  9
$UCSORG
 10
0.0
 20
0.0
 30
0.0
  9
$UCSXDIR
 10
1.0
 20
0.0
 30
0.0
  9
$UCSYDIR
 10
0.0
 20
1.0
 30
0.0
  9
$UCSORTHOREF
  2

  9
$UCSORTHOVIEW
 70
     0
  9
$UCSORGTOP
 10
0.0
 20
0.0
 30
0.0
  9
$UCSORGBOTTOM
 10
0.0
 20
0.0
 30
0.0
  9
$UCSORGLEFT
 10
0.0
 20
0.0
 30
0.0
  9
$UCSORGRIGHT
 10
0.0
 20
0.0
 30
0.0
  9
$UCSORGFRONT
 10
0.0
 20
0.0
 30
0.0
  9
$UCSORGBACK
 10
0.0
 20
0.0
 30
0.0
  9
$PUCSBASE
  2

  9
$PUCSNAME
  2

  9
$PUCSORG
 10
0.0
 20
0.0
 30
0.0
  9
$PUCSXDIR
 10
1.0
 20
0.0
 30
0.0
  9
$PUCSYDIR
 10
0.0
 20
1.0
 30
0.0
  9
$PUCSORTHOREF
  2

  9
$PUCSORTHOVIEW
 70
     0
  9
$PUCSORGTOP
 10
0.0
 20
0.0
 30
0.0
  9
$PUCSORGBOTTOM
 10
0.0
 20
0.0
 30
0.0
  9
$PUCSORGLEFT
 10
0.0
 20
0.0
 30
0.0
  9
$PUCSORGRIGHT
 10
0.0
 20
0.0
 30
0.0
  9
$PUCSORGFRONT
 10
0.0
 20
0.0
 30
0.0
  9
$PUCSORGBACK
 10
0.0
 20
0.0
 30
0.0
  9
$USERI1
 70
     0
  9
$USERI2
 70
     0
  9
$USERI3
 70
     0
  9
$USERI4
 70
     0
  9
$USERI5
 70
     0
  9
$USERR1
 40
0.0
  9
$USERR2
 40
0.0
  9
$USERR3
 40
0.0
  9
$USERR4
 40
0.0
  9
$USERR5
 40
0.0
  9
$WORLDVIEW
 70
     1
  9
$SHADEDGE
 70
     3
  9
$SHADEDIF
 70
    70
  9
$TILEMODE
 70
     1
  9
$MAXACTVP
 70
    64
  9
$PINSBASE
 10
0.0
 20
0.0
 30
0.0
  9
$PLIMCHECK
 70
     0
  9
$PEXTMIN
 10
1.000000000000000E+20
 20
1.000000000000000E+20
 30
1.000000000000000E+20
  9
$PEXTMAX
 10
-1.000000000000000E+20
 20
-1.000000000000000E+20
 30
-1.000000000000000E+20
  9
$PLIMMIN
 10
0.0
 20
0.0
  9
$PLIMMAX
 10
420.0
 20
297.0
  9
$UNITMODE
 70
     0
  9
$VISRETAIN
 70
     1
  9
$PLINEGEN
 70
     0
  9
$PSLTSCALE
 70
     1
  9
$TREEDEPTH
 70
  3020
  9
$CMLSTYLE
  2
Standard
  9
$CMLJUST
 70
     0
  9
$CMLSCALE
 40
20.0
  9
$PROXYGRAPHICS
 70
     1
  9
$MEASUREMENT
 70
     1
  9
$CELWEIGHT
370
    -1
  9
$ENDCAPS
280
     0
  9
$JOINSTYLE
280
     0
  9
$LWDISPLAY
290
     0
  9
$INSUNITS
 70
     4
  9
$HYPERLINKBASE
  1

  9
$STYLESHEET
  1

  9
$XEDIT
290
     1
  9
$CEPSNTYPE
380
     0
  9
$PSTYLEMODE
290
     1
  9
$FINGERPRINTGUID
  2
{69C2E5F6-81F1-45F7-A71D-EFA8861ADBA7}
  9
$VERSIONGUID
  2
{FAEB1C32-E019-11D5-929B-00C0DF256EC4}
  9
$EXTNAMES
290
     1
  9
$PSVPSCALE
 40
0.0
  9
$OLESTARTUP
290
     0
  9
$SORTENTS
280
   127
  9
$INDEXCTL
280
     0
  9
$HIDETEXT
280
     1
  9
$XCLIPFRAME
280
     2
  9
$HALOGAP
280
     0
  9
$OBSCOLOR
 70
   257
  9
$OBSLTYPE
280
     0
  9
$INTERSECTIONDISPLAY
280
     0
  9
$INTERSECTIONCOLOR
 70
   257
  9
$DIMASSOC
280
     2
  9
$PROJECTNAME
  1

  9
$CAMERADISPLAY
290
     0
  9
$LENSLENGTH
 40
50.0
  9
$CAMERAHEIGHT
 40
0.0
  9
$STEPSPERSEC
 40
2.0
  9
$STEPSIZE
 40
6.0
  9
$3DDWFPREC
 40
2.0
  9
$PSOLWIDTH
 40
5.0
  9
$PSOLHEIGHT
 40
80.0
  9
$LOFTANG1
 40
1.570796326794897
  9
$LOFTANG2
 40
1.570796326794897
  9
$LOFTMAG1
 40
0.0
  9
$LOFTMAG2
 40
0.0
  9
$LOFTPARAM
 70
     7
  9
$LOFTNORMALS
280
     1
  9
$LATITUDE
 40
37.795
  9
$LONGITUDE
 40
-122.394
  9
$NORTHDIRECTION
 40
0.0
  9
$TIMEZONE
 70
 -8000
  9
$LIGHTGLYPHDISPLAY
280
     1
  9
$TILEMODELIGHTSYNCH
280
     1
  9
$CMATERIAL
347
44
  9
$SOLIDHIST
280
     0
  9
$SHOWHIST
280
     1
  9
$DWFFRAME
280
     2
  9
$DGNFRAME
280
     2
  9
$REALWORLDSCALE
290
     1
  9
$INTERFERECOLOR
 62
   256
  9
$CSHADOW
280
     0
  9
$SHADOWPLANELOCATION
 40
0.0
  0
ENDSEC
  0
SECTION
  2
CLASSES
  0
CLASS
  1
ACDBDICTIONARYWDFLT
  2
AcDbDictionaryWithDefault
  3
ObjectDBX Classes
 90
        0
 91
        4
280
     0
281
     0
  0
CLASS
  1
VISUALSTYLE
  2
AcDbVisualStyle
  3
ObjectDBX Classes
 90
     4095
 91
        4
280
     0
281
     0
  0
CLASS
  1
MATERIAL
  2
AcDbMaterial
  3
ObjectDBX Classes
 90
     1153
 91
        4
280
     0
281
     0
  0
CLASS
  1
SCALE
  2
AcDbScale
  3
ObjectDBX Classes
 90
     1153
 91
        4
280
     0
281
     0
  0
CLASS
  1
TABLESTYLE
  2
AcDbTableStyle
  3
ObjectDBX Classes
 90
     4095
 91
        4
280
     0
281
     0
  0
CLASS
  1
MLEADERSTYLE
  2
AcDbMLeaderStyle
  3
ACDB_MLEADERSTYLE_CLASS
 90
     4095
 91
        4
280
     0
281
     0
  0
CLASS
  1
SUN
  2
AcDbSun
  3
SCENEOE
 90
     1153
 91
        4
280
     0
281
     0
  0
CLASS
  1
DICTIONARYVAR
  2
AcDbDictionaryVar
  3
ObjectDBX Classes
 90
        0
 91
        4
280
     0
281
     0
  0
CLASS
  1
CELLSTYLEMAP
  2
AcDbCellStyleMap
  3
ObjectDBX Classes
 90
     1152
 91
        4
280
     0
281
     0
  0
ENDSEC
  0
SECTION
  2
TABLES
  0
TABLE
  2
VPORT
  5
8
330
0
100
AcDbSymbolTable
 70
     1
  0
VPORT
  5
29
330
8
100
AcDbSymbolTableRecord
100
AcDbViewportTableRecord
  2
*Active
 70
     0
 10
0.0
 20
0.0
 11
1.0
 21
1.0
 12
11.01745467666041
 22
0.0
 13
0.0
 23
0.0
 14
10.0
 24
10.0
 15
10.0
 25
10.0
 16
0.0
 26
0.0
 36
1.0
 17
0.0
 27
0.0
 37
0.0
 40
106.998
 41
1.283461302637552
 42
50.0
 43
0.0
 44
0.0
 50
0.0
 51
0.0
 71
     0
 72
   100
 73
     1
 74
     3
 75
     0
 76
     0
 77
     0
 78
     0
281
     0
 65
     1
110
0.0
120
0.0
130
0.0
111
1.0
121
0.0
131
0.0
112
0.0
122
1.0
132
0.0
 79
     0
146
0.0
348
2F
 60
     3
 61
     5
292
     1
282
     1
141
0.0
142
0.0
 63
   250
361
6D
  0
ENDTAB
  0
TABLE
  2
LTYPE
  5
5
330
0
100
AcDbSymbolTable
 70
     3
  0
LTYPE
  5
14
330
5
100
AcDbSymbolTableRecord
100
AcDbLinetypeTableRecord
  2
ByBlock
 70
     0
  3

 72
    65
 73
     0
 40
0.0
  0
LTYPE
  5
15
330
5
100
AcDbSymbolTableRecord
100
AcDbLinetypeTableRecord
  2
ByLayer
 70
     0
  3

 72
    65
 73
     0
 40
0.0
  0
LTYPE
  5
16
330
5
100
AcDbSymbolTableRecord
100
AcDbLinetypeTableRecord
  2
Continuous
 70
     0
  3
Solid line
 72
    65
 73
     0
 40
0.0
  0
LTYPE
  5
A7
330
5
100
AcDbSymbolTableRecord
100
AcDbLinetypeTableRecord
  2
Dashed
 70
     0
  3

 72
    65
 73
     2
 40
2.0
 49
1.0
 74
     0
 49
-1.0
 74
     0
  0
LTYPE
  5
FA
330
5
100
AcDbSymbolTableRecord
100
AcDbLinetypeTableRecord
  2
Center
 70
     0
  3

 72
    65
 73
     4
 40
1.5
 49
0.45
 74
     0
 49
-0.5
 74
     0
 49
0.05
 74
     0
 49
-0.5
 74
     0
  0
ENDTAB
  0
TABLE
  2
LAYER
  5
2
330
0
100
AcDbSymbolTable
 70
     7
  0
LAYER
  5
10
330
2
100
AcDbSymbolTableRecord
100
AcDbLayerTableRecord
  2
0
 70
     0
 62
     7
  6
Continuous
370
    -3
390
F
347
46
348
0
  0
LAYER
  5
72
330
2
100
AcDbSymbolTableRecord
100
AcDbLayerTableRecord
  2
AM_6
 70
     0
 62
    -2
  6
Continuous
370
    35
390
F
347
46
348
0
  0
LAYER
  5
A8
330
2
100
AcDbSymbolTableRecord
100
AcDbLayerTableRecord
  2
AM_9
 70
     0
 62
     6
  6
Dashed
370
    25
390
F
347
46
348
0
  0
LAYER
  5
B8
330
2
100
AcDbSymbolTableRecord
100
AcDbLayerTableRecord
  2
AM_5
 70
     0
 62
     3
  6
Continuous
370
    25
390
F
347
46
348
0
  0
LAYER
  5
BB
330
2
100
AcDbSymbolTableRecord
100
AcDbLayerTableRecord
  2
AM_4
 70
     0
 62
     7
  6
Continuous
370
    50
390
F
347
46
348
0
  0
LAYER
  5
FB
330
2
100
AcDbSymbolTableRecord
100
AcDbLayerTableRecord
  2
AM_7
 70
     0
 62
     7
  6
Center
370
    25
390
F
347
46
348
0
  0
LAYER
  5
198
330
2
100
AcDbSymbolTableRecord
100
AcDbLayerTableRecord
  2
ConnectionPoints
 70
     0
 62
     7
  6
Continuous
370
    50
390
F
347
46
348
0
  0
ENDTAB
  0
TABLE
  2
STYLE
  5
3
330
0
100
AcDbSymbolTable
 70
     1
  0
STYLE
  5
11
330
3
100
AcDbSymbolTableRecord
100
AcDbTextStyleTableRecord
  2
Standard
 70
     0
 40
0.0
 41
1.0
 50
0.0
 71
     0
 42
2.5
  3
txt
  4

  0
ENDTAB
  0
TABLE
  2
VIEW
  5
6
330
0
100
AcDbSymbolTable
 70
     0
  0
ENDTAB
  0
TABLE
  2
UCS
  5
7
330
0
100
AcDbSymbolTable
 70
     0
  0
ENDTAB
  0
TABLE
  2
APPID
  5
9
330
0
100
AcDbSymbolTable
 70
     1
  0
APPID
  5
12
330
9
100
AcDbSymbolTableRecord
100
AcDbRegAppTableRecord
  2
ACAD
 70
     0
  0
ENDTAB
  0
TABLE
  2
DIMSTYLE
  5
A
330
0
100
AcDbSymbolTable
 70
     1
100
AcDbDimStyleTable
  0
DIMSTYLE
105
27
330
A
100
AcDbSymbolTableRecord
100
AcDbDimStyleTableRecord
  2
ISO-25
 70
     0
 41
2.5
 42
0.625
 43
3.75
 44
1.25
 73
     0
 74
     0
 77
     1
 78
     8
140
2.5
141
2.5
143
0.03937007874016
147
0.625
171
     3
172
     1
178
     0
271
     2
272
     2
274
     3
278
    44
283
     0
284
     8
340
11
  0
ENDTAB
  0
TABLE
  2
BLOCK_RECORD
  5
1
330
0
100
AcDbSymbolTable
 70
     5
  0
BLOCK_RECORD
  5
1F
330
1
100
AcDbSymbolTableRecord
100
AcDbBlockTableRecord
  2
*Model_Space
340
22
 70
     0
280
     1
281
     0
  0
BLOCK_RECORD
  5
1B
330
1
100
AcDbSymbolTableRecord
100
AcDbBlockTableRecord
  2
*Paper_Space
340
1E
 70
     0
280
     1
281
     0
  0
BLOCK_RECORD
  5
23
330
1
100
AcDbSymbolTableRecord
100
AcDbBlockTableRecord
  2
*Paper_Space0
340
26
 70
     0
280
     1
281
     0
  0
BLOCK_RECORD
  5
6E
330
1
100
AcDbSymbolTableRecord
100
AcDbBlockTableRecord
  2
1_130796_0
340
0
102
{BLKREFS
331
6F
102
}
 70
     0
280
     1
281
     0
  0
BLOCK_RECORD
  5
8F
330
1
100
AcDbSymbolTableRecord
100
AcDbBlockTableRecord
  2
2_125648_0_in_130796_0
340
0
102
{BLKREFS
331
90
102
}
 70
     0
280
     1
281
     0
  0
BLOCK_RECORD
  5
C4
330
1
100
AcDbSymbolTableRecord
100
AcDbBlockTableRecord
  2
3_405016_Metric_0_in_130796_0
340
0
102
{BLKREFS
331
C5
102
}
 70
     0
280
     1
281
     0
  0
BLOCK_RECORD
  5
13C
330
1
100
AcDbSymbolTableRecord
100
AcDbBlockTableRecord
  2
4_130796H_0_in_130796_0
340
0
102
{BLKREFS
331
13D
102
}
 70
     0
280
     1
281
     0
  0
ENDTAB
  0
ENDSEC
  0
SECTION
  2
BLOCKS
  0
BLOCK
  5
20
330
1F
100
AcDbEntity
  8
0
100
AcDbBlockBegin
  2
*Model_Space
 70
     0
 10
0.0
 20
0.0
 30
0.0
  3
*Model_Space
  1

  0
ENDBLK
  5
21
330
1F
100
AcDbEntity
  8
0
100
AcDbBlockEnd
  0
BLOCK
  5
1C
330
1B
100
AcDbEntity
 67
     1
  8
0
100
AcDbBlockBegin
  2
*Paper_Space
 70
     0
 10
0.0
 20
0.0
 30
0.0
  3
*Paper_Space
  1

  0
ENDBLK
  5
1D
330
1B
100
AcDbEntity
 67
     1
  8
0
100
AcDbBlockEnd
  0
BLOCK
  5
24
330
23
100
AcDbEntity
  8
0
100
AcDbBlockBegin
  2
*Paper_Space0
 70
     0
 10
0.0
 20
0.0
 30
0.0
  3
*Paper_Space0
  1

  0
ENDBLK
  5
25
330
23
100
AcDbEntity
  8
0
100
AcDbBlockEnd
  0
BLOCK
  5
70
330
6E
100
AcDbEntity
  8
0
100
AcDbBlockBegin
  2
1_130796_0
 70
     2
 10
0.0
 20
0.0
 30
0.0
  3
1_130796_0
  1

  0
ATTDEF
  5
73
330
6E
100
AcDbEntity
  8
AM_6
100
AcDbText
 10
83.33500000000001
 20
52.45
 30
0.0
 40
0.5
  1
Eccentric Collar Intermediate Duty Wide Slot Take Up Metric Bore
100
AcDbAttributeDefinition
  3

  2
NN
 70
     8
280
     0
  0
ATTDEF
  5
74
330
6E
100
AcDbEntity
  8
AM_6
100
AcDbText
 10
83.33500000000001
 20
51.95
 30
0.0
 40
0.5
  1
Eccentric Collar Take-Up Bearings -(Intermediate Duty) -Wide Slot
100
AcDbAttributeDefinition
  3

  2
NT
 70
     8
280
     0
  0
ATTDEF
  5
75
330
6E
100
AcDbEntity
  8
AM_6
100
AcDbText
 10
83.33500000000001
 20
51.45
 30
0.0
 40
0.5
  1
130796
100
AcDbAttributeDefinition
  3

  2
NB
 70
     8
280
     0
  0
ATTDEF
  5
76
330
6E
100
AcDbEntity
  8
AM_6
100
AcDbText
 10
83.33500000000001
 20
50.95
 30
0.0
 40
0.5
  1
$PN.
100
AcDbAttributeDefinition
  3

  2
NBSYN
 70
     8
280
     0
  0
ATTDEF
  5
77
330
6E
100
AcDbEntity
  8
AM_6
100
AcDbText
 10
83.33500000000001
 20
50.45
 30
0.0
 40
0.5
  1
130796
100
AcDbAttributeDefinition
  3

  2
LINA
 70
     8
280
     0
  0
ATTDEF
  5
78
330
6E
100
AcDbEntity
  8
AM_6
100
AcDbText
 10
83.33500000000001
 20
49.95
 30
0.0
 40
0.5
  1
207
100
AcDbAttributeDefinition
  3

  2
SERIES
 70
     8
280
     0
  0
ATTDEF
  5
79
330
6E
100
AcDbEntity
  8
AM_6
100
AcDbText
 10
83.33500000000001
 20
49.45
 30
0.0
 40
0.5
  1
35
100
AcDbAttributeDefinition
  3

  2
SS
 70
     8
280
     0
  0
ATTDEF
  5
7A
330
6E
100
AcDbEntity
  8
AM_6
100
AcDbText
 10
83.33500000000001
 20
48.95
 30
0.0
 40
0.5
  1
130796
100
AcDbAttributeDefinition
  3

  2
PN
 70
     8
280
     0
  0
ATTDEF
  5
7B
330
6E
100
AcDbEntity
  8
AM_6
100
AcDbText
 10
83.33500000000001
 20
48.45
 30
0.0
 40
0.5
  1
WSTU-SXV-35M
100
AcDbAttributeDefinition
  3

  2
DESCRIPTION
 70
     8
280
     0
  0
ATTDEF
  5
7C
330
6E
100
AcDbEntity
  8
AM_6
100
AcDbText
 10
83.33500000000001
 20
47.95
 30
0.0
 40
0.5
  1
1.2
100
AcDbAttributeDefinition
  3

  2
W
 70
     8
280
     0
  0
ATTDEF
  5
7D
330
6E
100
AcDbEntity
  8
AM_6
100
AcDbText
 10
83.33500000000001
 20
47.45
 30
0.0
 40
0.5
  1
WS308
100
AcDbAttributeDefinition
  3

  2
FS
 70
     8
280
     0
  0
ATTDEF
  5
7E
330
6E
100
AcDbEntity
  8
AM_6
100
AcDbText
 10
83.33500000000001
 20
46.95
 30
0.0
 40
0.5
  1
38.9
100
AcDbAttributeDefinition
  3

  2
A
 70
     8
280
     0
  0
ATTDEF
  5
7F
330
6E
100
AcDbEntity
  8
AM_6
100
AcDbText
 10
83.33500000000001
 20
46.45
 30
0.0
 40
0.5
  1
123.7
100
AcDbAttributeDefinition
  3

  2
B
 70
     8
280
     0
  0
ATTDEF
  5
80
330
6E
100
AcDbEntity
  8
AM_6
100
AcDbText
 10
83.33500000000001
 20
45.95
 30
0.0
 40
0.5
  1
13.49
100
AcDbAttributeDefinition
  3

  2
C
 70
     8
280
     0
  0
ATTDEF
  5
81
330
6E
100
AcDbEntity
  8
AM_6
100
AcDbText
 10
83.33500000000001
 20
45.45
 30
0.0
 40
0.5
  1
63.5
100
AcDbAttributeDefinition
  3

  2
D
 70
     8
280
     0
  0
ATTDEF
  5
82
330
6E
100
AcDbEntity
  8
AM_6
100
AcDbText
 10
83.33500000000001
 20
44.95
 30
0.0
 40
0.5
  1
77.7
100
AcDbAttributeDefinition
  3

  2
E
 70
     8
280
     0
  0
ATTDEF
  5
83
330
6E
100
AcDbEntity
  8
AM_6
100
AcDbText
 10
83.33500000000001
 20
44.45
 30
0.0
 40
0.5
  1
19.1
100
AcDbAttributeDefinition
  3

  2
F
 70
     8
280
     0
  0
ATTDEF
  5
84
330
6E
100
AcDbEntity
  8
AM_6
100
AcDbText
 10
83.33500000000001
 20
43.95
 30
0.0
 40
0.5
  1
12.7
100
AcDbAttributeDefinition
  3

  2
G
 70
     8
280
     0
  0
ATTDEF
  5
85
330
6E
100
AcDbEntity
  8
AM_6
100
AcDbText
 10
83.33500000000001
 20
43.45
 30
0.0
 40
0.5
  1
16.0
100
AcDbAttributeDefinition
  3

  2
H
 70
     8
280
     0
  0
ATTDEF
  5
86
330
6E
100
AcDbEntity
  8
AM_6
100
AcDbText
 10
83.33500000000001
 20
42.95
 30
0.0
 40
0.5
  1
63.5
100
AcDbAttributeDefinition
  3

  2
J
 70
     8
280
     0
  0
ATTDEF
  5
87
330
6E
100
AcDbEntity
  8
AM_6
100
AcDbText
 10
83.33500000000001
 20
42.45
 30
0.0
 40
0.5
  1
36.6
100
AcDbAttributeDefinition
  3

  2
K
 70
     8
280
     0
  0
ATTDEF
  5
88
330
6E
100
AcDbEntity
  8
AM_6
100
AcDbText
 10
83.33500000000001
 20
41.95
 30
0.0
 40
0.5
  1
54.1
100
AcDbAttributeDefinition
  3

  2
L
 70
     8
280
     0
  0
ATTDEF
  5
89
330
6E
100
AcDbEntity
  8
AM_6
100
AcDbText
 10
83.33500000000001
 20
41.45
 30
0.0
 40
0.5
  1
88.39/89.15
100
AcDbAttributeDefinition
  3

  2
M
 70
     8
280
     0
  0
ATTDEF
  5
8A
330
6E
100
AcDbEntity
  8
AM_6
100
AcDbText
 10
83.33500000000001
 20
40.95
 30
0.0
 40
0.5
  1
104.9
100
AcDbAttributeDefinition
  3

  2
N
 70
     8
280
     0
  0
ATTDEF
  5
8B
330
6E
100
AcDbEntity
  8
AM_6
100
AcDbText
 10
83.33500000000001
 20
40.45
 30
0.0
 40
0.5
  1
9.4
100
AcDbAttributeDefinition
  3

  2
R
 70
     8
280
     0
  0
ATTDEF
  5
8C
330
6E
100
AcDbEntity
  8
AM_6
100
AcDbText
 10
83.33500000000001
 20
39.95
 30
0.0
 40
0.5
  1
29.5
100
AcDbAttributeDefinition
  3

  2
S
 70
     8
280
     0
  0
ATTDEF
  5
8D
330
6E
100
AcDbEntity
  8
AM_6
100
AcDbText
 10
83.33500000000001
 20
39.45
 30
0.0
 40
0.5
  1
41.3
100
AcDbAttributeDefinition
  3

  2
T
 70
     8
280
     0
  0
ATTDEF
  5
8E
330
6E
100
AcDbEntity
  8
AM_6
100
AcDbText
 10
83.33500000000001
 20
38.95
 30
0.0
 40
0.5
  1
baldor
100
AcDbAttributeDefinition
  3

  2
COMPANY
 70
     8
280
     0
  0
INSERT
  5
90
330
6E
100
AcDbEntity
  8
0
100
AcDbBlockReference
  2
2_125648_0_in_130796_0
 10
0.0
 20
0.0
 30
0.0
  0
INSERT
  5
C5
330
6E
100
AcDbEntity
  8
0
100
AcDbBlockReference
  2
3_405016_Metric_0_in_130796_0
 10
0.0
 20
0.0
 30
0.0
  0
INSERT
  5
13D
330
6E
100
AcDbEntity
  8
0
100
AcDbBlockReference
  2
4_130796H_0_in_130796_0
 10
0.0
 20
0.0
 30
0.0
  0
ENDBLK
  5
71
330
6E
100
AcDbEntity
  8
0
100
AcDbBlockEnd
  0
BLOCK
  5
91
330
8F
100
AcDbEntity
  8
0
100
AcDbBlockBegin
  2
2_125648_0_in_130796_0
 70
     2
 10
0.0
 20
0.0
 30
0.0
  3
2_125648_0_in_130796_0
  1

  0
ATTDEF
  5
93
330
8F
100
AcDbEntity
  8
AM_6
100
AcDbText
 10
42.75
 20
35.72234725980363
 30
0.0
 40
0.5
  1
Eccentric Collar Intermediate Duty Insert Metric Bore
100
AcDbAttributeDefinition
  3

  2
NN
 70
     8
280
     0
  0
ATTDEF
  5
94
330
8F
100
AcDbEntity
  8
AM_6
100
AcDbText
 10
42.75
 20
35.22234725980363
 30
0.0
 40
0.5
  1
Eccentric Collar Bearing Inserts -(Intermediate Duty)
100
AcDbAttributeDefinition
  3

  2
NT
 70
     8
280
     0
  0
ATTDEF
  5
95
330
8F
100
AcDbEntity
  8
AM_6
100
AcDbText
 10
42.75
 20
34.72234725980363
 30
0.0
 40
0.5
  1
125648
100
AcDbAttributeDefinition
  3

  2
NB
 70
     8
280
     0
  0
ATTDEF
  5
96
330
8F
100
AcDbEntity
  8
AM_6
100
AcDbText
 10
42.75
 20
34.22234725980363
 30
0.0
 40
0.5
  1
$PN.
100
AcDbAttributeDefinition
  3

  2
NBSYN
 70
     8
280
     0
  0
ATTDEF
  5
97
330
8F
100
AcDbEntity
  8
AM_6
100
AcDbText
 10
42.75
 20
33.72234725980363
 30
0.0
 40
0.5
  1
125648
100
AcDbAttributeDefinition
  3

  2
LINA
 70
     8
280
     0
  0
ATTDEF
  5
98
330
8F
100
AcDbEntity
  8
AM_6
100
AcDbText
 10
42.75
 20
33.22234725980363
 30
0.0
 40
0.5
  1
207
100
AcDbAttributeDefinition
  3

  2
SERIES
 70
     8
280
     0
  0
ATTDEF
  5
99
330
8F
100
AcDbEntity
  8
AM_6
100
AcDbText
 10
42.75
 20
32.72234725980363
 30
0.0
 40
0.5
  1
35
100
AcDbAttributeDefinition
  3

  2
SS
 70
     8
280
     0
  0
ATTDEF
  5
9A
330
8F
100
AcDbEntity
  8
AM_6
100
AcDbText
 10
42.75
 20
32.22234725980363
 30
0.0
 40
0.5
  1
125648
100
AcDbAttributeDefinition
  3

  2
PN
 70
     8
280
     0
  0
ATTDEF
  5
9B
330
8F
100
AcDbEntity
  8
AM_6
100
AcDbText
 10
42.75
 20
31.72234725980363
 30
0.0
 40
0.5
  1
INS-SXV-35M
100
AcDbAttributeDefinition
  3

  2
DESCRIPTION
 70
     8
280
     0
  0
ATTDEF
  5
9C
330
8F
100
AcDbEntity
  8
AM_6
100
AcDbText
 10
42.75
 20
31.22234725980363
 30
0.0
 40
0.5
  1
0.5
100
AcDbAttributeDefinition
  3

  2
WEIGHT
 70
     8
280
     0
  0
ATTDEF
  5
9D
330
8F
100
AcDbEntity
  8
AM_6
100
AcDbText
 10
42.75
 20
30.72234725980363
 30
0.0
 40
0.5
  1
38.9
100
AcDbAttributeDefinition
  3

  2
A
 70
     8
280
     0
  0
ATTDEF
  5
9E
330
8F
100
AcDbEntity
  8
AM_6
100
AcDbText
 10
42.75
 20
30.22234725980363
 30
0.0
 40
0.5
  1
19.1
100
AcDbAttributeDefinition
  3

  2
C
 70
     8
280
     0
  0
ATTDEF
  5
9F
330
8F
100
AcDbEntity
  8
AM_6
100
AcDbText
 10
42.75
 20
29.72234725980363
 30
0.0
 40
0.5
  1
72.0
100
AcDbAttributeDefinition
  3

  2
D
 70
     8
280
     0
  0
ATTDEF
  5
A0
330
8F
100
AcDbEntity
  8
AM_6
100
AcDbText
 10
42.75
 20
29.22234725980363
 30
0.0
 40
0.5
  1
5.1
100
AcDbAttributeDefinition
  3

  2
J
 70
     8
280
     0
  0
ATTDEF
  5
A1
330
8F
100
AcDbEntity
  8
AM_6
100
AcDbText
 10
42.75
 20
28.72234725980363
 30
0.0
 40
0.5
  1
54.1
100
AcDbAttributeDefinition
  3

  2
L
 70
     8
280
     0
  0
ATTDEF
  5
A2
330
8F
100
AcDbEntity
  8
AM_6
100
AcDbText
 10
42.75
 20
28.22234725980363
 30
0.0
 40
0.5
  1
M8 x 1.25
100
AcDbAttributeDefinition
  3

  2
N
 70
     8
280
     0
  0
ATTDEF
  5
A3
330
8F
100
AcDbEntity
  8
AM_6
100
AcDbText
 10
42.75
 20
27.72234725980363
 30
0.0
 40
0.5
  1
9.4
100
AcDbAttributeDefinition
  3

  2
W
 70
     8
280
     0
  0
ATTDEF
  5
A4
330
8F
100
AcDbEntity
  8
AM_6
100
AcDbText
 10
42.75
 20
27.22234725980363
 30
0.0
 40
0.5
  1
29.5
100
AcDbAttributeDefinition
  3

  2
Y
 70
     8
280
     0
  0
ATTDEF
  5
A5
330
8F
100
AcDbEntity
  8
AM_6
100
AcDbText
 10
42.75
 20
26.72234725980363
 30
0.0
 40
0.5
  1
46.7
100
AcDbAttributeDefinition
  3

  2
Z
 70
     8
280
     0
  0
ATTDEF
  5
A6
330
8F
100
AcDbEntity
  8
AM_6
100
AcDbText
 10
42.75
 20
26.22234725980363
 30
0.0
 40
0.5
  1
baldor
100
AcDbAttributeDefinition
  3

  2
COMPANY
 70
     8
280
     0
  0
LINE
  5
A9
330
8F
100
AcDbEntity
  8
AM_9
100
AcDbLine
 10
35.58046912776676
 20
-2.0
 30
0.0
 11
35.75000000000001
 21
-2.0
 31
0.0
  0
LINE
  5
AA
330
8F
100
AcDbEntity
  8
AM_9
100
AcDbLine
 10
35.75000000000001
 20
2.0
 30
0.0
 11
35.58050333161324
 21
2.0
 31
0.0
  0
LWPOLYLINE
  5
AB
330
8F
100
AcDbEntity
  8
AM_9
100
AcDbPolyline
 90
       12
 70
     0
 43
0.0
 10
35.58051632515219
 20
1.999999317105415
 10
35.56784717878107
 20
1.997972882551164
 10
35.47272902903455
 20
1.853036549400329
 10
35.38969362610914
 20
1.494246473232027
 10
35.32877316186774
 20
0.9650873633396715
 10
35.29688142189043
 20
0.3301329285107701
 10
35.29704949496819
 20
-0.3370096261035056
 10
35.32867820662121
 20
-0.9638924643495106
 10
35.38815345256382
 20
-1.484669527551504
 10
35.46924478017392
 20
-1.843010073877193
 10
35.56330222861959
 20
-1.996292680456683
 10
35.58048565184823
 20
-1.999999128818511
  0
ARC
  5
AC
330
8F
100
AcDbEntity
  8
AM_9
100
AcDbCircle
 10
35.75
 20
0.0000000000000013
 30
0.0
 40
2.000000000000001
100
AcDbArc
 50
270.0
 51
90.0
  0
LINE
  5
AD
330
8F
100
AcDbEntity
  8
AM_9
100
AcDbLine
 10
35.75000000000001
 20
2.0
 30
0.0
 11
35.75000000000001
 21
-2.0
 31
0.0
  0
ELLIPSE
  5
AE
330
8F
100
AcDbEntity
  8
AM_9
100
AcDbEllipse
 10
35.58452151816696
 20
0.0000000000000009
 30
0.0
 11
-3.661086488719253E-16
 21
-1.993002658000791
 31
0.0
210
0.0
220
0.0
230
1.0
 40
0.1412275118432284
 41
0.6284785845622576
 42
2.513114069027569
  0
CIRCLE
  5
AF
330
8F
100
AcDbEntity
  8
AM_9
100
AcDbCircle
 10
0.0
 20
0.0
 30
0.0
 40
34.28571428571429
  0
CIRCLE
  5
B0
330
8F
100
AcDbEntity
  8
AM_9
100
AcDbCircle
 10
0.0
 20
0.0
 30
0.0
 40
23.35
  0
CIRCLE
  5
B1
330
8F
100
AcDbEntity
  8
AM_9
100
AcDbCircle
 10
0.0
 20
0.0
 30
0.0
 40
17.85000000000001
  0
CIRCLE
  5
B2
330
8F
100
AcDbEntity
  8
AM_9
100
AcDbCircle
 10
0.0
 20
0.0
 30
0.0
 40
22.23809523809524
  0
LINE
  5
B3
330
8F
100
AcDbEntity
  8
AM_9
100
AcDbLine
 10
3.3235
 20
17.18368353780401
 30
0.0
 11
3.3235
 21
26.75261669444694
 31
0.0
  0
LINE
  5
B4
330
8F
100
AcDbEntity
  8
AM_9
100
AcDbLine
 10
-3.3235
 20
26.75261669444694
 30
0.0
 11
-3.3235
 21
17.18234840291846
 31
0.0
  0
LINE
  5
B5
330
8F
100
AcDbEntity
  8
AM_9
100
AcDbLine
 10
-3.3235
 20
26.75261669444694
 30
0.0
 11
3.3235
 21
26.75261669444694
 31
0.0
  0
LINE
  5
B6
330
8F
100
AcDbEntity
  8
AM_9
100
AcDbLine
 10
3.3235
 20
26.75261669444694
 30
0.0
 11
3.400442324753359
 21
26.82955901920029
 31
0.0
  0
LINE
  5
B7
330
8F
100
AcDbEntity
  8
AM_9
100
AcDbLine
 10
-3.400660007970546
 20
26.82977670241748
 30
0.0
 11
-3.3235
 21
26.75261669444694
 31
0.0
  0
LINE
  5
B9
330
8F
100
AcDbEntity
  8
AM_5
100
AcDbLine
 10
-4.0
 20
17.03672503740082
 30
0.0
 11
-4.0
 21
26.75261669444692
 31
0.0
  0
LINE
  5
BA
330
8F
100
AcDbEntity
  8
AM_5
100
AcDbLine
 10
4.0
 20
17.03672503740082
 30
0.0
 11
4.0
 21
26.75261669444692
 31
0.0
  0
CIRCLE
  5
BC
330
8F
100
AcDbEntity
  8
AM_4
100
AcDbCircle
 10
0.0
 20
0.0
 30
0.0
 40
35.72234725980363
  0
CIRCLE
  5
BD
330
8F
100
AcDbEntity
  8
AM_4
100
AcDbCircle
 10
0.0
 20
0.0
 30
0.0
 40
35.53985219088565
  0
CIRCLE
  5
BE
330
8F
100
AcDbEntity
  8
AM_4
100
AcDbCircle
 10
0.0
 20
0.0
 30
0.0
 40
34.85025719351218
  0
CIRCLE
  5
BF
330
8F
100
AcDbEntity
  8
AM_4
100
AcDbCircle
 10
0.0
 20
0.0
 30
0.0
 40
34.17261330363834
  0
CIRCLE
  5
C0
330
8F
100
AcDbEntity
  8
AM_4
100
AcDbCircle
 10
0.0
 20
0.0
 30
0.0
 40
17.5
  0
CIRCLE
  5
C1
330
8F
100
AcDbEntity
  8
AM_4
100
AcDbCircle
 10
0.0
 20
0.0
 30
0.0
 40
17.99497474683059
  0
CIRCLE
  5
C2
330
8F
100
AcDbEntity
  8
AM_4
100
AcDbCircle
 10
0.0
 20
0.0
 30
0.0
 40
25.65
  0
CIRCLE
  5
C3
330
8F
100
AcDbEntity
  8
AM_4
100
AcDbCircle
 10
0.0000000000000391
 20
0.0000000000000391
 30
0.0
 40
27.04999999999996
  0
ENDBLK
  5
92
330
8F
100
AcDbEntity
  8
0
100
AcDbBlockEnd
  0
BLOCK
  5
C6
330
C4
100
AcDbEntity
  8
0
100
AcDbBlockBegin
  2
3_405016_Metric_0_in_130796_0
 70
     2
 10
0.0
 20
0.0
 30
0.0
  3
3_405016_Metric_0_in_130796_0
  1

  0
ATTDEF
  5
C8
330
C4
100
AcDbEntity
  8
AM_6
100
AcDbText
 10
-30.17184019477862
 20
-17.71490184921513
 30
0.0
 40
0.5
  1
405016 -Metric
100
AcDbAttributeDefinition
  3

  2
NN
 70
     8
280
     0
  0
ATTDEF
  5
C9
330
C4
100
AcDbEntity
  8
AM_6
100
AcDbText
 10
-30.17184019477862
 20
-18.21490184921513
 30
0.0
 40
0.5
  1
Grease Fitting
100
AcDbAttributeDefinition
  3

  2
NT
 70
     8
280
     0
  0
ATTDEF
  5
CA
330
C4
100
AcDbEntity
  8
AM_6
100
AcDbText
 10
-30.17184019477862
 20
-18.71490184921513
 30
0.0
 40
0.5
  1
405016-Metric
100
AcDbAttributeDefinition
  3

  2
NB
 70
     8
280
     0
  0
ATTDEF
  5
CB
330
C4
100
AcDbEntity
  8
AM_6
100
AcDbText
 10
-30.17184019477862
 20
-19.21490184921513
 30
0.0
 40
0.5
  1
$MN.-Metric
100
AcDbAttributeDefinition
  3

  2
NBSYN
 70
     8
280
     0
  0
ATTDEF
  5
CC
330
C4
100
AcDbEntity
  8
AM_6
100
AcDbText
 10
-30.17184019477862
 20
-19.71490184921513
 30
0.0
 40
0.5
  1
405016
100
AcDbAttributeDefinition
  3

  2
LINA
 70
     8
280
     0
  0
ATTDEF
  5
CD
330
C4
100
AcDbEntity
  8
AM_6
100
AcDbText
 10
-30.17184019477862
 20
-20.21490184921513
 30
0.0
 40
0.5
  1
405016
100
AcDbAttributeDefinition
  3

  2
MN
 70
     8
280
     0
  0
ATTDEF
  5
CE
330
C4
100
AcDbEntity
  8
AM_6
100
AcDbText
 10
-30.17184019477862
 20
-20.71490184921513
 30
0.0
 40
0.5
  1
7/16 HEX
100
AcDbAttributeDefinition
  3

  2
H
 70
     8
280
     0
  0
ATTDEF
  5
CF
330
C4
100
AcDbEntity
  8
AM_6
100
AcDbText
 10
-30.17184019477862
 20
-21.21490184921513
 30
0.0
 40
0.5
  1
9.728
100
AcDbAttributeDefinition
  3

  2
NDR
 70
     8
280
     0
  0
ATTDEF
  5
D0
330
C4
100
AcDbEntity
  8
AM_6
100
AcDbText
 10
-30.17184019477862
 20
-21.71490184921513
 30
0.0
 40
0.5
  1
8.560
100
AcDbAttributeDefinition
  3

  2
KDR
 70
     8
280
     0
  0
ATTDEF
  5
D1
330
C4
100
AcDbEntity
  8
AM_6
100
AcDbText
 10
-30.17184019477862
 20
-22.21490184921513
 30
0.0
 40
0.5
  1
4.0005
100
AcDbAttributeDefinition
  3

  2
BZE
 70
     8
280
     0
  0
ATTDEF
  5
D2
330
C4
100
AcDbEntity
  8
AM_6
100
AcDbText
 10
-30.17184019477862
 20
-22.71490184921513
 30
0.0
 40
0.5
  1
11.1125
100
AcDbAttributeDefinition
  3

  2
HEX
 70
     8
280
     0
  0
ATTDEF
  5
D3
330
C4
100
AcDbEntity
  8
AM_6
100
AcDbText
 10
-30.17184019477862
 20
-23.21490184921513
 30
0.0
 40
0.5
  1
7.143750
100
AcDbAttributeDefinition
  3

  2
HEX2
 70
     8
280
     0
  0
ATTDEF
  5
D4
330
C4
100
AcDbEntity
  8
AM_6
100
AcDbText
 10
-30.17184019477862
 20
-23.71490184921513
 30
0.0
 40
0.5
  1
baldor
100
AcDbAttributeDefinition
  3

  2
COMPANY
 70
     8
280
     0
  0
LINE
  5
D5
330
C4
100
AcDbEntity
  8
AM_9
100
AcDbLine
 10
-35.17184019477862
 20
-25.04808578695018
 30
0.0
 11
-39.27819870506011
 21
-17.93566421304981
 31
0.0
  0
LINE
  5
D6
330
C4
100
AcDbEntity
  8
AM_9
100
AcDbLine
 10
-39.27819870506011
 20
-17.93566421304981
 30
0.0
 11
-40.10209506329014
 21
-17.71490184921513
 31
0.0
  0
LINE
  5
D7
330
C4
100
AcDbEntity
  8
AM_9
100
AcDbLine
 10
-35.39260255861331
 20
-25.87198214518022
 30
0.0
 11
-35.17184019477862
 21
-25.04808578695018
 31
0.0
  0
ARC
  5
D8
330
C4
100
AcDbEntity
  8
AM_9
100
AcDbCircle
 10
-49.18591280792189
 20
-28.39749999999117
 30
0.0
 40
5.080000000012722
100
AcDbArc
 50
166.0572702408197
 51
253.9215659296418
  0
LINE
  5
D9
330
C4
100
AcDbEntity
  8
AM_9
100
AcDbLine
 10
-35.39260255861331
 20
-25.87198214518022
 30
0.0
 11
-40.10209506329014
 21
-17.71490184921513
 31
0.0
  0
LINE
  5
DA
330
C4
100
AcDbEntity
  8
AM_9
100
AcDbLine
 10
-40.10209506329014
 20
-17.71490184921513
 30
0.0
 11
-44.46901565727348
 21
-20.05740551902642
 31
0.0
  0
LINE
  5
DB
330
C4
100
AcDbEntity
  8
AM_9
100
AcDbLine
 10
-39.60473054211983
 20
-28.48259448097357
 30
0.0
 11
-35.39260255861331
 21
-25.87198214518022
 31
0.0
  0
LINE
  5
DC
330
C4
100
AcDbEntity
  8
AM_9
100
AcDbLine
 10
-54.94154069693606
 20
-29.33926331106881
 30
0.0
 11
-55.22910865682254
 21
-29.50529075011957
 31
0.0
  0
LINE
  5
DD
330
C4
100
AcDbEntity
  8
AM_9
100
AcDbLine
 10
-52.87931770417437
 20
-32.9111383110688
 30
0.0
 11
-53.16688566406084
 21
-33.07716575011958
 31
0.0
  0
LWPOLYLINE
  5
DE
330
C4
100
AcDbEntity
  8
AM_9
100
AcDbPolyline
 90
        4
 70
     0
 43
0.0
 10
-54.94154069693606
 20
-29.33926331106881
 10
-54.11171114901246
 20
-30.57852718757702
 10
-53.35040758708023
 20
-31.93052124034201
 10
-52.87931770417437
 20
-32.9111383110688
  0
LINE
  5
DF
330
C4
100
AcDbEntity
  8
AM_9
100
AcDbLine
 10
-47.78851729052305
 20
-30.81786003443031
 30
0.0
 11
-50.58656896752252
 21
-25.97149236766393
 31
0.0
  0
ELLIPSE
  5
E0
330
C4
100
AcDbEntity
  8
AM_9
100
AcDbEllipse
 10
-50.97956264951775
 20
-29.43306421886846
 30
0.0
 11
-1.785937499999996
 21
3.093334489142546
 31
0.0
210
0.0
220
0.0
230
1.0
 40
0.906307787036652
 41
5.859216366485141
 42
9.84874690146382
  0
LWPOLYLINE
  5
E1
330
C4
100
AcDbEntity
  8
AM_9
100
AcDbPolyline
 90
        4
 70
     0
 43
0.0
 10
-53.16392260031992
 20
-25.93170502447113
 10
-53.71390786538503
 20
-27.10100486283386
 10
-54.3897993448541
 20
-28.37892471870115
 10
-54.94154069693606
 20
-29.33926331106881
  0
LWPOLYLINE
  5
E2
330
C4
100
AcDbEntity
  8
AM_9
100
AcDbPolyline
 90
        4
 70
     0
 43
0.0
 10
-52.87931770417437
 20
-32.9111383110688
 10
-51.40412694834753
 20
-32.92086209670618
 10
-49.96960575947084
 20
-32.99142327771371
 10
-49.03947661479654
 20
-33.07545502447113
  0
LWPOLYLINE
  5
E3
330
C4
100
AcDbEntity
  8
AM_9
100
AcDbPolyline
 90
        3
 70
     0
 43
0.0
 10
-48.05385766326461
 20
-30.35827702754265
 10
-48.52943554142811
 20
-31.11169258101901
 10
-49.11665614791114
 20
-31.58374677865349
  0
LWPOLYLINE
  5
E4
330
C4
100
AcDbEntity
  8
AM_9
100
AcDbPolyline
 90
        9
 70
     0
 43
0.0
 10
-48.05385766326461
 20
-30.35827702754265
 10
-47.92800928727409
 20
-29.95201089390837
 10
-47.88665522345312
 20
-29.11829675767451
 10
-48.1211962884168
 20
-28.23132388347286
 10
-48.60950337114779
 20
-27.43171697599753
 10
-49.29077587397914
 20
-26.82259458609682
 10
-49.6910493502181
 20
-26.61019130477871
 10
-50.11897801863297
 20
-26.47226857346145
 10
-50.31796795260979
 20
-26.43672297245734
  0
LINE
  5
E5
330
C4
100
AcDbEntity
  8
AM_9
100
AcDbLine
 10
-51.90876321257365
 20
-26.74330510984831
 30
0.0
 11
-52.37656264951774
 21
-27.01338924069474
 31
0.0
  0
LINE
  5
E6
330
C4
100
AcDbEntity
  8
AM_9
100
AcDbLine
 10
-49.58256264951775
 20
-31.85273919704218
 30
0.0
 11
-49.11476280805073
 21
-31.58265483264433
 31
0.0
  0
LWPOLYLINE
  5
E7
330
C4
100
AcDbEntity
  8
AM_9
100
AcDbPolyline
 90
        3
 70
     0
 43
0.0
 10
-52.17936643982332
 20
-26.92462861643999
 10
-52.03240352531225
 20
-26.81968684955892
 10
-51.91073995232437
 20
-26.74444766089994
  0
LWPOLYLINE
  5
E8
330
C4
100
AcDbEntity
  8
AM_9
100
AcDbPolyline
 90
       10
 70
     0
 43
0.0
 10
-49.36759034989009
 20
-31.70969012946703
 10
-50.07366210236896
 20
-31.89664742480979
 10
-50.96807709571812
 20
-31.83897056608313
 10
-51.80999833289791
 20
-31.47844987254282
 10
-52.50421598752767
 20
-30.8571398014376
 10
-52.97335152312817
 20
-30.04617048344425
 10
-53.16579659505692
 20
-29.13682779519101
 10
-53.06040468579415
 20
-28.23043103280826
 10
-52.66835196900239
 20
-27.42795336822162
 10
-52.17936643982332
 20
-26.92462861643999
  0
LWPOLYLINE
  5
E9
330
C4
100
AcDbEntity
  8
AM_9
100
AcDbPolyline
 90
        3
 70
     0
 43
0.0
 10
-49.11665614791114
 20
-31.58374677865349
 10
-49.22878579800255
 20
-31.64450398452264
 10
-49.36759034989009
 20
-31.70969012946703
  0
LWPOLYLINE
  5
EA
330
C4
100
AcDbEntity
  8
AM_9
100
AcDbPolyline
 90
        4
 70
     0
 43
0.0
 10
-51.91073995232437
 20
-26.74444766089994
 10
-51.22328874631006
 20
-26.47524012688494
 10
-50.78134560799857
 20
-26.41581586980424
 10
-50.31796795260935
 20
-26.43672297245753
  0
ELLIPSE
  5
EB
330
C4
100
AcDbEntity
  8
AM_9
100
AcDbEllipse
 10
-50.97956264951782
 20
-29.43306421886845
 30
0.0
 11
-1.785937500000031
 21
3.093334489142613
 31
0.0
210
0.0
220
0.0
230
1.0
 40
0.9063077870366506
 41
3.764821264091955
 42
4.571432719802693
  0
ELLIPSE
  5
EC
330
C4
100
AcDbEntity
  8
AM_9
100
AcDbEllipse
 10
-50.97956264951776
 20
-29.43306421886854
 30
0.0
 11
-1.785937500000486
 21
3.09333448914235
 31
0.0
210
0.0
220
0.0
230
1.0
 40
0.9063077870366878
 41
4.853345240966584
 42
5.659956696677297
  0
LWPOLYLINE
  5
ED
330
C4
100
AcDbEntity
  8
AM_9
100
AcDbPolyline
 90
        5
 70
     0
 43
0.0
 10
-53.16688566406084
 20
-33.07716575011958
 10
-53.72411203618763
 20
-32.23372366086361
 10
-54.25295093994777
 20
-31.36453519314442
 10
-54.76061819123914
 20
-30.44137918427097
 10
-55.22910865682254
 20
-29.50529075011957
  0
LWPOLYLINE
  5
EE
330
C4
100
AcDbEntity
  8
AM_9
100
AcDbPolyline
 90
        4
 70
     0
 43
0.0
 10
-50.5518247366235
 20
-33.23098225577371
 10
-51.29153158791641
 20
-33.20578491330026
 10
-52.25066797914022
 20
-33.15137087674925
 10
-53.16688566406084
 20
-33.07716575011958
  0
LWPOLYLINE
  5
EF
330
C4
100
AcDbEntity
  8
AM_9
100
AcDbPolyline
 90
        4
 70
     0
 43
0.0
 10
-55.22910865682254
 20
-29.50529075011957
 10
-54.84946768073663
 20
-28.7037851611115
 10
-54.43392634356448
 20
-27.87674219793952
 10
-54.05373546841047
 20
-27.16174131460465
  0
ELLIPSE
  5
F0
330
C4
100
AcDbEntity
  8
AM_9
100
AcDbEllipse
 10
-51.44438030099651
 20
-29.70142681507379
 30
0.0
 11
-1.785937499999997
 21
3.093334489142535
 31
0.0
210
0.0
220
0.0
230
1.0
 40
0.9063077870366506
 41
0.2424447363235203
 42
2.900248207864569
  0
LWPOLYLINE
  5
F1
330
C4
100
AcDbEntity
  8
AM_9
100
AcDbPolyline
 90
       19
 70
     0
 43
0.0
 10
-49.90656088119619
 20
-29.85718550019295
 10
-49.90236956141462
 20
-29.87566103483685
 10
-49.84096195957579
 20
-30.28320417845791
 10
-49.83873829762863
 20
-30.68211030106834
 10
-49.89367314691161
 20
-31.06199237477949
 10
-50.00245058756943
 20
-31.41412125194312
 10
-50.16144884382759
 20
-31.73177213056429
 10
-50.36803124770007
 20
-32.01001083556287
 10
-50.62166586074872
 20
-32.24448807825884
 10
-50.92328348482375
 20
-32.42897983720131
 10
-51.27012790849577
 20
-32.55329428225609
 10
-51.64433673320439
 20
-32.60651490607815
 10
-52.02844175615755
 20
-32.58726318162741
 10
-52.41079269741485
 20
-32.49894668034775
 10
-52.78256953482125
 20
-32.34563619736905
 10
-53.13512864887221
 20
-32.13175267232634
 10
-53.45951366727432
 20
-31.86281956472155
 10
-53.74691569655622
 20
-31.54595171481017
 10
-53.99767361466011
 20
-31.17557139703756
  0
LWPOLYLINE
  5
F2
330
C4
100
AcDbEntity
  8
AM_9
100
AcDbPolyline
 90
       20
 70
     0
 43
0.0
 10
-53.99767361466011
 20
-31.17557139703756
 10
-54.08554804149605
 20
-31.01240856215018
 10
-54.25024273742611
 20
-30.61823233018942
 10
-54.357197129919
 20
-30.21177794476818
 10
-54.40467792482424
 20
-29.80525760435802
 10
-54.39329498850625
 20
-29.40992166761896
 10
-54.32544328816346
 20
-29.03581814385964
 10
-54.20461244385717
 20
-28.69122373260204
 10
-54.0343158894669
 20
-28.38239672326699
 10
-53.81677138731351
 20
-28.11398012894856
 10
-53.55199022185517
 20
-27.89050242976365
 10
-53.23923925024788
 20
-27.7190308238519
 10
-52.88390345592527
 20
-27.61060661467435
 10
-52.50603828673468
 20
-27.57450378081552
 10
-52.12146938720937
 20
-27.61027449074147
 10
-51.7408324512211
 20
-27.71416362736477
 10
-51.37276276910556
 20
-27.88207062446252
 10
-51.02598775327298
 20
-28.10938230588195
 10
-50.70948473973129
 20
-28.39023070146757
 10
-50.62635123433261
 20
-28.47874056954672
  0
ELLIPSE
  5
F3
330
C4
100
AcDbEntity
  8
AM_9
100
AcDbEllipse
 10
-52.73980323127923
 20
-30.44933959258695
 30
0.0
 11
1.691562466580849
 21
-2.929872136294566
 31
0.0
210
0.0
220
0.0
230
1.0
 40
0.9063077870366503
 41
0.0
 42
6.283185307179586
  0
LINE
  5
F4
330
C4
100
AcDbEntity
  8
AM_5
100
AcDbLine
 10
-38.98700857374033
 20
-27.41266864678881
 30
0.0
 11
-35.17184019477862
 21
-25.04808578695018
 31
0.0
  0
LINE
  5
F5
330
C4
100
AcDbEntity
  8
AM_5
100
AcDbLine
 10
-39.60473054211983
 20
-28.48259448097357
 30
0.0
 11
-38.98700857374033
 21
-27.41266864678881
 31
0.0
  0
LINE
  5
F6
330
C4
100
AcDbEntity
  8
AM_5
100
AcDbLine
 10
-38.69486601616364
 20
-27.91867439956475
 30
0.0
 11
-43.52571427809116
 21
-19.55139976625048
 31
0.0
  0
LINE
  5
F7
330
C4
100
AcDbEntity
  8
AM_5
100
AcDbLine
 10
-43.23357172051447
 20
-20.05740551902642
 30
0.0
 11
-39.27819870506011
 21
-17.93566421304981
 31
0.0
  0
LINE
  5
F8
330
C4
100
AcDbEntity
  8
AM_5
100
AcDbLine
 10
-44.46901565727349
 20
-20.05740551902642
 30
0.0
 11
-43.23357172051447
 21
-20.05740551902642
 31
0.0
  0
ELLIPSE
  5
F9
330
C4
100
AcDbEntity
  8
AM_9
100
AcDbEllipse
 10
-50.97956264951774
 20
-29.43306421886845
 30
0.0
 11
-1.397000000000006
 21
2.419674978173727
 31
0.0
210
0.0
220
0.0
230
1.0
 40
0.9063077870366482
 41
0.0
 42
6.283185307179586
  0
LINE
  5
FC
330
C4
100
AcDbEntity
  8
AM_7
100
AcDbLine
 10
-54.51991280793716
 20
-28.39750000000002
 30
0.0
 11
-43.85191280793721
 21
-28.39750000000002
 31
0.0
  0
LINE
  5
FD
330
C4
100
AcDbEntity
  8
AM_7
100
AcDbLine
 10
-49.18591280793719
 20
-33.73149999999999
 30
0.0
 11
-49.18591280793719
 21
-23.06350000000004
 31
0.0
  0
LINE
  5
FE
330
C4
100
AcDbEntity
  8
AM_4
100
AcDbLine
 10
-43.17697178594388
 20
-31.34404114977728
 30
0.0
 11
-42.54773395186817
 21
-31.97327898385299
 31
0.0
  0
LINE
  5
FF
330
C4
100
AcDbEntity
  8
AM_4
100
AcDbLine
 10
-43.17697178594388
 20
-31.34404114977728
 30
0.0
 11
-48.73322178594388
 21
-21.72033385022271
 31
0.0
  0
LINE
  5
100
330
C4
100
AcDbEntity
  8
AM_4
100
AcDbLine
 10
-48.96353881823788
 20
-20.86077898385299
 30
0.0
 11
-48.73322178594388
 21
-21.72033385022271
 31
0.0
  0
LINE
  5
101
330
C4
100
AcDbEntity
  8
AM_4
100
AcDbLine
 10
-40.9772672603314
 20
-30.07404114977728
 30
0.0
 11
-46.53351726033141
 21
-20.45033385022271
 31
0.0
  0
LINE
  5
102
330
C4
100
AcDbEntity
  8
AM_4
100
AcDbLine
 10
-46.53351726033141
 20
-20.45033385022271
 30
0.0
 11
-47.16275509440712
 21
-19.821096016147
 31
0.0
  0
LINE
  5
103
330
C4
100
AcDbEntity
  8
AM_4
100
AcDbLine
 10
-40.7469502280374
 20
-30.933596016147
 30
0.0
 11
-40.9772672603314
 21
-30.07404114977728
 31
0.0
  0
ARC
  5
104
330
C4
100
AcDbEntity
  8
AM_4
100
AcDbCircle
 10
-49.18591280793721
 20
-28.39750000000002
 30
0.0
 40
5.07999999999998
100
AcDbArc
 50
253.9215659297801
 51
300.0000000000002
  0
ARC
  5
105
330
C4
100
AcDbEntity
  8
AM_4
100
AcDbCircle
 10
-49.18591280793721
 20
-28.39749999999999
 30
0.0
 40
5.079999999999984
100
AcDbArc
 50
119.9999999999998
 51
166.0572702406815
  0
LINE
  5
106
330
C4
100
AcDbEntity
  8
AM_4
100
AcDbLine
 10
-50.58656896752252
 20
-25.97149236766393
 30
0.0
 11
-51.72591280793719
 21
-23.99809094877505
 31
0.0
  0
LINE
  5
107
330
C4
100
AcDbEntity
  8
AM_4
100
AcDbLine
 10
-48.49509678594387
 20
-22.13277844877505
 30
0.0
 11
-51.72591280793719
 21
-23.99809094877505
 31
0.0
  0
LINE
  5
108
330
C4
100
AcDbEntity
  8
AM_4
100
AcDbLine
 10
-46.6459128079372
 20
-32.79690905122494
 30
0.0
 11
-43.41509678594388
 21
-30.93159655122495
 31
0.0
  0
LINE
  5
109
330
C4
100
AcDbEntity
  8
AM_4
100
AcDbLine
 10
-46.6459128079372
 20
-32.79690905122494
 30
0.0
 11
-47.78851729052305
 21
-30.81786003443031
 31
0.0
  0
LINE
  5
10A
330
C4
100
AcDbEntity
  8
AM_4
100
AcDbLine
 10
-44.57687309969666
 20
-19.87059094877505
 30
0.0
 11
-46.2953922603314
 21
-20.86277844877505
 31
0.0
  0
LINE
  5
10B
330
C4
100
AcDbEntity
  8
AM_4
100
AcDbLine
 10
-41.21539226033141
 20
-29.66159655122495
 30
0.0
 11
-39.49687309969666
 21
-28.66940905122495
 31
0.0
  0
LINE
  5
10C
330
C4
100
AcDbEntity
  8
AM_4
100
AcDbLine
 10
-48.96353881823788
 20
-20.86077898385299
 30
0.0
 11
-47.16275509440712
 21
-19.821096016147
 31
0.0
  0
LWPOLYLINE
  5
10D
330
C4
100
AcDbEntity
  8
AM_4
100
AcDbPolyline
 90
        3
 70
     0
 43
0.0
 10
-48.36102361083252
 20
-22.36499999999999
 10
-48.70936410953708
 20
-21.64007281403006
 10
-48.96353881823788
 20
-20.86077898385299
  0
LWPOLYLINE
  5
10E
330
C4
100
AcDbEntity
  8
AM_4
100
AcDbPolyline
 90
        3
 70
     0
 43
0.0
 10
-47.16275509440712
 20
-19.821096016147
 10
-46.6172222530995
 20
-20.42801041734187
 10
-46.16131908522004
 20
-21.095
  0
LWPOLYLINE
  5
10F
330
C4
100
AcDbEntity
  8
AM_4
100
AcDbPolyline
 90
        3
 70
     0
 43
0.0
 10
-46.16131908522004
 20
-21.095
 10
-45.81297858651548
 20
-21.81992718596994
 10
-45.55880387781468
 20
-22.599221016147
  0
LWPOLYLINE
  5
110
330
C4
100
AcDbEntity
  8
AM_4
100
AcDbPolyline
 90
        3
 70
     0
 43
0.0
 10
-47.35958760164545
 20
-23.63890398385299
 10
-47.90512044295306
 20
-23.03198958265812
 10
-48.36102361083252
 20
-22.36499999999999
  0
LINE
  5
111
330
C4
100
AcDbEntity
  8
AM_4
100
AcDbLine
 10
-47.35958760164545
 20
-23.63890398385299
 30
0.0
 11
-45.55880387781468
 21
-22.599221016147
 31
0.0
  0
LWPOLYLINE
  5
112
330
C4
100
AcDbEntity
  8
AM_4
100
AcDbPolyline
 90
        3
 70
     0
 43
0.0
 10
-45.95509678594388
 20
-26.5321875
 10
-47.06385523749596
 20
-24.33325497268394
 10
-47.35958760164545
 20
-23.63890398385299
  0
LWPOLYLINE
  5
113
330
C4
100
AcDbEntity
  8
AM_4
100
AcDbPolyline
 90
        3
 70
     0
 43
0.0
 10
-44.1516851684606
 20
-29.19515398385299
 10
-45.09640286477379
 20
-27.89683113217642
 10
-45.95509678594388
 20
-26.5321875
  0
LWPOLYLINE
  5
114
330
C4
100
AcDbEntity
  8
AM_4
100
AcDbPolyline
 90
        3
 70
     0
 43
0.0
 10
-45.55880387781468
 20
-22.599221016147
 10
-45.10534446441899
 20
-23.20250825063717
 10
-43.7553922603314
 20
-25.2621875
  0
LWPOLYLINE
  5
115
330
C4
100
AcDbEntity
  8
AM_4
100
AcDbPolyline
 90
        3
 70
     0
 43
0.0
 10
-43.7553922603314
 20
-25.2621875
 10
-43.00606395747873
 20
-26.68164593596994
 10
-42.35090144462982
 20
-28.155471016147
  0
LINE
  5
116
330
C4
100
AcDbEntity
  8
AM_4
100
AcDbLine
 10
-44.1516851684606
 20
-29.19515398385299
 30
0.0
 11
-42.35090144462982
 21
-28.155471016147
 31
0.0
  0
LWPOLYLINE
  5
117
330
C4
100
AcDbEntity
  8
AM_4
100
AcDbPolyline
 90
        3
 70
     0
 43
0.0
 10
-43.54916996105523
 20
-30.69937499999999
 10
-43.89751045975979
 20
-29.97444781403006
 10
-44.1516851684606
 20
-29.19515398385299
  0
LWPOLYLINE
  5
118
330
C4
100
AcDbEntity
  8
AM_4
100
AcDbPolyline
 90
        3
 70
     0
 43
0.0
 10
-42.54773395186817
 20
-31.97327898385299
 10
-43.09326679317578
 20
-31.36636458265813
 10
-43.54916996105523
 20
-30.69937499999999
  0
LINE
  5
119
330
C4
100
AcDbEntity
  8
AM_4
100
AcDbLine
 10
-42.54773395186817
 20
-31.97327898385299
 30
0.0
 11
-40.7469502280374
 21
-30.933596016147
 31
0.0
  0
LWPOLYLINE
  5
11A
330
C4
100
AcDbEntity
  8
AM_4
100
AcDbPolyline
 90
        3
 70
     0
 43
0.0
 10
-41.34946543544276
 20
-29.429375
 10
-41.0011249367382
 20
-30.15430218596994
 10
-40.7469502280374
 20
-30.933596016147
  0
LWPOLYLINE
  5
11B
330
C4
100
AcDbEntity
  8
AM_4
100
AcDbPolyline
 90
        3
 70
     0
 43
0.0
 10
-42.35090144462982
 20
-28.155471016147
 10
-41.80536860332221
 20
-28.76238541734187
 10
-41.34946543544276
 20
-29.429375
  0
LINE
  5
11C
330
C4
100
AcDbEntity
  8
AM_4
100
AcDbLine
 10
-49.33633266877298
 20
-33.246844947145
 30
0.0
 11
-50.5518247366235
 21
-33.23098225577371
 31
0.0
  0
LINE
  5
11D
330
C4
100
AcDbEntity
  8
AM_4
100
AcDbLine
 10
-54.05373546841047
 20
-27.16174131460465
 30
0.0
 11
-53.46077865429637
 21
-26.103094947145
 31
0.0
  0
LWPOLYLINE
  5
11E
330
C4
100
AcDbEntity
  8
AM_4
100
AcDbPolyline
 90
        3
 70
     0
 43
0.0
 10
-49.3240425651383
 20
-26.09599925250315
 10
-50.03682498434693
 20
-26.02866661256951
 10
-50.79344284723177
 20
-25.97656484729697
  0
LINE
  5
11F
330
C4
100
AcDbEntity
  8
AM_4
100
AcDbLine
 10
-50.79344284723177
 20
-25.97656484729697
 30
0.0
 11
-51.45406659649177
 21
-25.94773773910476
 31
0.0
  0
LWPOLYLINE
  5
120
330
C4
100
AcDbEntity
  8
AM_4
100
AcDbPolyline
 90
        3
 70
     0
 43
0.0
 10
-51.45406659649177
 20
-25.94773773910476
 10
-52.03801347767469
 20
-25.93396339412863
 10
-53.16392260031992
 20
-25.93170502447113
  0
LINE
  5
121
330
C4
100
AcDbEntity
  8
AM_4
100
AcDbLine
 10
-53.16392260031992
 20
-25.93170502447113
 30
0.0
 11
-53.46077865429637
 21
-26.103094947145
 31
0.0
  0
LINE
  5
122
330
C4
100
AcDbEntity
  8
AM_4
100
AcDbLine
 10
-53.46077865429637
 20
-26.103094947145
 30
0.0
 11
-51.91888424797049
 21
-26.21610033531011
 31
0.0
  0
LWPOLYLINE
  5
123
330
C4
100
AcDbEntity
  8
AM_4
100
AcDbPolyline
 90
        3
 70
     0
 43
0.0
 10
-49.03947661479654
 20
-33.07545502447113
 10
-48.60834508352506
 20
-32.33041542538192
 10
-48.19843335104682
 20
-31.58665993102581
  0
LINE
  5
124
330
C4
100
AcDbEntity
  8
AM_4
100
AcDbLine
 10
-48.19843335104682
 20
-31.58665993102581
 30
0.0
 11
-47.89308648442891
 21
-31.00012942772721
 31
0.0
  0
LWPOLYLINE
  5
125
330
C4
100
AcDbEntity
  8
AM_4
100
AcDbPolyline
 90
        3
 70
     0
 43
0.0
 10
-47.89308648442891
 20
-31.00012942772721
 10
-47.66029582538435
 20
-30.52910892482294
 10
-47.2618195723766
 20
-29.66787425250315
  0
LINE
  5
126
330
C4
100
AcDbEntity
  8
AM_4
100
AcDbLine
 10
-48.66325100252555
 20
-31.85502252723111
 30
0.0
 11
-49.33633266877298
 21
-33.246844947145
 31
0.0
  0
LINE
  5
127
330
C4
100
AcDbEntity
  8
AM_4
100
AcDbLine
 10
-49.03947661479654
 20
-33.07545502447113
 30
0.0
 11
-49.33633266877298
 21
-33.246844947145
 31
0.0
  0
LINE
  5
128
330
C4
100
AcDbEntity
  8
AM_4
100
AcDbLine
 10
-47.56803306487545
 20
-29.84466669482685
 30
0.0
 11
-48.35790413590767
 21
-31.26849202393259
 31
0.0
  0
LINE
  5
129
330
C4
100
AcDbEntity
  8
AM_4
100
AcDbLine
 10
-51.25826049871056
 20
-26.24492744350231
 30
0.0
 11
-49.63025605763714
 21
-26.27279169482685
 31
0.0
  0
LINE
  5
12A
330
C4
100
AcDbEntity
  8
AM_4
100
AcDbLine
 10
-47.2618195723766
 20
-29.66787425250315
 30
0.0
 11
-47.95294818665842
 21
-28.26509077583033
 31
0.0
  0
LINE
  5
12B
330
C4
100
AcDbEntity
  8
AM_4
100
AcDbLine
 10
-47.95294818665842
 20
-28.26509077583033
 30
0.0
 11
-48.45476074547143
 21
-27.39592592808983
 31
0.0
  0
LWPOLYLINE
  5
12C
330
C4
100
AcDbEntity
  8
AM_4
100
AcDbPolyline
 90
        3
 70
     0
 43
0.0
 10
-48.45476074547143
 20
-27.39592592808983
 10
-48.68967608498436
 20
-27.02364633553604
 10
-49.3240425651383
 20
-26.09599925250315
  0
LINE
  5
12D
330
C4
100
AcDbEntity
  8
AM_4
100
AcDbLine
 10
-49.3240425651383
 20
-26.09599925250315
 30
0.0
 11
-49.63025605763714
 21
-26.27279169482685
 31
0.0
  0
LINE
  5
12E
330
C4
100
AcDbEntity
  8
AM_4
100
AcDbLine
 10
-49.63025605763714
 20
-26.27279169482685
 30
0.0
 11
-48.91957839695022
 21
-27.66428852429533
 31
0.0
  0
LINE
  5
12F
330
C4
100
AcDbEntity
  8
AM_4
100
AcDbLine
 10
-48.41776583813719
 20
-28.53345337203564
 30
0.0
 11
-47.56803306487545
 21
-29.84466669482685
 31
0.0
  0
LINE
  5
130
330
C4
100
AcDbEntity
  8
AM_4
100
AcDbLine
 10
-47.2618195723766
 20
-29.66787425250315
 30
0.0
 11
-47.56803306487545
 21
-29.84466669482685
 31
0.0
  0
LINE
  5
131
330
C4
100
AcDbEntity
  8
AM_4
100
AcDbLine
 10
-51.91888424797049
 20
-26.21610033531011
 30
0.0
 11
-51.25826049871056
 21
-26.24492744350231
 31
0.0
  0
ELLIPSE
  5
132
330
C4
100
AcDbEntity
  8
AM_4
100
AcDbEllipse
 10
-51.44438030099649
 20
-29.70142681507382
 30
0.0
 11
-1.785937500000003
 21
3.093334489142521
 31
0.0
210
0.0
220
0.0
230
1.0
 40
0.9063077870366493
 41
2.90024820786456
 42
3.565561594284247
  0
ELLIPSE
  5
133
330
C4
100
AcDbEntity
  8
AM_4
100
AcDbEllipse
 10
-51.4443803009965
 20
-29.70142681507379
 30
0.0
 11
-1.785937500000016
 21
3.093334489142525
 31
0.0
210
0.0
220
0.0
230
1.0
 40
0.9063077870366494
 41
5.859216366485121
 42
6.525630043503102
  0
LINE
  5
134
330
C4
100
AcDbEntity
  8
AM_4
100
AcDbLine
 10
-48.35790413590767
 20
-31.26849202393259
 30
0.0
 11
-48.66325100252555
 21
-31.85502252723111
 31
0.0
  0
ELLIPSE
  5
135
330
C4
100
AcDbEntity
  8
AM_4
100
AcDbEllipse
 10
-51.44438030099646
 20
-29.7014268150738
 30
0.0
 11
-1.785937499999989
 21
3.093334489142496
 31
0.0
210
0.0
220
0.0
230
1.0
 40
0.9063077870366498
 41
3.764821264091925
 42
4.57143271980271
  0
LINE
  5
136
330
C4
100
AcDbEntity
  8
AM_4
100
AcDbLine
 10
-48.91957839695022
 20
-27.66428852429533
 30
0.0
 11
-48.41776583813719
 21
-28.53345337203564
 31
0.0
  0
ELLIPSE
  5
137
330
C4
100
AcDbEntity
  8
AM_4
100
AcDbEllipse
 10
-51.44438030099646
 20
-29.70142681507377
 30
0.0
 11
-1.785937499999996
 21
3.093334489142492
 31
0.0
210
0.0
220
0.0
230
1.0
 40
0.9063077870366489
 41
4.853345240966663
 42
5.659956696677447
  0
LWPOLYLINE
  5
138
330
C4
100
AcDbEntity
  8
AM_4
100
AcDbPolyline
 90
        7
 70
     0
 43
0.0
 10
-56.25372594727892
 20
-29.7195209292355
 10
-56.28389058411749
 20
-29.94853959211362
 10
-56.29804105898705
 20
-30.45764434865115
 10
-56.24080144465111
 20
-30.96936568633516
 10
-56.11313468606856
 20
-31.4728906929941
 10
-55.91750990531876
 20
-31.95749936851556
 10
-55.78502638477462
 20
-32.2075
  0
LWPOLYLINE
  5
139
330
C4
100
AcDbEntity
  8
AM_4
100
AcDbPolyline
 90
       34
 70
     0
 43
0.0
 10
-53.26615928605543
 20
-34.02314755302687
 10
-53.0840786544041
 20
-34.05095812153178
 10
-52.58813746813655
 20
-34.07496556939523
 10
-52.09981110354077
 20
-34.02348926921056
 10
-51.62973582445702
 20
-33.89807128005521
 10
-51.18790004368874
 20
-33.70190324194849
 10
-50.78342153402911
 20
-33.43959545264165
 10
-50.4244927820093
 20
-33.11699723813218
 10
-50.11830226363838
 20
-32.74104788498528
 10
-49.87086332938331
 20
-32.31946052435417
 10
-49.68713833972405
 20
-31.86074629172432
 10
-49.57096376393456
 20
-31.37417976647755
 10
-49.5249233718841
 20
-30.86971698054901
 10
-49.55021407665525
 20
-30.35783492874125
 10
-49.64655084261122
 20
-29.84930145420565
 10
-49.81213550495526
 20
-29.35491074935981
 10
-50.04368724375111
 20
-28.88522195535397
 10
-50.33651550550125
 20
-28.45032320675025
 10
-50.68458639548148
 20
-28.05965123136518
 10
-51.08063458348022
 20
-27.72176187082861
 10
-51.51630112321158
 20
-27.44412298262773
 10
-51.98224243567647
 20
-27.23294491638767
 10
-52.46830331370164
 20
-27.09297143237639
 10
-52.96375905932818
 20
-27.02728450645653
 10
-53.45763359565019
 20
-27.03716477570385
 10
-53.93906806279141
 20
-27.12205445837469
 10
-54.39768129981162
 20
-27.2796474128142
 10
-54.8238545681853
 20
-27.50608606093398
 10
-55.20890069058246
 20
-27.79620304400179
 10
-55.5450163699801
 20
-28.14359989602726
 10
-55.82557227917571
 20
-28.54099359634205
 10
-56.04502099693128
 20
-28.98031002281353
 10
-56.19889132171521
 20
-29.45269015062752
 10
-56.25372594727892
 20
-29.7195209292355
  0
ELLIPSE
  5
13A
330
C4
100
AcDbEntity
  8
AM_4
100
AcDbEllipse
 10
-53.72198679324235
 20
-31.01640353647999
 30
0.0
 11
1.314229537202294
 21
-2.2763123312421
 31
0.0
210
0.0
220
0.0
230
1.0
 40
0.9063077870366495
 41
0.0
 42
6.283185307179586
  0
ELLIPSE
  5
13B
330
C4
100
AcDbEntity
  8
AM_4
100
AcDbEllipse
 10
-53.0109477734263
 20
-30.60588496698485
 30
0.0
 11
-1.767186662107286
 21
3.060857085227883
 31
0.0
210
0.0
220
0.0
230
1.0
 40
0.9063077870366487
 41
0.0
 42
6.283185307179586
  0
ENDBLK
  5
C7
330
C4
100
AcDbEntity
  8
0
100
AcDbBlockEnd
  0
BLOCK
  5
13E
330
13C
100
AcDbEntity
  8
0
100
AcDbBlockBegin
  2
4_130796H_0_in_130796_0
 70
     2
 10
0.0
 20
0.0
 30
0.0
  3
4_130796H_0_in_130796_0
  1

  0
ATTDEF
  5
140
330
13C
100
AcDbEntity
  8
AM_6
100
AcDbText
 10
83.33500000000001
 20
52.45
 30
0.0
 40
0.5
  1
WSTU-SXV -M-Housing
100
AcDbAttributeDefinition
  3

  2
NN
 70
     8
280
     0
  0
ATTDEF
  5
141
330
13C
100
AcDbEntity
  8
AM_6
100
AcDbText
 10
83.33500000000001
 20
51.95
 30
0.0
 40
0.5
  1
Eccentric Collar Take-Up Bearings -(Intermediate Duty) -Wide Slot
100
AcDbAttributeDefinition
  3

  2
NT
 70
     8
280
     0
  0
ATTDEF
  5
142
330
13C
100
AcDbEntity
  8
AM_6
100
AcDbText
 10
83.33500000000001
 20
51.45
 30
0.0
 40
0.5
  1
130796H
100
AcDbAttributeDefinition
  3

  2
NB
 70
     8
280
     0
  0
ATTDEF
  5
143
330
13C
100
AcDbEntity
  8
AM_6
100
AcDbText
 10
83.33500000000001
 20
50.95
 30
0.0
 40
0.5
  1
$PN.H
100
AcDbAttributeDefinition
  3

  2
NBSYN
 70
     8
280
     0
  0
ATTDEF
  5
144
330
13C
100
AcDbEntity
  8
AM_6
100
AcDbText
 10
83.33500000000001
 20
50.45
 30
0.0
 40
0.5
  1
130796
100
AcDbAttributeDefinition
  3

  2
LINA
 70
     8
280
     0
  0
ATTDEF
  5
145
330
13C
100
AcDbEntity
  8
AM_6
100
AcDbText
 10
83.33500000000001
 20
49.95
 30
0.0
 40
0.5
  1
207
100
AcDbAttributeDefinition
  3

  2
SERIES
 70
     8
280
     0
  0
ATTDEF
  5
146
330
13C
100
AcDbEntity
  8
AM_6
100
AcDbText
 10
83.33500000000001
 20
49.45
 30
0.0
 40
0.5
  1
35
100
AcDbAttributeDefinition
  3

  2
SS
 70
     8
280
     0
  0
ATTDEF
  5
147
330
13C
100
AcDbEntity
  8
AM_6
100
AcDbText
 10
83.33500000000001
 20
48.95
 30
0.0
 40
0.5
  1
130796
100
AcDbAttributeDefinition
  3

  2
PN
 70
     8
280
     0
  0
ATTDEF
  5
148
330
13C
100
AcDbEntity
  8
AM_6
100
AcDbText
 10
83.33500000000001
 20
48.45
 30
0.0
 40
0.5
  1
WSTU-SXV-35M
100
AcDbAttributeDefinition
  3

  2
DESCRIPTION
 70
     8
280
     0
  0
ATTDEF
  5
149
330
13C
100
AcDbEntity
  8
AM_6
100
AcDbText
 10
83.33500000000001
 20
47.95
 30
0.0
 40
0.5
  1
1.2
100
AcDbAttributeDefinition
  3

  2
W
 70
     8
280
     0
  0
ATTDEF
  5
14A
330
13C
100
AcDbEntity
  8
AM_6
100
AcDbText
 10
83.33500000000001
 20
47.45
 30
0.0
 40
0.5
  1
WS308
100
AcDbAttributeDefinition
  3

  2
FS
 70
     8
280
     0
  0
ATTDEF
  5
14B
330
13C
100
AcDbEntity
  8
AM_6
100
AcDbText
 10
83.33500000000001
 20
46.95
 30
0.0
 40
0.5
  1
38.9
100
AcDbAttributeDefinition
  3

  2
A
 70
     8
280
     0
  0
ATTDEF
  5
14C
330
13C
100
AcDbEntity
  8
AM_6
100
AcDbText
 10
83.33500000000001
 20
46.45
 30
0.0
 40
0.5
  1
123.7
100
AcDbAttributeDefinition
  3

  2
B
 70
     8
280
     0
  0
ATTDEF
  5
14D
330
13C
100
AcDbEntity
  8
AM_6
100
AcDbText
 10
83.33500000000001
 20
45.95
 30
0.0
 40
0.5
  1
13.49
100
AcDbAttributeDefinition
  3

  2
C
 70
     8
280
     0
  0
ATTDEF
  5
14E
330
13C
100
AcDbEntity
  8
AM_6
100
AcDbText
 10
83.33500000000001
 20
45.45
 30
0.0
 40
0.5
  1
63.5
100
AcDbAttributeDefinition
  3

  2
D
 70
     8
280
     0
  0
ATTDEF
  5
14F
330
13C
100
AcDbEntity
  8
AM_6
100
AcDbText
 10
83.33500000000001
 20
44.95
 30
0.0
 40
0.5
  1
77.7
100
AcDbAttributeDefinition
  3

  2
E
 70
     8
280
     0
  0
ATTDEF
  5
150
330
13C
100
AcDbEntity
  8
AM_6
100
AcDbText
 10
83.33500000000001
 20
44.45
 30
0.0
 40
0.5
  1
19.1
100
AcDbAttributeDefinition
  3

  2
F
 70
     8
280
     0
  0
ATTDEF
  5
151
330
13C
100
AcDbEntity
  8
AM_6
100
AcDbText
 10
83.33500000000001
 20
43.95
 30
0.0
 40
0.5
  1
12.7
100
AcDbAttributeDefinition
  3

  2
G
 70
     8
280
     0
  0
ATTDEF
  5
152
330
13C
100
AcDbEntity
  8
AM_6
100
AcDbText
 10
83.33500000000001
 20
43.45
 30
0.0
 40
0.5
  1
16.0
100
AcDbAttributeDefinition
  3

  2
H
 70
     8
280
     0
  0
ATTDEF
  5
153
330
13C
100
AcDbEntity
  8
AM_6
100
AcDbText
 10
83.33500000000001
 20
42.95
 30
0.0
 40
0.5
  1
63.5
100
AcDbAttributeDefinition
  3

  2
J
 70
     8
280
     0
  0
ATTDEF
  5
154
330
13C
100
AcDbEntity
  8
AM_6
100
AcDbText
 10
83.33500000000001
 20
42.45
 30
0.0
 40
0.5
  1
36.6
100
AcDbAttributeDefinition
  3

  2
K
 70
     8
280
     0
  0
ATTDEF
  5
155
330
13C
100
AcDbEntity
  8
AM_6
100
AcDbText
 10
83.33500000000001
 20
41.95
 30
0.0
 40
0.5
  1
54.1
100
AcDbAttributeDefinition
  3

  2
L
 70
     8
280
     0
  0
ATTDEF
  5
156
330
13C
100
AcDbEntity
  8
AM_6
100
AcDbText
 10
83.33500000000001
 20
41.45
 30
0.0
 40
0.5
  1
88.39/89.15
100
AcDbAttributeDefinition
  3

  2
M
 70
     8
280
     0
  0
ATTDEF
  5
157
330
13C
100
AcDbEntity
  8
AM_6
100
AcDbText
 10
83.33500000000001
 20
40.95
 30
0.0
 40
0.5
  1
104.9
100
AcDbAttributeDefinition
  3

  2
N
 70
     8
280
     0
  0
ATTDEF
  5
158
330
13C
100
AcDbEntity
  8
AM_6
100
AcDbText
 10
83.33500000000001
 20
40.45
 30
0.0
 40
0.5
  1
9.4
100
AcDbAttributeDefinition
  3

  2
R
 70
     8
280
     0
  0
ATTDEF
  5
159
330
13C
100
AcDbEntity
  8
AM_6
100
AcDbText
 10
83.33500000000001
 20
39.95
 30
0.0
 40
0.5
  1
29.5
100
AcDbAttributeDefinition
  3

  2
S
 70
     8
280
     0
  0
ATTDEF
  5
15A
330
13C
100
AcDbEntity
  8
AM_6
100
AcDbText
 10
83.33500000000001
 20
39.45
 30
0.0
 40
0.5
  1
41.3
100
AcDbAttributeDefinition
  3

  2
T
 70
     8
280
     0
  0
ATTDEF
  5
15B
330
13C
100
AcDbEntity
  8
AM_6
100
AcDbText
 10
83.33500000000001
 20
38.95
 30
0.0
 40
0.5
  1
3065
100
AcDbAttributeDefinition
  3

  2
CAPS
 70
     8
280
     0
  0
ATTDEF
  5
15C
330
13C
100
AcDbEntity
  8
AM_6
100
AcDbText
 10
83.33500000000001
 20
38.45
 30
0.0
 40
0.5
  1
5759
100
AcDbAttributeDefinition
  3

  2
CAPD
 70
     8
280
     0
  0
ATTDEF
  5
15D
330
13C
100
AcDbEntity
  8
AM_6
100
AcDbText
 10
83.33500000000001
 20
37.95
 30
0.0
 40
0.5
  1
baldor
100
AcDbAttributeDefinition
  3

  2
COMPANY
 70
     8
280
     0
  0
LINE
  5
15E
330
13C
100
AcDbEntity
  8
AM_9
100
AcDbLine
 10
11.66666655
 20
34.0571415654795
 30
0.0
 11
11.66666655
 21
35.90196918848758
 31
0.0
  0
LINE
  5
15F
330
13C
100
AcDbEntity
  8
AM_9
100
AcDbLine
 10
-11.66666655
 20
35.90196918848758
 30
0.0
 11
-11.66666655
 21
34.0571415654795
 31
0.0
  0
ARC
  5
160
330
13C
100
AcDbEntity
  8
AM_9
100
AcDbCircle
 10
-0.0000000000000009
 20
-0.0000000000000711
 30
0.0
 40
37.75000000000008
100
AcDbArc
 50
71.9979652256861
 51
108.0020347743139
  0
ARC
  5
161
330
13C
100
AcDbEntity
  8
AM_9
100
AcDbCircle
 10
0.0000000000000062
 20
0.0000000000000995
 30
0.0
 40
37.75000000000011
100
AcDbArc
 50
251.9979652256861
 51
288.0020347743139
  0
LINE
  5
162
330
13C
100
AcDbEntity
  8
AM_9
100
AcDbLine
 10
11.66666654999999
 20
-35.90196918848759
 30
0.0
 11
11.66666655
 21
-34.0571415654795
 31
0.0
  0
LINE
  5
163
330
13C
100
AcDbEntity
  8
AM_9
100
AcDbLine
 10
-11.66666655
 20
-34.0571415654795
 30
0.0
 11
-11.66666655
 21
-35.90196918848758
 31
0.0
  0
LINE
  5
164
330
13C
100
AcDbEntity
  8
AM_9
100
AcDbLine
 10
31.75
 20
44.195
 30
0.0
 11
-31.75
 21
44.195
 31
0.0
  0
LINE
  5
165
330
13C
100
AcDbEntity
  8
AM_9
100
AcDbLine
 10
31.75
 20
-44.195
 30
0.0
 11
-31.75
 21
-44.195
 31
0.0
  0
LINE
  5
166
330
13C
100
AcDbEntity
  8
AM_9
100
AcDbLine
 10
65.0
 20
-9.55
 30
0.0
 11
77.7
 21
-9.55
 31
0.0
  0
LINE
  5
167
330
13C
100
AcDbEntity
  8
AM_9
100
AcDbLine
 10
77.7
 20
9.55
 30
0.0
 11
65.0
 21
9.55
 31
0.0
  0
LINE
  5
168
330
13C
100
AcDbEntity
  8
AM_7
100
AcDbLine
 10
-37.80000000000001
 20
0.0
 30
0.0
 11
38.46999999999999
 21
0.0
 31
0.0
  0
LINE
  5
169
330
13C
100
AcDbEntity
  8
AM_7
100
AcDbLine
 10
0.0
 20
-37.80000000000001
 30
0.0
 11
0.0
 21
37.80000000000001
 31
0.0
  0
LINE
  5
16A
330
13C
100
AcDbEntity
  8
AM_7
100
AcDbLine
 10
-54.40333697962429
 20
-31.40978124999999
 30
0.0
 11
-28.4324641775906
 21
-16.41549084665631
 31
0.0
  0
LINE
  5
16B
330
13C
100
AcDbEntity
  8
AM_7
100
AcDbLine
 10
78.33500000000001
 20
0.0
 30
0.0
 11
64.365
 21
0.0
 31
0.0
  0
LINE
  5
16C
330
13C
100
AcDbEntity
  8
AM_4
100
AcDbLine
 10
-46.10087309969666
 20
-17.23094551804008
 30
0.0
 11
-37.97287310025557
 21
-31.30905448099184
 31
0.0
  0
ARC
  5
16D
330
13C
100
AcDbEntity
  8
AM_4
100
AcDbCircle
 10
-35.7731685740842
 20
-30.03905448195995
 30
0.0
 40
2.539999999999968
100
AcDbArc
 50
209.9999999999997
 51
300.0000000000007
  0
ARC
  5
16E
330
13C
100
AcDbEntity
  8
AM_4
100
AcDbCircle
 10
-43.90116857408421
 20
-15.96094551804008
 30
0.0
 40
2.53999999999998
100
AcDbArc
 50
119.9999999999994
 51
210.0000000000001
  0
LINE
  5
16F
330
13C
100
AcDbEntity
  8
AM_4
100
AcDbLine
 10
-45.17116857408418
 20
-13.76124099242761
 30
0.0
 11
-34.50316857408419
 21
-32.23875900757238
 31
0.0
  0
LINE
  5
170
330
13C
100
AcDbEntity
  8
AM_4
100
AcDbLine
 10
-34.50316857408419
 20
-32.23875900757238
 30
0.0
 11
-33.41842910622451
 21
-31.61248438380299
 31
0.0
  0
LINE
  5
171
330
13C
100
AcDbEntity
  8
AM_4
100
AcDbLine
 10
-44.0864291062245
 20
-13.13496636865821
 30
0.0
 11
-45.17116857408418
 21
-13.76124099242761
 31
0.0
  0
LWPOLYLINE
  5
172
330
13C
100
AcDbEntity
  8
AM_4
100
AcDbPolyline
 90
       19
 70
     0
 43
0.0
 10
77.69999999999999
 20
30.401
 10
77.69486664772575
 20
30.51857309696659
 10
77.67950565881345
 20
30.63525139167269
 10
77.65403393966395
 20
30.7501468918433
 10
77.61864534544017
 20
30.86238517334633
 10
77.57360920471243
 20
30.9711120350882
 10
77.51926826970521
 20
31.0755
 10
77.45603610774585
 20
31.17475461263756
 10
77.38439395376749
 20
31.26812048546714
 10
77.30488704782064
 20
31.35488704782065
 10
77.21812048546713
 20
31.4343939537675
 10
77.12475461263756
 20
31.50603610774585
 10
77.0255
 20
31.56926826970521
 10
76.9211120350882
 20
31.62360920471244
 10
76.81238517334631
 20
31.66864534544019
 10
76.70014689184329
 20
31.70403393966395
 10
76.58525139167267
 20
31.72950565881347
 10
76.46857309696658
 20
31.74486664772576
 10
76.351
 20
31.75
  0
LINE
  5
173
330
13C
100
AcDbEntity
  8
AM_4
100
AcDbLine
 10
76.351
 20
31.75
 30
0.0
 11
31.75
 21
31.75
 31
0.0
  0
LINE
  5
174
330
13C
100
AcDbEntity
  8
AM_4
100
AcDbLine
 10
-39.44890426261987
 20
-23.65975385498869
 30
0.0
 11
-40.21440001701694
 21
-22.33387631539468
 31
0.0
  0
ARC
  5
175
330
13C
100
AcDbEntity
  8
AM_4
100
AcDbCircle
 10
0.0000000000003553
 20
0.0000000000003482
 30
0.0
 40
46.00000000000048
100
AcDbArc
 50
210.9535152295076
 51
226.3526802633546
  0
ARC
  5
176
330
13C
100
AcDbEntity
  8
AM_4
100
AcDbCircle
 10
-0.0000000000000142
 20
0.0
 30
0.0
 40
45.99999999999998
100
AcDbArc
 50
133.6473197366455
 51
209.0464847704926
  0
LWPOLYLINE
  5
177
330
13C
100
AcDbEntity
  8
AM_4
100
AcDbPolyline
 90
       19
 70
     0
 43
0.0
 10
76.35099999999998
 20
-31.75
 10
76.46857309696658
 20
-31.74486664772576
 10
76.58525139167268
 20
-31.72950565881347
 10
76.70014689184329
 20
-31.70403393966395
 10
76.81238517334631
 20
-31.66864534544019
 10
76.9211120350882
 20
-31.62360920471244
 10
77.0255
 20
-31.56926826970521
 10
77.12475461263756
 20
-31.50603610774585
 10
77.21812048546714
 20
-31.4343939537675
 10
77.30488704782066
 20
-31.35488704782065
 10
77.38439395376749
 20
-31.26812048546714
 10
77.45603610774585
 20
-31.17475461263755
 10
77.51926826970521
 20
-31.07549999999999
 10
77.57360920471244
 20
-30.9711120350882
 10
77.61864534544019
 20
-30.86238517334632
 10
77.65403393966396
 20
-30.75014689184329
 10
77.67950565881347
 20
-30.63525139167268
 10
77.69486664772576
 20
-30.51857309696658
 10
77.69999999999999
 20
-30.40099999999999
  0
LINE
  5
178
330
13C
100
AcDbEntity
  8
AM_4
100
AcDbLine
 10
76.35099999999998
 20
-31.75
 30
0.0
 11
31.75
 21
-31.75
 31
0.0
  0
LINE
  5
179
330
13C
100
AcDbEntity
  8
AM_4
100
AcDbLine
 10
77.7
 20
30.40100002010167
 30
0.0
 11
77.7
 21
-30.40100000000001
 31
0.0
  0
CIRCLE
  5
17A
330
13C
100
AcDbEntity
  8
AM_4
100
AcDbCircle
 10
0.0
 20
0.0
 30
0.0
 40
36.00000000000001
  0
LINE
  5
17B
330
13C
100
AcDbEntity
  8
AM_4
100
AcDbLine
 10
77.7
 20
30.40100002010167
 30
0.0
 11
31.75
 21
30.40100002010167
 31
0.0
  0
ARC
  5
17C
330
13C
100
AcDbEntity
  8
AM_4
100
AcDbCircle
 10
0.0
 20
0.0
 30
0.0
 40
45.17399999999999
100
AcDbArc
 50
134.6551361447231
 51
225.3448638552769
  0
LINE
  5
17D
330
13C
100
AcDbEntity
  8
AM_4
100
AcDbLine
 10
77.7
 20
-30.40100000000001
 30
0.0
 11
31.75
 21
-30.401
 31
0.0
  0
ARC
  5
17E
330
13C
100
AcDbEntity
  8
AM_4
100
AcDbCircle
 10
63.65100000000003
 20
-16.95100000000004
 30
0.0
 40
1.348999999999958
100
AcDbArc
 50
270.0
 51
0.0000012074182697
  0
LINE
  5
17F
330
13C
100
AcDbEntity
  8
AM_4
100
AcDbLine
 10
50.349
 20
-18.3
 30
0.0
 11
63.651
 21
-18.3
 31
0.0
  0
ARC
  5
180
330
13C
100
AcDbEntity
  8
AM_4
100
AcDbCircle
 10
50.349
 20
-16.951
 30
0.0
 40
1.348999999999997
100
AcDbArc
 50
180.0
 51
270.0
  0
LINE
  5
181
330
13C
100
AcDbEntity
  8
AM_4
100
AcDbLine
 10
49.0
 20
16.95099999999999
 30
0.0
 11
49.0
 21
-16.95099999999999
 31
0.0
  0
ARC
  5
182
330
13C
100
AcDbEntity
  8
AM_4
100
AcDbCircle
 10
50.349
 20
16.951
 30
0.0
 40
1.349000000000004
100
AcDbArc
 50
90.0
 51
179.9999991462263
  0
LINE
  5
183
330
13C
100
AcDbEntity
  8
AM_4
100
AcDbLine
 10
63.65100000000002
 20
18.29999999999999
 30
0.0
 11
50.349
 21
18.3
 31
0.0
  0
ARC
  5
184
330
13C
100
AcDbEntity
  8
AM_4
100
AcDbCircle
 10
63.65100000000005
 20
16.95100000000004
 30
0.0
 40
1.348999999999947
100
AcDbArc
 50
0.0
 51
90.0
  0
LWPOLYLINE
  5
185
330
13C
100
AcDbEntity
  8
AM_4
100
AcDbPolyline
 90
       19
 70
     0
 43
0.0
 10
31.74999999999999
 20
51.10099999999999
 10
31.74486664772576
 20
51.21857309696659
 10
31.72950565881346
 20
51.33525139167268
 10
31.70403393966394
 20
51.4501468918433
 10
31.66864534544019
 20
51.56238517334633
 10
31.62360920471243
 20
51.6711120350882
 10
31.5692682697052
 20
51.77549999999999
 10
31.50603610774584
 20
51.87475461263756
 10
31.43439395376749
 20
51.96812048546714
 10
31.35488704782064
 20
52.05488704782065
 10
31.26812048546714
 20
52.13439395376751
 10
31.17475461263755
 20
52.20603610774585
 10
31.07549999999999
 20
52.26926826970521
 10
30.97111203508819
 20
52.32360920471244
 10
30.86238517334631
 20
52.36864534544019
 10
30.75014689184329
 20
52.40403393966395
 10
30.63525139167267
 20
52.42950565881347
 10
30.51857309696658
 20
52.44486664772577
 10
30.40099999999999
 20
52.45
  0
LINE
  5
186
330
13C
100
AcDbEntity
  8
AM_4
100
AcDbLine
 10
30.40099999999998
 20
52.45
 30
0.0
 11
-30.40099999999999
 21
52.45
 31
0.0
  0
LWPOLYLINE
  5
187
330
13C
100
AcDbEntity
  8
AM_4
100
AcDbPolyline
 90
       19
 70
     0
 43
0.0
 10
-30.401
 20
52.45
 10
-30.51857309696659
 20
52.44486664772577
 10
-30.63525139167269
 20
52.42950565881348
 10
-30.7501468918433
 20
52.40403393966396
 10
-30.86238517334633
 20
52.36864534544019
 10
-30.9711120350882
 20
52.32360920471245
 10
-31.0755
 20
52.26926826970521
 10
-31.17475461263756
 20
52.20603610774586
 10
-31.26812048546714
 20
52.13439395376751
 10
-31.35488704782065
 20
52.05488704782066
 10
-31.4343939537675
 20
51.96812048546715
 10
-31.50603610774586
 20
51.87475461263757
 10
-31.56926826970521
 20
51.77550000000002
 10
-31.62360920471244
 20
51.67111203508821
 10
-31.66864534544019
 20
51.56238517334635
 10
-31.70403393966396
 20
51.45014689184332
 10
-31.72950565881347
 20
51.33525139167271
 10
-31.74486664772577
 20
51.21857309696661
 10
-31.75000000000001
 20
51.10100000000002
  0
LINE
  5
188
330
13C
100
AcDbEntity
  8
AM_4
100
AcDbLine
 10
31.75
 20
51.10100002010167
 30
0.0
 11
31.75
 21
30.40100002010167
 31
0.0
  0
LINE
  5
189
330
13C
100
AcDbEntity
  8
AM_4
100
AcDbLine
 10
-31.75
 20
51.10100000000001
 30
0.0
 11
-31.74999999999999
 21
32.13452622958676
 31
0.0
  0
LINE
  5
18A
330
13C
100
AcDbEntity
  8
AM_4
100
AcDbLine
 10
31.75
 20
51.10100002010167
 30
0.0
 11
-31.75
 21
51.10100000000001
 31
0.0
  0
LINE
  5
18B
330
13C
100
AcDbEntity
  8
AM_4
100
AcDbLine
 10
31.75
 20
40.06749999999999
 30
0.0
 11
-31.75
 21
40.06749999999999
 31
0.0
  0
LINE
  5
18C
330
13C
100
AcDbEntity
  8
AM_4
100
AcDbLine
 10
31.75
 20
42.09099999999999
 30
0.0
 11
-31.75
 21
42.09099999999999
 31
0.0
  0
LINE
  5
18D
330
13C
100
AcDbEntity
  8
AM_4
100
AcDbLine
 10
31.75
 20
-40.06749999999997
 30
0.0
 11
-31.75
 21
-40.06749999999997
 31
0.0
  0
LWPOLYLINE
  5
18E
330
13C
100
AcDbEntity
  8
AM_4
100
AcDbPolyline
 90
       19
 70
     0
 43
0.0
 10
30.401
 20
-52.45
 10
30.51857309696659
 20
-52.44486664772577
 10
30.63525139167269
 20
-52.42950565881347
 10
30.7501468918433
 20
-52.40403393966395
 10
30.86238517334633
 20
-52.36864534544019
 10
30.9711120350882
 20
-52.32360920471244
 10
31.0755
 20
-52.26926826970521
 10
31.17475461263756
 20
-52.20603610774585
 10
31.26812048546714
 20
-52.13439395376751
 10
31.35488704782065
 20
-52.05488704782065
 10
31.4343939537675
 20
-51.96812048546714
 10
31.50603610774585
 20
-51.87475461263756
 10
31.56926826970521
 20
-51.77549999999999
 10
31.62360920471244
 20
-51.6711120350882
 10
31.66864534544019
 20
-51.56238517334633
 10
31.70403393966395
 20
-51.4501468918433
 10
31.72950565881347
 20
-51.33525139167268
 10
31.74486664772576
 20
-51.21857309696659
 10
31.75
 20
-51.10099999999999
  0
LWPOLYLINE
  5
18F
330
13C
100
AcDbEntity
  8
AM_4
100
AcDbPolyline
 90
       19
 70
     0
 43
0.0
 10
-31.75000000000001
 20
-51.10099993333032
 10
-31.74486665353642
 20
-51.21857303055062
 10
-31.72950567039054
 20
-51.33525132601587
 10
-31.70403395691934
 20
-51.45014682744534
 10
-31.66864536824257
 20
-51.56238511069732
 10
-31.62360923288827
 20
-51.67111197466495
 10
-31.56926830304005
 20
-51.77549994226236
 10
-31.50603614598602
 20
-51.87475455802495
 10
-31.43439399662196
 20
-51.9681204343952
 10
-31.35488709496324
 20
-52.05488700067807
 10
-31.26812053653909
 20
-52.13439391091305
 10
-31.17475466725018
 20
-52.20603606950569
 10
-31.07550005773765
 20
-52.26926823637037
 10
-30.97111209551147
 20
-52.32360917653661
 10
-30.86238523599535
 20
-52.36864532263782
 10
-30.75014695624128
 20
-52.40403392240857
 10
-30.63525145732952
 20
-52.4295056472364
 10
-30.51857316338259
 20
-52.44486664191512
 10
-30.4010000666697
 20
-52.45
  0
LINE
  5
190
330
13C
100
AcDbEntity
  8
AM_4
100
AcDbLine
 10
30.40100000000001
 20
-52.45
 30
0.0
 11
-30.40100000000001
 21
-52.45
 31
0.0
  0
LINE
  5
191
330
13C
100
AcDbEntity
  8
AM_4
100
AcDbLine
 10
-31.75
 20
-32.13452622958675
 30
0.0
 11
-31.75
 21
-51.10099997989835
 31
0.0
  0
LINE
  5
192
330
13C
100
AcDbEntity
  8
AM_4
100
AcDbLine
 10
31.75
 20
-51.10099997989833
 30
0.0
 11
-31.75
 21
-51.10099997989835
 31
0.0
  0
LINE
  5
193
330
13C
100
AcDbEntity
  8
AM_4
100
AcDbLine
 10
31.75
 20
-30.401
 30
0.0
 11
31.75
 21
-51.10099997989833
 31
0.0
  0
LINE
  5
194
330
13C
100
AcDbEntity
  8
AM_4
100
AcDbLine
 10
31.75
 20
-42.09099999999999
 30
0.0
 11
-31.75
 21
-42.09099999999999
 31
0.0
  0
LINE
  5
195
330
13C
100
AcDbEntity
  8
AM_4
100
AcDbLine
 10
65.0
 20
17.17387194985452
 30
0.0
 11
77.7
 21
17.17387194985452
 31
0.0
  0
LINE
  5
196
330
13C
100
AcDbEntity
  8
AM_4
100
AcDbLine
 10
65.0
 20
17.17387194985452
 30
0.0
 11
65.0
 21
-17.17387194985452
 31
0.0
  0
LINE
  5
197
330
13C
100
AcDbEntity
  8
AM_4
100
AcDbLine
 10
77.7
 20
-17.17387194985452
 30
0.0
 11
65.0
 21
-17.17387194985452
 31
0.0
  0
ENDBLK
  5
13F
330
13C
100
AcDbEntity
  8
0
100
AcDbBlockEnd
  0
ENDSEC
  0
SECTION
  2
ENTITIES
  0
INSERT
  5
6F
330
1F
100
AcDbEntity
  8
0
100
AcDbBlockReference
  2
1_130796_0
 10
0.0
 20
0.0
 30
0.0
  0
POINT
  5
199
330
1F
100
AcDbEntity
  8
ConnectionPoints
100
AcDbPoint
 10
-42.03687309969666
 20
-24.27
 30
0.0
  0
POINT
  5
19A
330
1F
100
AcDbEntity
  8
ConnectionPoints
100
AcDbPoint
 10
-42.03687309969666
 20
-24.27
 30
0.0
  0
POINT
  5
19B
330
1F
100
AcDbEntity
  8
ConnectionPoints
100
AcDbPoint
 10
0.0
 20
0.0
 30
29.5
  0
ENDSEC
  0
SECTION
  2
OBJECTS
  0
DICTIONARY
  5
C
330
0
100
AcDbDictionary
281
     1
  3
ACAD_DETAILVIEWSTYLE
350
1A3
  3
ACAD_GROUP
350
D
  3
ACAD_LAYOUT
350
1A
  3
ACAD_MATERIAL
350
43
  3
ACAD_MLEADERSTYLE
350
6B
  3
ACAD_MLINESTYLE
350
17
  3
ACAD_PLOTSETTINGS
350
19
  3
ACAD_PLOTSTYLENAME
350
E
  3
ACAD_SCALELIST
350
47
  3
ACAD_SECTIONVIEWSTYLE
350
1A4
  3
ACAD_TABLESTYLE
350
69
  3
ACAD_VISUALSTYLE
350
2A
  3
ACDB_RECOMPOSE_DATA
350
1A0
  3
AcDbVariableDictionary
350
19C
  0
SUN
  5
6D
330
29
100
AcDbSun
 90
        1
290
     0
 63
     7
421
 16777215
 40
1.0
291
     1
 91
  2455826
 92
 54000000
292
     0
 70
     2
 71
   256
280
     1
  0
DICTIONARY
  5
1A3
102
{ACAD_REACTORS
330
C
102
}
330
C
100
AcDbDictionary
281
     1
  0
DICTIONARY
  5
D
102
{ACAD_REACTORS
330
C
102
}
330
C
100
AcDbDictionary
281
     1
  0
DICTIONARY
  5
1A
102
{ACAD_REACTORS
330
C
102
}
330
C
100
AcDbDictionary
281
     1
  3
Layout1
350
1E
  3
Layout2
350
26
  3
Model
350
22
  0
DICTIONARY
  5
43
102
{ACAD_REACTORS
330
C
102
}
330
C
100
AcDbDictionary
281
     1
  3
ByBlock
350
45
  3
ByLayer
350
44
  3
Global
350
46
  0
DICTIONARY
  5
6B
102
{ACAD_REACTORS
330
C
102
}
330
C
100
AcDbDictionary
281
     1
  3
Standard
350
6C
  0
DICTIONARY
  5
17
102
{ACAD_REACTORS
330
C
102
}
330
C
100
AcDbDictionary
281
     1
  3
Standard
350
18
  0
DICTIONARY
  5
19
102
{ACAD_REACTORS
330
C
102
}
330
C
100
AcDbDictionary
281
     1
  0
ACDBDICTIONARYWDFLT
  5
E
102
{ACAD_REACTORS
330
C
102
}
330
C
100
AcDbDictionary
281
     1
  3
Normal
350
F
100
AcDbDictionaryWithDefault
340
F
  0
DICTIONARY
  5
47
102
{ACAD_REACTORS
330
C
102
}
330
C
100
AcDbDictionary
281
     1
  3
A0
350
48
  3
A1
350
49
  3
A2
350
4A
  3
A3
350
4B
  3
A4
350
4C
  3
A5
350
4D
  3
A6
350
4E
  3
A7
350
4F
  3
A8
350
50
  3
A9
350
51
  3
B0
350
52
  3
B1
350
53
  3
B2
350
54
  3
B3
350
55
  3
B4
350
56
  3
B5
350
57
  3
B6
350
58
  3
B7
350
59
  3
B8
350
5A
  3
B9
350
5B
  3
C0
350
5C
  3
C1
350
5D
  3
C2
350
5E
  3
C3
350
5F
  3
C4
350
60
  3
C5
350
61
  3
C6
350
62
  3
C7
350
63
  3
C8
350
64
  3
C9
350
65
  3
D0
350
66
  3
D1
350
67
  3
D2
350
68
  0
DICTIONARY
  5
1A4
102
{ACAD_REACTORS
330
C
102
}
330
C
100
AcDbDictionary
281
     1
  0
DICTIONARY
  5
69
102
{ACAD_REACTORS
330
C
102
}
330
C
100
AcDbDictionary
281
     1
  3
Standard
350
6A
  0
DICTIONARY
  5
2A
102
{ACAD_REACTORS
330
C
102
}
330
C
100
AcDbDictionary
281
     1
  3
2dWireframe
350
2F
  3
Basic
350
32
  3
Brighten
350
36
  3
ColorChange
350
3A
  3
Conceptual
350
34
  3
Dim
350
35
  3
EdgeColorOff
350
3D
  3
Facepattern
350
39
  3
Flat
350
2B
  3
FlatWithEdges
350
2C
  3
Gouraud
350
2D
  3
GouraudWithEdges
350
2E
  3
Hidden
350
31
  3
JitterOff
350
3B
  3
Linepattern
350
38
  3
OverhangOff
350
3C
  3
Realistic
350
33
  3
Shaded
350
42
  3
Shaded with edges
350
41
  3
Shades of Gray
350
3E
  3
Sketchy
350
3F
  3
Thicken
350
37
  3
Wireframe
350
30
  3
X-Ray
350
40
  0
XRECORD
  5
1A0
102
{ACAD_REACTORS
330
C
102
}
330
C
100
AcDbXrecord
280
     1
 90
        1
330
6A
  0
DICTIONARY
  5
19C
102
{ACAD_REACTORS
330
C
102
}
330
C
100
AcDbDictionary
281
     1
  3
CANNOSCALE
350
19D
  3
CMLEADERSTYLE
350
1A2
  3
CTABLESTYLE
350
1A1
  0
LAYOUT
  5
1E
102
{ACAD_REACTORS
330
1A
102
}
330
1A
100
AcDbPlotSettings
  1

  2
none_device
  4

  6

 40
0.0
 41
0.0
 42
0.0
 43
0.0
 44
0.0
 45
0.0
 46
0.0
 47
0.0
 48
0.0
 49
0.0
140
0.0
141
0.0
142
1.0
143
1.0
 70
   688
 72
     1
 73
     0
 74
     5
  7

 75
    16
 76
     0
 77
     2
 78
   300
147
1.0
148
0.0
149
0.0
100
AcDbLayout
  1
Layout1
 70
     1
 71
     1
 10
0.0
 20
0.0
 11
420.0
 21
297.0
 12
0.0
 22
0.0
 32
0.0
 14
1.000000000000000E+20
 24
1.000000000000000E+20
 34
1.000000000000000E+20
 15
-1.000000000000000E+20
 25
-1.000000000000000E+20
 35
-1.000000000000000E+20
146
0.0
 13
0.0
 23
0.0
 33
0.0
 16
1.0
 26
0.0
 36
0.0
 17
0.0
 27
1.0
 37
0.0
 76
     0
330
1B
  0
LAYOUT
  5
26
102
{ACAD_REACTORS
330
1A
102
}
330
1A
100
AcDbPlotSettings
  1

  2
none_device
  4

  6

 40
0.0
 41
0.0
 42
0.0
 43
0.0
 44
0.0
 45
0.0
 46
0.0
 47
0.0
 48
0.0
 49
0.0
140
0.0
141
0.0
142
1.0
143
1.0
 70
   688
 72
     1
 73
     0
 74
     5
  7

 75
    16
 76
     0
 77
     2
 78
   300
147
1.0
148
0.0
149
0.0
100
AcDbLayout
  1
Layout2
 70
     1
 71
     2
 10
0.0
 20
0.0
 11
0.0
 21
0.0
 12
0.0
 22
0.0
 32
0.0
 14
0.0
 24
0.0
 34
0.0
 15
0.0
 25
0.0
 35
0.0
146
0.0
 13
0.0
 23
0.0
 33
0.0
 16
1.0
 26
0.0
 36
0.0
 17
0.0
 27
1.0
 37
0.0
 76
     0
330
23
  0
LAYOUT
  5
22
102
{ACAD_REACTORS
330
1A
102
}
330
1A
100
AcDbPlotSettings
  1

  2
none_device
  4
Letter_(8.50_x_11.00_Inches)
  6

 40
6.35
 41
6.35
 42
6.35000508
 43
6.35000508
 44
215.9
 45
279.4
 46
0.0
 47
0.0
 48
0.0
 49
0.0
140
0.0
141
0.0
142
1.0
143
1.0
 70
  1712
 72
     1
 73
     0
 74
     0
  7

 75
     0
 76
     0
 77
     2
 78
   300
147
1.0
148
0.0
149
0.0
100
AcDbLayout
  1
Model
 70
     1
 71
     0
 10
0.0
 20
0.0
 11
420.0
 21
297.0
 12
0.0
 22
0.0
 32
0.0
 14
1.000000000000000E+20
 24
1.000000000000000E+20
 34
1.000000000000000E+20
 15
-1.000000000000000E+20
 25
-1.000000000000000E+20
 35
-1.000000000000000E+20
146
0.0
 13
0.0
 23
0.0
 33
0.0
 16
1.0
 26
0.0
 36
0.0
 17
0.0
 27
1.0
 37
0.0
 76
     0
330
1F
331
29
  0
MATERIAL
  5
45
102
{ACAD_REACTORS
330
43
102
}
330
43
100
AcDbMaterial
  1
ByBlock
 72
     1
 94
      127
  0
MATERIAL
  5
44
102
{ACAD_REACTORS
330
43
102
}
330
43
100
AcDbMaterial
  1
ByLayer
 72
     1
 94
      127
  0
MATERIAL
  5
46
102
{ACAD_REACTORS
330
43
102
}
330
43
100
AcDbMaterial
  1
Global
 72
     1
 94
      127
  0
MLEADERSTYLE
  5
6C
102
{ACAD_REACTORS
330
6B
102
}
330
6B
100
AcDbMLeaderStyle
179
     2
170
     2
171
     1
172
     0
 90
        2
 40
0.0
 41
0.0
173
     1
 91
-1056964608
340
14
 92
       -2
290
     1
 42
2.0
291
     1
 43
8.0
  3
Standard
341
0
 44
4.0
300

342
11
174
     1
178
     6
175
     1
176
     0
 93
-1056964608
 45
4.0
292
     0
297
     0
 46
4.0
343
0
 94
-1056964608
 47
1.0
 49
1.0
140
1.0
293
     1
141
0.0
294
     1
177
     0
142
1.0
295
     0
296
     0
143
3.75
271
     0
272
     9
273
     9
298
     0
  0
MLINESTYLE
  5
18
102
{ACAD_REACTORS
330
17
102
}
330
17
100
AcDbMlineStyle
  2
Standard
 70
     0
  3

 62
   256
 51
90.0
 52
90.0
 71
     2
 49
0.5
 62
   256
  6
BYLAYER
 49
-0.5
 62
   256
  6
BYLAYER
  0
ACDBPLACEHOLDER
  5
F
102
{ACAD_REACTORS
330
E
102
}
330
E
  0
SCALE
  5
48
102
{ACAD_REACTORS
330
47
102
}
330
47
100
AcDbScale
 70
     0
300
1:1
140
1.0
141
1.0
290
     1
  0
SCALE
  5
49
102
{ACAD_REACTORS
330
47
102
}
330
47
100
AcDbScale
 70
     0
300
1:2
140
1.0
141
2.0
290
     0
  0
SCALE
  5
4A
102
{ACAD_REACTORS
330
47
102
}
330
47
100
AcDbScale
 70
     0
300
1:4
140
1.0
141
4.0
290
     0
  0
SCALE
  5
4B
102
{ACAD_REACTORS
330
47
102
}
330
47
100
AcDbScale
 70
     0
300
1:5
140
1.0
141
5.0
290
     0
  0
SCALE
  5
4C
102
{ACAD_REACTORS
330
47
102
}
330
47
100
AcDbScale
 70
     0
300
1:8
140
1.0
141
8.0
290
     0
  0
SCALE
  5
4D
102
{ACAD_REACTORS
330
47
102
}
330
47
100
AcDbScale
 70
     0
300
1:10
140
1.0
141
10.0
290
     0
  0
SCALE
  5
4E
102
{ACAD_REACTORS
330
47
102
}
330
47
100
AcDbScale
 70
     0
300
1:16
140
1.0
141
16.0
290
     0
  0
SCALE
  5
4F
102
{ACAD_REACTORS
330
47
102
}
330
47
100
AcDbScale
 70
     0
300
1:20
140
1.0
141
20.0
290
     0
  0
SCALE
  5
50
102
{ACAD_REACTORS
330
47
102
}
330
47
100
AcDbScale
 70
     0
300
1:30
140
1.0
141
30.0
290
     0
  0
SCALE
  5
51
102
{ACAD_REACTORS
330
47
102
}
330
47
100
AcDbScale
 70
     0
300
1:40
140
1.0
141
40.0
290
     0
  0
SCALE
  5
52
102
{ACAD_REACTORS
330
47
102
}
330
47
100
AcDbScale
 70
     0
300
1:50
140
1.0
141
50.0
290
     0
  0
SCALE
  5
53
102
{ACAD_REACTORS
330
47
102
}
330
47
100
AcDbScale
 70
     0
300
1:100
140
1.0
141
100.0
290
     0
  0
SCALE
  5
54
102
{ACAD_REACTORS
330
47
102
}
330
47
100
AcDbScale
 70
     0
300
2:1
140
2.0
141
1.0
290
     0
  0
SCALE
  5
55
102
{ACAD_REACTORS
330
47
102
}
330
47
100
AcDbScale
 70
     0
300
4:1
140
4.0
141
1.0
290
     0
  0
SCALE
  5
56
102
{ACAD_REACTORS
330
47
102
}
330
47
100
AcDbScale
 70
     0
300
8:1
140
8.0
141
1.0
290
     0
  0
SCALE
  5
57
102
{ACAD_REACTORS
330
47
102
}
330
47
100
AcDbScale
 70
     0
300
10:1
140
10.0
141
1.0
290
     0
  0
SCALE
  5
58
102
{ACAD_REACTORS
330
47
102
}
330
47
100
AcDbScale
 70
     0
300
100:1
140
100.0
141
1.0
290
     0
  0
SCALE
  5
59
102
{ACAD_REACTORS
330
47
102
}
330
47
100
AcDbScale
 70
     0
300
1/128" = 1'-0"
140
0.0078125
141
12.0
290
     0
  0
SCALE
  5
5A
102
{ACAD_REACTORS
330
47
102
}
330
47
100
AcDbScale
 70
     0
300
1/64" = 1'-0"
140
0.015625
141
12.0
290
     0
  0
SCALE
  5
5B
102
{ACAD_REACTORS
330
47
102
}
330
47
100
AcDbScale
 70
     0
300
1/32" = 1'-0"
140
0.03125
141
12.0
290
     0
  0
SCALE
  5
5C
102
{ACAD_REACTORS
330
47
102
}
330
47
100
AcDbScale
 70
     0
300
1/16" = 1'-0"
140
0.0625
141
12.0
290
     0
  0
SCALE
  5
5D
102
{ACAD_REACTORS
330
47
102
}
330
47
100
AcDbScale
 70
     0
300
3/32" = 1'-0"
140
0.09375
141
12.0
290
     0
  0
SCALE
  5
5E
102
{ACAD_REACTORS
330
47
102
}
330
47
100
AcDbScale
 70
     0
300
1/8" = 1'-0"
140
0.125
141
12.0
290
     0
  0
SCALE
  5
5F
102
{ACAD_REACTORS
330
47
102
}
330
47
100
AcDbScale
 70
     0
300
3/16" = 1'-0"
140
0.1875
141
12.0
290
     0
  0
SCALE
  5
60
102
{ACAD_REACTORS
330
47
102
}
330
47
100
AcDbScale
 70
     0
300
1/4" = 1'-0"
140
0.25
141
12.0
290
     0
  0
SCALE
  5
61
102
{ACAD_REACTORS
330
47
102
}
330
47
100
AcDbScale
 70
     0
300
3/8" = 1'-0"
140
0.375
141
12.0
290
     0
  0
SCALE
  5
62
102
{ACAD_REACTORS
330
47
102
}
330
47
100
AcDbScale
 70
     0
300
1/2" = 1'-0"
140
0.5
141
12.0
290
     0
  0
SCALE
  5
63
102
{ACAD_REACTORS
330
47
102
}
330
47
100
AcDbScale
 70
     0
300
3/4" = 1'-0"
140
0.75
141
12.0
290
     0
  0
SCALE
  5
64
102
{ACAD_REACTORS
330
47
102
}
330
47
100
AcDbScale
 70
     0
300
1" = 1'-0"
140
1.0
141
12.0
290
     0
  0
SCALE
  5
65
102
{ACAD_REACTORS
330
47
102
}
330
47
100
AcDbScale
 70
     0
300
1-1/2" = 1'-0"
140
1.5
141
12.0
290
     0
  0
SCALE
  5
66
102
{ACAD_REACTORS
330
47
102
}
330
47
100
AcDbScale
 70
     0
300
3" = 1'-0"
140
3.0
141
12.0
290
     0
  0
SCALE
  5
67
102
{ACAD_REACTORS
330
47
102
}
330
47
100
AcDbScale
 70
     0
300
6" = 1'-0"
140
6.0
141
12.0
290
     0
  0
SCALE
  5
68
102
{ACAD_REACTORS
330
47
102
}
330
47
100
AcDbScale
 70
     0
300
1'-0" = 1'-0"
140
12.0
141
12.0
290
     0
  0
TABLESTYLE
  5
6A
102
{ACAD_REACTORS
330
69
102
}
102
{ACAD_XDICTIONARY
360
19E
102
}
330
69
100
AcDbTableStyle
  3
Standard
 70
     0
 71
     0
 40
0.06
 41
0.06
280
     0
281
     0
  7
Standard
140
4.5
170
     2
 62
     0
 63
   257
283
     0
 90
        4
 91
        0
  1

274
    -2
284
     1
 64
     0
275
    -2
285
     1
 65
     0
276
    -2
286
     1
 66
     0
277
    -2
287
     1
 67
     0
278
    -2
288
     1
 68
     0
279
    -2
289
     1
 69
     0
  7
Standard
140
6.0
170
     5
 62
     0
 63
   257
283
     0
 90
        4
 91
        0
  1

274
    -2
284
     1
 64
     0
275
    -2
285
     1
 65
     0
276
    -2
286
     1
 66
     0
277
    -2
287
     1
 67
     0
278
    -2
288
     1
 68
     0
279
    -2
289
     1
 69
     0
  7
Standard
140
4.5
170
     5
 62
     0
 63
   257
283
     0
 90
        4
 91
        0
  1

274
    -2
284
     1
 64
     0
275
    -2
285
     1
 65
     0
276
    -2
286
     1
 66
     0
277
    -2
287
     1
 67
     0
278
    -2
288
     1
 68
     0
279
    -2
289
     1
 69
     0
  0
VISUALSTYLE
  5
2F
102
{ACAD_REACTORS
330
2A
102
}
330
2A
100
AcDbVisualStyle
  2
2dWireframe
 70
     4
177
     3
291
     0
 70
    58
 90
        0
176
     1
 90
        2
176
     1
 90
        0
176
     1
 90
        0
176
     1
 40
0.6
176
     1
 40
30.0
176
     1
 62
     7
420
 16777215
176
     1
 90
        1
176
     1
 90
        4
176
     1
 62
     7
176
     1
 62
   257
176
     1
 90
        1
176
     1
 90
        1
176
     1
 40
1.0
176
     1
 90
        0
176
     1
 62
   257
176
     1
 40
1.0
176
     1
 90
        1
176
     1
 90
        6
176
     1
 90
        2
176
     1
 62
     7
176
     1
 90
        5
176
     1
 90
        0
176
     1
 90
        0
176
     1
290
     0
176
     1
 90
        1
176
     1
 40
0.0
176
     1
 90
        0
176
     1
290
     1
176
     1
290
     1
176
     1
290
     0
176
     1
290
     0
176
     1
290
     0
176
     1
290
     0
176
     1
290
     0
176
     1
290
     0
176
     1
290
     0
176
     1
 90
       50
176
     1
 40
0.0
176
     1
 40
1.0
176
     1
 90
        0
176
     1
 62
    18
420
        0
176
     1
 90
       50
176
     1
 90
        3
176
     1
 62
     5
420
      255
176
     1
290
     0
176
     1
 90
       50
176
     1
 90
       50
176
     1
 90
       50
176
     1
290
     0
176
     1
 90
       50
176
     1
 62
   256
176
     0
 40
1.0
176
     0
 90
        2
176
     1
  1
strokes_ogs.tif
176
     1
290
     0
176
     1
 40
1.0
176
     1
 40
1.0
176
     1
  0
VISUALSTYLE
  5
32
102
{ACAD_REACTORS
330
2A
102
}
330
2A
100
AcDbVisualStyle
  2
Basic
 70
     7
177
     3
291
     1
 70
    58
 90
        1
176
     1
 90
        0
176
     1
 90
        1
176
     1
 90
        0
176
     1
 40
0.6
176
     1
 40
30.0
176
     1
 62
     7
420
 16777215
176
     1
 90
        0
176
     1
 90
        4
176
     1
 62
     7
176
     1
 62
   257
176
     1
 90
        1
176
     1
 90
        1
176
     1
 40
1.0
176
     1
 90
        8
176
     1
 62
     7
176
     1
 40
1.0
176
     1
 90
        1
176
     1
 90
        6
176
     1
 90
        2
176
     1
 62
     7
176
     1
 90
        5
176
     1
 90
        0
176
     1
 90
        0
176
     1
290
     0
176
     1
 90
        1
176
     1
 40
0.0
176
     1
 90
        0
176
     1
290
     0
176
     1
290
     1
176
     1
290
     1
176
     1
290
     0
176
     1
290
     0
176
     1
290
     0
176
     1
290
     0
176
     1
290
     0
176
     1
290
     0
176
     1
 90
       50
176
     1
 40
0.0
176
     1
 40
1.0
176
     1
 90
        0
176
     1
 62
    18
420
        0
176
     1
 90
       50
176
     1
 90
        3
176
     1
 62
     5
420
      255
176
     1
290
     0
176
     1
 90
       50
176
     1
 90
       50
176
     1
 90
       50
176
     1
290
     0
176
     1
 90
       50
176
     1
 62
   256
176
     0
 40
1.0
176
     0
 90
        2
176
     1
  1
strokes_ogs.tif
176
     1
290
     0
176
     1
 40
1.0
176
     1
 40
1.0
176
     1
  0
VISUALSTYLE
  5
36
102
{ACAD_REACTORS
330
2A
102
}
330
2A
100
AcDbVisualStyle
  2
Brighten
 70
    12
177
     3
291
     1
 70
    58
 90
        2
176
     1
 90
        2
176
     1
 90
        0
176
     1
 90
        0
176
     1
 40
0.6
176
     1
 40
30.0
176
     1
 62
     7
420
 16777215
176
     1
 90
        1
176
     1
 90
        4
176
     1
 62
     7
176
     1
 62
   257
176
     1
 90
        1
176
     1
 90
        1
176
     1
 40
1.0
176
     1
 90
        8
176
     1
 62
     7
176
     1
 40
1.0
176
     1
 90
        1
176
     1
 90
        6
176
     1
 90
        2
176
     1
 62
     7
176
     1
 90
        5
176
     1
 90
        0
176
     1
 90
        0
176
     1
290
     0
176
     1
 90
        1
176
     1
 40
50.0
176
     1
 90
        0
176
     1
290
     0
176
     1
290
     1
176
     1
290
     1
176
     1
290
     0
176
     1
290
     0
176
     1
290
     0
176
     1
290
     0
176
     1
290
     0
176
     1
290
     0
176
     1
 90
       50
176
     1
 40
0.0
176
     1
 40
1.0
176
     1
 90
        0
176
     1
 62
    18
420
        0
176
     1
 90
       50
176
     1
 90
        3
176
     1
 62
     5
420
      255
176
     1
290
     0
176
     1
 90
       50
176
     1
 90
       50
176
     1
 90
       50
176
     1
290
     0
176
     1
 90
       50
176
     1
 62
   256
176
     0
 40
1.0
176
     0
 90
        2
176
     1
  1
strokes_ogs.tif
176
     1
290
     0
176
     1
 40
1.0
176
     1
 40
1.0
176
     1
  0
VISUALSTYLE
  5
3A
102
{ACAD_REACTORS
330
2A
102
}
330
2A
100
AcDbVisualStyle
  2
ColorChange
 70
    16
177
     3
291
     1
 70
    58
 90
        2
176
     1
 90
        2
176
     1
 90
        3
176
     1
 90
        0
176
     1
 40
0.6
176
     1
 40
30.0
176
     1
 62
     8
420
  8421504
176
     1
 90
        1
176
     1
 90
        4
176
     1
 62
     7
176
     1
 62
   257
176
     1
 90
        1
176
     1
 90
        1
176
     1
 40
1.0
176
     1
 90
        8
176
     1
 62
     8
420
  8421504
176
     1
 40
1.0
176
     1
 90
        1
176
     1
 90
        6
176
     1
 90
        2
176
     1
 62
     7
176
     1
 90
        5
176
     1
 90
        0
176
     1
 90
        0
176
     1
290
     0
176
     1
 90
        1
176
     1
 40
0.0
176
     1
 90
        0
176
     1
290
     0
176
     1
290
     1
176
     1
290
     1
176
     1
290
     0
176
     1
290
     0
176
     1
290
     0
176
     1
290
     0
176
     1
290
     0
176
     1
290
     0
176
     1
 90
       50
176
     1
 40
0.0
176
     1
 40
1.0
176
     1
 90
        0
176
     1
 62
    18
420
        0
176
     1
 90
       50
176
     1
 90
        3
176
     1
 62
     5
420
      255
176
     1
290
     0
176
     1
 90
       50
176
     1
 90
       50
176
     1
 90
       50
176
     1
290
     0
176
     1
 90
       50
176
     1
 62
   256
176
     0
 40
1.0
176
     0
 90
        2
176
     1
  1
strokes_ogs.tif
176
     1
290
     0
176
     1
 40
1.0
176
     1
 40
1.0
176
     1
  0
VISUALSTYLE
  5
34
102
{ACAD_REACTORS
330
2A
102
}
330
2A
100
AcDbVisualStyle
  2
Conceptual
 70
     9
177
     3
291
     0
 70
    58
 90
        3
176
     1
 90
        2
176
     1
 90
        0
176
     1
 90
        0
176
     1
 40
0.6
176
     1
 40
30.0
176
     1
 62
     7
420
 16777215
176
     1
 90
        2
176
     1
 90
        2
176
     1
 62
     7
176
     1
 62
   257
176
     1
 90
        1
176
     1
 90
        1
176
     1
 40
179.0
176
     1
 90
        8
176
     1
 62
     7
176
     1
 40
1.0
176
     1
 90
        1
176
     1
 90
        6
176
     1
 90
        2
176
     1
 62
     7
176
     1
 90
        3
176
     1
 90
        0
176
     1
 90
        0
176
     1
290
     0
176
     1
 90
        1
176
     1
 40
0.0
176
     1
 90
        0
176
     1
290
     0
176
     1
290
     1
176
     1
290
     1
176
     1
290
     0
176
     1
290
     0
176
     1
290
     0
176
     1
290
     0
176
     1
290
     0
176
     1
290
     0
176
     1
 90
       50
176
     1
 40
0.0
176
     1
 40
1.0
176
     1
 90
        0
176
     1
 62
    18
420
        0
176
     1
 90
       50
176
     1
 90
        3
176
     1
 62
     5
420
      255
176
     1
290
     0
176
     1
 90
       50
176
     1
 90
       50
176
     1
 90
       50
176
     1
290
     0
176
     1
 90
       50
176
     1
 62
   256
176
     0
 40
1.0
176
     0
 90
        2
176
     1
  1
strokes_ogs.tif
176
     1
290
     0
176
     1
 40
1.0
176
     1
 40
1.0
176
     1
  0
VISUALSTYLE
  5
35
102
{ACAD_REACTORS
330
2A
102
}
330
2A
100
AcDbVisualStyle
  2
Dim
 70
    11
177
     3
291
     1
 70
    58
 90
        2
176
     1
 90
        2
176
     1
 90
        0
176
     1
 90
        0
176
     1
 40
0.6
176
     1
 40
30.0
176
     1
 62
     7
420
 16777215
176
     1
 90
        1
176
     1
 90
        4
176
     1
 62
     7
176
     1
 62
   257
176
     1
 90
        1
176
     1
 90
        1
176
     1
 40
1.0
176
     1
 90
        8
176
     1
 62
     7
176
     1
 40
1.0
176
     1
 90
        1
176
     1
 90
        6
176
     1
 90
        2
176
     1
 62
     7
176
     1
 90
        5
176
     1
 90
        0
176
     1
 90
        0
176
     1
290
     0
176
     1
 90
        1
176
     1
 40
-50.0
176
     1
 90
        0
176
     1
290
     0
176
     1
290
     1
176
     1
290
     1
176
     1
290
     0
176
     1
290
     0
176
     1
290
     0
176
     1
290
     0
176
     1
290
     0
176
     1
290
     0
176
     1
 90
       50
176
     1
 40
0.0
176
     1
 40
1.0
176
     1
 90
        0
176
     1
 62
    18
420
        0
176
     1
 90
       50
176
     1
 90
        3
176
     1
 62
     5
420
      255
176
     1
290
     0
176
     1
 90
       50
176
     1
 90
       50
176
     1
 90
       50
176
     1
290
     0
176
     1
 90
       50
176
     1
 62
   256
176
     0
 40
1.0
176
     0
 90
        2
176
     1
  1
strokes_ogs.tif
176
     1
290
     0
176
     1
 40
1.0
176
     1
 40
1.0
176
     1
  0
VISUALSTYLE
  5
3D
102
{ACAD_REACTORS
330
2A
102
}
330
2A
100
AcDbVisualStyle
  2
EdgeColorOff
 70
    22
177
     3
291
     1
 70
    58
 90
        2
176
     0
 90
        2
176
     0
 90
        0
176
     0
 90
        0
176
     0
 40
0.6
176
     0
 40
30.0
176
     0
 62
     7
420
 16777215
176
     0
 90
        1
176
     0
 90
        4
176
     0
 62
     7
176
     0
 62
   257
176
     0
 90
        1
176
     0
 90
        1
176
     0
 40
1.0
176
     0
 90
        8
176
     2
 62
     7
176
     0
 40
1.0
176
     0
 90
        1
176
     0
 90
        6
176
     0
 90
        2
176
     0
 62
     7
176
     0
 90
        5
176
     0
 90
        0
176
     0
 90
        0
176
     0
290
     0
176
     0
 90
        1
176
     0
 40
0.0
176
     0
 90
        0
176
     0
290
     0
176
     0
290
     1
176
     0
290
     1
176
     0
290
     0
176
     0
290
     0
176
     0
290
     0
176
     0
290
     0
176
     0
290
     0
176
     0
290
     0
176
     0
 90
       50
176
     0
 40
0.0
176
     0
 40
1.0
176
     0
 90
        0
176
     0
 62
    18
420
        0
176
     0
 90
       50
176
     0
 90
        3
176
     0
 62
     5
420
      255
176
     0
290
     0
176
     0
 90
       50
176
     0
 90
       50
176
     0
 90
       50
176
     0
290
     0
176
     0
 90
       50
176
     0
 62
   256
176
     0
 40
1.0
176
     0
 90
        2
176
     0
  1
strokes_ogs.tif
176
     0
290
     0
176
     0
 40
1.0
176
     0
 40
1.0
176
     0
  0
VISUALSTYLE
  5
39
102
{ACAD_REACTORS
330
2A
102
}
330
2A
100
AcDbVisualStyle
  2
Facepattern
 70
    15
177
     3
291
     1
 70
    58
 90
        2
176
     1
 90
        2
176
     1
 90
        0
176
     1
 90
        0
176
     1
 40
0.6
176
     1
 40
30.0
176
     1
 62
     7
420
 16777215
176
     1
 90
        1
176
     1
 90
        4
176
     1
 62
     7
176
     1
 62
   257
176
     1
 90
        1
176
     1
 90
        1
176
     1
 40
1.0
176
     1
 90
        8
176
     1
 62
     7
176
     1
 40
1.0
176
     1
 90
        1
176
     1
 90
        6
176
     1
 90
        2
176
     1
 62
     7
176
     1
 90
        5
176
     1
 90
        0
176
     1
 90
        0
176
     1
290
     0
176
     1
 90
        1
176
     1
 40
0.0
176
     1
 90
        0
176
     1
290
     0
176
     1
290
     1
176
     1
290
     1
176
     1
290
     0
176
     1
290
     0
176
     1
290
     0
176
     1
290
     0
176
     1
290
     0
176
     1
290
     0
176
     1
 90
       50
176
     1
 40
0.0
176
     1
 40
1.0
176
     1
 90
        0
176
     1
 62
    18
420
        0
176
     1
 90
       50
176
     1
 90
        3
176
     1
 62
     5
420
      255
176
     1
290
     0
176
     1
 90
       50
176
     1
 90
       50
176
     1
 90
       50
176
     1
290
     0
176
     1
 90
       50
176
     1
 62
   256
176
     0
 40
1.0
176
     0
 90
        2
176
     1
  1
strokes_ogs.tif
176
     1
290
     0
176
     1
 40
1.0
176
     1
 40
1.0
176
     1
  0
VISUALSTYLE
  5
2B
102
{ACAD_REACTORS
330
2A
102
}
330
2A
100
AcDbVisualStyle
  2
Flat
 70
     0
177
     3
291
     1
 70
    58
 90
        2
176
     1
 90
        1
176
     1
 90
        1
176
     1
 90
        2
176
     1
 40
0.6
176
     1
 40
30.0
176
     1
 62
     7
420
 16777215
176
     1
 90
        0
176
     1
 90
        0
176
     1
 62
     7
176
     1
 62
   257
176
     1
 90
        1
176
     1
 90
        1
176
     1
 40
1.0
176
     1
 90
        8
176
     1
 62
     7
176
     1
 40
1.0
176
     1
 90
        1
176
     1
 90
        6
176
     1
 90
        2
176
     1
 62
     7
176
     1
 90
        5
176
     1
 90
        0
176
     1
 90
        0
176
     1
290
     0
176
     1
 90
       13
176
     1
 40
0.0
176
     1
 90
        0
176
     1
290
     0
176
     1
290
     1
176
     1
290
     1
176
     1
290
     0
176
     1
290
     0
176
     1
290
     0
176
     1
290
     0
176
     1
290
     0
176
     1
290
     0
176
     1
 90
       50
176
     1
 40
0.0
176
     1
 40
1.0
176
     1
 90
        0
176
     1
 62
    18
420
        0
176
     1
 90
       50
176
     1
 90
        3
176
     1
 62
     5
420
      255
176
     1
290
     0
176
     1
 90
       50
176
     1
 90
       50
176
     1
 90
       50
176
     1
290
     0
176
     1
 90
       50
176
     1
 62
   256
176
     0
 40
1.0
176
     0
 90
        2
176
     1
  1
strokes_ogs.tif
176
     1
290
     0
176
     1
 40
1.0
176
     1
 40
1.0
176
     1
  0
VISUALSTYLE
  5
2C
102
{ACAD_REACTORS
330
2A
102
}
330
2A
100
AcDbVisualStyle
  2
FlatWithEdges
 70
     1
177
     3
291
     1
 70
    58
 90
        2
176
     1
 90
        1
176
     1
 90
        1
176
     1
 90
        2
176
     1
 40
0.6
176
     1
 40
30.0
176
     1
 62
     7
420
 16777215
176
     1
 90
        1
176
     1
 90
        0
176
     1
 62
     7
176
     1
 62
   257
176
     1
 90
        1
176
     1
 90
        1
176
     1
 40
1.0
176
     1
 90
        0
176
     1
 62
   257
176
     1
 40
1.0
176
     1
 90
        1
176
     1
 90
        6
176
     1
 90
        2
176
     1
 62
     7
176
     1
 90
        5
176
     1
 90
        0
176
     1
 90
        0
176
     1
290
     0
176
     1
 90
       13
176
     1
 40
0.0
176
     1
 90
        0
176
     1
290
     0
176
     1
290
     1
176
     1
290
     1
176
     1
290
     0
176
     1
290
     0
176
     1
290
     0
176
     1
290
     0
176
     1
290
     0
176
     1
290
     0
176
     1
 90
       50
176
     1
 40
0.0
176
     1
 40
1.0
176
     1
 90
        0
176
     1
 62
    18
420
        0
176
     1
 90
       50
176
     1
 90
        3
176
     1
 62
     5
420
      255
176
     1
290
     0
176
     1
 90
       50
176
     1
 90
       50
176
     1
 90
       50
176
     1
290
     0
176
     1
 90
       50
176
     1
 62
   256
176
     0
 40
1.0
176
     0
 90
        2
176
     1
  1
strokes_ogs.tif
176
     1
290
     0
176
     1
 40
1.0
176
     1
 40
1.0
176
     1
  0
VISUALSTYLE
  5
2D
102
{ACAD_REACTORS
330
2A
102
}
330
2A
100
AcDbVisualStyle
  2
Gouraud
 70
     2
177
     3
291
     1
 70
    58
 90
        2
176
     1
 90
        2
176
     1
 90
        1
176
     1
 90
        2
176
     1
 40
0.6
176
     1
 40
30.0
176
     1
 62
     7
420
 16777215
176
     1
 90
        0
176
     1
 90
        0
176
     1
 62
     7
176
     1
 62
   257
176
     1
 90
        1
176
     1
 90
        1
176
     1
 40
1.0
176
     1
 90
        0
176
     1
 62
     7
176
     1
 40
1.0
176
     1
 90
        1
176
     1
 90
        6
176
     1
 90
        2
176
     1
 62
     7
176
     1
 90
        5
176
     1
 90
        0
176
     1
 90
        0
176
     1
290
     0
176
     1
 90
       13
176
     1
 40
0.0
176
     1
 90
        0
176
     1
290
     0
176
     1
290
     1
176
     1
290
     1
176
     1
290
     0
176
     1
290
     0
176
     1
290
     0
176
     1
290
     0
176
     1
290
     0
176
     1
290
     0
176
     1
 90
       50
176
     1
 40
0.0
176
     1
 40
1.0
176
     1
 90
        0
176
     1
 62
    18
420
        0
176
     1
 90
       50
176
     1
 90
        3
176
     1
 62
     5
420
      255
176
     1
290
     0
176
     1
 90
       50
176
     1
 90
       50
176
     1
 90
       50
176
     1
290
     0
176
     1
 90
       50
176
     1
 62
   256
176
     0
 40
1.0
176
     0
 90
        2
176
     1
  1
strokes_ogs.tif
176
     1
290
     0
176
     1
 40
1.0
176
     1
 40
1.0
176
     1
  0
VISUALSTYLE
  5
2E
102
{ACAD_REACTORS
330
2A
102
}
330
2A
100
AcDbVisualStyle
  2
GouraudWithEdges
 70
     3
177
     3
291
     1
 70
    58
 90
        2
176
     1
 90
        2
176
     1
 90
        1
176
     1
 90
        2
176
     1
 40
0.6
176
     1
 40
30.0
176
     1
 62
     7
420
 16777215
176
     1
 90
        1
176
     1
 90
        0
176
     1
 62
     7
176
     1
 62
   257
176
     1
 90
        1
176
     1
 90
        1
176
     1
 40
1.0
176
     1
 90
        0
176
     1
 62
   257
176
     1
 40
1.0
176
     1
 90
        1
176
     1
 90
        6
176
     1
 90
        2
176
     1
 62
     7
176
     1
 90
        5
176
     1
 90
        0
176
     1
 90
        0
176
     1
290
     0
176
     1
 90
       13
176
     1
 40
0.0
176
     1
 90
        0
176
     1
290
     0
176
     1
290
     1
176
     1
290
     1
176
     1
290
     0
176
     1
290
     0
176
     1
290
     0
176
     1
290
     0
176
     1
290
     0
176
     1
290
     0
176
     1
 90
       50
176
     1
 40
0.0
176
     1
 40
1.0
176
     1
 90
        0
176
     1
 62
    18
420
        0
176
     1
 90
       50
176
     1
 90
        3
176
     1
 62
     5
420
      255
176
     1
290
     0
176
     1
 90
       50
176
     1
 90
       50
176
     1
 90
       50
176
     1
290
     0
176
     1
 90
       50
176
     1
 62
   256
176
     0
 40
1.0
176
     0
 90
        2
176
     1
  1
strokes_ogs.tif
176
     1
290
     0
176
     1
 40
1.0
176
     1
 40
1.0
176
     1
  0
VISUALSTYLE
  5
31
102
{ACAD_REACTORS
330
2A
102
}
330
2A
100
AcDbVisualStyle
  2
Hidden
 70
     6
177
     3
291
     0
 70
    58
 90
        1
176
     1
 90
        2
176
     1
 90
        2
176
     1
 90
        0
176
     1
 40
0.6
176
     1
 40
30.0
176
     1
 62
     7
420
 16777215
176
     1
 90
        2
176
     1
 90
        2
176
     1
 62
     7
176
     1
 62
   257
176
     1
 90
        2
176
     1
 90
        1
176
     1
 40
40.0
176
     1
 90
        0
176
     1
 62
   257
176
     1
 40
1.0
176
     1
 90
        1
176
     1
 90
        6
176
     1
 90
        2
176
     1
 62
     7
176
     1
 90
        3
176
     1
 90
        0
176
     1
 90
        0
176
     1
290
     0
176
     1
 90
        1
176
     1
 40
0.0
176
     1
 90
        0
176
     1
290
     0
176
     1
290
     1
176
     1
290
     1
176
     1
290
     0
176
     1
290
     0
176
     1
290
     0
176
     1
290
     0
176
     1
290
     0
176
     1
290
     0
176
     1
 90
       50
176
     1
 40
0.0
176
     1
 40
1.0
176
     1
 90
        0
176
     1
 62
    18
420
        0
176
     1
 90
       50
176
     1
 90
        3
176
     1
 62
     5
420
      255
176
     1
290
     0
176
     1
 90
       50
176
     1
 90
       50
176
     1
 90
       50
176
     1
290
     0
176
     1
 90
       50
176
     1
 62
   256
176
     0
 40
1.0
176
     0
 90
        2
176
     1
  1
strokes_ogs.tif
176
     1
290
     0
176
     1
 40
1.0
176
     1
 40
1.0
176
     1
  0
VISUALSTYLE
  5
3B
102
{ACAD_REACTORS
330
2A
102
}
330
2A
100
AcDbVisualStyle
  2
JitterOff
 70
    20
177
     3
291
     1
 70
    58
 90
        2
176
     0
 90
        2
176
     0
 90
        0
176
     0
 90
        0
176
     0
 40
0.6
176
     0
 40
30.0
176
     0
 62
     7
420
 16777215
176
     0
 90
        1
176
     0
 90
        4
176
     0
 62
     7
176
     0
 62
   257
176
     0
 90
        1
176
     0
 90
        1
176
     0
 40
1.0
176
     0
 90
       10
176
     2
 62
     7
176
     0
 40
1.0
176
     0
 90
        1
176
     0
 90
        6
176
     0
 90
        2
176
     0
 62
     7
176
     0
 90
        5
176
     0
 90
        0
176
     0
 90
        0
176
     0
290
     0
176
     0
 90
        1
176
     0
 40
0.0
176
     0
 90
        0
176
     0
290
     0
176
     0
290
     1
176
     0
290
     1
176
     0
290
     0
176
     0
290
     0
176
     0
290
     0
176
     0
290
     0
176
     0
290
     0
176
     0
290
     0
176
     0
 90
       50
176
     0
 40
0.0
176
     0
 40
1.0
176
     0
 90
        0
176
     0
 62
    18
420
        0
176
     0
 90
       50
176
     0
 90
        3
176
     0
 62
     5
420
      255
176
     0
290
     0
176
     0
 90
       50
176
     0
 90
       50
176
     0
 90
       50
176
     0
290
     0
176
     0
 90
       50
176
     0
 62
   256
176
     0
 40
1.0
176
     0
 90
        2
176
     0
  1
strokes_ogs.tif
176
     0
290
     0
176
     0
 40
1.0
176
     0
 40
1.0
176
     0
  0
VISUALSTYLE
  5
38
102
{ACAD_REACTORS
330
2A
102
}
330
2A
100
AcDbVisualStyle
  2
Linepattern
 70
    14
177
     3
291
     1
 70
    58
 90
        2
176
     1
 90
        2
176
     1
 90
        0
176
     1
 90
        0
176
     1
 40
0.6
176
     1
 40
30.0
176
     1
 62
     7
420
 16777215
176
     1
 90
        1
176
     1
 90
        4
176
     1
 62
     7
176
     1
 62
   257
176
     1
 90
        7
176
     1
 90
        7
176
     1
 40
1.0
176
     1
 90
        8
176
     1
 62
     7
176
     1
 40
1.0
176
     1
 90
        1
176
     1
 90
        6
176
     1
 90
        2
176
     1
 62
     7
176
     1
 90
        5
176
     1
 90
        0
176
     1
 90
        0
176
     1
290
     0
176
     1
 90
        1
176
     1
 40
0.0
176
     1
 90
        0
176
     1
290
     0
176
     1
290
     1
176
     1
290
     1
176
     1
290
     0
176
     1
290
     0
176
     1
290
     0
176
     1
290
     0
176
     1
290
     0
176
     1
290
     0
176
     1
 90
       50
176
     1
 40
0.0
176
     1
 40
1.0
176
     1
 90
        0
176
     1
 62
    18
420
        0
176
     1
 90
       50
176
     1
 90
        3
176
     1
 62
     5
420
      255
176
     1
290
     0
176
     1
 90
       50
176
     1
 90
       50
176
     1
 90
       50
176
     1
290
     0
176
     1
 90
       50
176
     1
 62
   256
176
     0
 40
1.0
176
     0
 90
        2
176
     1
  1
strokes_ogs.tif
176
     1
290
     0
176
     1
 40
1.0
176
     1
 40
1.0
176
     1
  0
VISUALSTYLE
  5
3C
102
{ACAD_REACTORS
330
2A
102
}
330
2A
100
AcDbVisualStyle
  2
OverhangOff
 70
    21
177
     3
291
     1
 70
    58
 90
        2
176
     0
 90
        2
176
     0
 90
        0
176
     0
 90
        0
176
     0
 40
0.6
176
     0
 40
30.0
176
     0
 62
     7
420
 16777215
176
     0
 90
        1
176
     0
 90
        4
176
     0
 62
     7
176
     0
 62
   257
176
     0
 90
        1
176
     0
 90
        1
176
     0
 40
1.0
176
     0
 90
        9
176
     2
 62
     7
176
     0
 40
1.0
176
     0
 90
        1
176
     0
 90
        6
176
     0
 90
        2
176
     0
 62
     7
176
     0
 90
        5
176
     0
 90
        0
176
     0
 90
        0
176
     0
290
     0
176
     0
 90
        1
176
     0
 40
0.0
176
     0
 90
        0
176
     0
290
     0
176
     0
290
     1
176
     0
290
     1
176
     0
290
     0
176
     0
290
     0
176
     0
290
     0
176
     0
290
     0
176
     0
290
     0
176
     0
290
     0
176
     0
 90
       50
176
     0
 40
0.0
176
     0
 40
1.0
176
     0
 90
        0
176
     0
 62
    18
420
        0
176
     0
 90
       50
176
     0
 90
        3
176
     0
 62
     5
420
      255
176
     0
290
     0
176
     0
 90
       50
176
     0
 90
       50
176
     0
 90
       50
176
     0
290
     0
176
     0
 90
       50
176
     0
 62
   256
176
     0
 40
1.0
176
     0
 90
        2
176
     0
  1
strokes_ogs.tif
176
     0
290
     0
176
     0
 40
1.0
176
     0
 40
1.0
176
     0
  0
VISUALSTYLE
  5
33
102
{ACAD_REACTORS
330
2A
102
}
330
2A
100
AcDbVisualStyle
  2
Realistic
 70
     8
177
     3
291
     0
 70
    58
 90
        2
176
     1
 90
        3
176
     1
 90
        0
176
     1
 90
        2
176
     1
 40
0.6
176
     1
 40
30.0
176
     1
 62
     7
420
 16777215
176
     1
 90
        0
176
     1
 90
        0
176
     1
 62
     7
176
     1
 62
   257
176
     1
 90
        1
176
     1
 90
        1
176
     1
 40
1.0
176
     1
 90
        8
176
     1
 62
   257
176
     1
 40
1.0
176
     1
 90
        1
176
     1
 90
        6
176
     1
 90
        2
176
     1
 62
     7
176
     1
 90
        3
176
     1
 90
        0
176
     1
 90
        0
176
     1
290
     0
176
     1
 90
       13
176
     1
 40
0.0
176
     1
 90
        0
176
     1
290
     0
176
     1
290
     1
176
     1
290
     1
176
     1
290
     0
176
     1
290
     0
176
     1
290
     0
176
     1
290
     0
176
     1
290
     0
176
     1
290
     0
176
     1
 90
       50
176
     1
 40
0.0
176
     1
 40
1.0
176
     1
 90
        0
176
     1
 62
    18
420
        0
176
     1
 90
       50
176
     1
 90
        3
176
     1
 62
     5
420
      255
176
     1
290
     0
176
     1
 90
       50
176
     1
 90
       50
176
     1
 90
       50
176
     1
290
     0
176
     1
 90
       50
176
     1
 62
   256
176
     0
 40
1.0
176
     0
 90
        2
176
     1
  1
strokes_ogs.tif
176
     1
290
     0
176
     1
 40
1.0
176
     1
 40
1.0
176
     1
  0
VISUALSTYLE
  5
42
102
{ACAD_REACTORS
330
2A
102
}
330
2A
100
AcDbVisualStyle
  2
Shaded
 70
    27
177
     3
291
     0
 70
    58
 90
        2
176
     1
 90
        2
176
     1
 90
        1
176
     1
 90
        2
176
     1
 40
0.6
176
     1
 40
30.0
176
     1
 62
     7
420
 16777215
176
     1
 90
        0
176
     1
 90
        4
176
     1
 62
     7
176
     1
 62
   257
176
     1
 90
        1
176
     1
 90
        1
176
     1
 40
1.0
176
     1
 90
        8
176
     1
 62
   257
176
     1
 40
1.0
176
     1
 90
        1
176
     1
 90
        6
176
     1
 90
        2
176
     1
 62
     8
420
  7895160
176
     1
 90
        3
176
     1
 90
        0
176
     1
 90
        0
176
     1
290
     0
176
     1
 90
        5
176
     1
 40
0.0
176
     1
 90
        0
176
     1
290
     0
176
     1
290
     1
176
     1
290
     1
176
     1
290
     0
176
     1
290
     0
176
     1
290
     0
176
     1
290
     0
176
     1
290
     0
176
     1
290
     0
176
     1
 90
       50
176
     1
 40
0.0
176
     1
 40
1.0
176
     1
 90
        0
176
     1
 62
    18
420
        0
176
     1
 90
       50
176
     1
 90
        3
176
     1
 62
     5
420
      255
176
     1
290
     0
176
     1
 90
       50
176
     1
 90
       50
176
     1
 90
       50
176
     1
290
     0
176
     1
 90
       50
176
     1
 62
   256
176
     0
 40
1.0
176
     0
 90
        2
176
     1
  1
strokes_ogs.tif
176
     1
290
     0
176
     1
 40
1.0
176
     1
 40
1.0
176
     1
  0
VISUALSTYLE
  5
41
102
{ACAD_REACTORS
330
2A
102
}
330
2A
100
AcDbVisualStyle
  2
Shaded with edges
 70
    26
177
     3
291
     0
 70
    58
 90
        2
176
     1
 90
        2
176
     1
 90
        1
176
     1
 90
        2
176
     1
 40
0.6
176
     1
 40
30.0
176
     1
 62
     7
420
 16777215
176
     1
 90
        1
176
     1
 90
       10
176
     1
 62
     7
176
     1
 62
   257
176
     1
 90
        2
176
     1
 90
        1
176
     1
 40
1.0
176
     1
 90
        8
176
     1
 62
   257
176
     1
 40
1.0
176
     1
 90
        1
176
     1
 90
        6
176
     1
 90
        2
176
     1
 62
     7
176
     1
 90
        3
176
     1
 90
        0
176
     1
 90
        0
176
     1
290
     0
176
     1
 90
        5
176
     1
 40
0.0
176
     1
 90
        0
176
     1
290
     0
176
     1
290
     1
176
     1
290
     1
176
     1
290
     0
176
     1
290
     0
176
     1
290
     0
176
     1
290
     0
176
     1
290
     0
176
     1
290
     0
176
     1
 90
       50
176
     1
 40
0.0
176
     1
 40
1.0
176
     1
 90
        0
176
     1
 62
    18
420
        0
176
     1
 90
       50
176
     1
 90
        3
176
     1
 62
     5
420
      255
176
     1
290
     0
176
     1
 90
       50
176
     1
 90
       50
176
     1
 90
       50
176
     1
290
     0
176
     1
 90
       50
176
     1
 62
   256
176
     0
 40
1.0
176
     0
 90
        2
176
     1
  1
strokes_ogs.tif
176
     1
290
     0
176
     1
 40
1.0
176
     1
 40
1.0
176
     1
  0
VISUALSTYLE
  5
3E
102
{ACAD_REACTORS
330
2A
102
}
330
2A
100
AcDbVisualStyle
  2
Shades of Gray
 70
    23
177
     3
291
     0
 70
    58
 90
        2
176
     1
 90
        2
176
     1
 90
        3
176
     1
 90
        0
176
     1
 40
0.6
176
     1
 40
30.0
176
     1
 62
     7
420
 16777215
176
     1
 90
        2
176
     1
 90
        2
176
     1
 62
     7
176
     1
 62
     7
176
     1
 90
        1
176
     1
 90
        1
176
     1
 40
40.0
176
     1
 90
        8
176
     1
 62
     7
176
     1
 40
1.0
176
     1
 90
        1
176
     1
 90
        6
176
     1
 90
        2
176
     1
 62
     7
176
     1
 90
        3
176
     1
 90
        0
176
     1
 90
        0
176
     1
290
     0
176
     1
 90
        1
176
     1
 40
0.0
176
     1
 90
        0
176
     1
290
     0
176
     1
290
     1
176
     1
290
     1
176
     1
290
     0
176
     1
290
     0
176
     1
290
     0
176
     1
290
     0
176
     1
290
     0
176
     1
290
     0
176
     1
 90
       50
176
     1
 40
0.0
176
     1
 40
1.0
176
     1
 90
        0
176
     1
 62
    18
420
        0
176
     1
 90
       50
176
     1
 90
        3
176
     1
 62
     5
420
      255
176
     1
290
     0
176
     1
 90
       50
176
     1
 90
       50
176
     1
 90
       50
176
     1
290
     0
176
     1
 90
       50
176
     1
 62
   256
176
     0
 40
1.0
176
     0
 90
        2
176
     1
  1
strokes_ogs.tif
176
     1
290
     0
176
     1
 40
1.0
176
     1
 40
1.0
176
     1
  0
VISUALSTYLE
  5
3F
102
{ACAD_REACTORS
330
2A
102
}
330
2A
100
AcDbVisualStyle
  2
Sketchy
 70
    24
177
     3
291
     0
 70
    58
 90
        1
176
     1
 90
        2
176
     1
 90
        2
176
     1
 90
        0
176
     1
 40
0.6
176
     1
 40
30.0
176
     1
 62
     7
420
 16777215
176
     1
 90
        2
176
     1
 90
        2
176
     1
 62
     7
176
     1
 62
     7
176
     1
 90
        1
176
     1
 90
        1
176
     1
 40
40.0
176
     1
 90
       11
176
     1
 62
     7
176
     1
 40
1.0
176
     1
 90
        1
176
     1
 90
        6
176
     1
 90
        2
176
     1
 62
     7
176
     1
 90
        6
176
     1
 90
        0
176
     1
 90
        0
176
     1
290
     0
176
     1
 90
        1
176
     1
 40
0.0
176
     1
 90
        0
176
     1
290
     0
176
     1
290
     1
176
     1
290
     1
176
     1
290
     0
176
     1
290
     0
176
     1
290
     0
176
     1
290
     0
176
     1
290
     0
176
     1
290
     0
176
     1
 90
       50
176
     1
 40
0.0
176
     1
 40
1.0
176
     1
 90
        0
176
     1
 62
    18
420
        0
176
     1
 90
       50
176
     1
 90
        3
176
     1
 62
     5
420
      255
176
     1
290
     0
176
     1
 90
       50
176
     1
 90
       50
176
     1
 90
       50
176
     1
290
     0
176
     1
 90
       50
176
     1
 62
   256
176
     0
 40
1.0
176
     0
 90
        2
176
     1
  1
strokes_ogs.tif
176
     1
290
     0
176
     1
 40
1.0
176
     1
 40
1.0
176
     1
  0
VISUALSTYLE
  5
37
102
{ACAD_REACTORS
330
2A
102
}
330
2A
100
AcDbVisualStyle
  2
Thicken
 70
    13
177
     3
291
     1
 70
    58
 90
        2
176
     1
 90
        2
176
     1
 90
        0
176
     1
 90
        0
176
     1
 40
0.6
176
     1
 40
30.0
176
     1
 62
     7
420
 16777215
176
     1
 90
        1
176
     1
 90
        4
176
     1
 62
     7
176
     1
 62
   257
176
     1
 90
        1
176
     1
 90
        1
176
     1
 40
1.0
176
     1
 90
       12
176
     1
 62
     7
176
     1
 40
1.0
176
     1
 90
        1
176
     1
 90
        6
176
     1
 90
        2
176
     1
 62
     7
176
     1
 90
        5
176
     1
 90
        0
176
     1
 90
        0
176
     1
290
     0
176
     1
 90
        1
176
     1
 40
0.0
176
     1
 90
        0
176
     1
290
     0
176
     1
290
     1
176
     1
290
     1
176
     1
290
     0
176
     1
290
     0
176
     1
290
     0
176
     1
290
     0
176
     1
290
     0
176
     1
290
     0
176
     1
 90
       50
176
     1
 40
0.0
176
     1
 40
1.0
176
     1
 90
        0
176
     1
 62
    18
420
        0
176
     1
 90
       50
176
     1
 90
        3
176
     1
 62
     5
420
      255
176
     1
290
     0
176
     1
 90
       50
176
     1
 90
       50
176
     1
 90
       50
176
     1
290
     0
176
     1
 90
       50
176
     1
 62
   256
176
     0
 40
1.0
176
     0
 90
        2
176
     1
  1
strokes_ogs.tif
176
     1
290
     0
176
     1
 40
1.0
176
     1
 40
1.0
176
     1
  0
VISUALSTYLE
  5
30
102
{ACAD_REACTORS
330
2A
102
}
330
2A
100
AcDbVisualStyle
  2
Wireframe
 70
     5
177
     3
291
     0
 70
    58
 90
        0
176
     1
 90
        2
176
     1
 90
        0
176
     1
 90
        0
176
     1
 40
0.6
176
     1
 40
30.0
176
     1
 62
     7
420
 16777215
176
     1
 90
        1
176
     1
 90
        4
176
     1
 62
     7
176
     1
 62
   257
176
     1
 90
        1
176
     1
 90
        1
176
     1
 40
1.0
176
     1
 90
        0
176
     1
 62
   257
176
     1
 40
1.0
176
     1
 90
        1
176
     1
 90
        6
176
     1
 90
        2
176
     1
 62
     7
176
     1
 90
        3
176
     1
 90
        0
176
     1
 90
        0
176
     1
290
     0
176
     1
 90
        1
176
     1
 40
0.0
176
     1
 90
        0
176
     1
290
     0
176
     1
290
     1
176
     1
290
     1
176
     1
290
     0
176
     1
290
     0
176
     1
290
     0
176
     1
290
     0
176
     1
290
     0
176
     1
290
     0
176
     1
 90
       50
176
     1
 40
0.0
176
     1
 40
1.0
176
     1
 90
        0
176
     1
 62
    18
420
        0
176
     1
 90
       50
176
     1
 90
        3
176
     1
 62
     5
420
      255
176
     1
290
     0
176
     1
 90
       50
176
     1
 90
       50
176
     1
 90
       50
176
     1
290
     0
176
     1
 90
       50
176
     1
 62
   256
176
     0
 40
1.0
176
     0
 90
        2
176
     1
  1
strokes_ogs.tif
176
     1
290
     0
176
     1
 40
1.0
176
     1
 40
1.0
176
     1
  0
VISUALSTYLE
  5
40
102
{ACAD_REACTORS
330
2A
102
}
330
2A
100
AcDbVisualStyle
  2
X-Ray
 70
    25
177
     3
291
     0
 70
    58
 90
        2
176
     1
 90
        2
176
     1
 90
        1
176
     1
 90
        1
176
     1
 40
0.5
176
     1
 40
30.0
176
     1
 62
     7
420
 16777215
176
     1
 90
        1
176
     1
 90
        0
176
     1
 62
     7
176
     1
 62
   257
176
     1
 90
        1
176
     1
 90
        1
176
     1
 40
1.0
176
     1
 90
        8
176
     1
 62
     7
176
     1
 40
1.0
176
     1
 90
        1
176
     1
 90
        6
176
     1
 90
        2
176
     1
 62
     7
176
     1
 90
        3
176
     1
 90
        0
176
     1
 90
        0
176
     1
290
     0
176
     1
 90
       13
176
     1
 40
0.0
176
     1
 90
        0
176
     1
290
     0
176
     1
290
     1
176
     1
290
     1
176
     1
290
     0
176
     1
290
     0
176
     1
290
     0
176
     1
290
     0
176
     1
290
     0
176
     1
290
     0
176
     1
 90
       50
176
     1
 40
0.0
176
     1
 40
1.0
176
     1
 90
        0
176
     1
 62
    18
420
        0
176
     1
 90
       50
176
     1
 90
        3
176
     1
 62
     5
420
      255
176
     1
290
     0
176
     1
 90
       50
176
     1
 90
       50
176
     1
 90
       50
176
     1
290
     0
176
     1
 90
       50
176
     1
 62
   256
176
     0
 40
1.0
176
     0
 90
        2
176
     1
  1
strokes_ogs.tif
176
     1
290
     0
176
     1
 40
1.0
176
     1
 40
1.0
176
     1
  0
DICTIONARYVAR
  5
19D
102
{ACAD_REACTORS
330
19C
102
}
330
19C
100
DictionaryVariables
280
     0
  1
1:1
  0
DICTIONARYVAR
  5
1A2
102
{ACAD_REACTORS
330
19C
102
}
330
19C
100
DictionaryVariables
280
     0
  1
Standard
  0
DICTIONARYVAR
  5
1A1
102
{ACAD_REACTORS
330
19C
102
}
330
19C
100
DictionaryVariables
280
     0
  1
Standard
  0
DICTIONARY
  5
19E
330
6A
100
AcDbDictionary
280
     1
281
     1
  3
ACAD_ROUNDTRIP_2008_TABLESTYLE_CELLSTYLEMAP
360
19F
  0
CELLSTYLEMAP
  5
19F
102
{ACAD_REACTORS
330
19E
102
}
330
19E
100
AcDbCellStyleMap
 90
        3
300
CELLSTYLE
  1
TABLEFORMAT_BEGIN
 90
        5
170
     1
 91
        0
 92
    32768
 62
   257
 93
        1
300
CONTENTFORMAT
  1
CONTENTFORMAT_BEGIN
 90
        0
 91
        0
 92
        4
 93
        0
300

 40
0.0
140
1.0
 94
        5
 62
     0
340
11
144
6.0
309
CONTENTFORMAT_END
171
     1
301
MARGIN
  1
CELLMARGIN_BEGIN
 40
1.5
 40
1.5
 40
1.5
 40
1.5
 40
1.5
 40
1.5
309
CELLMARGIN_END
 94
        6
 95
        1
302
GRIDFORMAT
  1
GRIDFORMAT_BEGIN
 90
        0
 91
        1
 62
     0
 92
       -2
340
14
 93
        0
 40
0.045
309
GRIDFORMAT_END
 95
        2
302
GRIDFORMAT
  1
GRIDFORMAT_BEGIN
 90
        0
 91
        1
 62
     0
 92
       -2
340
14
 93
        0
 40
0.045
309
GRIDFORMAT_END
 95
        4
302
GRIDFORMAT
  1
GRIDFORMAT_BEGIN
 90
        0
 91
        1
 62
     0
 92
       -2
340
14
 93
        0
 40
0.045
309
GRIDFORMAT_END
 95
        8
302
GRIDFORMAT
  1
GRIDFORMAT_BEGIN
 90
        0
 91
        1
 62
     0
 92
       -2
340
14
 93
        0
 40
0.045
309
GRIDFORMAT_END
 95
       16
302
GRIDFORMAT
  1
GRIDFORMAT_BEGIN
 90
        0
 91
        1
 62
     0
 92
       -2
340
14
 93
        0
 40
0.045
309
GRIDFORMAT_END
 95
       32
302
GRIDFORMAT
  1
GRIDFORMAT_BEGIN
 90
        0
 91
        1
 62
     0
 92
       -2
340
14
 93
        0
 40
0.045
309
GRIDFORMAT_END
309
TABLEFORMAT_END
  1
CELLSTYLE_BEGIN
 90
        1
 91
        1
300
_TITLE
309
CELLSTYLE_END
300
CELLSTYLE
  1
TABLEFORMAT_BEGIN
 90
        5
170
     1
 91
        0
 92
        0
 62
   257
 93
        1
300
CONTENTFORMAT
  1
CONTENTFORMAT_BEGIN
 90
        0
 91
        0
 92
        4
 93
        0
300

 40
0.0
140
1.0
 94
        5
 62
     0
340
11
144
4.5
309
CONTENTFORMAT_END
171
     1
301
MARGIN
  1
CELLMARGIN_BEGIN
 40
1.5
 40
1.5
 40
1.5
 40
1.5
 40
1.5
 40
1.5
309
CELLMARGIN_END
 94
        6
 95
        1
302
GRIDFORMAT
  1
GRIDFORMAT_BEGIN
 90
        0
 91
        1
 62
     0
 92
       -2
340
14
 93
        0
 40
0.045
309
GRIDFORMAT_END
 95
        2
302
GRIDFORMAT
  1
GRIDFORMAT_BEGIN
 90
        0
 91
        1
 62
     0
 92
       -2
340
14
 93
        0
 40
0.045
309
GRIDFORMAT_END
 95
        4
302
GRIDFORMAT
  1
GRIDFORMAT_BEGIN
 90
        0
 91
        1
 62
     0
 92
       -2
340
14
 93
        0
 40
0.045
309
GRIDFORMAT_END
 95
        8
302
GRIDFORMAT
  1
GRIDFORMAT_BEGIN
 90
        0
 91
        1
 62
     0
 92
       -2
340
14
 93
        0
 40
0.045
309
GRIDFORMAT_END
 95
       16
302
GRIDFORMAT
  1
GRIDFORMAT_BEGIN
 90
        0
 91
        1
 62
     0
 92
       -2
340
14
 93
        0
 40
0.045
309
GRIDFORMAT_END
 95
       32
302
GRIDFORMAT
  1
GRIDFORMAT_BEGIN
 90
        0
 91
        1
 62
     0
 92
       -2
340
14
 93
        0
 40
0.045
309
GRIDFORMAT_END
309
TABLEFORMAT_END
  1
CELLSTYLE_BEGIN
 90
        2
 91
        1
300
_HEADER
309
CELLSTYLE_END
300
CELLSTYLE
  1
TABLEFORMAT_BEGIN
 90
        5
170
     1
 91
        0
 92
        0
 62
   257
 93
        1
300
CONTENTFORMAT
  1
CONTENTFORMAT_BEGIN
 90
        0
 91
        0
 92
        4
 93
        0
300

 40
0.0
140
1.0
 94
        2
 62
     0
340
11
144
4.5
309
CONTENTFORMAT_END
171
     1
301
MARGIN
  1
CELLMARGIN_BEGIN
 40
1.5
 40
1.5
 40
1.5
 40
1.5
 40
1.5
 40
1.5
309
CELLMARGIN_END
 94
        6
 95
        1
302
GRIDFORMAT
  1
GRIDFORMAT_BEGIN
 90
        0
 91
        1
 62
     0
 92
       -2
340
14
 93
        0
 40
0.045
309
GRIDFORMAT_END
 95
        2
302
GRIDFORMAT
  1
GRIDFORMAT_BEGIN
 90
        0
 91
        1
 62
     0
 92
       -2
340
14
 93
        0
 40
0.045
309
GRIDFORMAT_END
 95
        4
302
GRIDFORMAT
  1
GRIDFORMAT_BEGIN
 90
        0
 91
        1
 62
     0
 92
       -2
340
14
 93
        0
 40
0.045
309
GRIDFORMAT_END
 95
        8
302
GRIDFORMAT
  1
GRIDFORMAT_BEGIN
 90
        0
 91
        1
 62
     0
 92
       -2
340
14
 93
        0
 40
0.045
309
GRIDFORMAT_END
 95
       16
302
GRIDFORMAT
  1
GRIDFORMAT_BEGIN
 90
        0
 91
        1
 62
     0
 92
       -2
340
14
 93
        0
 40
0.045
309
GRIDFORMAT_END
 95
       32
302
GRIDFORMAT
  1
GRIDFORMAT_BEGIN
 90
        0
 91
        1
 62
     0
 92
       -2
340
14
 93
        0
 40
0.045
309
GRIDFORMAT_END
309
TABLEFORMAT_END
  1
CELLSTYLE_BEGIN
 90
        3
 91
        2
300
_DATA
309
CELLSTYLE_END
  0
ENDSEC
  0
EOF