0
SECTION
  2
HEADER
  9
$ACADVER
  1
AC1027
  9
$ACADMAINTVER
 70
     8
  9
$DWGCODEPAGE
  3
ANSI_1252
  9
$REQUIREDVERSIONS
160
                 0
  9
$COMMENTS
  1
File was created by Cadenas
  9
$CUSTOMPROPERTYTAG
  1
NN
  9
$CUSTOMPROPERTY
  1
Eccentric Collar Intermediate Duty Wide Slot Take Up Metric Bore
  9
$CUSTOMPROPERTYTAG
  1
NT
  9
$CUSTOMPROPERTY
  1
Eccentric Collar Take-Up Bearings -(Intermediate Duty) -Wide Slot
  9
$CUSTOMPROPERTYTAG
  1
NB
  9
$CUSTOMPROPERTY
  1
130795
  9
$CUSTOMPROPERTYTAG
  1
NBSYN
  9
$CUSTOMPROPERTY
  1
$PN.
  9
$CUSTOMPROPERTYTAG
  1
LINA
  9
$CUSTOMPROPERTY
  1
130795
  9
$CUSTOMPROPERTYTAG
  1
SERIES
  9
$CUSTOMPROPERTY
  1
206
  9
$CUSTOMPROPERTYTAG
  1
SS
  9
$CUSTOMPROPERTY
  1
30
  9
$CUSTOMPROPERTYTAG
  1
PN
  9
$CUSTOMPROPERTY
  1
130795
  9
$CUSTOMPROPERTYTAG
  1
DESCRIPTION
  9
$CUSTOMPROPERTY
  1
WSTU-SXV-30M
  9
$CUSTOMPROPERTYTAG
  1
W
  9
$CUSTOMPROPERTY
  1
1.2
  9
$CUSTOMPROPERTYTAG
  1
FS
  9
$CUSTOMPROPERTY
  1
WS308
  9
$CUSTOMPROPERTYTAG
  1
A
  9
$CUSTOMPROPERTY
  1
35.8
  9
$CUSTOMPROPERTYTAG
  1
B
  9
$CUSTOMPROPERTY
  1
111.3
  9
$CUSTOMPROPERTYTAG
  1
C
  9
$CUSTOMPROPERTY
  1
13.49
  9
$CUSTOMPROPERTYTAG
  1
D
  9
$CUSTOMPROPERTY
  1
57.2
  9
$CUSTOMPROPERTYTAG
  1
E
  9
$CUSTOMPROPERTY
  1
69.9
  9
$CUSTOMPROPERTYTAG
  1
F
  9
$CUSTOMPROPERTY
  1
19.1
  9
$CUSTOMPROPERTYTAG
  1
G
  9
$CUSTOMPROPERTY
  1
9.7
  9
$CUSTOMPROPERTYTAG
  1
H
  9
$CUSTOMPROPERTY
  1
16.0
  9
$CUSTOMPROPERTYTAG
  1
J
  9
$CUSTOMPROPERTY
  1
55.6
  9
$CUSTOMPROPERTYTAG
  1
K
  9
$CUSTOMPROPERTY
  1
36.6
  9
$CUSTOMPROPERTYTAG
  1
L
  9
$CUSTOMPROPERTY
  1
44.5
  9
$CUSTOMPROPERTYTAG
  1
M
  9
$CUSTOMPROPERTY
  1
88.39/89.15
  9
$CUSTOMPROPERTYTAG
  1
N
  9
$CUSTOMPROPERTY
  1
104.9
  9
$CUSTOMPROPERTYTAG
  1
R
  9
$CUSTOMPROPERTY
  1
8.9
  9
$CUSTOMPROPERTYTAG
  1
S
  9
$CUSTOMPROPERTY
  1
26.7
  9
$CUSTOMPROPERTYTAG
  1
T
  9
$CUSTOMPROPERTY
  1
41.3
  9
$CUSTOMPROPERTYTAG
  1
COMPANY
  9
$CUSTOMPROPERTY
  1
baldor
  9
$INSBASE
 10
0.0
 20
0.0
 30
0.0
  9
$EXTMIN
 10
1.000000000000000E+20
 20
1.000000000000000E+20
 30
1.000000000000000E+20
  9
$EXTMAX
 10
-1.000000000000000E+20
 20
-1.000000000000000E+20
 30
-1.000000000000000E+20
  9
$LIMMIN
 10
0.0
 20
0.0
  9
$LIMMAX
 10
420.0
 20
297.0
  9
$ORTHOMODE
 70
     0
  9
$REGENMODE
 70
     1
  9
$FILLMODE
 70
     1
  9
$QTEXTMODE
 70
     0
  9
$MIRRTEXT
 70
     1
  9
$LTSCALE
 40
1.0
  9
$ATTMODE
 70
     1
  9
$TEXTSIZE
 40
2.5
  9
$TRACEWID
 40
1.0
  9
$TEXTSTYLE
  7
Standard
  9
$CLAYER
  8
0
  9
$CELTYPE
  6
ByLayer
  9
$CECOLOR
 62
   256
  9
$CELTSCALE
 40
1.0
  9
$DISPSILH
 70
     0
  9
$DIMSCALE
 40
1.0
  9
$DIMASZ
 40
2.5
  9
$DIMEXO
 40
0.625
  9
$DIMDLI
 40
3.75
  9
$DIMRND
 40
0.0
  9
$DIMDLE
 40
0.0
  9
$DIMEXE
 40
1.25
  9
$DIMTP
 40
0.0
  9
$DIMTM
 40
0.0
  9
$DIMTXT
 40
2.5
  9
$DIMCEN
 40
2.5
  9
$DIMTSZ
 40
0.0
  9
$DIMTOL
 70
     0
  9
$DIMLIM
 70
     0
  9
$DIMTIH
 70
     0
  9
$DIMTOH
 70
     0
  9
$DIMSE1
 70
     0
  9
$DIMSE2
 70
     0
  9
$DIMTAD
 70
     1
  9
$DIMZIN
 70
     8
  9
$DIMBLK
  1

  9
$DIMASO
 70
     1
  9
$DIMSHO
 70
     1
  9
$DIMPOST
  1

  9
$DIMAPOST
  1

  9
$DIMALT
 70
     0
  9
$DIMALTD
 70
     3
  9
$DIMALTF
 40
0.03937007874016
  9
$DIMLFAC
 40
1.0
  9
$DIMTOFL
 70
     1
  9
$DIMTVP
 40
0.0
  9
$DIMTIX
 70
     0
  9
$DIMSOXD
 70
     0
  9
$DIMSAH
 70
     0
  9
$DIMBLK1
  1

  9
$DIMBLK2
  1

  9
$DIMSTYLE
  2
ISO-25
  9
$DIMCLRD
 70
     0
  9
$DIMCLRE
 70
     0
  9
$DIMCLRT
 70
     0
  9
$DIMTFAC
 40
1.0
  9
$DIMGAP
 40
0.625
  9
$DIMJUST
 70
     0
  9
$DIMSD1
 70
     0
  9
$DIMSD2
 70
     0
  9
$DIMTOLJ
 70
     0
  9
$DIMTZIN
 70
     8
  9
$DIMALTZ
 70
     0
  9
$DIMALTTZ
 70
     0
  9
$DIMUPT
 70
     0
  9
$DIMDEC
 70
     2
  9
$DIMTDEC
 70
     2
  9
$DIMALTU
 70
     2
  9
$DIMALTTD
 70
     3
  9
$DIMTXSTY
  7
Standard
  9
$DIMAUNIT
 70
     0
  9
$DIMADEC
 70
     0
  9
$DIMALTRND
 40
0.0
  9
$DIMAZIN
 70
     0
  9
$DIMDSEP
 70
    44
  9
$DIMATFIT
 70
     3
  9
$DIMFRAC
 70
     0
  9
$DIMLDRBLK
  1

  9
$DIMLUNIT
 70
     2
  9
$DIMLWD
 70
    -2
  9
$DIMLWE
 70
    -2
  9
$DIMTMOVE
 70
     0
  9
$DIMFXL
 40
1.0
  9
$DIMFXLON
 70
     0
  9
$DIMJOGANG
 40
0.7853981633974483
  9
$DIMTFILL
 70
     0
  9
$DIMTFILLCLR
 70
     0
  9
$DIMARCSYM
 70
     0
  9
$DIMLTYPE
  6

  9
$DIMLTEX1
  6

  9
$DIMLTEX2
  6

  9
$DIMTXTDIRECTION
 70
     0
  9
$LUNITS
 70
     2
  9
$LUPREC
 70
     4
  9
$SKETCHINC
 40
1.0
  9
$FILLETRAD
 40
10.0
  9
$AUNITS
 70
     0
  9
$AUPREC
 70
     0
  9
$MENU
  1
.
  9
$ELEVATION
 40
0.0
  9
$PELEVATION
 40
0.0
  9
$THICKNESS
 40
0.0
  9
$LIMCHECK
 70
     0
  9
$CHAMFERA
 40
0.0
  9
$CHAMFERB
 40
0.0
  9
$CHAMFERC
 40
0.0
  9
$CHAMFERD
 40
0.0
  9
$SKPOLY
 70
     0
  9
$TDCREATE
 40
2458168.985845069
  9
$TDUCREATE
 40
2458168.944178403
  9
$TDUPDATE
 40
2458168.985845243
  9
$TDUUPDATE
 40
2458168.944178577
  9
$TDINDWG
 40
0.0000000116
  9
$TDUSRTIMER
 40
0.0000000116
  9
$USRTIMER
 70
     1
  9
$ANGBASE
 50
0.0
  9
$ANGDIR
 70
     0
  9
$PDMODE
 70
     0
  9
$PDSIZE
 40
0.0
  9
$PLINEWID
 40
0.0
  9
$SPLFRAME
 70
     0
  9
$SPLINETYPE
 70
     6
  9
$SPLINESEGS
 70
     8
  9
$HANDSEED
  5
1E2
  9
$SURFTAB1
 70
     6
  9
$SURFTAB2
 70
     6
  9
$SURFTYPE
 70
     6
  9
$SURFU
 70
     6
  9
$SURFV
 70
     6
  9
$UCSBASE
  2

  9
$UCSNAME
  2

  9
$UCSORG
 10
0.0
 20
0.0
 30
0.0
  9
$UCSXDIR
 10
1.0
 20
0.0
 30
0.0
  9
$UCSYDIR
 10
0.0
 20
1.0
 30
0.0
  9
$UCSORTHOREF
  2

  9
$UCSORTHOVIEW
 70
     0
  9
$UCSORGTOP
 10
0.0
 20
0.0
 30
0.0
  9
$UCSORGBOTTOM
 10
0.0
 20
0.0
 30
0.0
  9
$UCSORGLEFT
 10
0.0
 20
0.0
 30
0.0
  9
$UCSORGRIGHT
 10
0.0
 20
0.0
 30
0.0
  9
$UCSORGFRONT
 10
0.0
 20
0.0
 30
0.0
  9
$UCSORGBACK
 10
0.0
 20
0.0
 30
0.0
  9
$PUCSBASE
  2

  9
$PUCSNAME
  2

  9
$PUCSORG
 10
0.0
 20
0.0
 30
0.0
  9
$PUCSXDIR
 10
1.0
 20
0.0
 30
0.0
  9
$PUCSYDIR
 10
0.0
 20
1.0
 30
0.0
  9
$PUCSORTHOREF
  2

  9
$PUCSORTHOVIEW
 70
     0
  9
$PUCSORGTOP
 10
0.0
 20
0.0
 30
0.0
  9
$PUCSORGBOTTOM
 10
0.0
 20
0.0
 30
0.0
  9
$PUCSORGLEFT
 10
0.0
 20
0.0
 30
0.0
  9
$PUCSORGRIGHT
 10
0.0
 20
0.0
 30
0.0
  9
$PUCSORGFRONT
 10
0.0
 20
0.0
 30
0.0
  9
$PUCSORGBACK
 10
0.0
 20
0.0
 30
0.0
  9
$USERI1
 70
     0
  9
$USERI2
 70
     0
  9
$USERI3
 70
     0
  9
$USERI4
 70
     0
  9
$USERI5
 70
     0
  9
$USERR1
 40
0.0
  9
$USERR2
 40
0.0
  9
$USERR3
 40
0.0
  9
$USERR4
 40
0.0
  9
$USERR5
 40
0.0
  9
$WORLDVIEW
 70
     1
  9
$SHADEDGE
 70
     3
  9
$SHADEDIF
 70
    70
  9
$TILEMODE
 70
     1
  9
$MAXACTVP
 70
    64
  9
$PINSBASE
 10
0.0
 20
0.0
 30
0.0
  9
$PLIMCHECK
 70
     0
  9
$PEXTMIN
 10
1.000000000000000E+20
 20
1.000000000000000E+20
 30
1.000000000000000E+20
  9
$PEXTMAX
 10
-1.000000000000000E+20
 20
-1.000000000000000E+20
 30
-1.000000000000000E+20
  9
$PLIMMIN
 10
0.0
 20
0.0
  9
$PLIMMAX
 10
420.0
 20
297.0
  9
$UNITMODE
 70
     0
  9
$VISRETAIN
 70
     1
  9
$PLINEGEN
 70
     0
  9
$PSLTSCALE
 70
     1
  9
$TREEDEPTH
 70
  3020
  9
$CMLSTYLE
  2
Standard
  9
$CMLJUST
 70
     0
  9
$CMLSCALE
 40
20.0
  9
$PROXYGRAPHICS
 70
     1
  9
$MEASUREMENT
 70
     1
  9
$CELWEIGHT
370
    -1
  9
$ENDCAPS
280
     0
  9
$JOINSTYLE
280
     0
  9
$LWDISPLAY
290
     0
  9
$INSUNITS
 70
     4
  9
$HYPERLINKBASE
  1

  9
$STYLESHEET
  1

  9
$XEDIT
290
     1
  9
$CEPSNTYPE
380
     0
  9
$PSTYLEMODE
290
     1
  9
$FINGERPRINTGUID
  2
{DE7BDB24-5E85-4ACF-921B-76BBEF50486D}
  9
$VERSIONGUID
  2
{FAEB1C32-E019-11D5-929B-00C0DF256EC4}
  9
$EXTNAMES
290
     1
  9
$PSVPSCALE
 40
0.0
  9
$OLESTARTUP
290
     0
  9
$SORTENTS
280
   127
  9
$INDEXCTL
280
     0
  9
$HIDETEXT
280
     1
  9
$XCLIPFRAME
280
     2
  9
$HALOGAP
280
     0
  9
$OBSCOLOR
 70
   257
  9
$OBSLTYPE
280
     0
  9
$INTERSECTIONDISPLAY
280
     0
  9
$INTERSECTIONCOLOR
 70
   257
  9
$DIMASSOC
280
     2
  9
$PROJECTNAME
  1

  9
$CAMERADISPLAY
290
     0
  9
$LENSLENGTH
 40
50.0
  9
$CAMERAHEIGHT
 40
0.0
  9
$STEPSPERSEC
 40
2.0
  9
$STEPSIZE
 40
6.0
  9
$3DDWFPREC
 40
2.0
  9
$PSOLWIDTH
 40
5.0
  9
$PSOLHEIGHT
 40
80.0
  9
$LOFTANG1
 40
1.570796326794897
  9
$LOFTANG2
 40
1.570796326794897
  9
$LOFTMAG1
 40
0.0
  9
$LOFTMAG2
 40
0.0
  9
$LOFTPARAM
 70
     7
  9
$LOFTNORMALS
280
     1
  9
$LATITUDE
 40
37.795
  9
$LONGITUDE
 40
-122.394
  9
$NORTHDIRECTION
 40
0.0
  9
$TIMEZONE
 70
 -8000
  9
$LIGHTGLYPHDISPLAY
280
     1
  9
$TILEMODELIGHTSYNCH
280
     1
  9
$CMATERIAL
347
44
  9
$SOLIDHIST
280
     0
  9
$SHOWHIST
280
     1
  9
$DWFFRAME
280
     2
  9
$DGNFRAME
280
     2
  9
$REALWORLDSCALE
290
     1
  9
$INTERFERECOLOR
 62
   256
  9
$CSHADOW
280
     0
  9
$SHADOWPLANELOCATION
 40
0.0
  0
ENDSEC
  0
SECTION
  2
CLASSES
  0
CLASS
  1
ACDBDICTIONARYWDFLT
  2
AcDbDictionaryWithDefault
  3
ObjectDBX Classes
 90
        0
 91
        4
280
     0
281
     0
  0
CLASS
  1
VISUALSTYLE
  2
AcDbVisualStyle
  3
ObjectDBX Classes
 90
     4095
 91
        4
280
     0
281
     0
  0
CLASS
  1
MATERIAL
  2
AcDbMaterial
  3
ObjectDBX Classes
 90
     1153
 91
        4
280
     0
281
     0
  0
CLASS
  1
SCALE
  2
AcDbScale
  3
ObjectDBX Classes
 90
     1153
 91
        4
280
     0
281
     0
  0
CLASS
  1
TABLESTYLE
  2
AcDbTableStyle
  3
ObjectDBX Classes
 90
     4095
 91
        4
280
     0
281
     0
  0
CLASS
  1
MLEADERSTYLE
  2
AcDbMLeaderStyle
  3
ACDB_MLEADERSTYLE_CLASS
 90
     4095
 91
        4
280
     0
281
     0
  0
CLASS
  1
SUN
  2
AcDbSun
  3
SCENEOE
 90
     1153
 91
        4
280
     0
281
     0
  0
CLASS
  1
DICTIONARYVAR
  2
AcDbDictionaryVar
  3
ObjectDBX Classes
 90
        0
 91
        4
280
     0
281
     0
  0
CLASS
  1
CELLSTYLEMAP
  2
AcDbCellStyleMap
  3
ObjectDBX Classes
 90
     1152
 91
        4
280
     0
281
     0
  0
ENDSEC
  0
SECTION
  2
TABLES
  0
TABLE
  2
VPORT
  5
8
330
0
100
AcDbSymbolTable
 70
     1
  0
VPORT
  5
29
330
8
100
AcDbSymbolTableRecord
100
AcDbViewportTableRecord
  2
*Active
 70
     0
 10
0.0
 20
0.0
 11
1.0
 21
1.0
 12
9.034423536602787
 22
-3.920000000000016
 13
0.0
 23
0.0
 14
10.0
 24
10.0
 15
10.0
 25
10.0
 16
0.0
 26
0.0
 36
1.0
 17
0.0
 27
0.0
 37
0.0
 40
50.1228
 41
2.496970959031226
 42
50.0
 43
0.0
 44
0.0
 50
0.0
 51
0.0
 71
     0
 72
   100
 73
     1
 74
     3
 75
     0
 76
     0
 77
     0
 78
     0
281
     0
 65
     1
110
0.0
120
0.0
130
0.0
111
1.0
121
0.0
131
0.0
112
0.0
122
1.0
132
0.0
 79
     0
146
0.0
348
2F
 60
     3
 61
     5
292
     1
282
     1
141
0.0
142
0.0
 63
   250
361
6D
  0
ENDTAB
  0
TABLE
  2
LTYPE
  5
5
330
0
100
AcDbSymbolTable
 70
     3
  0
LTYPE
  5
14
330
5
100
AcDbSymbolTableRecord
100
AcDbLinetypeTableRecord
  2
ByBlock
 70
     0
  3

 72
    65
 73
     0
 40
0.0
  0
LTYPE
  5
15
330
5
100
AcDbSymbolTableRecord
100
AcDbLinetypeTableRecord
  2
ByLayer
 70
     0
  3

 72
    65
 73
     0
 40
0.0
  0
LTYPE
  5
16
330
5
100
AcDbSymbolTableRecord
100
AcDbLinetypeTableRecord
  2
Continuous
 70
     0
  3
Solid line
 72
    65
 73
     0
 40
0.0
  0
LTYPE
  5
A7
330
5
100
AcDbSymbolTableRecord
100
AcDbLinetypeTableRecord
  2
Dashed
 70
     0
  3

 72
    65
 73
     2
 40
2.0
 49
1.0
 74
     0
 49
-1.0
 74
     0
  0
LTYPE
  5
DA
330
5
100
AcDbSymbolTableRecord
100
AcDbLinetypeTableRecord
  2
Center
 70
     0
  3

 72
    65
 73
     4
 40
1.5
 49
0.45
 74
     0
 49
-0.5
 74
     0
 49
0.05
 74
     0
 49
-0.5
 74
     0
  0
ENDTAB
  0
TABLE
  2
LAYER
  5
2
330
0
100
AcDbSymbolTable
 70
     7
  0
LAYER
  5
10
330
2
100
AcDbSymbolTableRecord
100
AcDbLayerTableRecord
  2
0
 70
     0
 62
     7
  6
Continuous
370
    -3
390
F
347
46
348
0
  0
LAYER
  5
72
330
2
100
AcDbSymbolTableRecord
100
AcDbLayerTableRecord
  2
AM_6
 70
     0
 62
    -2
  6
Continuous
370
    35
390
F
347
46
348
0
  0
LAYER
  5
A8
330
2
100
AcDbSymbolTableRecord
100
AcDbLayerTableRecord
  2
AM_9
 70
     0
 62
     6
  6
Dashed
370
    25
390
F
347
46
348
0
  0
LAYER
  5
DB
330
2
100
AcDbSymbolTableRecord
100
AcDbLayerTableRecord
  2
AM_7
 70
     0
 62
     7
  6
Center
370
    25
390
F
347
46
348
0
  0
LAYER
  5
DE
330
2
100
AcDbSymbolTableRecord
100
AcDbLayerTableRecord
  2
AM_4
 70
     0
 62
     7
  6
Continuous
370
    50
390
F
347
46
348
0
  0
LAYER
  5
E8
330
2
100
AcDbSymbolTableRecord
100
AcDbLayerTableRecord
  2
AM_5
 70
     0
 62
     3
  6
Continuous
370
    25
390
F
347
46
348
0
  0
LAYER
  5
1D5
330
2
100
AcDbSymbolTableRecord
100
AcDbLayerTableRecord
  2
ConnectionPoints
 70
     0
 62
     7
  6
Continuous
370
    50
390
F
347
46
348
0
  0
ENDTAB
  0
TABLE
  2
STYLE
  5
3
330
0
100
AcDbSymbolTable
 70
     1
  0
STYLE
  5
11
330
3
100
AcDbSymbolTableRecord
100
AcDbTextStyleTableRecord
  2
Standard
 70
     0
 40
0.0
 41
1.0
 50
0.0
 71
     0
 42
2.5
  3
txt
  4

  0
ENDTAB
  0
TABLE
  2
VIEW
  5
6
330
0
100
AcDbSymbolTable
 70
     0
  0
ENDTAB
  0
TABLE
  2
UCS
  5
7
330
0
100
AcDbSymbolTable
 70
     0
  0
ENDTAB
  0
TABLE
  2
APPID
  5
9
330
0
100
AcDbSymbolTable
 70
     1
  0
APPID
  5
12
330
9
100
AcDbSymbolTableRecord
100
AcDbRegAppTableRecord
  2
ACAD
 70
     0
  0
ENDTAB
  0
TABLE
  2
DIMSTYLE
  5
A
330
0
100
AcDbSymbolTable
 70
     1
100
AcDbDimStyleTable
  0
DIMSTYLE
105
27
330
A
100
AcDbSymbolTableRecord
100
AcDbDimStyleTableRecord
  2
ISO-25
 70
     0
 41
2.5
 42
0.625
 43
3.75
 44
1.25
 73
     0
 74
     0
 77
     1
 78
     8
140
2.5
141
2.5
143
0.03937007874016
147
0.625
171
     3
172
     1
178
     0
271
     2
272
     2
274
     3
278
    44
283
     0
284
     8
340
11
  0
ENDTAB
  0
TABLE
  2
BLOCK_RECORD
  5
1
330
0
100
AcDbSymbolTable
 70
     5
  0
BLOCK_RECORD
  5
1F
330
1
100
AcDbSymbolTableRecord
100
AcDbBlockTableRecord
  2
*Model_Space
340
22
 70
     0
280
     1
281
     0
  0
BLOCK_RECORD
  5
1B
330
1
100
AcDbSymbolTableRecord
100
AcDbBlockTableRecord
  2
*Paper_Space
340
1E
 70
     0
280
     1
281
     0
  0
BLOCK_RECORD
  5
23
330
1
100
AcDbSymbolTableRecord
100
AcDbBlockTableRecord
  2
*Paper_Space0
340
26
 70
     0
280
     1
281
     0
  0
BLOCK_RECORD
  5
6E
330
1
100
AcDbSymbolTableRecord
100
AcDbBlockTableRecord
  2
1_130795_4
340
0
102
{BLKREFS
331
6F
102
}
 70
     0
280
     1
281
     0
  0
BLOCK_RECORD
  5
8F
330
1
100
AcDbSymbolTableRecord
100
AcDbBlockTableRecord
  2
2_125647_0_in_130795_4
340
0
102
{BLKREFS
331
90
102
}
 70
     0
280
     1
281
     0
  0
BLOCK_RECORD
  5
EA
330
1
100
AcDbSymbolTableRecord
100
AcDbBlockTableRecord
  2
3_405016_Metric_0_in_130795_4
340
0
102
{BLKREFS
331
EB
102
}
 70
     0
280
     1
281
     0
  0
BLOCK_RECORD
  5
175
330
1
100
AcDbSymbolTableRecord
100
AcDbBlockTableRecord
  2
4_130795H_0_in_130795_4
340
0
102
{BLKREFS
331
176
102
}
 70
     0
280
     1
281
     0
  0
ENDTAB
  0
ENDSEC
  0
SECTION
  2
BLOCKS
  0
BLOCK
  5
20
330
1F
100
AcDbEntity
  8
0
100
AcDbBlockBegin
  2
*Model_Space
 70
     0
 10
0.0
 20
0.0
 30
0.0
  3
*Model_Space
  1

  0
ENDBLK
  5
21
330
1F
100
AcDbEntity
  8
0
100
AcDbBlockEnd
  0
BLOCK
  5
1C
330
1B
100
AcDbEntity
 67
     1
  8
0
100
AcDbBlockBegin
  2
*Paper_Space
 70
     0
 10
0.0
 20
0.0
 30
0.0
  3
*Paper_Space
  1

  0
ENDBLK
  5
1D
330
1B
100
AcDbEntity
 67
     1
  8
0
100
AcDbBlockEnd
  0
BLOCK
  5
24
330
23
100
AcDbEntity
  8
0
100
AcDbBlockBegin
  2
*Paper_Space0
 70
     0
 10
0.0
 20
0.0
 30
0.0
  3
*Paper_Space0
  1

  0
ENDBLK
  5
25
330
23
100
AcDbEntity
  8
0
100
AcDbBlockEnd
  0
BLOCK
  5
70
330
6E
100
AcDbEntity
  8
0
100
AcDbBlockBegin
  2
1_130795_4
 70
     2
 10
0.0
 20
0.0
 30
0.0
  3
1_130795_4
  1

  0
ATTDEF
  5
73
330
6E
100
AcDbEntity
  8
AM_6
100
AcDbText
 10
75.385
 20
20.65
 30
0.0
 40
0.5
  1
Eccentric Collar Intermediate Duty Wide Slot Take Up Metric Bore
100
AcDbAttributeDefinition
  3

  2
NN
 70
     8
280
     0
  0
ATTDEF
  5
74
330
6E
100
AcDbEntity
  8
AM_6
100
AcDbText
 10
75.385
 20
20.15
 30
0.0
 40
0.5
  1
Eccentric Collar Take-Up Bearings -(Intermediate Duty) -Wide Slot
100
AcDbAttributeDefinition
  3

  2
NT
 70
     8
280
     0
  0
ATTDEF
  5
75
330
6E
100
AcDbEntity
  8
AM_6
100
AcDbText
 10
75.385
 20
19.65
 30
0.0
 40
0.5
  1
130795
100
AcDbAttributeDefinition
  3

  2
NB
 70
     8
280
     0
  0
ATTDEF
  5
76
330
6E
100
AcDbEntity
  8
AM_6
100
AcDbText
 10
75.385
 20
19.15
 30
0.0
 40
0.5
  1
$PN.
100
AcDbAttributeDefinition
  3

  2
NBSYN
 70
     8
280
     0
  0
ATTDEF
  5
77
330
6E
100
AcDbEntity
  8
AM_6
100
AcDbText
 10
75.385
 20
18.65
 30
0.0
 40
0.5
  1
130795
100
AcDbAttributeDefinition
  3

  2
LINA
 70
     8
280
     0
  0
ATTDEF
  5
78
330
6E
100
AcDbEntity
  8
AM_6
100
AcDbText
 10
75.385
 20
18.15
 30
0.0
 40
0.5
  1
206
100
AcDbAttributeDefinition
  3

  2
SERIES
 70
     8
280
     0
  0
ATTDEF
  5
79
330
6E
100
AcDbEntity
  8
AM_6
100
AcDbText
 10
75.385
 20
17.65
 30
0.0
 40
0.5
  1
30
100
AcDbAttributeDefinition
  3

  2
SS
 70
     8
280
     0
  0
ATTDEF
  5
7A
330
6E
100
AcDbEntity
  8
AM_6
100
AcDbText
 10
75.385
 20
17.15
 30
0.0
 40
0.5
  1
130795
100
AcDbAttributeDefinition
  3

  2
PN
 70
     8
280
     0
  0
ATTDEF
  5
7B
330
6E
100
AcDbEntity
  8
AM_6
100
AcDbText
 10
75.385
 20
16.65
 30
0.0
 40
0.5
  1
WSTU-SXV-30M
100
AcDbAttributeDefinition
  3

  2
DESCRIPTION
 70
     8
280
     0
  0
ATTDEF
  5
7C
330
6E
100
AcDbEntity
  8
AM_6
100
AcDbText
 10
75.385
 20
16.15
 30
0.0
 40
0.5
  1
1.2
100
AcDbAttributeDefinition
  3

  2
W
 70
     8
280
     0
  0
ATTDEF
  5
7D
330
6E
100
AcDbEntity
  8
AM_6
100
AcDbText
 10
75.385
 20
15.65
 30
0.0
 40
0.5
  1
WS308
100
AcDbAttributeDefinition
  3

  2
FS
 70
     8
280
     0
  0
ATTDEF
  5
7E
330
6E
100
AcDbEntity
  8
AM_6
100
AcDbText
 10
75.385
 20
15.15
 30
0.0
 40
0.5
  1
35.8
100
AcDbAttributeDefinition
  3

  2
A
 70
     8
280
     0
  0
ATTDEF
  5
7F
330
6E
100
AcDbEntity
  8
AM_6
100
AcDbText
 10
75.385
 20
14.65
 30
0.0
 40
0.5
  1
111.3
100
AcDbAttributeDefinition
  3

  2
B
 70
     8
280
     0
  0
ATTDEF
  5
80
330
6E
100
AcDbEntity
  8
AM_6
100
AcDbText
 10
75.385
 20
14.15
 30
0.0
 40
0.5
  1
13.49
100
AcDbAttributeDefinition
  3

  2
C
 70
     8
280
     0
  0
ATTDEF
  5
81
330
6E
100
AcDbEntity
  8
AM_6
100
AcDbText
 10
75.385
 20
13.65
 30
0.0
 40
0.5
  1
57.2
100
AcDbAttributeDefinition
  3

  2
D
 70
     8
280
     0
  0
ATTDEF
  5
82
330
6E
100
AcDbEntity
  8
AM_6
100
AcDbText
 10
75.385
 20
13.15
 30
0.0
 40
0.5
  1
69.9
100
AcDbAttributeDefinition
  3

  2
E
 70
     8
280
     0
  0
ATTDEF
  5
83
330
6E
100
AcDbEntity
  8
AM_6
100
AcDbText
 10
75.385
 20
12.65
 30
0.0
 40
0.5
  1
19.1
100
AcDbAttributeDefinition
  3

  2
F
 70
     8
280
     0
  0
ATTDEF
  5
84
330
6E
100
AcDbEntity
  8
AM_6
100
AcDbText
 10
75.385
 20
12.15
 30
0.0
 40
0.5
  1
9.7
100
AcDbAttributeDefinition
  3

  2
G
 70
     8
280
     0
  0
ATTDEF
  5
85
330
6E
100
AcDbEntity
  8
AM_6
100
AcDbText
 10
75.385
 20
11.65
 30
0.0
 40
0.5
  1
16.0
100
AcDbAttributeDefinition
  3

  2
H
 70
     8
280
     0
  0
ATTDEF
  5
86
330
6E
100
AcDbEntity
  8
AM_6
100
AcDbText
 10
75.385
 20
11.15
 30
0.0
 40
0.5
  1
55.6
100
AcDbAttributeDefinition
  3

  2
J
 70
     8
280
     0
  0
ATTDEF
  5
87
330
6E
100
AcDbEntity
  8
AM_6
100
AcDbText
 10
75.385
 20
10.65
 30
0.0
 40
0.5
  1
36.6
100
AcDbAttributeDefinition
  3

  2
K
 70
     8
280
     0
  0
ATTDEF
  5
88
330
6E
100
AcDbEntity
  8
AM_6
100
AcDbText
 10
75.385
 20
10.15
 30
0.0
 40
0.5
  1
44.5
100
AcDbAttributeDefinition
  3

  2
L
 70
     8
280
     0
  0
ATTDEF
  5
89
330
6E
100
AcDbEntity
  8
AM_6
100
AcDbText
 10
75.385
 20
9.649999999999999
 30
0.0
 40
0.5
  1
88.39/89.15
100
AcDbAttributeDefinition
  3

  2
M
 70
     8
280
     0
  0
ATTDEF
  5
8A
330
6E
100
AcDbEntity
  8
AM_6
100
AcDbText
 10
75.385
 20
9.149999999999999
 30
0.0
 40
0.5
  1
104.9
100
AcDbAttributeDefinition
  3

  2
N
 70
     8
280
     0
  0
ATTDEF
  5
8B
330
6E
100
AcDbEntity
  8
AM_6
100
AcDbText
 10
75.385
 20
8.649999999999999
 30
0.0
 40
0.5
  1
8.9
100
AcDbAttributeDefinition
  3

  2
R
 70
     8
280
     0
  0
ATTDEF
  5
8C
330
6E
100
AcDbEntity
  8
AM_6
100
AcDbText
 10
75.385
 20
8.149999999999999
 30
0.0
 40
0.5
  1
26.7
100
AcDbAttributeDefinition
  3

  2
S
 70
     8
280
     0
  0
ATTDEF
  5
8D
330
6E
100
AcDbEntity
  8
AM_6
100
AcDbText
 10
75.385
 20
7.649999999999999
 30
0.0
 40
0.5
  1
41.3
100
AcDbAttributeDefinition
  3

  2
T
 70
     8
280
     0
  0
ATTDEF
  5
8E
330
6E
100
AcDbEntity
  8
AM_6
100
AcDbText
 10
75.385
 20
7.149999999999999
 30
0.0
 40
0.5
  1
baldor
100
AcDbAttributeDefinition
  3

  2
COMPANY
 70
     8
280
     0
  0
INSERT
  5
90
330
6E
100
AcDbEntity
  8
0
100
AcDbBlockReference
  2
2_125647_0_in_130795_4
 10
0.0
 20
0.0
 30
0.0
  0
INSERT
  5
EB
330
6E
100
AcDbEntity
  8
0
100
AcDbBlockReference
  2
3_405016_Metric_0_in_130795_4
 10
0.0
 20
0.0
 30
0.0
  0
INSERT
  5
176
330
6E
100
AcDbEntity
  8
0
100
AcDbBlockReference
  2
4_130795H_0_in_130795_4
 10
0.0
 20
0.0
 30
0.0
  0
ENDBLK
  5
71
330
6E
100
AcDbEntity
  8
0
100
AcDbBlockEnd
  0
BLOCK
  5
91
330
8F
100
AcDbEntity
  8
0
100
AcDbBlockBegin
  2
2_125647_0_in_130795_4
 70
     2
 10
0.0
 20
0.0
 30
0.0
  3
2_125647_0_in_130795_4
  1

  0
ATTDEF
  5
93
330
8F
100
AcDbEntity
  8
AM_6
100
AcDbText
 10
38.1275
 20
9.099999999999998
 30
0.0
 40
0.5
  1
Eccentric Collar Intermediate Duty Insert Metric Bore
100
AcDbAttributeDefinition
  3

  2
NN
 70
     8
280
     0
  0
ATTDEF
  5
94
330
8F
100
AcDbEntity
  8
AM_6
100
AcDbText
 10
38.1275
 20
8.599999999999998
 30
0.0
 40
0.5
  1
Eccentric Collar Bearing Inserts -(Intermediate Duty)
100
AcDbAttributeDefinition
  3

  2
NT
 70
     8
280
     0
  0
ATTDEF
  5
95
330
8F
100
AcDbEntity
  8
AM_6
100
AcDbText
 10
38.1275
 20
8.099999999999998
 30
0.0
 40
0.5
  1
125647
100
AcDbAttributeDefinition
  3

  2
NB
 70
     8
280
     0
  0
ATTDEF
  5
96
330
8F
100
AcDbEntity
  8
AM_6
100
AcDbText
 10
38.1275
 20
7.599999999999998
 30
0.0
 40
0.5
  1
$PN.
100
AcDbAttributeDefinition
  3

  2
NBSYN
 70
     8
280
     0
  0
ATTDEF
  5
97
330
8F
100
AcDbEntity
  8
AM_6
100
AcDbText
 10
38.1275
 20
7.099999999999998
 30
0.0
 40
0.5
  1
125647
100
AcDbAttributeDefinition
  3

  2
LINA
 70
     8
280
     0
  0
ATTDEF
  5
98
330
8F
100
AcDbEntity
  8
AM_6
100
AcDbText
 10
38.1275
 20
6.599999999999998
 30
0.0
 40
0.5
  1
206
100
AcDbAttributeDefinition
  3

  2
SERIES
 70
     8
280
     0
  0
ATTDEF
  5
99
330
8F
100
AcDbEntity
  8
AM_6
100
AcDbText
 10
38.1275
 20
6.099999999999998
 30
0.0
 40
0.5
  1
30
100
AcDbAttributeDefinition
  3

  2
SS
 70
     8
280
     0
  0
ATTDEF
  5
9A
330
8F
100
AcDbEntity
  8
AM_6
100
AcDbText
 10
38.1275
 20
5.599999999999998
 30
0.0
 40
0.5
  1
125647
100
AcDbAttributeDefinition
  3

  2
PN
 70
     8
280
     0
  0
ATTDEF
  5
9B
330
8F
100
AcDbEntity
  8
AM_6
100
AcDbText
 10
38.1275
 20
5.099999999999998
 30
0.0
 40
0.5
  1
INS-SXV-30M
100
AcDbAttributeDefinition
  3

  2
DESCRIPTION
 70
     8
280
     0
  0
ATTDEF
  5
9C
330
8F
100
AcDbEntity
  8
AM_6
100
AcDbText
 10
38.1275
 20
4.599999999999998
 30
0.0
 40
0.5
  1
0.3
100
AcDbAttributeDefinition
  3

  2
WEIGHT
 70
     8
280
     0
  0
ATTDEF
  5
9D
330
8F
100
AcDbEntity
  8
AM_6
100
AcDbText
 10
38.1275
 20
4.099999999999998
 30
0.0
 40
0.5
  1
35.8
100
AcDbAttributeDefinition
  3

  2
A
 70
     8
280
     0
  0
ATTDEF
  5
9E
330
8F
100
AcDbEntity
  8
AM_6
100
AcDbText
 10
38.1275
 20
3.599999999999998
 30
0.0
 40
0.5
  1
17.5
100
AcDbAttributeDefinition
  3

  2
C
 70
     8
280
     0
  0
ATTDEF
  5
9F
330
8F
100
AcDbEntity
  8
AM_6
100
AcDbText
 10
38.1275
 20
3.099999999999998
 30
0.0
 40
0.5
  1
62.0
100
AcDbAttributeDefinition
  3

  2
D
 70
     8
280
     0
  0
ATTDEF
  5
A0
330
8F
100
AcDbEntity
  8
AM_6
100
AcDbText
 10
38.1275
 20
2.599999999999998
 30
0.0
 40
0.5
  1
4.1
100
AcDbAttributeDefinition
  3

  2
J
 70
     8
280
     0
  0
ATTDEF
  5
A1
330
8F
100
AcDbEntity
  8
AM_6
100
AcDbText
 10
38.1275
 20
2.099999999999998
 30
0.0
 40
0.5
  1
44.5
100
AcDbAttributeDefinition
  3

  2
L
 70
     8
280
     0
  0
ATTDEF
  5
A2
330
8F
100
AcDbEntity
  8
AM_6
100
AcDbText
 10
38.1275
 20
1.599999999999998
 30
0.0
 40
0.5
  1
M8 x 1.25
100
AcDbAttributeDefinition
  3

  2
N
 70
     8
280
     0
  0
ATTDEF
  5
A3
330
8F
100
AcDbEntity
  8
AM_6
100
AcDbText
 10
38.1275
 20
1.099999999999998
 30
0.0
 40
0.5
  1
8.9
100
AcDbAttributeDefinition
  3

  2
W
 70
     8
280
     0
  0
ATTDEF
  5
A4
330
8F
100
AcDbEntity
  8
AM_6
100
AcDbText
 10
38.1275
 20
0.5999999999999979
 30
0.0
 40
0.5
  1
26.7
100
AcDbAttributeDefinition
  3

  2
Y
 70
     8
280
     0
  0
ATTDEF
  5
A5
330
8F
100
AcDbEntity
  8
AM_6
100
AcDbText
 10
38.1275
 20
0.0999999999999979
 30
0.0
 40
0.5
  1
39.9
100
AcDbAttributeDefinition
  3

  2
Z
 70
     8
280
     0
  0
ATTDEF
  5
A6
330
8F
100
AcDbEntity
  8
AM_6
100
AcDbText
 10
38.1275
 20
-0.4000000000000021
 30
0.0
 40
0.5
  1
baldor
100
AcDbAttributeDefinition
  3

  2
COMPANY
 70
     8
280
     0
  0
LINE
  5
A9
330
8F
100
AcDbEntity
  8
AM_9
100
AcDbLine
 10
30.5
 20
6.299999999999999
 30
0.0
 11
30.39489037451665
 21
6.299999999999999
 31
0.0
  0
ARC
  5
AA
330
8F
100
AcDbEntity
  8
AM_9
100
AcDbCircle
 10
30.49999999998892
 20
4.299999999998811
 30
0.0
 40
2.000000000001188
100
AcDbArc
 50
282.2877839443531
 51
90.0
  0
LINE
  5
AB
330
8F
100
AcDbEntity
  8
AM_9
100
AcDbLine
 10
30.5
 20
6.299999999999999
 30
0.0
 11
30.5
 21
5.512195121951406
 31
0.0
  0
LINE
  5
AC
330
8F
100
AcDbEntity
  8
AM_9
100
AcDbLine
 10
15.0
 20
-26.27573593128808
 30
0.0
 11
15.0
 21
-15.0
 31
0.0
  0
LINE
  5
AD
330
8F
100
AcDbEntity
  8
AM_9
100
AcDbLine
 10
-15.0
 20
-15.0
 30
0.0
 11
-15.0
 21
-26.27573593128808
 31
0.0
  0
LINE
  5
AE
330
8F
100
AcDbEntity
  8
AM_9
100
AcDbLine
 10
15.0
 20
-14.4
 30
0.0
 11
15.0
 21
8.675735931288072
 31
0.0
  0
LINE
  5
AF
330
8F
100
AcDbEntity
  8
AM_9
100
AcDbLine
 10
-15.0
 20
8.675735931288072
 30
0.0
 11
-15.0
 21
-14.4
 31
0.0
  0
LINE
  5
B0
330
8F
100
AcDbEntity
  8
AM_9
100
AcDbLine
 10
-15.0
 20
-14.4
 30
0.0
 11
15.0
 21
-14.4
 31
0.0
  0
LINE
  5
B1
330
8F
100
AcDbEntity
  8
AM_9
100
AcDbLine
 10
-15.0
 20
-14.4
 30
0.0
 11
-15.29999999999999
 21
-14.7
 31
0.0
  0
LINE
  5
B2
330
8F
100
AcDbEntity
  8
AM_9
100
AcDbLine
 10
15.29999999999999
 20
-14.7
 30
0.0
 11
15.0
 21
-14.4
 31
0.0
  0
LINE
  5
B3
330
8F
100
AcDbEntity
  8
AM_9
100
AcDbLine
 10
-15.29999999999999
 20
-14.7
 30
0.0
 11
15.29999999999999
 21
-14.7
 31
0.0
  0
LINE
  5
B4
330
8F
100
AcDbEntity
  8
AM_9
100
AcDbLine
 10
-15.0
 20
-15.0
 30
0.0
 11
15.0
 21
-15.0
 31
0.0
  0
LINE
  5
B5
330
8F
100
AcDbEntity
  8
AM_9
100
AcDbLine
 10
15.0
 20
-15.0
 30
0.0
 11
15.29999999999999
 21
-14.7
 31
0.0
  0
LINE
  5
B6
330
8F
100
AcDbEntity
  8
AM_9
100
AcDbLine
 10
-15.29999999999999
 20
-14.7
 30
0.0
 11
-15.0
 21
-15.0
 31
0.0
  0
LINE
  5
B7
330
8F
100
AcDbEntity
  8
AM_9
100
AcDbLine
 10
-15.0
 20
8.675735931288072
 30
0.0
 11
15.0
 21
8.675735931288072
 31
0.0
  0
LINE
  5
B8
330
8F
100
AcDbEntity
  8
AM_9
100
AcDbLine
 10
15.0
 20
8.675735931288072
 30
0.0
 11
15.42426406871193
 21
9.099999999999998
 31
0.0
  0
LINE
  5
B9
330
8F
100
AcDbEntity
  8
AM_9
100
AcDbLine
 10
-15.42426406871193
 20
9.099999999999998
 30
0.0
 11
-15.0
 21
8.675735931288072
 31
0.0
  0
LINE
  5
BA
330
8F
100
AcDbEntity
  8
AM_9
100
AcDbLine
 10
-15.0
 20
-26.27573593128808
 30
0.0
 11
15.0
 21
-26.27573593128808
 31
0.0
  0
LINE
  5
BB
330
8F
100
AcDbEntity
  8
AM_9
100
AcDbLine
 10
-15.0
 20
-26.27573593128808
 30
0.0
 11
-15.42426406871193
 21
-26.7
 31
0.0
  0
LINE
  5
BC
330
8F
100
AcDbEntity
  8
AM_9
100
AcDbLine
 10
15.42426406871193
 20
-26.7
 30
0.0
 11
15.0
 21
-26.27573593128808
 31
0.0
  0
LINE
  5
BD
330
8F
100
AcDbEntity
  8
AM_9
100
AcDbLine
 10
19.0
 20
-12.3
 30
0.0
 11
19.0
 21
-11.5
 31
0.0
  0
LINE
  5
BE
330
8F
100
AcDbEntity
  8
AM_9
100
AcDbLine
 10
-19.0
 20
-11.5
 30
0.0
 11
-19.0
 21
-12.3
 31
0.0
  0
LINE
  5
BF
330
8F
100
AcDbEntity
  8
AM_9
100
AcDbLine
 10
-19.95
 20
9.099999999999998
 30
0.0
 11
19.95
 21
9.099999999999998
 31
0.0
  0
LINE
  5
C0
330
8F
100
AcDbEntity
  8
AM_9
100
AcDbLine
 10
19.95
 20
8.95
 30
0.0
 11
19.95
 21
9.099999999999998
 31
0.0
  0
LINE
  5
C1
330
8F
100
AcDbEntity
  8
AM_9
100
AcDbLine
 10
-19.95
 20
9.099999999999998
 30
0.0
 11
-19.95
 21
8.95
 31
0.0
  0
LINE
  5
C2
330
8F
100
AcDbEntity
  8
AM_9
100
AcDbLine
 10
-19.95
 20
-11.5
 30
0.0
 11
19.95
 21
-11.5
 31
0.0
  0
LINE
  5
C3
330
8F
100
AcDbEntity
  8
AM_9
100
AcDbLine
 10
19.95
 20
-11.5
 30
0.0
 11
19.95
 21
-8.55
 31
0.0
  0
LINE
  5
C4
330
8F
100
AcDbEntity
  8
AM_9
100
AcDbLine
 10
-19.95
 20
-8.55
 30
0.0
 11
-19.95
 21
-11.5
 31
0.0
  0
LINE
  5
C5
330
8F
100
AcDbEntity
  8
AM_9
100
AcDbLine
 10
-21.05
 20
-12.3
 30
0.0
 11
21.04999999998414
 21
-12.3
 31
0.0
  0
ARC
  5
C6
330
8F
100
AcDbEntity
  8
AM_9
100
AcDbCircle
 10
21.05
 20
-13.5
 30
0.0
 40
1.200000000000003
100
AcDbArc
 50
0.0
 51
90.0
  0
ARC
  5
C7
330
8F
100
AcDbEntity
  8
AM_9
100
AcDbCircle
 10
-21.05
 20
-13.5
 30
0.0
 40
1.199999999999996
100
AcDbArc
 50
90.0
 51
180.0
  0
LINE
  5
C8
330
8F
100
AcDbEntity
  8
AM_9
100
AcDbLine
 10
29.52380952380952
 20
-4.412500000000001
 30
0.0
 11
29.52380952380952
 21
-3.387499999999999
 31
0.0
  0
LINE
  5
C9
330
8F
100
AcDbEntity
  8
AM_9
100
AcDbLine
 10
-29.52380952380952
 20
-3.387499999999999
 30
0.0
 11
-29.52380952380952
 21
-4.412500000000001
 31
0.0
  0
LINE
  5
CA
330
8F
100
AcDbEntity
  8
AM_9
100
AcDbLine
 10
-29.2871558878632
 20
-8.550000000000004
 30
0.0
 11
29.28715588778033
 21
-8.550000000000004
 31
0.0
  0
ARC
  5
CB
330
8F
100
AcDbEntity
  8
AM_9
100
AcDbCircle
 10
29.28715588786319
 20
-7.949999999999993
 30
0.0
 40
0.6000000000000112
100
AcDbArc
 50
270.0
 51
344.449232513381
  0
ARC
  5
CC
330
8F
100
AcDbEntity
  8
AM_9
100
AcDbCircle
 10
-29.28715588786319
 20
-7.949999999999993
 30
0.0
 40
0.6000000000000126
100
AcDbArc
 50
195.5507674866189
 51
270.0
  0
LINE
  5
CD
330
8F
100
AcDbEntity
  8
AM_9
100
AcDbLine
 10
-29.2871558878632
 20
8.95
 30
0.0
 11
29.28715588778033
 21
8.95
 31
0.0
  0
ARC
  5
CE
330
8F
100
AcDbEntity
  8
AM_9
100
AcDbCircle
 10
29.2871558878632
 20
8.350000000000003
 30
0.0
 40
0.5999999999999968
100
AcDbArc
 50
15.55076748661852
 51
90.0
  0
ARC
  5
CF
330
8F
100
AcDbEntity
  8
AM_9
100
AcDbCircle
 10
-29.2871558878632
 20
8.350000000000003
 30
0.0
 40
0.5999999999999961
100
AcDbArc
 50
90.0
 51
164.4492325133815
  0
LINE
  5
D0
330
8F
100
AcDbEntity
  8
AM_9
100
AcDbLine
 10
-29.86519185933419
 20
-8.110855263157893
 30
0.0
 11
29.86519185933383
 21
-8.110855263157893
 31
0.0
  0
LINE
  5
D1
330
8F
100
AcDbEntity
  8
AM_9
100
AcDbLine
 10
-30.65493180142471
 20
-4.412500000000001
 30
0.0
 11
30.65493180142435
 21
-4.412500000000001
 31
0.0
  0
ARC
  5
D2
330
8F
100
AcDbEntity
  8
AM_9
100
AcDbCircle
 10
-0.0000000001861125
 20
0.2000000000396165
 30
0.0
 40
31.00000000018958
100
AcDbArc
 50
344.4492325134027
 51
351.4431695046835
  0
ARC
  5
D3
330
8F
100
AcDbEntity
  8
AM_9
100
AcDbCircle
 10
0.0000000001858247
 20
0.2000000000395508
 30
0.0
 40
31.00000000018928
100
AcDbArc
 50
188.5568304953165
 51
195.5507674865973
  0
LINE
  5
D4
330
8F
100
AcDbEntity
  8
AM_9
100
AcDbLine
 10
-30.79171712896181
 20
-3.387499999999999
 30
0.0
 11
30.79171712896182
 21
-3.387499999999999
 31
0.0
  0
LINE
  5
D5
330
8F
100
AcDbEntity
  8
AM_9
100
AcDbLine
 10
-29.86519185933419
 20
8.510855263157895
 30
0.0
 11
29.8651918593342
 21
8.510855263157895
 31
0.0
  0
LINE
  5
D6
330
8F
100
AcDbEntity
  8
AM_9
100
AcDbLine
 10
30.3939138644573
 20
6.299999999994188
 30
0.0
 11
30.92564413031709
 21
2.345818054958417
 31
0.0
  0
ARC
  5
D7
330
8F
100
AcDbEntity
  8
AM_9
100
AcDbCircle
 10
-0.0000000000110489
 20
0.2000000000003048
 30
0.0
 40
31.00000000001103
100
AcDbArc
 50
353.3545097874284
 51
3.969184234643838
  0
ARC
  5
D8
330
8F
100
AcDbEntity
  8
AM_9
100
AcDbCircle
 10
0.0000000000146052
 20
0.2000000000033531
 30
0.0
 40
30.99999999998505
100
AcDbArc
 50
11.33478567521278
 51
15.55076748661999
  0
ARC
  5
D9
330
8F
100
AcDbEntity
  8
AM_9
100
AcDbCircle
 10
0.0000000000055387
 20
0.1999999999995703
 30
0.0
 40
31.00000000000547
100
AcDbArc
 50
164.4492325133832
 51
186.6454902125714
  0
LINE
  5
DC
330
8F
100
AcDbEntity
  8
AM_7
100
AcDbLine
 10
-3.489675
 20
-20.69999980799999
 30
0.0
 11
3.489675
 21
-20.69999980799999
 31
0.0
  0
LINE
  5
DD
330
8F
100
AcDbEntity
  8
AM_7
100
AcDbLine
 10
19.3225
 20
4.299999999999999
 30
0.0
 11
33.1275
 21
4.299999999999999
 31
0.0
  0
CIRCLE
  5
DF
330
8F
100
AcDbEntity
  8
AM_4
100
AcDbCircle
 10
0.0
 20
-20.69999980799999
 30
0.0
 40
3.3235
  0
LINE
  5
E0
330
8F
100
AcDbEntity
  8
AM_4
100
AcDbLine
 10
-21.05
 20
-26.7
 30
0.0
 11
21.04999999998414
 21
-26.7
 31
0.0
  0
ARC
  5
E1
330
8F
100
AcDbEntity
  8
AM_4
100
AcDbCircle
 10
21.04999999999998
 20
-25.49999999999998
 30
0.0
 40
1.200000000000024
100
AcDbArc
 50
270.0
 51
0.0
  0
ARC
  5
E2
330
8F
100
AcDbEntity
  8
AM_4
100
AcDbCircle
 10
-21.04999999999998
 20
-25.49999999999998
 30
0.0
 40
1.200000000000024
100
AcDbArc
 50
180.0
 51
270.0
  0
LINE
  5
E3
330
8F
100
AcDbEntity
  8
AM_4
100
AcDbLine
 10
-22.25
 20
-25.5
 30
0.0
 11
22.25
 21
-25.5
 31
0.0
  0
LWPOLYLINE
  5
E4
330
8F
100
AcDbEntity
  8
AM_4
100
AcDbPolyline
 90
       39
 70
     0
 43
0.0
 10
-2.468603456825652
 20
-18.15072307569198
 10
-2.095721807261471
 20
-17.78879118715691
 10
-1.662720906666619
 20
-17.48018429696902
 10
-1.141891658256994
 20
-17.22618170586227
 10
-0.5646449643817835
 20
-17.06475237992141
 10
-0.0269872132435572
 20
-17.01411140083558
 10
0.5281893693096773
 20
-17.05837190896599
 10
1.033211843928998
 20
-17.18677813774665
 10
1.523479566162836
 20
-17.40099920109289
 10
1.973375022650417
 20
-17.69106289856527
 10
2.382170090287417
 20
-18.05700146985046
 10
2.743665497251083
 20
-18.50092765771279
 10
3.038607167490958
 20
-19.0087999470752
 10
3.259408783876236
 20
-19.58152571215415
 10
3.389448250924274
 20
-20.19867297684428
 10
3.418937252023088
 20
-20.83889270490959
 10
3.340882341311525
 20
-21.49320140619768
 10
3.1584437616799
 20
-22.1144240054622
 10
2.864640231731866
 20
-22.71236425986408
 10
2.490326942622188
 20
-23.22463915575305
 10
2.015903534047895
 20
-23.67598863144923
 10
1.514007213301924
 20
-24.00407116216892
 10
0.9413077164360961
 20
-24.24317715514172
 10
0.4005766101312643
 20
-24.36054470958293
 10
-0.1705892118625162
 20
-24.38139914561069
 10
-0.6894072695945328
 20
-24.31008268890313
 10
-1.203317631805759
 20
-24.14958788943352
 10
-1.674363594017269
 20
-23.91278899842198
 10
-2.112859583937969
 20
-23.59677944815334
 10
-2.509030177010561
 20
-23.20305924467723
 10
-2.847194933394553
 20
-22.74084996405328
 10
-3.121509837577429
 20
-22.20632222610874
 10
-3.312725937715565
 20
-21.61965679833449
 10
-3.410494499445055
 20
-20.9931306542004
 10
-3.40506444436514
 20
-20.34125631091612
 10
-3.293453892515638
 20
-19.70351363778531
 10
-3.070184673061099
 20
-19.0761653404549
 10
-2.807237917348816
 20
-18.59598173475345
 10
-2.468603457014421
 20
-18.1507230755663
  0
LINE
  5
E5
330
8F
100
AcDbEntity
  8
AM_4
100
AcDbLine
 10
-22.25
 20
-13.5
 30
0.0
 11
22.25
 21
-13.5
 31
0.0
  0
LINE
  5
E6
330
8F
100
AcDbEntity
  8
AM_4
100
AcDbLine
 10
22.25
 20
-25.5
 30
0.0
 11
22.25
 21
-13.5
 31
0.0
  0
LINE
  5
E7
330
8F
100
AcDbEntity
  8
AM_4
100
AcDbLine
 10
-22.25
 20
-13.5
 30
0.0
 11
-22.25
 21
-25.5
 31
0.0
  0
ARC
  5
E9
330
8F
100
AcDbEntity
  8
AM_5
100
AcDbCircle
 10
0.0000000000000002
 20
-20.7
 30
0.0
 40
3.999999999999998
100
AcDbArc
 50
75.0
 51
14.99999999999992
  0
ENDBLK
  5
92
330
8F
100
AcDbEntity
  8
0
100
AcDbBlockEnd
  0
BLOCK
  5
EC
330
EA
100
AcDbEntity
  8
0
100
AcDbBlockBegin
  2
3_405016_Metric_0_in_130795_4
 70
     2
 10
0.0
 20
0.0
 30
0.0
  3
3_405016_Metric_0_in_130795_4
  1

  0
ATTDEF
  5
EE
330
EA
100
AcDbEntity
  8
AM_6
100
AcDbText
 10
-26.18812333737021
 20
5.556249999999999
 30
0.0
 40
0.5
  1
405016 -Metric
100
AcDbAttributeDefinition
  3

  2
NN
 70
     8
280
     0
  0
ATTDEF
  5
EF
330
EA
100
AcDbEntity
  8
AM_6
100
AcDbText
 10
-26.18812333737021
 20
5.056249999999999
 30
0.0
 40
0.5
  1
Grease Fitting
100
AcDbAttributeDefinition
  3

  2
NT
 70
     8
280
     0
  0
ATTDEF
  5
F0
330
EA
100
AcDbEntity
  8
AM_6
100
AcDbText
 10
-26.18812333737021
 20
4.556249999999999
 30
0.0
 40
0.5
  1
405016-Metric
100
AcDbAttributeDefinition
  3

  2
NB
 70
     8
280
     0
  0
ATTDEF
  5
F1
330
EA
100
AcDbEntity
  8
AM_6
100
AcDbText
 10
-26.18812333737021
 20
4.056249999999999
 30
0.0
 40
0.5
  1
$MN.-Metric
100
AcDbAttributeDefinition
  3

  2
NBSYN
 70
     8
280
     0
  0
ATTDEF
  5
F2
330
EA
100
AcDbEntity
  8
AM_6
100
AcDbText
 10
-26.18812333737021
 20
3.556249999999999
 30
0.0
 40
0.5
  1
405016
100
AcDbAttributeDefinition
  3

  2
LINA
 70
     8
280
     0
  0
ATTDEF
  5
F3
330
EA
100
AcDbEntity
  8
AM_6
100
AcDbText
 10
-26.18812333737021
 20
3.056249999999999
 30
0.0
 40
0.5
  1
405016
100
AcDbAttributeDefinition
  3

  2
MN
 70
     8
280
     0
  0
ATTDEF
  5
F4
330
EA
100
AcDbEntity
  8
AM_6
100
AcDbText
 10
-26.18812333737021
 20
2.556249999999999
 30
0.0
 40
0.5
  1
7/16 HEX
100
AcDbAttributeDefinition
  3

  2
H
 70
     8
280
     0
  0
ATTDEF
  5
F5
330
EA
100
AcDbEntity
  8
AM_6
100
AcDbText
 10
-26.18812333737021
 20
2.056249999999999
 30
0.0
 40
0.5
  1
9.728
100
AcDbAttributeDefinition
  3

  2
NDR
 70
     8
280
     0
  0
ATTDEF
  5
F6
330
EA
100
AcDbEntity
  8
AM_6
100
AcDbText
 10
-26.18812333737021
 20
1.556249999999999
 30
0.0
 40
0.5
  1
8.560
100
AcDbAttributeDefinition
  3

  2
KDR
 70
     8
280
     0
  0
ATTDEF
  5
F7
330
EA
100
AcDbEntity
  8
AM_6
100
AcDbText
 10
-26.18812333737021
 20
1.056249999999999
 30
0.0
 40
0.5
  1
4.0005
100
AcDbAttributeDefinition
  3

  2
BZE
 70
     8
280
     0
  0
ATTDEF
  5
F8
330
EA
100
AcDbEntity
  8
AM_6
100
AcDbText
 10
-26.18812333737021
 20
0.5562499999999995
 30
0.0
 40
0.5
  1
11.1125
100
AcDbAttributeDefinition
  3

  2
HEX
 70
     8
280
     0
  0
ATTDEF
  5
F9
330
EA
100
AcDbEntity
  8
AM_6
100
AcDbText
 10
-26.18812333737021
 20
0.0562499999999995
 30
0.0
 40
0.5
  1
7.143750
100
AcDbAttributeDefinition
  3

  2
HEX2
 70
     8
280
     0
  0
ATTDEF
  5
FA
330
EA
100
AcDbEntity
  8
AM_6
100
AcDbText
 10
-26.18812333737021
 20
-0.4437500000000005
 30
0.0
 40
0.5
  1
baldor
100
AcDbAttributeDefinition
  3

  2
COMPANY
 70
     8
280
     0
  0
LINE
  5
FB
330
EA
100
AcDbEntity
  8
AM_9
100
AcDbLine
 10
-48.89560084676594
 20
-3.837282897828231
 30
0.0
 11
-49.18316880665243
 21
-4.549376881905936
 31
0.0
  0
LINE
  5
FC
330
EA
100
AcDbEntity
  8
AM_9
100
AcDbLine
 10
-45.05575975738812
 20
-5.333905179049321
 30
0.0
 11
-45.35261581136456
 21
-6.068998929608747
 31
0.0
  0
LWPOLYLINE
  5
FD
330
EA
100
AcDbEntity
  8
AM_9
100
AcDbPolyline
 90
        3
 70
     0
 43
0.0
 10
-38.56401709445974
 20
-0.0000000000000024
 10
-39.10954993576736
 20
-1.382816900963401
 10
-39.56545310364682
 20
-2.778125000000001
  0
LWPOLYLINE
  5
FE
330
EA
100
AcDbEntity
  8
AM_9
100
AcDbPolyline
 90
        3
 70
     0
 43
0.0
 10
-39.56545310364682
 20
2.778124999999998
 10
-39.11181799405516
 20
1.389062499999997
 10
-38.56401709445974
 20
-0.0000000000000024
  0
LWPOLYLINE
  5
FF
330
EA
100
AcDbEntity
  8
AM_9
100
AcDbPolyline
 90
        3
 70
     0
 43
0.0
 10
-43.58431620746703
 20
-7.58869625231989
 10
-43.98785323536968
 20
-7.397029361446425
 10
-44.37418727849926
 20
-7.147354260923539
  0
LWPOLYLINE
  5
100
330
EA
100
AcDbEntity
  8
AM_9
100
AcDbPolyline
 90
        3
 70
     0
 43
0.0
 10
-37.25866826081111
 20
-2.392897619709266
 10
-37.01740807932978
 20
-1.389062500000002
 10
-36.76323337062898
 20
-0.0000000000000026
  0
LINE
  5
101
330
EA
100
AcDbEntity
  8
AM_9
100
AcDbLine
 10
-37.36574857803434
 20
-2.778125000000002
 30
0.0
 11
-37.25866826081111
 21
-2.392897619709266
 31
0.0
  0
LWPOLYLINE
  5
102
330
EA
100
AcDbEntity
  8
AM_9
100
AcDbPolyline
 90
        3
 70
     0
 43
0.0
 10
-36.76323337062898
 20
-0.0000000000000026
 10
-37.01607023933255
 20
1.382816900963397
 10
-37.36574857803434
 20
2.778124999999998
  0
LWPOLYLINE
  5
103
330
EA
100
AcDbEntity
  8
AM_9
100
AcDbPolyline
 90
        3
 70
     0
 43
0.0
 10
-40.16796831105218
 20
5.556249999999999
 10
-39.9151314423486
 20
4.173433099036599
 10
-39.56545310364682
 20
2.778124999999998
  0
LINE
  5
104
330
EA
100
AcDbEntity
  8
AM_9
100
AcDbLine
 10
-38.56401709445974
 20
-0.0000000000000024
 30
0.0
 11
-36.76323337062898
 21
-0.0000000000000026
 31
0.0
  0
LWPOLYLINE
  5
105
330
EA
100
AcDbEntity
  8
AM_9
100
AcDbPolyline
 90
        3
 70
     0
 43
0.0
 10
-39.56545310364682
 20
-2.778125000000001
 10
-39.91379360235138
 20
-4.167187500000002
 10
-40.16796831105218
 20
-5.556250000000003
  0
ELLIPSE
  5
106
330
EA
100
AcDbEntity
  8
AM_9
100
AcDbEllipse
 10
-49.73826993583393
 20
-11.90625
 30
0.0
 11
-2.437227270755869
 21
0.9842359150649297
 31
0.0
210
0.0
220
0.0
230
1.0
 40
0.2113091308703488
 41
3.040609649696543
 42
6.384168311072842
  0
ELLIPSE
  5
107
330
EA
100
AcDbEntity
  8
AM_9
100
AcDbEllipse
 10
-49.02723091601786
 20
-10.14553017343999
 30
0.0
 11
-3.277232327750504
 21
1.323458750723529
 31
0.0
210
0.0
220
0.0
230
1.0
 40
0.2113091308703484
 41
3.037906441347752
 42
5.80110563949217
  0
ELLIPSE
  5
108
330
EA
100
AcDbEntity
  8
AM_9
100
AcDbEllipse
 10
-48.75608637387074
 20
-9.474104895899984
 30
0.0
 11
-3.136987913476951
 21
1.266823248950129
 31
0.0
210
0.0
220
0.0
230
1.0
 40
0.2113091308703557
 41
3.383001625097984
 42
6.042281878079905
  0
LWPOLYLINE
  5
109
330
EA
100
AcDbEntity
  8
AM_9
100
AcDbPolyline
 90
        5
 70
     0
 43
0.0
 10
-49.18316880665243
 20
-4.549376881905936
 10
-49.73847347451751
 20
-4.680053692952522
 10
-50.26923408253935
 20
-4.730040525586979
 10
-50.77514161923404
 20
-4.684077415975232
 10
-51.24539179941412
 20
-4.549376881905936
  0
LWPOLYLINE
  5
10A
330
EA
100
AcDbEntity
  8
AM_9
100
AcDbPolyline
 90
        5
 70
     0
 43
0.0
 10
-45.35261581136456
 20
-6.068998929608747
 10
-46.33918454402526
 20
-5.830160733401207
 10
-47.30781473050799
 20
-5.503852774457659
 10
-48.26333210728205
 20
-5.070861224918887
 10
-49.18316880665243
 20
-4.549376881905936
  0
LWPOLYLINE
  5
10B
330
EA
100
AcDbEntity
  8
AM_9
100
AcDbPolyline
 90
        3
 70
     0
 43
0.0
 10
-44.67953414511712
 20
-6.887292896806422
 10
-45.02840766033728
 20
-6.507011440078409
 10
-45.35261581136456
 20
-6.068998929608747
  0
ELLIPSE
  5
10C
330
EA
100
AcDbEntity
  8
AM_9
100
AcDbEllipse
 10
-47.46066344358807
 20
-6.266296641270976
 30
0.0
 11
-3.312005593887044
 21
1.337501387545487
 31
0.0
210
0.0
220
0.0
230
1.0
 40
0.211309130870345
 41
3.806340372002911
 42
6.919181903097266
  0
LINE
  5
10D
330
EA
100
AcDbEntity
  8
AM_9
100
AcDbLine
 10
-38.17060082985161
 20
5.081049061129095
 30
0.0
 11
-38.3671845872214
 21
5.556249999999999
 31
0.0
  0
LWPOLYLINE
  5
10E
330
EA
100
AcDbEntity
  8
AM_9
100
AcDbPolyline
 90
        3
 70
     0
 43
0.0
 10
-37.36574857803434
 20
2.778124999999998
 10
-37.81938368762599
 20
4.167187499999998
 10
-38.17060082985161
 20
5.081049061129095
  0
LWPOLYLINE
  5
10F
330
EA
100
AcDbEntity
  8
AM_9
100
AcDbPolyline
 90
        3
 70
     0
 43
0.0
 10
-38.17059772896969
 20
-5.081041392296854
 10
-37.82165174591379
 20
-4.173433099036602
 10
-37.36574857803434
 20
-2.778125000000002
  0
LINE
  5
110
330
EA
100
AcDbEntity
  8
AM_9
100
AcDbLine
 10
-38.3671845872214
 20
-5.556250000000003
 30
0.0
 11
-38.17059772896969
 21
-5.081041392296854
 31
0.0
  0
LINE
  5
111
330
EA
100
AcDbEntity
  8
AM_9
100
AcDbLine
 10
-49.17842478840395
 20
-3.058387021916506
 30
0.0
 11
-49.20599509114264
 21
-3.126658350638856
 31
0.0
  0
LINE
  5
112
330
EA
100
AcDbEntity
  8
AM_9
100
AcDbLine
 10
-43.96837098638673
 20
-5.080000000000001
 30
0.0
 11
-43.90059161103125
 21
-4.912160420603781
 31
0.0
  0
ELLIPSE
  5
113
330
EA
100
AcDbEntity
  8
AM_9
100
AcDbEllipse
 10
-46.99584579210929
 20
-5.115285751734476
 30
0.0
 11
-2.590724375662794
 21
1.046223307591186
 31
0.0
210
0.0
220
0.0
230
1.0
 40
0.2113091308703563
 41
3.141592653589793
 42
6.283185307179586
  0
LWPOLYLINE
  5
114
330
EA
100
AcDbEntity
  8
AM_9
100
AcDbPolyline
 90
        4
 70
     0
 43
0.0
 10
-49.17854492164145
 20
-3.058684545841783
 10
-49.18207973764849
 20
-3.069253891791882
 10
-49.16740910513748
 20
-3.162573084305297
 10
-49.11889825580786
 20
-3.235094295867767
  0
LWPOLYLINE
  5
115
330
EA
100
AcDbEntity
  8
AM_9
100
AcDbPolyline
 90
        5
 70
     0
 43
0.0
 10
-43.90056762831345
 20
-4.912101024934069
 10
-43.90293836604469
 20
-4.917691338485696
 10
-43.98461300464171
 20
-5.008516140987742
 10
-44.13747943100838
 20
-5.065126856945112
 10
-44.31182428375163
 20
-5.079999999236803
  0
LWPOLYLINE
  5
116
330
EA
100
AcDbEntity
  8
AM_9
100
AcDbPolyline
 90
        3
 70
     0
 43
0.0
 10
-46.68157141654758
 20
-4.434184386909876
 10
-45.98588890206243
 20
-4.766969289547203
 10
-45.05575975738812
 20
-5.333905179049321
  0
LWPOLYLINE
  5
117
330
EA
100
AcDbEntity
  8
AM_9
100
AcDbPolyline
 90
        3
 70
     0
 43
0.0
 10
-48.89560084676594
 20
-3.837282897828231
 10
-48.15380381627806
 20
-3.973124856539688
 10
-47.42557314314374
 20
-4.163853732670687
  0
LWPOLYLINE
  5
118
330
EA
100
AcDbEntity
  8
AM_9
100
AcDbPolyline
 90
        3
 70
     0
 43
0.0
 10
-45.05575975738812
 20
-5.333905179049321
 10
-44.62462822611664
 20
-5.49523760296716
 10
-44.2147164936384
 20
-5.736282007269851
  0
LWPOLYLINE
  5
119
330
EA
100
AcDbEntity
  8
AM_9
100
AcDbPolyline
 90
        4
 70
     0
 43
0.0
 10
-49.83313720751612
 20
-3.60574614931637
 10
-49.73470917358648
 20
-3.608061141866096
 10
-49.36669072967182
 20
-3.660719790057628
 10
-48.89560084676594
 20
-3.837282897828231
  0
ELLIPSE
  5
11A
330
EA
100
AcDbEntity
  8
AM_9
100
AcDbEllipse
 10
-46.99584579210935
 20
-5.115285751734418
 30
0.0
 11
-3.312005593887044
 21
1.337501387545421
 31
0.0
210
0.0
220
0.0
230
1.0
 40
0.211309130870361
 41
3.814164134970067
 42
4.684625204935934
  0
ELLIPSE
  5
11B
330
EA
100
AcDbEntity
  8
AM_9
100
AcDbEllipse
 10
-46.99584579210934
 20
-5.115285751734397
 30
0.0
 11
-3.312005593887029
 21
1.337501387545451
 31
0.0
210
0.0
220
0.0
230
1.0
 40
0.2113091308703542
 41
-1.281316123784903
 42
-0.6725714813802819
  0
LINE
  5
11C
330
EA
100
AcDbEntity
  8
AM_9
100
AcDbLine
 10
-44.37418727849926
 20
-7.147354260923539
 30
0.0
 11
-44.67953414511712
 21
-6.887292896806422
 31
0.0
  0
ELLIPSE
  5
11D
330
EA
100
AcDbEntity
  8
AM_9
100
AcDbEllipse
 10
-47.4606634435881
 20
-6.266296641270933
 30
0.0
 11
-3.312005593887051
 21
1.337501387545446
 31
0.0
210
0.0
220
0.0
230
1.0
 40
0.2113091308703489
 41
2.800469246484367
 42
3.607080702195146
  0
ELLIPSE
  5
11E
330
EA
100
AcDbEntity
  8
AM_9
100
AcDbEllipse
 10
-47.46066344356908
 20
-6.266296641280782
 30
0.0
 11
-3.312005593862174
 21
1.337501387536638
 31
0.0
210
0.0
220
0.0
230
1.0
 40
0.211309130870524
 41
-3.777589249507463
 42
-3.764628581859073
  0
LWPOLYLINE
  5
11F
330
EA
100
AcDbEntity
  8
AM_9
100
AcDbPolyline
 90
        3
 70
     0
 43
0.0
 10
-50.70374004687464
 20
-5.202084551684081
 10
-50.69488240568105
 20
-5.215435617844747
 10
-50.67825157359385
 20
-5.241547392824592
  0
LWPOLYLINE
  5
120
330
EA
100
AcDbEntity
  8
AM_9
100
AcDbPolyline
 90
       17
 70
     0
 43
0.0
 10
-44.07014080585619
 20
-4.54754929579452
 10
-44.27251441879149
 20
-4.404185730898368
 10
-44.54571868401969
 20
-4.243653641815979
 10
-44.86685219268976
 20
-4.079360450144661
 10
-45.24506894059413
 20
-3.906600444275934
 10
-45.6489766114889
 20
-3.739733627290439
 10
-46.08994524496055
 20
-3.574110867010544
 10
-46.53077436406876
 20
-3.423743718108895
 10
-46.98436023830969
 20
-3.284291520882655
 10
-47.41183618041159
 20
-3.167739146394208
 10
-47.82628147548949
 20
-3.070557447853723
 10
-48.19201736732927
 20
-3.001126812430812
 10
-48.52049913011925
 20
-2.957268343506164
 10
-48.78363622537564
 20
-2.942714645652545
 10
-48.98963466571975
 20
-2.956956816676945
 10
-49.12112135196712
 20
-2.998748603033093
 10
-49.17854492164145
 20
-3.058684545841783
  0
LWPOLYLINE
  5
121
330
EA
100
AcDbEntity
  8
AM_9
100
AcDbPolyline
 90
        4
 70
     0
 43
0.0
 10
-44.0701408058562
 20
-4.547549295794528
 10
-43.94429242986567
 20
-4.680277139818005
 10
-43.89075216441039
 20
-4.804994146739736
 10
-43.90056762831345
 20
-4.912101024934069
  0
LINE
  5
122
330
EA
100
AcDbEntity
  8
AM_9
100
AcDbLine
 10
-41.97137992853546
 20
5.079999999999997
 30
0.0
 11
-43.56368819552688
 21
5.079999999999997
 31
0.0
  0
LINE
  5
123
330
EA
100
AcDbEntity
  8
AM_9
100
AcDbLine
 10
-43.56375535534624
 20
-5.080000000000001
 30
0.0
 11
-41.97137992853546
 21
-5.080000000000001
 31
0.0
  0
LINE
  5
124
330
EA
100
AcDbEntity
  8
AM_9
100
AcDbLine
 10
-38.3671845872214
 20
5.556249999999999
 30
0.0
 11
-41.57508702040627
 21
5.556249999999999
 31
0.0
  0
LINE
  5
125
330
EA
100
AcDbEntity
  8
AM_9
100
AcDbLine
 10
-41.57508702040627
 20
-5.556250000000002
 30
0.0
 11
-38.3671845872214
 21
-5.556250000000003
 31
0.0
  0
ELLIPSE
  5
126
330
EA
100
AcDbEntity
  8
AM_9
100
AcDbEllipse
 10
-39.77167540292299
 20
-0.000000000000016
 30
0.0
 11
3.402221888881231E-16
 21
5.556249999999983
 31
0.0
210
0.0
220
0.0
230
1.0
 40
0.5000000000000008
 41
1.957634915072186
 42
7.475900647914439
  0
LINE
  5
127
330
EA
100
AcDbEntity
  8
AM_9
100
AcDbLine
 10
-38.05315624228824
 20
5.079999999999997
 30
0.0
 11
-39.77167540292299
 21
5.079999999999997
 31
0.0
  0
LINE
  5
128
330
EA
100
AcDbEntity
  8
AM_9
100
AcDbLine
 10
-39.77167540292298
 20
-5.080000000000001
 30
0.0
 11
-38.05315624228824
 21
-5.080000000000001
 31
0.0
  0
LWPOLYLINE
  5
129
330
EA
100
AcDbEntity
  8
AM_9
100
AcDbPolyline
 90
        3
 70
     0
 43
0.0
 10
-41.58914206993217
 20
5.466349184479695
 10
-41.82792388910984
 20
4.173433099036599
 10
-42.17760222781163
 20
2.778124999999999
  0
LINE
  5
12A
330
EA
100
AcDbEntity
  8
AM_9
100
AcDbLine
 10
-42.17760222781163
 20
2.778124999999999
 30
0.0
 11
-42.28830476756287
 21
2.407844611514936
 31
0.0
  0
LWPOLYLINE
  5
12B
330
EA
100
AcDbEntity
  8
AM_9
100
AcDbPolyline
 90
        3
 70
     0
 43
0.0
 10
-42.17760222781163
 20
-2.778125000000001
 10
-41.82926172910707
 20
-4.167187500000002
 10
-41.58877188933823
 20
-5.468692866836408
  0
LINE
  5
12C
330
EA
100
AcDbEntity
  8
AM_9
100
AcDbLine
 10
-42.28808601467734
 20
-2.408552059750042
 30
0.0
 11
-42.17760222781163
 21
-2.778125000000001
 31
0.0
  0
LINE
  5
12D
330
EA
100
AcDbEntity
  8
AM_9
100
AcDbLine
 10
-33.72114503717751
 20
4.708725846697615
 30
0.0
 11
-38.00927285683604
 21
4.863493258495418
 31
0.0
  0
LINE
  5
12E
330
EA
100
AcDbEntity
  8
AM_9
100
AcDbLine
 10
-38.00927285683604
 20
-4.863493258495422
 30
0.0
 11
-33.72114503717751
 21
-4.708725846697618
 31
0.0
  0
LINE
  5
12F
330
EA
100
AcDbEntity
  8
AM_9
100
AcDbLine
 10
-32.05589899686088
 20
3.352827683708302
 30
0.0
 11
-32.40411857088246
 21
3.84528452797339
 31
0.0
  0
LINE
  5
130
330
EA
100
AcDbEntity
  8
AM_9
100
AcDbLine
 10
-32.40411857088246
 20
-3.845284527973392
 30
0.0
 11
-32.05589899686088
 21
-3.352827683708305
 31
0.0
  0
ELLIPSE
  5
131
330
EA
100
AcDbEntity
  8
AM_9
100
AcDbEllipse
 10
-41.97137992853548
 20
-0.0000000000000002
 30
0.0
 11
3.402221888881227E-16
 21
5.556249999999978
 31
0.0
210
0.0
220
0.0
230
1.0
 40
0.4999999999999999
 41
0.0
 42
6.283185307179586
  0
ELLIPSE
  5
132
330
EA
100
AcDbEntity
  8
AM_9
100
AcDbEllipse
 10
-41.97137992853545
 20
-0.0000000000000053
 30
0.0
 11
3.110602869834268E-16
 21
5.079999999999986
 31
0.0
210
0.0
220
0.0
230
1.0
 40
0.4999999999999997
 41
0.0
 42
6.283185307179586
  0
ELLIPSE
  5
133
330
EA
100
AcDbEntity
  8
AM_9
100
AcDbEllipse
 10
-38.05315624228815
 20
-0.000000000000079
 30
0.0
 11
3.110602869834325E-16
 21
5.080000000000078
 31
0.0
210
0.0
220
0.0
230
1.0
 40
0.5000000000000006
 41
0.0
 42
6.283185307179586
  0
ELLIPSE
  5
134
330
EA
100
AcDbEntity
  8
AM_9
100
AcDbEllipse
 10
-39.77167540292301
 20
-0.0000000000000338
 30
0.0
 11
3.110602869834298E-16
 21
5.080000000000034
 31
0.0
210
0.0
220
0.0
230
1.0
 40
0.4999999999999966
 41
0.0
 42
6.283185307179586
  0
ELLIPSE
  5
135
330
EA
100
AcDbEntity
  8
AM_9
100
AcDbEllipse
 10
-38.05315624228825
 20
0.0000000000000009
 30
0.0
 11
2.978515598206525E-16
 21
4.864285115153665
 31
0.0
210
0.0
220
0.0
230
1.0
 40
0.4999999999999983
 41
0.0
 42
6.283185307179586
  0
ELLIPSE
  5
136
330
EA
100
AcDbEntity
  8
AM_9
100
AcDbEllipse
 10
-33.76363195354328
 20
-0.0000000000000075
 30
0.0
 11
2.883732460730459E-16
 21
4.709492504676819
 31
0.0
210
0.0
220
0.0
230
1.0
 40
0.4999999999999983
 41
0.0
 42
6.283185307179586
  0
ELLIPSE
  5
137
330
EA
100
AcDbEntity
  8
AM_9
100
AcDbEllipse
 10
-33.24130259251097
 20
0.0000000000000155
 30
0.0
 11
2.514419402883878E-16
 21
4.106358510281519
 31
0.0
210
0.0
220
0.0
230
1.0
 40
0.5000000000000007
 41
0.0
 42
6.283185307179586
  0
LWPOLYLINE
  5
138
330
EA
100
AcDbEntity
  8
AM_4
100
AcDbPolyline
 90
        3
 70
     0
 43
0.0
 10
-43.90936962702049
 20
-5.996343371387007
 10
-43.67657896797592
 20
-6.253713524124906
 10
-43.27810271496818
 20
-6.830431020205951
  0
LWPOLYLINE
  5
139
330
EA
100
AcDbEntity
  8
AM_4
100
AcDbPolyline
 90
        3
 70
     0
 43
0.0
 10
-43.27810271496818
 20
-6.830431020205951
 10
-43.6081982663483
 20
-6.691143549353728
 10
-43.96923132925001
 20
-6.609853898455522
  0
LWPOLYLINE
  5
13A
330
EA
100
AcDbEntity
  8
AM_4
100
AcDbPolyline
 90
        3
 70
     0
 43
0.0
 10
-44.43404898072878
 20
-7.76086478799207
 10
-44.01794733340673
 20
-7.69811432306444
 10
-43.58431620746703
 20
-7.58869625231989
  0
LINE
  5
13B
330
EA
100
AcDbEntity
  8
AM_4
100
AcDbLine
 10
-43.27810271496818
 20
-6.830431020205951
 30
0.0
 11
-43.58431620746703
 21
-7.58869625231989
 31
0.0
  0
LINE
  5
13C
330
EA
100
AcDbEntity
  8
AM_4
100
AcDbLine
 10
-47.33442557230175
 20
-12.93739051932093
 30
0.0
 11
-45.79488711551324
 21
-11.53205948275794
 31
0.0
  0
LINE
  5
13D
330
EA
100
AcDbEntity
  8
AM_4
100
AcDbLine
 10
-52.31596036493006
 20
-8.898626575676335
 30
0.0
 11
-52.18404743874552
 21
-10.9789469745965
 31
0.0
  0
ELLIPSE
  5
13E
330
EA
100
AcDbEntity
  8
AM_4
100
AcDbEllipse
 10
-49.73826993583393
 20
-11.90625
 30
0.0
 11
-2.437227270755869
 21
0.9842359150649287
 31
0.0
210
0.0
220
0.0
230
1.0
 40
0.2113091308703514
 41
0.1009830038932638
 42
3.040609649696531
  0
LINE
  5
13F
330
EA
100
AcDbEntity
  8
AM_4
100
AcDbLine
 10
-50.95782383952764
 20
-3.837282897828231
 30
0.0
 11
-51.24539179941412
 21
-4.549376881905936
 31
0.0
  0
LWPOLYLINE
  5
140
330
EA
100
AcDbEntity
  8
AM_4
100
AcDbPolyline
 90
       10
 70
     0
 43
0.0
 10
-51.70848526976371
 20
-8.07607676238198
 10
-51.73066586903241
 20
-8.083074939557061
 10
-51.87046707877351
 20
-8.140542865758306
 10
-51.99673181644145
 20
-8.218030839353219
 10
-52.10836646018423
 20
-8.317244713188508
 10
-52.20076030811698
 20
-8.437454340587758
 10
-52.27381898234241
 20
-8.58945416340722
 10
-52.31088391292936
 20
-8.744911082299408
 10
-52.31615292679445
 20
-8.895493969453764
 10
-52.31495449837823
 20
-8.91258753471528
  0
LWPOLYLINE
  5
141
330
EA
100
AcDbEntity
  8
AM_4
100
AcDbPolyline
 90
        9
 70
     0
 43
0.0
 10
-45.80142583798956
 20
-11.5379635990919
 10
-45.71529285448639
 20
-11.44811147451027
 10
-45.63082597488874
 20
-11.32137759560215
 10
-45.5691513177707
 20
-11.16742734650902
 10
-45.54240091935296
 20
-11.01273063334376
 10
-45.54575573721407
 20
-10.86450948069041
 10
-45.5738259039823
 20
-10.72493929158563
 10
-45.62289367152894
 20
-10.59312392595339
 10
-45.66002300797746
 20
-10.51975334094826
  0
ELLIPSE
  5
142
330
EA
100
AcDbEntity
  8
AM_4
100
AcDbEllipse
 10
-49.02723091601786
 20
-10.14553017343999
 30
0.0
 11
-3.27723232775051
 21
1.323458750723533
 31
0.0
210
0.0
220
0.0
230
1.0
 40
0.2113091308703475
 41
0.1053659208861148
 42
3.037906441347757
  0
LWPOLYLINE
  5
143
330
EA
100
AcDbEntity
  8
AM_4
100
AcDbPolyline
 90
        3
 70
     0
 43
0.0
 10
-45.64653920022872
 20
-7.58869625231989
 10
-45.30279425651882
 20
-7.697739397127513
 10
-44.9583884270442
 20
-7.758592464327529
  0
LINE
  5
144
330
EA
100
AcDbEntity
  8
AM_4
100
AcDbLine
 10
-44.96409494119772
 20
-7.757990703186896
 30
0.0
 11
-44.9358615395418
 21
-7.76086478799207
 31
0.0
  0
ELLIPSE
  5
145
330
EA
100
AcDbEntity
  8
AM_4
100
AcDbEllipse
 10
-47.46066344358807
 20
-6.266296641270931
 30
0.0
 11
-3.312005593887016
 21
1.337501387545438
 31
0.0
210
0.0
220
0.0
230
1.0
 40
0.211309130870352
 41
1.711945269609626
 42
2.505596057672115
  0
LWPOLYLINE
  5
146
330
EA
100
AcDbEntity
  8
AM_4
100
AcDbPolyline
 90
        4
 70
     0
 43
0.0
 10
-51.24539179941412
 20
-4.549376881905936
 10
-50.86751300111999
 20
-5.05042200837363
 10
-50.45020948615606
 20
-5.477080537076166
 10
-50.31058521342795
 20
-5.592268783583251
  0
LINE
  5
147
330
EA
100
AcDbEntity
  8
AM_4
100
AcDbLine
 10
-50.31307814018943
 20
-5.590323799250987
 30
0.0
 11
-50.29298037884519
 21
-5.606004100241778
 31
0.0
  0
LWPOLYLINE
  5
148
330
EA
100
AcDbEntity
  8
AM_4
100
AcDbPolyline
 90
        3
 70
     0
 43
0.0
 10
-50.31058521342795
 20
-5.592268783583251
 10
-49.9818959648228
 20
-5.817773758536458
 10
-49.47706179688797
 20
-6.068998929608745
  0
LWPOLYLINE
  5
149
330
EA
100
AcDbEntity
  8
AM_4
100
AcDbPolyline
 90
        4
 70
     0
 43
0.0
 10
-44.47104388806302
 20
-6.609853898455276
 10
-44.70595922757593
 20
-6.646959991776583
 10
-45.01831617079664
 20
-6.724401268817782
 10
-45.34032570772987
 20
-6.830431020205951
  0
LINE
  5
14A
330
EA
100
AcDbEntity
  8
AM_4
100
AcDbLine
 10
-49.20599509114264
 20
-3.126658350638856
 30
0.0
 11
-49.58657016777208
 21
-4.069062444143282
 31
0.0
  0
LINE
  5
14B
330
EA
100
AcDbEntity
  8
AM_4
100
AcDbLine
 10
-44.40512141644658
 20
-6.161509059325487
 30
0.0
 11
-43.96837098638673
 21
-5.080000000000001
 31
0.0
  0
ELLIPSE
  5
14C
330
EA
100
AcDbEntity
  8
AM_4
100
AcDbEllipse
 10
-46.99584579210933
 20
-5.115285751734383
 30
0.0
 11
-2.590724375662753
 21
1.046223307591101
 31
0.0
210
0.0
220
0.0
230
1.0
 40
0.2113091308703502
 41
0.0
 42
3.141592653589793
  0
LWPOLYLINE
  5
14D
330
EA
100
AcDbEntity
  8
AM_4
100
AcDbPolyline
 90
        4
 70
     0
 43
0.0
 10
-50.95782383952764
 20
-3.837282897828231
 10
-50.53578145304441
 20
-3.705296695971724
 10
-50.12799429160403
 20
-3.624930539193417
 10
-49.83313720751612
 20
-3.60574614931637
  0
LWPOLYLINE
  5
14E
330
EA
100
AcDbEntity
  8
AM_4
100
AcDbPolyline
 90
        6
 70
     0
 43
0.0
 10
-49.1802057429115
 20
-5.333905179049321
 10
-49.44205780638767
 20
-4.936675458173813
 10
-49.73019100797661
 20
-4.585948207644054
 10
-50.05312596222751
 20
-4.290054100087518
 10
-50.40608248744569
 20
-4.060772684155615
 10
-50.95782383952764
 20
-3.837282897828231
  0
LINE
  5
14F
330
EA
100
AcDbEntity
  8
AM_4
100
AcDbLine
 10
-49.79935892752825
 20
-3.605746148079322
 30
0.0
 11
-49.83589623439135
 21
-3.605746148079322
 31
0.0
  0
ELLIPSE
  5
150
330
EA
100
AcDbEntity
  8
AM_4
100
AcDbEllipse
 10
-46.99584579235695
 20
-5.115285751711927
 30
0.0
 11
-3.312005594178969
 21
1.337501387634901
 31
0.0
210
0.0
220
0.0
230
1.0
 40
0.2113091308758185
 41
3.806340372001911
 42
3.81416413496848
  0
ELLIPSE
  5
151
330
EA
100
AcDbEntity
  8
AM_4
100
AcDbEllipse
 10
-46.99584579211003
 20
-5.115285751733777
 30
0.0
 11
-3.312005593886134
 21
1.337501387544904
 31
0.0
210
0.0
220
0.0
230
1.0
 40
0.2113091308703215
 41
5.610613825799261
 42
7.795870906981785
  0
ELLIPSE
  5
152
330
EA
100
AcDbEntity
  8
AM_4
100
AcDbEllipse
 10
-47.46066344358807
 20
-6.266296641270954
 30
0.0
 11
-3.312005593887044
 21
1.337501387545462
 31
0.0
210
0.0
220
0.0
230
1.0
 40
0.2113091308703443
 41
0.6359965959176828
 42
1.512685599801942
  0
LWPOLYLINE
  5
153
330
EA
100
AcDbEntity
  8
AM_4
100
AcDbPolyline
 90
        3
 70
     0
 43
0.0
 10
-44.9358615395418
 20
-7.76086478799207
 10
-44.69582648782957
 20
-7.784509761460651
 10
-44.43404898072878
 20
-7.76086478799207
  0
LWPOLYLINE
  5
154
330
EA
100
AcDbEntity
  8
AM_4
100
AcDbPolyline
 90
       19
 70
     0
 43
0.0
 10
-45.65004540060954
 20
-10.53806474416981
 10
-45.68729239655414
 20
-10.4609818454912
 10
-45.74540135829065
 20
-10.31448978873775
 10
-45.79692404760284
 20
-10.13658282168099
 10
-45.83381980261819
 20
-9.930676303654343
 10
-45.8487139333598
 20
-9.703814223059855
 10
-45.83646899965034
 20
-9.464664517806264
 10
-45.78799507631777
 20
-9.194687702762693
 10
-45.70464370248182
 20
-8.935439042599175
 10
-45.59121363316371
 20
-8.695666507011953
 10
-45.45339099917305
 20
-8.48014490389068
 10
-45.29752494032423
 20
-8.291999756510881
 10
-45.13076611131916
 20
-8.133267989177474
 10
-44.96137844176194
 20
-8.005018518993106
 10
-44.79844365843417
 20
-7.906871011226188
 10
-44.65052258462918
 20
-7.836418993311041
 10
-44.52385801364166
 20
-7.789314493649298
 10
-44.42176999117823
 20
-7.760299096956026
 10
-44.38772189511699
 20
-7.752515894915806
  0
LWPOLYLINE
  5
155
330
EA
100
AcDbEntity
  8
AM_4
100
AcDbPolyline
 90
       18
 70
     0
 43
0.0
 10
-50.67825157359385
 20
-5.241547392824592
 10
-50.64312924791287
 20
-5.301463200383922
 10
-50.5854696397278
 20
-5.416571155940155
 10
-50.52734499806638
 20
-5.562884981423531
 10
-50.47576330365001
 20
-5.740621528521038
 10
-50.43876346875903
 20
-5.946388055571964
 10
-50.4237292176127
 20
-6.173156450876797
 10
-50.43581263835334
 20
-6.412261371896411
 10
-50.48410544604076
 20
-6.682268810439527
 10
-50.56729423805371
 20
-6.941598490884766
 10
-50.68058802269941
 20
-7.181481426723461
 10
-50.81830454384683
 20
-7.397132757928101
 10
-50.97409764119791
 20
-7.585419917710732
 10
-51.14082176938871
 20
-7.744301677924797
 10
-51.31021853244984
 20
-7.872703409754974
 10
-51.47320786615919
 20
-7.970996612898044
 10
-51.62122162038413
 20
-8.041577018737565
 10
-51.72873827796172
 20
-8.08239293437313
  0
ELLIPSE
  5
156
330
EA
100
AcDbEntity
  8
AM_4
100
AcDbEllipse
 10
-48.7560863738708
 20
-9.474104895899876
 30
0.0
 11
-3.136987913476886
 21
1.266823248950024
 31
0.0
210
0.0
220
0.0
230
1.0
 40
0.211309130870351
 41
6.042281878079899
 42
9.666186932277366
  0
ELLIPSE
  5
157
330
EA
100
AcDbEntity
  8
AM_4
100
AcDbEllipse
 10
-46.99584579210933
 20
-5.115285751734367
 30
0.0
 11
-3.312005593887222
 21
1.337501387545109
 31
0.0
210
0.0
220
0.0
230
1.0
 40
0.2113091308703646
 41
1.711945269609621
 42
2.518556725320338
  0
LINE
  5
158
330
EA
100
AcDbEntity
  8
AM_4
100
AcDbLine
 10
-43.96923132925001
 20
-6.609853898455522
 30
0.0
 11
-44.47104388806302
 21
-6.609853898455276
 31
0.0
  0
ELLIPSE
  5
159
330
EA
100
AcDbEntity
  8
AM_4
100
AcDbEllipse
 10
-46.99584579210941
 20
-5.115285751734351
 30
0.0
 11
-3.312005593887108
 21
1.337501387545476
 31
0.0
210
0.0
220
0.0
230
1.0
 40
0.2113091308703491
 41
2.800469246484381
 42
3.607080702195121
  0
LINE
  5
15A
330
EA
100
AcDbEntity
  8
AM_4
100
AcDbLine
 10
-44.2147164936384
 20
-5.736282007269851
 30
0.0
 11
-43.90936962702049
 21
-5.996343371387007
 31
0.0
  0
LWPOLYLINE
  5
15B
330
EA
100
AcDbEntity
  8
AM_4
100
AcDbPolyline
 90
        3
 70
     0
 43
0.0
 10
-45.34032570772987
 20
-6.830431020205951
 10
-46.05310812693851
 20
-6.382400080731244
 10
-46.80972598982334
 20
-5.996343371387013
  0
LINE
  5
15C
330
EA
100
AcDbEntity
  8
AM_4
100
AcDbLine
 10
-46.80972598982334
 20
-5.996343371387013
 30
0.0
 11
-47.47034973908335
 21
-5.736282007269859
 31
0.0
  0
LWPOLYLINE
  5
15D
330
EA
100
AcDbEntity
  8
AM_4
100
AcDbPolyline
 90
        4
 70
     0
 43
0.0
 10
-47.47034973908335
 20
-5.736282007269859
 10
-48.05429662026626
 20
-5.560509266840902
 10
-48.61324571472767
 20
-5.432128708591388
 10
-49.1802057429115
 20
-5.333905179049321
  0
LINE
  5
15E
330
EA
100
AcDbEntity
  8
AM_4
100
AcDbLine
 10
-49.1802057429115
 20
-5.333905179049321
 30
0.0
 11
-49.47706179688794
 21
-6.068998929608747
 31
0.0
  0
LWPOLYLINE
  5
15F
330
EA
100
AcDbEntity
  8
AM_4
100
AcDbPolyline
 90
        3
 70
     0
 43
0.0
 10
-49.47706179688794
 20
-6.068998929608747
 10
-48.72319433754937
 20
-6.504786871533986
 10
-47.93516739056207
 20
-6.887292896806422
  0
LINE
  5
160
330
EA
100
AcDbEntity
  8
AM_4
100
AcDbLine
 10
-47.93516739056207
 20
-6.887292896806422
 30
0.0
 11
-47.27454364130215
 21
-7.14735426092354
 31
0.0
  0
LWPOLYLINE
  5
161
330
EA
100
AcDbEntity
  8
AM_4
100
AcDbPolyline
 90
        3
 70
     0
 43
0.0
 10
-47.27454364130215
 20
-7.14735426092354
 10
-46.47061964960992
 20
-7.395910919975459
 10
-45.64653920022872
 20
-7.58869625231989
  0
LINE
  5
162
330
EA
100
AcDbEntity
  8
AM_4
100
AcDbLine
 10
-45.34032570772987
 20
-6.830431020205951
 30
0.0
 11
-45.64653920022872
 21
-7.58869625231989
 31
0.0
  0
ARC
  5
163
330
EA
100
AcDbEntity
  8
AM_4
100
AcDbCircle
 10
-45.20219595052878
 20
-0.0000000000000009
 30
0.0
 40
5.079999999999998
100
AcDbArc
 50
90.0
 51
219.6450067805972
  0
LWPOLYLINE
  5
164
330
EA
100
AcDbEntity
  8
AM_4
100
AcDbPolyline
 90
       10
 70
     0
 43
0.0
 10
-49.11889825580786
 20
-3.235094295867767
 10
-49.07668782838573
 20
-3.281280336792628
 10
-48.91723812778708
 20
-3.41561366815326
 10
-48.68463511159397
 20
-3.569173128090976
 10
-48.39771190687889
 20
-3.729407788863487
 10
-48.04868666790384
 20
-3.900563582124101
 10
-47.666124828521
 20
-4.068570560479343
 10
-47.23957188890164
 20
-4.237973131810882
 10
-46.79762875059015
 20
-4.397035613753721
 10
-46.33425109520093
 20
-4.547549295795372
  0
ELLIPSE
  5
165
330
EA
100
AcDbEntity
  8
AM_4
100
AcDbEllipse
 10
-45.20219595052876
 20
0.0000000000000018
 30
0.0
 11
3.110602869834279E-16
 21
5.080000000000003
 31
0.0
210
0.0
220
0.0
230
1.0
 40
0.4999999999999981
 41
0.0
 42
2.67964663302282
  0
LINE
  5
166
330
EA
100
AcDbEntity
  8
AM_4
100
AcDbLine
 10
-43.56368819552688
 20
5.079999999999997
 30
0.0
 11
-45.20219595052878
 21
5.079999999999997
 31
0.0
  0
LINE
  5
167
330
EA
100
AcDbEntity
  8
AM_4
100
AcDbLine
 10
-44.31557800311509
 20
-5.080000000000001
 30
0.0
 11
-43.56375535534624
 21
-5.080000000000001
 31
0.0
  0
LWPOLYLINE
  5
168
330
EA
100
AcDbEntity
  8
AM_4
100
AcDbPolyline
 90
        8
 70
     0
 43
0.0
 10
-44.31182428375163
 20
-5.079999999236803
 10
-44.34959706162994
 20
-5.079458245572024
 10
-44.62578651373937
 20
-5.050335633392995
 10
-44.94070388527452
 20
-4.982589552160019
 10
-45.30705901657071
 20
-4.878563523460394
 10
-45.70108870503548
 20
-4.752207997638139
 10
-46.13526116122454
 20
-4.610115106939384
 10
-46.33425109520137
 20
-4.547549295794528
  0
LINE
  5
169
330
EA
100
AcDbEntity
  8
AM_4
100
AcDbLine
 10
-43.37587074423703
 20
5.556249999999999
 30
0.0
 11
-41.57508702040627
 21
5.556249999999999
 31
0.0
  0
LWPOLYLINE
  5
16A
330
EA
100
AcDbEntity
  8
AM_4
100
AcDbPolyline
 90
        3
 70
     0
 43
0.0
 10
-44.3773067534241
 20
2.778124999999998
 10
-43.92367164383244
 20
4.167187499999998
 10
-43.37587074423703
 20
5.556249999999999
  0
LWPOLYLINE
  5
16B
330
EA
100
AcDbEntity
  8
AM_4
100
AcDbPolyline
 90
        3
 70
     0
 43
0.0
 10
-44.97982196082946
 20
-0.0000000000000003
 10
-44.72698509212589
 20
1.382816900963398
 10
-44.3773067534241
 20
2.778124999999998
  0
LINE
  5
16C
330
EA
100
AcDbEntity
  8
AM_4
100
AcDbLine
 10
-41.57508702040627
 20
5.556249999999999
 30
0.0
 11
-41.58914206993217
 21
5.466349184479695
 31
0.0
  0
ELLIPSE
  5
16D
330
EA
100
AcDbEntity
  8
AM_4
100
AcDbEllipse
 10
-39.771675402923
 20
-0.0000000000000042
 30
0.0
 11
3.402221888881246E-16
 21
5.556250000000009
 31
0.0
210
0.0
220
0.0
230
1.0
 40
0.4999999999999933
 41
1.192715340734859
 42
1.957634915072186
  0
LWPOLYLINE
  5
16E
330
EA
100
AcDbEntity
  8
AM_4
100
AcDbPolyline
 90
        3
 70
     0
 43
0.0
 10
-42.28830476756287
 20
2.407844611514936
 10
-42.63123733740328
 20
1.389062499999999
 10
-43.17903823699869
 20
-0.0000000000000002
  0
LINE
  5
16F
330
EA
100
AcDbEntity
  8
AM_4
100
AcDbLine
 10
-44.97982196082946
 20
-0.0000000000000003
 30
0.0
 11
-43.17903823699869
 21
-0.0000000000000002
 31
0.0
  0
LWPOLYLINE
  5
170
330
EA
100
AcDbEntity
  8
AM_4
100
AcDbPolyline
 90
        3
 70
     0
 43
0.0
 10
-44.3773067534241
 20
-2.778125
 10
-44.72564725212866
 20
-1.389062500000001
 10
-44.97982196082946
 20
-0.0000000000000003
  0
LWPOLYLINE
  5
171
330
EA
100
AcDbEntity
  8
AM_4
100
AcDbPolyline
 90
        3
 70
     0
 43
0.0
 10
-43.37587074423703
 20
-5.556250000000002
 10
-43.92140358554465
 20
-4.173433099036602
 10
-44.3773067534241
 20
-2.778125
  0
LINE
  5
172
330
EA
100
AcDbEntity
  8
AM_4
100
AcDbLine
 10
-43.37587074423703
 20
-5.556250000000002
 30
0.0
 11
-41.57508702040627
 21
-5.556250000000002
 31
0.0
  0
LINE
  5
173
330
EA
100
AcDbEntity
  8
AM_4
100
AcDbLine
 10
-41.58877188933823
 20
-5.468692866836408
 30
0.0
 11
-41.57508702040627
 21
-5.556250000000002
 31
0.0
  0
LWPOLYLINE
  5
174
330
EA
100
AcDbEntity
  8
AM_4
100
AcDbPolyline
 90
        3
 70
     0
 43
0.0
 10
-43.17903823699869
 20
-0.0000000000000002
 10
-42.63350539569108
 20
-1.3828169009634
 10
-42.28808601467734
 20
-2.408552059750042
  0
ENDBLK
  5
ED
330
EA
100
AcDbEntity
  8
0
100
AcDbBlockEnd
  0
BLOCK
  5
177
330
175
100
AcDbEntity
  8
0
100
AcDbBlockBegin
  2
4_130795H_0_in_130795_4
 70
     2
 10
0.0
 20
0.0
 30
0.0
  3
4_130795H_0_in_130795_4
  1

  0
ATTDEF
  5
179
330
175
100
AcDbEntity
  8
AM_6
100
AcDbText
 10
75.385
 20
20.65
 30
0.0
 40
0.5
  1
WSTU-SXV -M-Housing
100
AcDbAttributeDefinition
  3

  2
NN
 70
     8
280
     0
  0
ATTDEF
  5
17A
330
175
100
AcDbEntity
  8
AM_6
100
AcDbText
 10
75.385
 20
20.15
 30
0.0
 40
0.5
  1
Eccentric Collar Take-Up Bearings -(Intermediate Duty) -Wide Slot
100
AcDbAttributeDefinition
  3

  2
NT
 70
     8
280
     0
  0
ATTDEF
  5
17B
330
175
100
AcDbEntity
  8
AM_6
100
AcDbText
 10
75.385
 20
19.65
 30
0.0
 40
0.5
  1
130795H
100
AcDbAttributeDefinition
  3

  2
NB
 70
     8
280
     0
  0
ATTDEF
  5
17C
330
175
100
AcDbEntity
  8
AM_6
100
AcDbText
 10
75.385
 20
19.15
 30
0.0
 40
0.5
  1
$PN.H
100
AcDbAttributeDefinition
  3

  2
NBSYN
 70
     8
280
     0
  0
ATTDEF
  5
17D
330
175
100
AcDbEntity
  8
AM_6
100
AcDbText
 10
75.385
 20
18.65
 30
0.0
 40
0.5
  1
130795
100
AcDbAttributeDefinition
  3

  2
LINA
 70
     8
280
     0
  0
ATTDEF
  5
17E
330
175
100
AcDbEntity
  8
AM_6
100
AcDbText
 10
75.385
 20
18.15
 30
0.0
 40
0.5
  1
206
100
AcDbAttributeDefinition
  3

  2
SERIES
 70
     8
280
     0
  0
ATTDEF
  5
17F
330
175
100
AcDbEntity
  8
AM_6
100
AcDbText
 10
75.385
 20
17.65
 30
0.0
 40
0.5
  1
30
100
AcDbAttributeDefinition
  3

  2
SS
 70
     8
280
     0
  0
ATTDEF
  5
180
330
175
100
AcDbEntity
  8
AM_6
100
AcDbText
 10
75.385
 20
17.15
 30
0.0
 40
0.5
  1
130795
100
AcDbAttributeDefinition
  3

  2
PN
 70
     8
280
     0
  0
ATTDEF
  5
181
330
175
100
AcDbEntity
  8
AM_6
100
AcDbText
 10
75.385
 20
16.65
 30
0.0
 40
0.5
  1
WSTU-SXV-30M
100
AcDbAttributeDefinition
  3

  2
DESCRIPTION
 70
     8
280
     0
  0
ATTDEF
  5
182
330
175
100
AcDbEntity
  8
AM_6
100
AcDbText
 10
75.385
 20
16.15
 30
0.0
 40
0.5
  1
1.2
100
AcDbAttributeDefinition
  3

  2
W
 70
     8
280
     0
  0
ATTDEF
  5
183
330
175
100
AcDbEntity
  8
AM_6
100
AcDbText
 10
75.385
 20
15.65
 30
0.0
 40
0.5
  1
WS308
100
AcDbAttributeDefinition
  3

  2
FS
 70
     8
280
     0
  0
ATTDEF
  5
184
330
175
100
AcDbEntity
  8
AM_6
100
AcDbText
 10
75.385
 20
15.15
 30
0.0
 40
0.5
  1
35.8
100
AcDbAttributeDefinition
  3

  2
A
 70
     8
280
     0
  0
ATTDEF
  5
185
330
175
100
AcDbEntity
  8
AM_6
100
AcDbText
 10
75.385
 20
14.65
 30
0.0
 40
0.5
  1
111.3
100
AcDbAttributeDefinition
  3

  2
B
 70
     8
280
     0
  0
ATTDEF
  5
186
330
175
100
AcDbEntity
  8
AM_6
100
AcDbText
 10
75.385
 20
14.15
 30
0.0
 40
0.5
  1
13.49
100
AcDbAttributeDefinition
  3

  2
C
 70
     8
280
     0
  0
ATTDEF
  5
187
330
175
100
AcDbEntity
  8
AM_6
100
AcDbText
 10
75.385
 20
13.65
 30
0.0
 40
0.5
  1
57.2
100
AcDbAttributeDefinition
  3

  2
D
 70
     8
280
     0
  0
ATTDEF
  5
188
330
175
100
AcDbEntity
  8
AM_6
100
AcDbText
 10
75.385
 20
13.15
 30
0.0
 40
0.5
  1
69.9
100
AcDbAttributeDefinition
  3

  2
E
 70
     8
280
     0
  0
ATTDEF
  5
189
330
175
100
AcDbEntity
  8
AM_6
100
AcDbText
 10
75.385
 20
12.65
 30
0.0
 40
0.5
  1
19.1
100
AcDbAttributeDefinition
  3

  2
F
 70
     8
280
     0
  0
ATTDEF
  5
18A
330
175
100
AcDbEntity
  8
AM_6
100
AcDbText
 10
75.385
 20
12.15
 30
0.0
 40
0.5
  1
9.7
100
AcDbAttributeDefinition
  3

  2
G
 70
     8
280
     0
  0
ATTDEF
  5
18B
330
175
100
AcDbEntity
  8
AM_6
100
AcDbText
 10
75.385
 20
11.65
 30
0.0
 40
0.5
  1
16.0
100
AcDbAttributeDefinition
  3

  2
H
 70
     8
280
     0
  0
ATTDEF
  5
18C
330
175
100
AcDbEntity
  8
AM_6
100
AcDbText
 10
75.385
 20
11.15
 30
0.0
 40
0.5
  1
55.6
100
AcDbAttributeDefinition
  3

  2
J
 70
     8
280
     0
  0
ATTDEF
  5
18D
330
175
100
AcDbEntity
  8
AM_6
100
AcDbText
 10
75.385
 20
10.65
 30
0.0
 40
0.5
  1
36.6
100
AcDbAttributeDefinition
  3

  2
K
 70
     8
280
     0
  0
ATTDEF
  5
18E
330
175
100
AcDbEntity
  8
AM_6
100
AcDbText
 10
75.385
 20
10.15
 30
0.0
 40
0.5
  1
44.5
100
AcDbAttributeDefinition
  3

  2
L
 70
     8
280
     0
  0
ATTDEF
  5
18F
330
175
100
AcDbEntity
  8
AM_6
100
AcDbText
 10
75.385
 20
9.649999999999999
 30
0.0
 40
0.5
  1
88.39/89.15
100
AcDbAttributeDefinition
  3

  2
M
 70
     8
280
     0
  0
ATTDEF
  5
190
330
175
100
AcDbEntity
  8
AM_6
100
AcDbText
 10
75.385
 20
9.149999999999999
 30
0.0
 40
0.5
  1
104.9
100
AcDbAttributeDefinition
  3

  2
N
 70
     8
280
     0
  0
ATTDEF
  5
191
330
175
100
AcDbEntity
  8
AM_6
100
AcDbText
 10
75.385
 20
8.649999999999999
 30
0.0
 40
0.5
  1
8.9
100
AcDbAttributeDefinition
  3

  2
R
 70
     8
280
     0
  0
ATTDEF
  5
192
330
175
100
AcDbEntity
  8
AM_6
100
AcDbText
 10
75.385
 20
8.149999999999999
 30
0.0
 40
0.5
  1
26.7
100
AcDbAttributeDefinition
  3

  2
S
 70
     8
280
     0
  0
ATTDEF
  5
193
330
175
100
AcDbEntity
  8
AM_6
100
AcDbText
 10
75.385
 20
7.649999999999999
 30
0.0
 40
0.5
  1
41.3
100
AcDbAttributeDefinition
  3

  2
T
 70
     8
280
     0
  0
ATTDEF
  5
194
330
175
100
AcDbEntity
  8
AM_6
100
AcDbText
 10
75.385
 20
7.149999999999999
 30
0.0
 40
0.5
  1
2250
100
AcDbAttributeDefinition
  3

  2
CAPS
 70
     8
280
     0
  0
ATTDEF
  5
195
330
175
100
AcDbEntity
  8
AM_6
100
AcDbText
 10
75.385
 20
6.649999999999999
 30
0.0
 40
0.5
  1
4368
100
AcDbAttributeDefinition
  3

  2
CAPD
 70
     8
280
     0
  0
ATTDEF
  5
196
330
175
100
AcDbEntity
  8
AM_6
100
AcDbText
 10
75.385
 20
6.149999999999999
 30
0.0
 40
0.5
  1
baldor
100
AcDbAttributeDefinition
  3

  2
COMPANY
 70
     8
280
     0
  0
ELLIPSE
  5
197
330
175
100
AcDbEntity
  8
AM_9
100
AcDbEllipse
 10
-38.05315624228824
 20
-0.0000000000000013
 30
0.0
 11
4.976964591734843E-16
 21
8.128
 31
0.0
210
0.0
220
0.0
230
1.0
 40
0.5
 41
0.0
 42
6.283185307179586
  0
LINE
  5
198
330
175
100
AcDbEntity
  8
AM_9
100
AcDbLine
 10
-35.87825148032304
 20
-10.66793273935991
 30
0.0
 11
-35.8297068601119
 21
-10.668
 31
0.0
  0
LWPOLYLINE
  5
199
330
175
100
AcDbEntity
  8
AM_9
100
AcDbPolyline
 90
        3
 70
     0
 43
0.0
 10
-36.33869149345919
 20
-10.64220157201659
 10
-35.98440488354562
 20
-10.66612433539757
 10
-35.87825148032304
 20
-10.66793273935991
  0
LWPOLYLINE
  5
19A
330
175
100
AcDbEntity
  8
AM_9
100
AcDbPolyline
 90
       18
 70
     0
 43
0.0
 10
-41.40024503483605
 20
-5.983143163620566
 10
-41.39523075924958
 20
-5.995779912072313
 10
-41.18043330660477
 20
-6.501932894743303
 10
-40.94442978663956
 20
-6.990836367631589
 10
-40.68680644254978
 20
-7.460417509483212
 10
-40.40737347321378
 20
-7.908165968314609
 10
-40.10686433100535
 20
-8.33044402164557
 10
-39.78645517826413
 20
-8.723789778273844
 10
-39.44806748076761
 20
-9.084791106615393
 10
-39.09418789935572
 20
-9.41057207696301
 10
-38.727510884975
 20
-9.699174915209904
 10
-38.3505933324985
 20
-9.949644580546085
 10
-37.96568106673173
 20
-10.1618303739805
 10
-37.57472027792746
 20
-10.33607637576254
 10
-37.17946287089604
 20
-10.47296050448263
 10
-36.78157217685929
 20
-10.57314212895015
 10
-36.38268220578663
 20
-10.63730092729701
 10
-36.33869149345919
 20
-10.64220157201659
  0
LWPOLYLINE
  5
19B
330
175
100
AcDbEntity
  8
AM_9
100
AcDbPolyline
 90
       17
 70
     0
 43
0.0
 10
-36.3441156307123
 20
10.64162046818782
 10
-36.70522296190937
 20
10.58819413656596
 10
-37.0889588655729
 20
10.49899592758263
 10
-37.46568718008579
 20
10.37767226704459
 10
-37.83466053595203
 20
10.22469560852931
 10
-38.19532293082483
 20
10.04030932209957
 10
-38.54725346683249
 20
9.824496507581749
 10
-38.8900748150451
 20
9.576993690672111
 10
-39.22333065273013
 20
9.29737557696846
 10
-39.54634854610149
 20
8.985232249306364
 10
-39.85812368822847
 20
8.640436613545699
 10
-40.1572771489573
 20
8.263450082146068
 10
-40.44213891888415
 20
7.855554363271587
 10
-40.71095865474737
 20
7.418881442910327
 10
-40.96216973488801
 20
6.956195897186146
 10
-41.19456945210742
 20
6.470572708141683
 10
-41.40034077161744
 20
5.98290149433531
  0
LWPOLYLINE
  5
19C
330
175
100
AcDbEntity
  8
AM_9
100
AcDbPolyline
 90
        4
 70
     0
 43
0.0
 10
-35.85164615920106
 20
10.66799964347792
 10
-35.9209778437292
 20
10.66750131850176
 10
-36.31544086823423
 20
10.64461876171739
 10
-36.3441156307123
 20
10.64162046818782
  0
LWPOLYLINE
  5
19D
330
175
100
AcDbEntity
  8
AM_9
100
AcDbPolyline
 90
       37
 70
     0
 43
0.0
 10
-35.46457436850763
 20
10.64049999999999
 10
-35.0097900388485
 20
10.54248841610336
 10
-34.54230524109993
 20
10.37279817073868
 10
-34.05882369988311
 20
10.12716910965305
 10
-33.5706363764697
 20
9.808011759689801
 10
-33.10345711153183
 20
9.434589962654112
 10
-32.64113642229768
 20
8.996212577368588
 10
-32.18222127103402
 20
8.487215465711847
 10
-31.73839134900285
 20
7.915490171595149
 10
-31.32369629068377
 20
7.297590358812663
 10
-30.93379764514207
 20
6.625002132892587
 10
-30.5689960342864
 20
5.890218709713222
 10
-30.24047306448025
 20
5.106168842552328
 10
-29.962971239821
 20
4.307079016076785
 10
-29.72900847723094
 20
3.470695523472632
 10
-29.54052603890003
 20
2.58844530318028
 10
-29.40561259002523
 20
1.678589781810818
 10
-29.33137644436299
 20
0.8135276898195524
 10
-29.30881946654869
 20
-0.0636235274734244
 10
-29.34030537055004
 20
-0.9601316863627283
 10
-29.42731513106851
 20
-1.856152775379315
 10
-29.5593841662296
 20
-2.690545387384731
 10
-29.73932655693394
 20
-3.512219977122451
 10
-29.96908460684446
 20
-4.326538055070294
 10
-30.24422952057854
 20
-5.11598518712088
 10
-30.55449405094765
 20
-5.85839238487304
 10
-30.90231461035262
 20
-6.566066611726789
 10
-31.28967791787235
 20
-7.242764311641819
 10
-31.70810048831649
 20
-7.873290046032844
 10
-32.1468671612658
 20
-8.444694259842949
 10
-32.60729148641364
 20
-8.961283399270133
 10
-33.09192741450605
 20
-9.424509282141814
 10
-33.58928319817367
 20
-9.82152150579434
 10
-34.05566764442875
 20
-10.12533529946379
 10
-34.52420848764328
 20
-10.36487469645293
 10
-34.99749679538258
 20
-10.53890250152561
 10
-35.46457436850761
 20
-10.6405
  0
LINE
  5
19E
330
175
100
AcDbEntity
  8
AM_9
100
AcDbLine
 10
-35.8297068601119
 20
10.668
 30
0.0
 11
-35.85345171667576
 21
10.668
 31
0.0
  0
LINE
  5
19F
330
175
100
AcDbEntity
  8
AM_9
100
AcDbLine
 10
60.2
 20
-9.55
 30
0.0
 11
69.9
 21
-9.55
 31
0.0
  0
LINE
  5
1A0
330
175
100
AcDbEntity
  8
AM_9
100
AcDbLine
 10
69.9
 20
9.55
 30
0.0
 11
60.2
 21
9.55
 31
0.0
  0
LINE
  5
1A1
330
175
100
AcDbEntity
  8
AM_9
100
AcDbLine
 10
58.851
 20
-11.4665
 30
0.0
 11
58.851
 21
11.4665
 31
0.0
  0
LINE
  5
1A2
330
175
100
AcDbEntity
  8
AM_9
100
AcDbLine
 10
60.2
 20
-11.4665
 30
0.0
 11
60.2
 21
11.4665
 31
0.0
  0
LINE
  5
1A3
330
175
100
AcDbEntity
  8
AM_9
100
AcDbLine
 10
45.54900000000001
 20
-11.4665
 30
0.0
 11
45.54900000000001
 21
11.4665
 31
0.0
  0
LINE
  5
1A4
330
175
100
AcDbEntity
  8
AM_9
100
AcDbLine
 10
44.2
 20
-11.4665
 30
0.0
 11
44.2
 21
11.4665
 31
0.0
  0
LWPOLYLINE
  5
1A5
330
175
100
AcDbEntity
  8
AM_9
100
AcDbPolyline
 90
       37
 70
     0
 43
0.0
 10
-36.23007012290473
 20
-10.6405
 10
-36.64280654769481
 20
-10.54194527907915
 10
-37.03454963303267
 20
-10.37279817073868
 10
-37.41374403550839
 20
-10.12606100151273
 10
-37.7669596864384
 20
-9.80801175968979
 10
-38.08388319615335
 20
-9.433171784899942
 10
-38.37475511059526
 20
-8.996212577368574
 10
-38.64632357155484
 20
-8.485290957587877
 10
-38.89040081092197
 20
-7.915490171595129
 10
-39.10584047413223
 20
-7.295360001613282
 10
-39.29535077474477
 20
-6.625002132892561
 10
-39.46401345842907
 20
-5.88741302203379
 10
-39.60707670461299
 20
-5.106168842552299
 10
-39.72321913156966
 20
-4.304105846536606
 10
-39.81664926104887
 20
-3.470695523472601
 10
-39.88997490299862
 20
-2.584877671656394
 10
-39.94072342686033
 20
-1.678589781810784
 10
-39.96837265814192
 20
-0.8103848459944585
 10
-39.9766297407686
 20
0.0636235274734586
 10
-39.96492290460118
 20
0.9635470545539974
 10
-39.93259574961705
 20
1.856152775379349
 10
-39.8823143243013
 20
2.693335609509352
 10
-39.81258495887626
 20
3.512219977122484
 10
-39.71998783897619
 20
4.329293183282898
 10
-39.60547514096259
 20
5.11598518712091
 10
-39.46945477353037
 20
5.860761010889244
 10
-39.31022714857318
 20
6.566066611726817
 10
-39.12149721675901
 20
7.244976136003934
 10
-38.90653975325719
 20
7.873290046032865
 10
-38.664649467122
 20
8.446533424046965
 10
-38.39535021434352
 20
8.961283399270151
 10
-38.08916946559263
 20
9.426067513824947
 10
-37.75388873906457
 20
9.821521505794353
 10
-37.4135723985879
 20
10.12620690962016
 10
-37.04920284938541
 20
10.36487469645294
 10
-36.6505619920162
 20
10.53934289554781
 10
-36.23007012290471
 20
10.6405
  0
LINE
  5
1A6
330
175
100
AcDbEntity
  8
AM_9
100
AcDbLine
 10
-9.999999899999999
 20
-2.023499999999999
 30
0.0
 11
-9.999999899999999
 21
11.4665
 31
0.0
  0
LINE
  5
1A7
330
175
100
AcDbEntity
  8
AM_9
100
AcDbLine
 10
9.999999899999999
 20
-2.023499999999999
 30
0.0
 11
9.999999899999999
 21
11.4665
 31
0.0
  0
LINE
  5
1A8
330
175
100
AcDbEntity
  8
AM_9
100
AcDbLine
 10
31.0
 20
-11.46650000000001
 30
0.0
 11
31.0
 21
11.4665
 31
0.0
  0
LINE
  5
1A9
330
175
100
AcDbEntity
  8
AM_9
100
AcDbLine
 10
-31.0
 20
11.4665
 30
0.0
 11
-31.0
 21
-11.46650000000001
 31
0.0
  0
LINE
  5
1AA
330
175
100
AcDbEntity
  8
AM_9
100
AcDbLine
 10
9.999999899999999
 20
-2.023499999999999
 30
0.0
 11
-9.999999899999999
 21
-2.023499999999999
 31
0.0
  0
LINE
  5
1AB
330
175
100
AcDbEntity
  8
AM_9
100
AcDbLine
 10
28.6
 20
11.4665
 30
0.0
 11
-28.6
 21
11.4665
 31
0.0
  0
LINE
  5
1AC
330
175
100
AcDbEntity
  8
AM_9
100
AcDbLine
 10
28.6
 20
-11.4665
 30
0.0
 11
-28.6
 21
-11.4665
 31
0.0
  0
ELLIPSE
  5
1AD
330
175
100
AcDbEntity
  8
AM_9
100
AcDbEllipse
 10
-35.85345171667578
 20
0.0000000000000373
 30
0.0
 11
-1.959679807995601E-15
 21
-10.66800000000004
 31
0.0
210
0.0
220
0.0
230
1.0
 40
0.4999999999999993
 41
0.0
 42
6.283185307179586
  0
LINE
  5
1AE
330
175
100
AcDbEntity
  8
AM_7
100
AcDbLine
 10
70.385
 20
0.0
 30
0.0
 11
59.715
 21
0.0
 31
0.0
  0
LINE
  5
1AF
330
175
100
AcDbEntity
  8
AM_7
100
AcDbLine
 10
0.0
 20
14.839
 30
0.0
 11
0.0
 21
-28.49
 31
0.0
  0
LWPOLYLINE
  5
1B0
330
175
100
AcDbEntity
  8
AM_4
100
AcDbPolyline
 90
       12
 70
     0
 43
0.0
 10
-42.45745171667576
 20
-0.0000000000000008
 10
-42.45471750623908
 20
-0.3205582116024848
 10
-42.43503941349474
 20
-0.9169069347407084
 10
-42.39638014168523
 20
-1.510764236063569
 10
-42.33872991348751
 20
-2.100575975946437
 10
-42.26205452807332
 20
-2.684875190854842
 10
-42.16628858358812
 20
-3.262221678873373
 10
-42.05132516622933
 20
-3.831203542300219
 10
-41.91700366428459
 20
-4.390433593055361
 10
-41.76309700433684
 20
-4.938537774331914
 10
-41.5893009841744
 20
-5.474131661617949
 10
-41.40024503483605
 20
-5.983143163620566
  0
LWPOLYLINE
  5
1B1
330
175
100
AcDbEntity
  8
AM_4
100
AcDbPolyline
 90
       13
 70
     0
 43
0.0
 10
-41.40034077161744
 20
5.98290149433531
 10
-41.40725043668233
 20
5.965419793937995
 10
-41.60000236437227
 20
5.44322685515506
 10
-41.77283967906857
 20
4.9061545537414
 10
-41.92589179265609
 20
4.356096327384192
 10
-42.05932741412984
 20
3.794760258160843
 10
-42.17331155993062
 20
3.223740790033181
 10
-42.26798566771777
 20
2.644571587526268
 10
-42.34346159161889
 20
2.058760145966156
 10
-42.39982277266451
 20
1.467807904180089
 10
-42.43712831799084
 20
0.8732198811259083
 10
-42.45541747842173
 20
0.2765071609095431
 10
-42.45745171667576
 20
-0.0000000000000008
  0
LINE
  5
1B2
330
175
100
AcDbEntity
  8
AM_4
100
AcDbLine
 10
60.2
 20
-11.4665
 30
0.0
 11
60.2
 21
-20.65
 31
0.0
  0
LINE
  5
1B3
330
175
100
AcDbEntity
  8
AM_4
100
AcDbLine
 10
60.2
 20
-20.65
 30
0.0
 11
69.9
 21
-20.65
 31
0.0
  0
LINE
  5
1B4
330
175
100
AcDbEntity
  8
AM_4
100
AcDbLine
 10
69.9
 20
20.65
 30
0.0
 11
60.2
 21
20.65
 31
0.0
  0
LINE
  5
1B5
330
175
100
AcDbEntity
  8
AM_4
100
AcDbLine
 10
60.2
 20
20.65
 30
0.0
 11
60.2
 21
11.4665
 31
0.0
  0
LINE
  5
1B6
330
175
100
AcDbEntity
  8
AM_4
100
AcDbLine
 10
69.9
 20
20.65
 30
0.0
 11
69.9
 21
-20.65
 31
0.0
  0
LINE
  5
1B7
330
175
100
AcDbEntity
  8
AM_4
100
AcDbLine
 10
69.9
 20
-11.4665
 30
0.0
 11
28.60000000000003
 21
-11.4665
 31
0.0
  0
LINE
  5
1B8
330
175
100
AcDbEntity
  8
AM_4
100
AcDbLine
 10
69.90000000000002
 20
11.46649999999998
 30
0.0
 11
28.60000000000003
 21
11.4665
 31
0.0
  0
LINE
  5
1B9
330
175
100
AcDbEntity
  8
AM_4
100
AcDbLine
 10
69.90000000000003
 20
-11.46649999999997
 30
0.0
 11
68.55100011010141
 21
-10.11750011010137
 31
0.0
  0
LINE
  5
1BA
330
175
100
AcDbEntity
  8
AM_4
100
AcDbLine
 10
68.55100000000003
 20
10.11749999999997
 30
0.0
 11
69.90000000000002
 21
11.46649999999997
 31
0.0
  0
LINE
  5
1BB
330
175
100
AcDbEntity
  8
AM_4
100
AcDbLine
 10
68.551
 20
10.1175
 30
0.0
 11
28.60000000000002
 21
10.11750000000001
 31
0.0
  0
LINE
  5
1BC
330
175
100
AcDbEntity
  8
AM_4
100
AcDbLine
 10
68.551
 20
-10.11749999999995
 30
0.0
 11
28.6
 21
-10.1175
 31
0.0
  0
LINE
  5
1BD
330
175
100
AcDbEntity
  8
AM_4
100
AcDbLine
 10
68.551
 20
-10.11749999999995
 30
0.0
 11
68.551
 21
10.1175
 31
0.0
  0
LINE
  5
1BE
330
175
100
AcDbEntity
  8
AM_4
100
AcDbLine
 10
-41.39999999999999
 20
-10.6405
 30
0.0
 11
-40.57399999999999
 21
-11.4665
 31
0.0
  0
LINE
  5
1BF
330
175
100
AcDbEntity
  8
AM_4
100
AcDbLine
 10
-40.57399999999999
 20
-11.4665
 30
0.0
 11
-28.6
 21
-11.4665
 31
0.0
  0
LINE
  5
1C0
330
175
100
AcDbEntity
  8
AM_4
100
AcDbLine
 10
-41.39999999999999
 20
10.6405
 30
0.0
 11
-41.39999999999999
 21
-10.6405
 31
0.0
  0
LINE
  5
1C1
330
175
100
AcDbEntity
  8
AM_4
100
AcDbLine
 10
-41.39999999999999
 20
-10.6405
 30
0.0
 11
-28.6
 21
-10.6405
 31
0.0
  0
LINE
  5
1C2
330
175
100
AcDbEntity
  8
AM_4
100
AcDbLine
 10
-40.57399999999999
 20
11.46650000000001
 30
0.0
 11
-41.39999999999999
 21
10.6405
 31
0.0
  0
LINE
  5
1C3
330
175
100
AcDbEntity
  8
AM_4
100
AcDbLine
 10
-41.39999999999999
 20
10.6405
 30
0.0
 11
-28.6
 21
10.6405
 31
0.0
  0
LINE
  5
1C4
330
175
100
AcDbEntity
  8
AM_4
100
AcDbLine
 10
-40.57399999999999
 20
11.46650000000001
 30
0.0
 11
-28.6
 21
11.4665
 31
0.0
  0
LINE
  5
1C5
330
175
100
AcDbEntity
  8
AM_4
100
AcDbLine
 10
28.6
 20
13.49000000000001
 30
0.0
 11
-28.6
 21
13.49
 31
0.0
  0
LINE
  5
1C6
330
175
100
AcDbEntity
  8
AM_4
100
AcDbLine
 10
-28.59999999999999
 20
13.49000000000001
 30
0.0
 11
-27.25100004923883
 21
12.14100004923884
 31
0.0
  0
LINE
  5
1C7
330
175
100
AcDbEntity
  8
AM_4
100
AcDbLine
 10
-28.6
 20
13.49
 30
0.0
 11
-28.6
 21
-13.48999999999999
 31
0.0
  0
LINE
  5
1C8
330
175
100
AcDbEntity
  8
AM_4
100
AcDbLine
 10
28.6
 20
-13.48999999999999
 30
0.0
 11
-28.6
 21
-13.48999999999999
 31
0.0
  0
LINE
  5
1C9
330
175
100
AcDbEntity
  8
AM_4
100
AcDbLine
 10
27.251
 20
-12.14099999999999
 30
0.0
 11
-27.25099999999999
 21
-12.14099999999999
 31
0.0
  0
LINE
  5
1CA
330
175
100
AcDbEntity
  8
AM_4
100
AcDbLine
 10
-27.25099999999999
 20
-12.14099999999999
 30
0.0
 11
-28.6
 21
-13.48999999999999
 31
0.0
  0
LINE
  5
1CB
330
175
100
AcDbEntity
  8
AM_4
100
AcDbLine
 10
-27.25099999999999
 20
-12.14099999999999
 30
0.0
 11
-27.251
 21
-6.744999999999996
 31
0.0
  0
LINE
  5
1CC
330
175
100
AcDbEntity
  8
AM_4
100
AcDbLine
 10
27.251
 20
12.14100000000002
 30
0.0
 11
-27.25099999999999
 21
12.14100000000002
 31
0.0
  0
LINE
  5
1CD
330
175
100
AcDbEntity
  8
AM_4
100
AcDbLine
 10
-27.251
 20
6.745000000000004
 30
0.0
 11
-27.25099999999999
 21
12.14100000000002
 31
0.0
  0
LINE
  5
1CE
330
175
100
AcDbEntity
  8
AM_4
100
AcDbLine
 10
28.6
 20
6.745000000000005
 30
0.0
 11
-28.6
 21
6.745000000000004
 31
0.0
  0
LINE
  5
1CF
330
175
100
AcDbEntity
  8
AM_4
100
AcDbLine
 10
28.6
 20
13.49000000000001
 30
0.0
 11
28.6
 21
-13.48999999999999
 31
0.0
  0
LINE
  5
1D0
330
175
100
AcDbEntity
  8
AM_4
100
AcDbLine
 10
27.251
 20
12.14100000000001
 30
0.0
 11
28.59999999999999
 21
13.49000000000001
 31
0.0
  0
LINE
  5
1D1
330
175
100
AcDbEntity
  8
AM_4
100
AcDbLine
 10
27.251
 20
6.745000000000005
 30
0.0
 11
27.251
 21
12.14100000000002
 31
0.0
  0
LINE
  5
1D2
330
175
100
AcDbEntity
  8
AM_4
100
AcDbLine
 10
-28.6
 20
-6.744999999999997
 30
0.0
 11
28.6
 21
-6.744999999999997
 31
0.0
  0
LINE
  5
1D3
330
175
100
AcDbEntity
  8
AM_4
100
AcDbLine
 10
27.251
 20
-12.14099999999999
 30
0.0
 11
27.251
 21
-6.744999999999997
 31
0.0
  0
LINE
  5
1D4
330
175
100
AcDbEntity
  8
AM_4
100
AcDbLine
 10
28.6
 20
-13.48999999999999
 30
0.0
 11
27.251
 21
-12.14099999999999
 31
0.0
  0
ENDBLK
  5
178
330
175
100
AcDbEntity
  8
0
100
AcDbBlockEnd
  0
ENDSEC
  0
SECTION
  2
ENTITIES
  0
INSERT
  5
6F
330
1F
100
AcDbEntity
  8
0
100
AcDbBlockReference
  2
1_130795_4
 10
0.0
 20
0.0
 30
0.0
  0
POINT
  5
1D6
330
1F
100
AcDbEntity
  8
ConnectionPoints
100
AcDbPoint
 10
-38.05315624228823
 20
-0.0000000000000013
 30
-21.96999999999999
  0
POINT
  5
1D7
330
1F
100
AcDbEntity
  8
ConnectionPoints
100
AcDbPoint
 10
-38.05315624228823
 20
-0.0000000000000013
 30
-21.96999999999999
  0
POINT
  5
1D8
330
1F
100
AcDbEntity
  8
ConnectionPoints
100
AcDbPoint
 10
0.0
 20
-26.7
 30
0.0000000000000016
  0
ENDSEC
  0
SECTION
  2
OBJECTS
  0
DICTIONARY
  5
C
330
0
100
AcDbDictionary
281
     1
  3
ACAD_DETAILVIEWSTYLE
350
1E0
  3
ACAD_GROUP
350
D
  3
ACAD_LAYOUT
350
1A
  3
ACAD_MATERIAL
350
43
  3
ACAD_MLEADERSTYLE
350
6B
  3
ACAD_MLINESTYLE
350
17
  3
ACAD_PLOTSETTINGS
350
19
  3
ACAD_PLOTSTYLENAME
350
E
  3
ACAD_SCALELIST
350
47
  3
ACAD_SECTIONVIEWSTYLE
350
1E1
  3
ACAD_TABLESTYLE
350
69
  3
ACAD_VISUALSTYLE
350
2A
  3
ACDB_RECOMPOSE_DATA
350
1DD
  3
AcDbVariableDictionary
350
1D9
  0
SUN
  5
6D
330
29
100
AcDbSun
 90
        1
290
     0
 63
     7
421
 16777215
 40
1.0
291
     1
 91
  2455826
 92
 54000000
292
     0
 70
     2
 71
   256
280
     1
  0
DICTIONARY
  5
1E0
102
{ACAD_REACTORS
330
C
102
}
330
C
100
AcDbDictionary
281
     1
  0
DICTIONARY
  5
D
102
{ACAD_REACTORS
330
C
102
}
330
C
100
AcDbDictionary
281
     1
  0
DICTIONARY
  5
1A
102
{ACAD_REACTORS
330
C
102
}
330
C
100
AcDbDictionary
281
     1
  3
Layout1
350
1E
  3
Layout2
350
26
  3
Model
350
22
  0
DICTIONARY
  5
43
102
{ACAD_REACTORS
330
C
102
}
330
C
100
AcDbDictionary
281
     1
  3
ByBlock
350
45
  3
ByLayer
350
44
  3
Global
350
46
  0
DICTIONARY
  5
6B
102
{ACAD_REACTORS
330
C
102
}
330
C
100
AcDbDictionary
281
     1
  3
Standard
350
6C
  0
DICTIONARY
  5
17
102
{ACAD_REACTORS
330
C
102
}
330
C
100
AcDbDictionary
281
     1
  3
Standard
350
18
  0
DICTIONARY
  5
19
102
{ACAD_REACTORS
330
C
102
}
330
C
100
AcDbDictionary
281
     1
  0
ACDBDICTIONARYWDFLT
  5
E
102
{ACAD_REACTORS
330
C
102
}
330
C
100
AcDbDictionary
281
     1
  3
Normal
350
F
100
AcDbDictionaryWithDefault
340
F
  0
DICTIONARY
  5
47
102
{ACAD_REACTORS
330
C
102
}
330
C
100
AcDbDictionary
281
     1
  3
A0
350
48
  3
A1
350
49
  3
A2
350
4A
  3
A3
350
4B
  3
A4
350
4C
  3
A5
350
4D
  3
A6
350
4E
  3
A7
350
4F
  3
A8
350
50
  3
A9
350
51
  3
B0
350
52
  3
B1
350
53
  3
B2
350
54
  3
B3
350
55
  3
B4
350
56
  3
B5
350
57
  3
B6
350
58
  3
B7
350
59
  3
B8
350
5A
  3
B9
350
5B
  3
C0
350
5C
  3
C1
350
5D
  3
C2
350
5E
  3
C3
350
5F
  3
C4
350
60
  3
C5
350
61
  3
C6
350
62
  3
C7
350
63
  3
C8
350
64
  3
C9
350
65
  3
D0
350
66
  3
D1
350
67
  3
D2
350
68
  0
DICTIONARY
  5
1E1
102
{ACAD_REACTORS
330
C
102
}
330
C
100
AcDbDictionary
281
     1
  0
DICTIONARY
  5
69
102
{ACAD_REACTORS
330
C
102
}
330
C
100
AcDbDictionary
281
     1
  3
Standard
350
6A
  0
DICTIONARY
  5
2A
102
{ACAD_REACTORS
330
C
102
}
330
C
100
AcDbDictionary
281
     1
  3
2dWireframe
350
2F
  3
Basic
350
32
  3
Brighten
350
36
  3
ColorChange
350
3A
  3
Conceptual
350
34
  3
Dim
350
35
  3
EdgeColorOff
350
3D
  3
Facepattern
350
39
  3
Flat
350
2B
  3
FlatWithEdges
350
2C
  3
Gouraud
350
2D
  3
GouraudWithEdges
350
2E
  3
Hidden
350
31
  3
JitterOff
350
3B
  3
Linepattern
350
38
  3
OverhangOff
350
3C
  3
Realistic
350
33
  3
Shaded
350
42
  3
Shaded with edges
350
41
  3
Shades of Gray
350
3E
  3
Sketchy
350
3F
  3
Thicken
350
37
  3
Wireframe
350
30
  3
X-Ray
350
40
  0
XRECORD
  5
1DD
102
{ACAD_REACTORS
330
C
102
}
330
C
100
AcDbXrecord
280
     1
 90
        1
330
6A
  0
DICTIONARY
  5
1D9
102
{ACAD_REACTORS
330
C
102
}
330
C
100
AcDbDictionary
281
     1
  3
CANNOSCALE
350
1DA
  3
CMLEADERSTYLE
350
1DF
  3
CTABLESTYLE
350
1DE
  0
LAYOUT
  5
1E
102
{ACAD_REACTORS
330
1A
102
}
330
1A
100
AcDbPlotSettings
  1

  2
none_device
  4

  6

 40
0.0
 41
0.0
 42
0.0
 43
0.0
 44
0.0
 45
0.0
 46
0.0
 47
0.0
 48
0.0
 49
0.0
140
0.0
141
0.0
142
1.0
143
1.0
 70
   688
 72
     1
 73
     0
 74
     5
  7

 75
    16
 76
     0
 77
     2
 78
   300
147
1.0
148
0.0
149
0.0
100
AcDbLayout
  1
Layout1
 70
     1
 71
     1
 10
0.0
 20
0.0
 11
420.0
 21
297.0
 12
0.0
 22
0.0
 32
0.0
 14
1.000000000000000E+20
 24
1.000000000000000E+20
 34
1.000000000000000E+20
 15
-1.000000000000000E+20
 25
-1.000000000000000E+20
 35
-1.000000000000000E+20
146
0.0
 13
0.0
 23
0.0
 33
0.0
 16
1.0
 26
0.0
 36
0.0
 17
0.0
 27
1.0
 37
0.0
 76
     0
330
1B
  0
LAYOUT
  5
26
102
{ACAD_REACTORS
330
1A
102
}
330
1A
100
AcDbPlotSettings
  1

  2
none_device
  4

  6

 40
0.0
 41
0.0
 42
0.0
 43
0.0
 44
0.0
 45
0.0
 46
0.0
 47
0.0
 48
0.0
 49
0.0
140
0.0
141
0.0
142
1.0
143
1.0
 70
   688
 72
     1
 73
     0
 74
     5
  7

 75
    16
 76
     0
 77
     2
 78
   300
147
1.0
148
0.0
149
0.0
100
AcDbLayout
  1
Layout2
 70
     1
 71
     2
 10
0.0
 20
0.0
 11
0.0
 21
0.0
 12
0.0
 22
0.0
 32
0.0
 14
0.0
 24
0.0
 34
0.0
 15
0.0
 25
0.0
 35
0.0
146
0.0
 13
0.0
 23
0.0
 33
0.0
 16
1.0
 26
0.0
 36
0.0
 17
0.0
 27
1.0
 37
0.0
 76
     0
330
23
  0
LAYOUT
  5
22
102
{ACAD_REACTORS
330
1A
102
}
330
1A
100
AcDbPlotSettings
  1

  2
none_device
  4
Letter_(8.50_x_11.00_Inches)
  6

 40
6.35
 41
6.35
 42
6.35000508
 43
6.35000508
 44
215.9
 45
279.4
 46
0.0
 47
0.0
 48
0.0
 49
0.0
140
0.0
141
0.0
142
1.0
143
1.0
 70
  1712
 72
     1
 73
     0
 74
     0
  7

 75
     0
 76
     0
 77
     2
 78
   300
147
1.0
148
0.0
149
0.0
100
AcDbLayout
  1
Model
 70
     1
 71
     0
 10
0.0
 20
0.0
 11
420.0
 21
297.0
 12
0.0
 22
0.0
 32
0.0
 14
1.000000000000000E+20
 24
1.000000000000000E+20
 34
1.000000000000000E+20
 15
-1.000000000000000E+20
 25
-1.000000000000000E+20
 35
-1.000000000000000E+20
146
0.0
 13
0.0
 23
0.0
 33
0.0
 16
1.0
 26
0.0
 36
0.0
 17
0.0
 27
1.0
 37
0.0
 76
     0
330
1F
331
29
  0
MATERIAL
  5
45
102
{ACAD_REACTORS
330
43
102
}
330
43
100
AcDbMaterial
  1
ByBlock
 72
     1
 94
      127
  0
MATERIAL
  5
44
102
{ACAD_REACTORS
330
43
102
}
330
43
100
AcDbMaterial
  1
ByLayer
 72
     1
 94
      127
  0
MATERIAL
  5
46
102
{ACAD_REACTORS
330
43
102
}
330
43
100
AcDbMaterial
  1
Global
 72
     1
 94
      127
  0
MLEADERSTYLE
  5
6C
102
{ACAD_REACTORS
330
6B
102
}
330
6B
100
AcDbMLeaderStyle
179
     2
170
     2
171
     1
172
     0
 90
        2
 40
0.0
 41
0.0
173
     1
 91
-1056964608
340
14
 92
       -2
290
     1
 42
2.0
291
     1
 43
8.0
  3
Standard
341
0
 44
4.0
300

342
11
174
     1
178
     6
175
     1
176
     0
 93
-1056964608
 45
4.0
292
     0
297
     0
 46
4.0
343
0
 94
-1056964608
 47
1.0
 49
1.0
140
1.0
293
     1
141
0.0
294
     1
177
     0
142
1.0
295
     0
296
     0
143
3.75
271
     0
272
     9
273
     9
298
     0
  0
MLINESTYLE
  5
18
102
{ACAD_REACTORS
330
17
102
}
330
17
100
AcDbMlineStyle
  2
Standard
 70
     0
  3

 62
   256
 51
90.0
 52
90.0
 71
     2
 49
0.5
 62
   256
  6
BYLAYER
 49
-0.5
 62
   256
  6
BYLAYER
  0
ACDBPLACEHOLDER
  5
F
102
{ACAD_REACTORS
330
E
102
}
330
E
  0
SCALE
  5
48
102
{ACAD_REACTORS
330
47
102
}
330
47
100
AcDbScale
 70
     0
300
1:1
140
1.0
141
1.0
290
     1
  0
SCALE
  5
49
102
{ACAD_REACTORS
330
47
102
}
330
47
100
AcDbScale
 70
     0
300
1:2
140
1.0
141
2.0
290
     0
  0
SCALE
  5
4A
102
{ACAD_REACTORS
330
47
102
}
330
47
100
AcDbScale
 70
     0
300
1:4
140
1.0
141
4.0
290
     0
  0
SCALE
  5
4B
102
{ACAD_REACTORS
330
47
102
}
330
47
100
AcDbScale
 70
     0
300
1:5
140
1.0
141
5.0
290
     0
  0
SCALE
  5
4C
102
{ACAD_REACTORS
330
47
102
}
330
47
100
AcDbScale
 70
     0
300
1:8
140
1.0
141
8.0
290
     0
  0
SCALE
  5
4D
102
{ACAD_REACTORS
330
47
102
}
330
47
100
AcDbScale
 70
     0
300
1:10
140
1.0
141
10.0
290
     0
  0
SCALE
  5
4E
102
{ACAD_REACTORS
330
47
102
}
330
47
100
AcDbScale
 70
     0
300
1:16
140
1.0
141
16.0
290
     0
  0
SCALE
  5
4F
102
{ACAD_REACTORS
330
47
102
}
330
47
100
AcDbScale
 70
     0
300
1:20
140
1.0
141
20.0
290
     0
  0
SCALE
  5
50
102
{ACAD_REACTORS
330
47
102
}
330
47
100
AcDbScale
 70
     0
300
1:30
140
1.0
141
30.0
290
     0
  0
SCALE
  5
51
102
{ACAD_REACTORS
330
47
102
}
330
47
100
AcDbScale
 70
     0
300
1:40
140
1.0
141
40.0
290
     0
  0
SCALE
  5
52
102
{ACAD_REACTORS
330
47
102
}
330
47
100
AcDbScale
 70
     0
300
1:50
140
1.0
141
50.0
290
     0
  0
SCALE
  5
53
102
{ACAD_REACTORS
330
47
102
}
330
47
100
AcDbScale
 70
     0
300
1:100
140
1.0
141
100.0
290
     0
  0
SCALE
  5
54
102
{ACAD_REACTORS
330
47
102
}
330
47
100
AcDbScale
 70
     0
300
2:1
140
2.0
141
1.0
290
     0
  0
SCALE
  5
55
102
{ACAD_REACTORS
330
47
102
}
330
47
100
AcDbScale
 70
     0
300
4:1
140
4.0
141
1.0
290
     0
  0
SCALE
  5
56
102
{ACAD_REACTORS
330
47
102
}
330
47
100
AcDbScale
 70
     0
300
8:1
140
8.0
141
1.0
290
     0
  0
SCALE
  5
57
102
{ACAD_REACTORS
330
47
102
}
330
47
100
AcDbScale
 70
     0
300
10:1
140
10.0
141
1.0
290
     0
  0
SCALE
  5
58
102
{ACAD_REACTORS
330
47
102
}
330
47
100
AcDbScale
 70
     0
300
100:1
140
100.0
141
1.0
290
     0
  0
SCALE
  5
59
102
{ACAD_REACTORS
330
47
102
}
330
47
100
AcDbScale
 70
     0
300
1/128" = 1'-0"
140
0.0078125
141
12.0
290
     0
  0
SCALE
  5
5A
102
{ACAD_REACTORS
330
47
102
}
330
47
100
AcDbScale
 70
     0
300
1/64" = 1'-0"
140
0.015625
141
12.0
290
     0
  0
SCALE
  5
5B
102
{ACAD_REACTORS
330
47
102
}
330
47
100
AcDbScale
 70
     0
300
1/32" = 1'-0"
140
0.03125
141
12.0
290
     0
  0
SCALE
  5
5C
102
{ACAD_REACTORS
330
47
102
}
330
47
100
AcDbScale
 70
     0
300
1/16" = 1'-0"
140
0.0625
141
12.0
290
     0
  0
SCALE
  5
5D
102
{ACAD_REACTORS
330
47
102
}
330
47
100
AcDbScale
 70
     0
300
3/32" = 1'-0"
140
0.09375
141
12.0
290
     0
  0
SCALE
  5
5E
102
{ACAD_REACTORS
330
47
102
}
330
47
100
AcDbScale
 70
     0
300
1/8" = 1'-0"
140
0.125
141
12.0
290
     0
  0
SCALE
  5
5F
102
{ACAD_REACTORS
330
47
102
}
330
47
100
AcDbScale
 70
     0
300
3/16" = 1'-0"
140
0.1875
141
12.0
290
     0
  0
SCALE
  5
60
102
{ACAD_REACTORS
330
47
102
}
330
47
100
AcDbScale
 70
     0
300
1/4" = 1'-0"
140
0.25
141
12.0
290
     0
  0
SCALE
  5
61
102
{ACAD_REACTORS
330
47
102
}
330
47
100
AcDbScale
 70
     0
300
3/8" = 1'-0"
140
0.375
141
12.0
290
     0
  0
SCALE
  5
62
102
{ACAD_REACTORS
330
47
102
}
330
47
100
AcDbScale
 70
     0
300
1/2" = 1'-0"
140
0.5
141
12.0
290
     0
  0
SCALE
  5
63
102
{ACAD_REACTORS
330
47
102
}
330
47
100
AcDbScale
 70
     0
300
3/4" = 1'-0"
140
0.75
141
12.0
290
     0
  0
SCALE
  5
64
102
{ACAD_REACTORS
330
47
102
}
330
47
100
AcDbScale
 70
     0
300
1" = 1'-0"
140
1.0
141
12.0
290
     0
  0
SCALE
  5
65
102
{ACAD_REACTORS
330
47
102
}
330
47
100
AcDbScale
 70
     0
300
1-1/2" = 1'-0"
140
1.5
141
12.0
290
     0
  0
SCALE
  5
66
102
{ACAD_REACTORS
330
47
102
}
330
47
100
AcDbScale
 70
     0
300
3" = 1'-0"
140
3.0
141
12.0
290
     0
  0
SCALE
  5
67
102
{ACAD_REACTORS
330
47
102
}
330
47
100
AcDbScale
 70
     0
300
6" = 1'-0"
140
6.0
141
12.0
290
     0
  0
SCALE
  5
68
102
{ACAD_REACTORS
330
47
102
}
330
47
100
AcDbScale
 70
     0
300
1'-0" = 1'-0"
140
12.0
141
12.0
290
     0
  0
TABLESTYLE
  5
6A
102
{ACAD_REACTORS
330
69
102
}
102
{ACAD_XDICTIONARY
360
1DB
102
}
330
69
100
AcDbTableStyle
  3
Standard
 70
     0
 71
     0
 40
0.06
 41
0.06
280
     0
281
     0
  7
Standard
140
4.5
170
     2
 62
     0
 63
   257
283
     0
 90
        4
 91
        0
  1

274
    -2
284
     1
 64
     0
275
    -2
285
     1
 65
     0
276
    -2
286
     1
 66
     0
277
    -2
287
     1
 67
     0
278
    -2
288
     1
 68
     0
279
    -2
289
     1
 69
     0
  7
Standard
140
6.0
170
     5
 62
     0
 63
   257
283
     0
 90
        4
 91
        0
  1

274
    -2
284
     1
 64
     0
275
    -2
285
     1
 65
     0
276
    -2
286
     1
 66
     0
277
    -2
287
     1
 67
     0
278
    -2
288
     1
 68
     0
279
    -2
289
     1
 69
     0
  7
Standard
140
4.5
170
     5
 62
     0
 63
   257
283
     0
 90
        4
 91
        0
  1

274
    -2
284
     1
 64
     0
275
    -2
285
     1
 65
     0
276
    -2
286
     1
 66
     0
277
    -2
287
     1
 67
     0
278
    -2
288
     1
 68
     0
279
    -2
289
     1
 69
     0
  0
VISUALSTYLE
  5
2F
102
{ACAD_REACTORS
330
2A
102
}
330
2A
100
AcDbVisualStyle
  2
2dWireframe
 70
     4
177
     3
291
     0
 70
    58
 90
        0
176
     1
 90
        2
176
     1
 90
        0
176
     1
 90
        0
176
     1
 40
0.6
176
     1
 40
30.0
176
     1
 62
     7
420
 16777215
176
     1
 90
        1
176
     1
 90
        4
176
     1
 62
     7
176
     1
 62
   257
176
     1
 90
        1
176
     1
 90
        1
176
     1
 40
1.0
176
     1
 90
        0
176
     1
 62
   257
176
     1
 40
1.0
176
     1
 90
        1
176
     1
 90
        6
176
     1
 90
        2
176
     1
 62
     7
176
     1
 90
        5
176
     1
 90
        0
176
     1
 90
        0
176
     1
290
     0
176
     1
 90
        1
176
     1
 40
0.0
176
     1
 90
        0
176
     1
290
     1
176
     1
290
     1
176
     1
290
     0
176
     1
290
     0
176
     1
290
     0
176
     1
290
     0
176
     1
290
     0
176
     1
290
     0
176
     1
290
     0
176
     1
 90
       50
176
     1
 40
0.0
176
     1
 40
1.0
176
     1
 90
        0
176
     1
 62
    18
420
        0
176
     1
 90
       50
176
     1
 90
        3
176
     1
 62
     5
420
      255
176
     1
290
     0
176
     1
 90
       50
176
     1
 90
       50
176
     1
 90
       50
176
     1
290
     0
176
     1
 90
       50
176
     1
 62
   256
176
     0
 40
1.0
176
     0
 90
        2
176
     1
  1
strokes_ogs.tif
176
     1
290
     0
176
     1
 40
1.0
176
     1
 40
1.0
176
     1
  0
VISUALSTYLE
  5
32
102
{ACAD_REACTORS
330
2A
102
}
330
2A
100
AcDbVisualStyle
  2
Basic
 70
     7
177
     3
291
     1
 70
    58
 90
        1
176
     1
 90
        0
176
     1
 90
        1
176
     1
 90
        0
176
     1
 40
0.6
176
     1
 40
30.0
176
     1
 62
     7
420
 16777215
176
     1
 90
        0
176
     1
 90
        4
176
     1
 62
     7
176
     1
 62
   257
176
     1
 90
        1
176
     1
 90
        1
176
     1
 40
1.0
176
     1
 90
        8
176
     1
 62
     7
176
     1
 40
1.0
176
     1
 90
        1
176
     1
 90
        6
176
     1
 90
        2
176
     1
 62
     7
176
     1
 90
        5
176
     1
 90
        0
176
     1
 90
        0
176
     1
290
     0
176
     1
 90
        1
176
     1
 40
0.0
176
     1
 90
        0
176
     1
290
     0
176
     1
290
     1
176
     1
290
     1
176
     1
290
     0
176
     1
290
     0
176
     1
290
     0
176
     1
290
     0
176
     1
290
     0
176
     1
290
     0
176
     1
 90
       50
176
     1
 40
0.0
176
     1
 40
1.0
176
     1
 90
        0
176
     1
 62
    18
420
        0
176
     1
 90
       50
176
     1
 90
        3
176
     1
 62
     5
420
      255
176
     1
290
     0
176
     1
 90
       50
176
     1
 90
       50
176
     1
 90
       50
176
     1
290
     0
176
     1
 90
       50
176
     1
 62
   256
176
     0
 40
1.0
176
     0
 90
        2
176
     1
  1
strokes_ogs.tif
176
     1
290
     0
176
     1
 40
1.0
176
     1
 40
1.0
176
     1
  0
VISUALSTYLE
  5
36
102
{ACAD_REACTORS
330
2A
102
}
330
2A
100
AcDbVisualStyle
  2
Brighten
 70
    12
177
     3
291
     1
 70
    58
 90
        2
176
     1
 90
        2
176
     1
 90
        0
176
     1
 90
        0
176
     1
 40
0.6
176
     1
 40
30.0
176
     1
 62
     7
420
 16777215
176
     1
 90
        1
176
     1
 90
        4
176
     1
 62
     7
176
     1
 62
   257
176
     1
 90
        1
176
     1
 90
        1
176
     1
 40
1.0
176
     1
 90
        8
176
     1
 62
     7
176
     1
 40
1.0
176
     1
 90
        1
176
     1
 90
        6
176
     1
 90
        2
176
     1
 62
     7
176
     1
 90
        5
176
     1
 90
        0
176
     1
 90
        0
176
     1
290
     0
176
     1
 90
        1
176
     1
 40
50.0
176
     1
 90
        0
176
     1
290
     0
176
     1
290
     1
176
     1
290
     1
176
     1
290
     0
176
     1
290
     0
176
     1
290
     0
176
     1
290
     0
176
     1
290
     0
176
     1
290
     0
176
     1
 90
       50
176
     1
 40
0.0
176
     1
 40
1.0
176
     1
 90
        0
176
     1
 62
    18
420
        0
176
     1
 90
       50
176
     1
 90
        3
176
     1
 62
     5
420
      255
176
     1
290
     0
176
     1
 90
       50
176
     1
 90
       50
176
     1
 90
       50
176
     1
290
     0
176
     1
 90
       50
176
     1
 62
   256
176
     0
 40
1.0
176
     0
 90
        2
176
     1
  1
strokes_ogs.tif
176
     1
290
     0
176
     1
 40
1.0
176
     1
 40
1.0
176
     1
  0
VISUALSTYLE
  5
3A
102
{ACAD_REACTORS
330
2A
102
}
330
2A
100
AcDbVisualStyle
  2
ColorChange
 70
    16
177
     3
291
     1
 70
    58
 90
        2
176
     1
 90
        2
176
     1
 90
        3
176
     1
 90
        0
176
     1
 40
0.6
176
     1
 40
30.0
176
     1
 62
     8
420
  8421504
176
     1
 90
        1
176
     1
 90
        4
176
     1
 62
     7
176
     1
 62
   257
176
     1
 90
        1
176
     1
 90
        1
176
     1
 40
1.0
176
     1
 90
        8
176
     1
 62
     8
420
  8421504
176
     1
 40
1.0
176
     1
 90
        1
176
     1
 90
        6
176
     1
 90
        2
176
     1
 62
     7
176
     1
 90
        5
176
     1
 90
        0
176
     1
 90
        0
176
     1
290
     0
176
     1
 90
        1
176
     1
 40
0.0
176
     1
 90
        0
176
     1
290
     0
176
     1
290
     1
176
     1
290
     1
176
     1
290
     0
176
     1
290
     0
176
     1
290
     0
176
     1
290
     0
176
     1
290
     0
176
     1
290
     0
176
     1
 90
       50
176
     1
 40
0.0
176
     1
 40
1.0
176
     1
 90
        0
176
     1
 62
    18
420
        0
176
     1
 90
       50
176
     1
 90
        3
176
     1
 62
     5
420
      255
176
     1
290
     0
176
     1
 90
       50
176
     1
 90
       50
176
     1
 90
       50
176
     1
290
     0
176
     1
 90
       50
176
     1
 62
   256
176
     0
 40
1.0
176
     0
 90
        2
176
     1
  1
strokes_ogs.tif
176
     1
290
     0
176
     1
 40
1.0
176
     1
 40
1.0
176
     1
  0
VISUALSTYLE
  5
34
102
{ACAD_REACTORS
330
2A
102
}
330
2A
100
AcDbVisualStyle
  2
Conceptual
 70
     9
177
     3
291
     0
 70
    58
 90
        3
176
     1
 90
        2
176
     1
 90
        0
176
     1
 90
        0
176
     1
 40
0.6
176
     1
 40
30.0
176
     1
 62
     7
420
 16777215
176
     1
 90
        2
176
     1
 90
        2
176
     1
 62
     7
176
     1
 62
   257
176
     1
 90
        1
176
     1
 90
        1
176
     1
 40
179.0
176
     1
 90
        8
176
     1
 62
     7
176
     1
 40
1.0
176
     1
 90
        1
176
     1
 90
        6
176
     1
 90
        2
176
     1
 62
     7
176
     1
 90
        3
176
     1
 90
        0
176
     1
 90
        0
176
     1
290
     0
176
     1
 90
        1
176
     1
 40
0.0
176
     1
 90
        0
176
     1
290
     0
176
     1
290
     1
176
     1
290
     1
176
     1
290
     0
176
     1
290
     0
176
     1
290
     0
176
     1
290
     0
176
     1
290
     0
176
     1
290
     0
176
     1
 90
       50
176
     1
 40
0.0
176
     1
 40
1.0
176
     1
 90
        0
176
     1
 62
    18
420
        0
176
     1
 90
       50
176
     1
 90
        3
176
     1
 62
     5
420
      255
176
     1
290
     0
176
     1
 90
       50
176
     1
 90
       50
176
     1
 90
       50
176
     1
290
     0
176
     1
 90
       50
176
     1
 62
   256
176
     0
 40
1.0
176
     0
 90
        2
176
     1
  1
strokes_ogs.tif
176
     1
290
     0
176
     1
 40
1.0
176
     1
 40
1.0
176
     1
  0
VISUALSTYLE
  5
35
102
{ACAD_REACTORS
330
2A
102
}
330
2A
100
AcDbVisualStyle
  2
Dim
 70
    11
177
     3
291
     1
 70
    58
 90
        2
176
     1
 90
        2
176
     1
 90
        0
176
     1
 90
        0
176
     1
 40
0.6
176
     1
 40
30.0
176
     1
 62
     7
420
 16777215
176
     1
 90
        1
176
     1
 90
        4
176
     1
 62
     7
176
     1
 62
   257
176
     1
 90
        1
176
     1
 90
        1
176
     1
 40
1.0
176
     1
 90
        8
176
     1
 62
     7
176
     1
 40
1.0
176
     1
 90
        1
176
     1
 90
        6
176
     1
 90
        2
176
     1
 62
     7
176
     1
 90
        5
176
     1
 90
        0
176
     1
 90
        0
176
     1
290
     0
176
     1
 90
        1
176
     1
 40
-50.0
176
     1
 90
        0
176
     1
290
     0
176
     1
290
     1
176
     1
290
     1
176
     1
290
     0
176
     1
290
     0
176
     1
290
     0
176
     1
290
     0
176
     1
290
     0
176
     1
290
     0
176
     1
 90
       50
176
     1
 40
0.0
176
     1
 40
1.0
176
     1
 90
        0
176
     1
 62
    18
420
        0
176
     1
 90
       50
176
     1
 90
        3
176
     1
 62
     5
420
      255
176
     1
290
     0
176
     1
 90
       50
176
     1
 90
       50
176
     1
 90
       50
176
     1
290
     0
176
     1
 90
       50
176
     1
 62
   256
176
     0
 40
1.0
176
     0
 90
        2
176
     1
  1
strokes_ogs.tif
176
     1
290
     0
176
     1
 40
1.0
176
     1
 40
1.0
176
     1
  0
VISUALSTYLE
  5
3D
102
{ACAD_REACTORS
330
2A
102
}
330
2A
100
AcDbVisualStyle
  2
EdgeColorOff
 70
    22
177
     3
291
     1
 70
    58
 90
        2
176
     0
 90
        2
176
     0
 90
        0
176
     0
 90
        0
176
     0
 40
0.6
176
     0
 40
30.0
176
     0
 62
     7
420
 16777215
176
     0
 90
        1
176
     0
 90
        4
176
     0
 62
     7
176
     0
 62
   257
176
     0
 90
        1
176
     0
 90
        1
176
     0
 40
1.0
176
     0
 90
        8
176
     2
 62
     7
176
     0
 40
1.0
176
     0
 90
        1
176
     0
 90
        6
176
     0
 90
        2
176
     0
 62
     7
176
     0
 90
        5
176
     0
 90
        0
176
     0
 90
        0
176
     0
290
     0
176
     0
 90
        1
176
     0
 40
0.0
176
     0
 90
        0
176
     0
290
     0
176
     0
290
     1
176
     0
290
     1
176
     0
290
     0
176
     0
290
     0
176
     0
290
     0
176
     0
290
     0
176
     0
290
     0
176
     0
290
     0
176
     0
 90
       50
176
     0
 40
0.0
176
     0
 40
1.0
176
     0
 90
        0
176
     0
 62
    18
420
        0
176
     0
 90
       50
176
     0
 90
        3
176
     0
 62
     5
420
      255
176
     0
290
     0
176
     0
 90
       50
176
     0
 90
       50
176
     0
 90
       50
176
     0
290
     0
176
     0
 90
       50
176
     0
 62
   256
176
     0
 40
1.0
176
     0
 90
        2
176
     0
  1
strokes_ogs.tif
176
     0
290
     0
176
     0
 40
1.0
176
     0
 40
1.0
176
     0
  0
VISUALSTYLE
  5
39
102
{ACAD_REACTORS
330
2A
102
}
330
2A
100
AcDbVisualStyle
  2
Facepattern
 70
    15
177
     3
291
     1
 70
    58
 90
        2
176
     1
 90
        2
176
     1
 90
        0
176
     1
 90
        0
176
     1
 40
0.6
176
     1
 40
30.0
176
     1
 62
     7
420
 16777215
176
     1
 90
        1
176
     1
 90
        4
176
     1
 62
     7
176
     1
 62
   257
176
     1
 90
        1
176
     1
 90
        1
176
     1
 40
1.0
176
     1
 90
        8
176
     1
 62
     7
176
     1
 40
1.0
176
     1
 90
        1
176
     1
 90
        6
176
     1
 90
        2
176
     1
 62
     7
176
     1
 90
        5
176
     1
 90
        0
176
     1
 90
        0
176
     1
290
     0
176
     1
 90
        1
176
     1
 40
0.0
176
     1
 90
        0
176
     1
290
     0
176
     1
290
     1
176
     1
290
     1
176
     1
290
     0
176
     1
290
     0
176
     1
290
     0
176
     1
290
     0
176
     1
290
     0
176
     1
290
     0
176
     1
 90
       50
176
     1
 40
0.0
176
     1
 40
1.0
176
     1
 90
        0
176
     1
 62
    18
420
        0
176
     1
 90
       50
176
     1
 90
        3
176
     1
 62
     5
420
      255
176
     1
290
     0
176
     1
 90
       50
176
     1
 90
       50
176
     1
 90
       50
176
     1
290
     0
176
     1
 90
       50
176
     1
 62
   256
176
     0
 40
1.0
176
     0
 90
        2
176
     1
  1
strokes_ogs.tif
176
     1
290
     0
176
     1
 40
1.0
176
     1
 40
1.0
176
     1
  0
VISUALSTYLE
  5
2B
102
{ACAD_REACTORS
330
2A
102
}
330
2A
100
AcDbVisualStyle
  2
Flat
 70
     0
177
     3
291
     1
 70
    58
 90
        2
176
     1
 90
        1
176
     1
 90
        1
176
     1
 90
        2
176
     1
 40
0.6
176
     1
 40
30.0
176
     1
 62
     7
420
 16777215
176
     1
 90
        0
176
     1
 90
        0
176
     1
 62
     7
176
     1
 62
   257
176
     1
 90
        1
176
     1
 90
        1
176
     1
 40
1.0
176
     1
 90
        8
176
     1
 62
     7
176
     1
 40
1.0
176
     1
 90
        1
176
     1
 90
        6
176
     1
 90
        2
176
     1
 62
     7
176
     1
 90
        5
176
     1
 90
        0
176
     1
 90
        0
176
     1
290
     0
176
     1
 90
       13
176
     1
 40
0.0
176
     1
 90
        0
176
     1
290
     0
176
     1
290
     1
176
     1
290
     1
176
     1
290
     0
176
     1
290
     0
176
     1
290
     0
176
     1
290
     0
176
     1
290
     0
176
     1
290
     0
176
     1
 90
       50
176
     1
 40
0.0
176
     1
 40
1.0
176
     1
 90
        0
176
     1
 62
    18
420
        0
176
     1
 90
       50
176
     1
 90
        3
176
     1
 62
     5
420
      255
176
     1
290
     0
176
     1
 90
       50
176
     1
 90
       50
176
     1
 90
       50
176
     1
290
     0
176
     1
 90
       50
176
     1
 62
   256
176
     0
 40
1.0
176
     0
 90
        2
176
     1
  1
strokes_ogs.tif
176
     1
290
     0
176
     1
 40
1.0
176
     1
 40
1.0
176
     1
  0
VISUALSTYLE
  5
2C
102
{ACAD_REACTORS
330
2A
102
}
330
2A
100
AcDbVisualStyle
  2
FlatWithEdges
 70
     1
177
     3
291
     1
 70
    58
 90
        2
176
     1
 90
        1
176
     1
 90
        1
176
     1
 90
        2
176
     1
 40
0.6
176
     1
 40
30.0
176
     1
 62
     7
420
 16777215
176
     1
 90
        1
176
     1
 90
        0
176
     1
 62
     7
176
     1
 62
   257
176
     1
 90
        1
176
     1
 90
        1
176
     1
 40
1.0
176
     1
 90
        0
176
     1
 62
   257
176
     1
 40
1.0
176
     1
 90
        1
176
     1
 90
        6
176
     1
 90
        2
176
     1
 62
     7
176
     1
 90
        5
176
     1
 90
        0
176
     1
 90
        0
176
     1
290
     0
176
     1
 90
       13
176
     1
 40
0.0
176
     1
 90
        0
176
     1
290
     0
176
     1
290
     1
176
     1
290
     1
176
     1
290
     0
176
     1
290
     0
176
     1
290
     0
176
     1
290
     0
176
     1
290
     0
176
     1
290
     0
176
     1
 90
       50
176
     1
 40
0.0
176
     1
 40
1.0
176
     1
 90
        0
176
     1
 62
    18
420
        0
176
     1
 90
       50
176
     1
 90
        3
176
     1
 62
     5
420
      255
176
     1
290
     0
176
     1
 90
       50
176
     1
 90
       50
176
     1
 90
       50
176
     1
290
     0
176
     1
 90
       50
176
     1
 62
   256
176
     0
 40
1.0
176
     0
 90
        2
176
     1
  1
strokes_ogs.tif
176
     1
290
     0
176
     1
 40
1.0
176
     1
 40
1.0
176
     1
  0
VISUALSTYLE
  5
2D
102
{ACAD_REACTORS
330
2A
102
}
330
2A
100
AcDbVisualStyle
  2
Gouraud
 70
     2
177
     3
291
     1
 70
    58
 90
        2
176
     1
 90
        2
176
     1
 90
        1
176
     1
 90
        2
176
     1
 40
0.6
176
     1
 40
30.0
176
     1
 62
     7
420
 16777215
176
     1
 90
        0
176
     1
 90
        0
176
     1
 62
     7
176
     1
 62
   257
176
     1
 90
        1
176
     1
 90
        1
176
     1
 40
1.0
176
     1
 90
        0
176
     1
 62
     7
176
     1
 40
1.0
176
     1
 90
        1
176
     1
 90
        6
176
     1
 90
        2
176
     1
 62
     7
176
     1
 90
        5
176
     1
 90
        0
176
     1
 90
        0
176
     1
290
     0
176
     1
 90
       13
176
     1
 40
0.0
176
     1
 90
        0
176
     1
290
     0
176
     1
290
     1
176
     1
290
     1
176
     1
290
     0
176
     1
290
     0
176
     1
290
     0
176
     1
290
     0
176
     1
290
     0
176
     1
290
     0
176
     1
 90
       50
176
     1
 40
0.0
176
     1
 40
1.0
176
     1
 90
        0
176
     1
 62
    18
420
        0
176
     1
 90
       50
176
     1
 90
        3
176
     1
 62
     5
420
      255
176
     1
290
     0
176
     1
 90
       50
176
     1
 90
       50
176
     1
 90
       50
176
     1
290
     0
176
     1
 90
       50
176
     1
 62
   256
176
     0
 40
1.0
176
     0
 90
        2
176
     1
  1
strokes_ogs.tif
176
     1
290
     0
176
     1
 40
1.0
176
     1
 40
1.0
176
     1
  0
VISUALSTYLE
  5
2E
102
{ACAD_REACTORS
330
2A
102
}
330
2A
100
AcDbVisualStyle
  2
GouraudWithEdges
 70
     3
177
     3
291
     1
 70
    58
 90
        2
176
     1
 90
        2
176
     1
 90
        1
176
     1
 90
        2
176
     1
 40
0.6
176
     1
 40
30.0
176
     1
 62
     7
420
 16777215
176
     1
 90
        1
176
     1
 90
        0
176
     1
 62
     7
176
     1
 62
   257
176
     1
 90
        1
176
     1
 90
        1
176
     1
 40
1.0
176
     1
 90
        0
176
     1
 62
   257
176
     1
 40
1.0
176
     1
 90
        1
176
     1
 90
        6
176
     1
 90
        2
176
     1
 62
     7
176
     1
 90
        5
176
     1
 90
        0
176
     1
 90
        0
176
     1
290
     0
176
     1
 90
       13
176
     1
 40
0.0
176
     1
 90
        0
176
     1
290
     0
176
     1
290
     1
176
     1
290
     1
176
     1
290
     0
176
     1
290
     0
176
     1
290
     0
176
     1
290
     0
176
     1
290
     0
176
     1
290
     0
176
     1
 90
       50
176
     1
 40
0.0
176
     1
 40
1.0
176
     1
 90
        0
176
     1
 62
    18
420
        0
176
     1
 90
       50
176
     1
 90
        3
176
     1
 62
     5
420
      255
176
     1
290
     0
176
     1
 90
       50
176
     1
 90
       50
176
     1
 90
       50
176
     1
290
     0
176
     1
 90
       50
176
     1
 62
   256
176
     0
 40
1.0
176
     0
 90
        2
176
     1
  1
strokes_ogs.tif
176
     1
290
     0
176
     1
 40
1.0
176
     1
 40
1.0
176
     1
  0
VISUALSTYLE
  5
31
102
{ACAD_REACTORS
330
2A
102
}
330
2A
100
AcDbVisualStyle
  2
Hidden
 70
     6
177
     3
291
     0
 70
    58
 90
        1
176
     1
 90
        2
176
     1
 90
        2
176
     1
 90
        0
176
     1
 40
0.6
176
     1
 40
30.0
176
     1
 62
     7
420
 16777215
176
     1
 90
        2
176
     1
 90
        2
176
     1
 62
     7
176
     1
 62
   257
176
     1
 90
        2
176
     1
 90
        1
176
     1
 40
40.0
176
     1
 90
        0
176
     1
 62
   257
176
     1
 40
1.0
176
     1
 90
        1
176
     1
 90
        6
176
     1
 90
        2
176
     1
 62
     7
176
     1
 90
        3
176
     1
 90
        0
176
     1
 90
        0
176
     1
290
     0
176
     1
 90
        1
176
     1
 40
0.0
176
     1
 90
        0
176
     1
290
     0
176
     1
290
     1
176
     1
290
     1
176
     1
290
     0
176
     1
290
     0
176
     1
290
     0
176
     1
290
     0
176
     1
290
     0
176
     1
290
     0
176
     1
 90
       50
176
     1
 40
0.0
176
     1
 40
1.0
176
     1
 90
        0
176
     1
 62
    18
420
        0
176
     1
 90
       50
176
     1
 90
        3
176
     1
 62
     5
420
      255
176
     1
290
     0
176
     1
 90
       50
176
     1
 90
       50
176
     1
 90
       50
176
     1
290
     0
176
     1
 90
       50
176
     1
 62
   256
176
     0
 40
1.0
176
     0
 90
        2
176
     1
  1
strokes_ogs.tif
176
     1
290
     0
176
     1
 40
1.0
176
     1
 40
1.0
176
     1
  0
VISUALSTYLE
  5
3B
102
{ACAD_REACTORS
330
2A
102
}
330
2A
100
AcDbVisualStyle
  2
JitterOff
 70
    20
177
     3
291
     1
 70
    58
 90
        2
176
     0
 90
        2
176
     0
 90
        0
176
     0
 90
        0
176
     0
 40
0.6
176
     0
 40
30.0
176
     0
 62
     7
420
 16777215
176
     0
 90
        1
176
     0
 90
        4
176
     0
 62
     7
176
     0
 62
   257
176
     0
 90
        1
176
     0
 90
        1
176
     0
 40
1.0
176
     0
 90
       10
176
     2
 62
     7
176
     0
 40
1.0
176
     0
 90
        1
176
     0
 90
        6
176
     0
 90
        2
176
     0
 62
     7
176
     0
 90
        5
176
     0
 90
        0
176
     0
 90
        0
176
     0
290
     0
176
     0
 90
        1
176
     0
 40
0.0
176
     0
 90
        0
176
     0
290
     0
176
     0
290
     1
176
     0
290
     1
176
     0
290
     0
176
     0
290
     0
176
     0
290
     0
176
     0
290
     0
176
     0
290
     0
176
     0
290
     0
176
     0
 90
       50
176
     0
 40
0.0
176
     0
 40
1.0
176
     0
 90
        0
176
     0
 62
    18
420
        0
176
     0
 90
       50
176
     0
 90
        3
176
     0
 62
     5
420
      255
176
     0
290
     0
176
     0
 90
       50
176
     0
 90
       50
176
     0
 90
       50
176
     0
290
     0
176
     0
 90
       50
176
     0
 62
   256
176
     0
 40
1.0
176
     0
 90
        2
176
     0
  1
strokes_ogs.tif
176
     0
290
     0
176
     0
 40
1.0
176
     0
 40
1.0
176
     0
  0
VISUALSTYLE
  5
38
102
{ACAD_REACTORS
330
2A
102
}
330
2A
100
AcDbVisualStyle
  2
Linepattern
 70
    14
177
     3
291
     1
 70
    58
 90
        2
176
     1
 90
        2
176
     1
 90
        0
176
     1
 90
        0
176
     1
 40
0.6
176
     1
 40
30.0
176
     1
 62
     7
420
 16777215
176
     1
 90
        1
176
     1
 90
        4
176
     1
 62
     7
176
     1
 62
   257
176
     1
 90
        7
176
     1
 90
        7
176
     1
 40
1.0
176
     1
 90
        8
176
     1
 62
     7
176
     1
 40
1.0
176
     1
 90
        1
176
     1
 90
        6
176
     1
 90
        2
176
     1
 62
     7
176
     1
 90
        5
176
     1
 90
        0
176
     1
 90
        0
176
     1
290
     0
176
     1
 90
        1
176
     1
 40
0.0
176
     1
 90
        0
176
     1
290
     0
176
     1
290
     1
176
     1
290
     1
176
     1
290
     0
176
     1
290
     0
176
     1
290
     0
176
     1
290
     0
176
     1
290
     0
176
     1
290
     0
176
     1
 90
       50
176
     1
 40
0.0
176
     1
 40
1.0
176
     1
 90
        0
176
     1
 62
    18
420
        0
176
     1
 90
       50
176
     1
 90
        3
176
     1
 62
     5
420
      255
176
     1
290
     0
176
     1
 90
       50
176
     1
 90
       50
176
     1
 90
       50
176
     1
290
     0
176
     1
 90
       50
176
     1
 62
   256
176
     0
 40
1.0
176
     0
 90
        2
176
     1
  1
strokes_ogs.tif
176
     1
290
     0
176
     1
 40
1.0
176
     1
 40
1.0
176
     1
  0
VISUALSTYLE
  5
3C
102
{ACAD_REACTORS
330
2A
102
}
330
2A
100
AcDbVisualStyle
  2
OverhangOff
 70
    21
177
     3
291
     1
 70
    58
 90
        2
176
     0
 90
        2
176
     0
 90
        0
176
     0
 90
        0
176
     0
 40
0.6
176
     0
 40
30.0
176
     0
 62
     7
420
 16777215
176
     0
 90
        1
176
     0
 90
        4
176
     0
 62
     7
176
     0
 62
   257
176
     0
 90
        1
176
     0
 90
        1
176
     0
 40
1.0
176
     0
 90
        9
176
     2
 62
     7
176
     0
 40
1.0
176
     0
 90
        1
176
     0
 90
        6
176
     0
 90
        2
176
     0
 62
     7
176
     0
 90
        5
176
     0
 90
        0
176
     0
 90
        0
176
     0
290
     0
176
     0
 90
        1
176
     0
 40
0.0
176
     0
 90
        0
176
     0
290
     0
176
     0
290
     1
176
     0
290
     1
176
     0
290
     0
176
     0
290
     0
176
     0
290
     0
176
     0
290
     0
176
     0
290
     0
176
     0
290
     0
176
     0
 90
       50
176
     0
 40
0.0
176
     0
 40
1.0
176
     0
 90
        0
176
     0
 62
    18
420
        0
176
     0
 90
       50
176
     0
 90
        3
176
     0
 62
     5
420
      255
176
     0
290
     0
176
     0
 90
       50
176
     0
 90
       50
176
     0
 90
       50
176
     0
290
     0
176
     0
 90
       50
176
     0
 62
   256
176
     0
 40
1.0
176
     0
 90
        2
176
     0
  1
strokes_ogs.tif
176
     0
290
     0
176
     0
 40
1.0
176
     0
 40
1.0
176
     0
  0
VISUALSTYLE
  5
33
102
{ACAD_REACTORS
330
2A
102
}
330
2A
100
AcDbVisualStyle
  2
Realistic
 70
     8
177
     3
291
     0
 70
    58
 90
        2
176
     1
 90
        3
176
     1
 90
        0
176
     1
 90
        2
176
     1
 40
0.6
176
     1
 40
30.0
176
     1
 62
     7
420
 16777215
176
     1
 90
        0
176
     1
 90
        0
176
     1
 62
     7
176
     1
 62
   257
176
     1
 90
        1
176
     1
 90
        1
176
     1
 40
1.0
176
     1
 90
        8
176
     1
 62
   257
176
     1
 40
1.0
176
     1
 90
        1
176
     1
 90
        6
176
     1
 90
        2
176
     1
 62
     7
176
     1
 90
        3
176
     1
 90
        0
176
     1
 90
        0
176
     1
290
     0
176
     1
 90
       13
176
     1
 40
0.0
176
     1
 90
        0
176
     1
290
     0
176
     1
290
     1
176
     1
290
     1
176
     1
290
     0
176
     1
290
     0
176
     1
290
     0
176
     1
290
     0
176
     1
290
     0
176
     1
290
     0
176
     1
 90
       50
176
     1
 40
0.0
176
     1
 40
1.0
176
     1
 90
        0
176
     1
 62
    18
420
        0
176
     1
 90
       50
176
     1
 90
        3
176
     1
 62
     5
420
      255
176
     1
290
     0
176
     1
 90
       50
176
     1
 90
       50
176
     1
 90
       50
176
     1
290
     0
176
     1
 90
       50
176
     1
 62
   256
176
     0
 40
1.0
176
     0
 90
        2
176
     1
  1
strokes_ogs.tif
176
     1
290
     0
176
     1
 40
1.0
176
     1
 40
1.0
176
     1
  0
VISUALSTYLE
  5
42
102
{ACAD_REACTORS
330
2A
102
}
330
2A
100
AcDbVisualStyle
  2
Shaded
 70
    27
177
     3
291
     0
 70
    58
 90
        2
176
     1
 90
        2
176
     1
 90
        1
176
     1
 90
        2
176
     1
 40
0.6
176
     1
 40
30.0
176
     1
 62
     7
420
 16777215
176
     1
 90
        0
176
     1
 90
        4
176
     1
 62
     7
176
     1
 62
   257
176
     1
 90
        1
176
     1
 90
        1
176
     1
 40
1.0
176
     1
 90
        8
176
     1
 62
   257
176
     1
 40
1.0
176
     1
 90
        1
176
     1
 90
        6
176
     1
 90
        2
176
     1
 62
     8
420
  7895160
176
     1
 90
        3
176
     1
 90
        0
176
     1
 90
        0
176
     1
290
     0
176
     1
 90
        5
176
     1
 40
0.0
176
     1
 90
        0
176
     1
290
     0
176
     1
290
     1
176
     1
290
     1
176
     1
290
     0
176
     1
290
     0
176
     1
290
     0
176
     1
290
     0
176
     1
290
     0
176
     1
290
     0
176
     1
 90
       50
176
     1
 40
0.0
176
     1
 40
1.0
176
     1
 90
        0
176
     1
 62
    18
420
        0
176
     1
 90
       50
176
     1
 90
        3
176
     1
 62
     5
420
      255
176
     1
290
     0
176
     1
 90
       50
176
     1
 90
       50
176
     1
 90
       50
176
     1
290
     0
176
     1
 90
       50
176
     1
 62
   256
176
     0
 40
1.0
176
     0
 90
        2
176
     1
  1
strokes_ogs.tif
176
     1
290
     0
176
     1
 40
1.0
176
     1
 40
1.0
176
     1
  0
VISUALSTYLE
  5
41
102
{ACAD_REACTORS
330
2A
102
}
330
2A
100
AcDbVisualStyle
  2
Shaded with edges
 70
    26
177
     3
291
     0
 70
    58
 90
        2
176
     1
 90
        2
176
     1
 90
        1
176
     1
 90
        2
176
     1
 40
0.6
176
     1
 40
30.0
176
     1
 62
     7
420
 16777215
176
     1
 90
        1
176
     1
 90
       10
176
     1
 62
     7
176
     1
 62
   257
176
     1
 90
        2
176
     1
 90
        1
176
     1
 40
1.0
176
     1
 90
        8
176
     1
 62
   257
176
     1
 40
1.0
176
     1
 90
        1
176
     1
 90
        6
176
     1
 90
        2
176
     1
 62
     7
176
     1
 90
        3
176
     1
 90
        0
176
     1
 90
        0
176
     1
290
     0
176
     1
 90
        5
176
     1
 40
0.0
176
     1
 90
        0
176
     1
290
     0
176
     1
290
     1
176
     1
290
     1
176
     1
290
     0
176
     1
290
     0
176
     1
290
     0
176
     1
290
     0
176
     1
290
     0
176
     1
290
     0
176
     1
 90
       50
176
     1
 40
0.0
176
     1
 40
1.0
176
     1
 90
        0
176
     1
 62
    18
420
        0
176
     1
 90
       50
176
     1
 90
        3
176
     1
 62
     5
420
      255
176
     1
290
     0
176
     1
 90
       50
176
     1
 90
       50
176
     1
 90
       50
176
     1
290
     0
176
     1
 90
       50
176
     1
 62
   256
176
     0
 40
1.0
176
     0
 90
        2
176
     1
  1
strokes_ogs.tif
176
     1
290
     0
176
     1
 40
1.0
176
     1
 40
1.0
176
     1
  0
VISUALSTYLE
  5
3E
102
{ACAD_REACTORS
330
2A
102
}
330
2A
100
AcDbVisualStyle
  2
Shades of Gray
 70
    23
177
     3
291
     0
 70
    58
 90
        2
176
     1
 90
        2
176
     1
 90
        3
176
     1
 90
        0
176
     1
 40
0.6
176
     1
 40
30.0
176
     1
 62
     7
420
 16777215
176
     1
 90
        2
176
     1
 90
        2
176
     1
 62
     7
176
     1
 62
     7
176
     1
 90
        1
176
     1
 90
        1
176
     1
 40
40.0
176
     1
 90
        8
176
     1
 62
     7
176
     1
 40
1.0
176
     1
 90
        1
176
     1
 90
        6
176
     1
 90
        2
176
     1
 62
     7
176
     1
 90
        3
176
     1
 90
        0
176
     1
 90
        0
176
     1
290
     0
176
     1
 90
        1
176
     1
 40
0.0
176
     1
 90
        0
176
     1
290
     0
176
     1
290
     1
176
     1
290
     1
176
     1
290
     0
176
     1
290
     0
176
     1
290
     0
176
     1
290
     0
176
     1
290
     0
176
     1
290
     0
176
     1
 90
       50
176
     1
 40
0.0
176
     1
 40
1.0
176
     1
 90
        0
176
     1
 62
    18
420
        0
176
     1
 90
       50
176
     1
 90
        3
176
     1
 62
     5
420
      255
176
     1
290
     0
176
     1
 90
       50
176
     1
 90
       50
176
     1
 90
       50
176
     1
290
     0
176
     1
 90
       50
176
     1
 62
   256
176
     0
 40
1.0
176
     0
 90
        2
176
     1
  1
strokes_ogs.tif
176
     1
290
     0
176
     1
 40
1.0
176
     1
 40
1.0
176
     1
  0
VISUALSTYLE
  5
3F
102
{ACAD_REACTORS
330
2A
102
}
330
2A
100
AcDbVisualStyle
  2
Sketchy
 70
    24
177
     3
291
     0
 70
    58
 90
        1
176
     1
 90
        2
176
     1
 90
        2
176
     1
 90
        0
176
     1
 40
0.6
176
     1
 40
30.0
176
     1
 62
     7
420
 16777215
176
     1
 90
        2
176
     1
 90
        2
176
     1
 62
     7
176
     1
 62
     7
176
     1
 90
        1
176
     1
 90
        1
176
     1
 40
40.0
176
     1
 90
       11
176
     1
 62
     7
176
     1
 40
1.0
176
     1
 90
        1
176
     1
 90
        6
176
     1
 90
        2
176
     1
 62
     7
176
     1
 90
        6
176
     1
 90
        0
176
     1
 90
        0
176
     1
290
     0
176
     1
 90
        1
176
     1
 40
0.0
176
     1
 90
        0
176
     1
290
     0
176
     1
290
     1
176
     1
290
     1
176
     1
290
     0
176
     1
290
     0
176
     1
290
     0
176
     1
290
     0
176
     1
290
     0
176
     1
290
     0
176
     1
 90
       50
176
     1
 40
0.0
176
     1
 40
1.0
176
     1
 90
        0
176
     1
 62
    18
420
        0
176
     1
 90
       50
176
     1
 90
        3
176
     1
 62
     5
420
      255
176
     1
290
     0
176
     1
 90
       50
176
     1
 90
       50
176
     1
 90
       50
176
     1
290
     0
176
     1
 90
       50
176
     1
 62
   256
176
     0
 40
1.0
176
     0
 90
        2
176
     1
  1
strokes_ogs.tif
176
     1
290
     0
176
     1
 40
1.0
176
     1
 40
1.0
176
     1
  0
VISUALSTYLE
  5
37
102
{ACAD_REACTORS
330
2A
102
}
330
2A
100
AcDbVisualStyle
  2
Thicken
 70
    13
177
     3
291
     1
 70
    58
 90
        2
176
     1
 90
        2
176
     1
 90
        0
176
     1
 90
        0
176
     1
 40
0.6
176
     1
 40
30.0
176
     1
 62
     7
420
 16777215
176
     1
 90
        1
176
     1
 90
        4
176
     1
 62
     7
176
     1
 62
   257
176
     1
 90
        1
176
     1
 90
        1
176
     1
 40
1.0
176
     1
 90
       12
176
     1
 62
     7
176
     1
 40
1.0
176
     1
 90
        1
176
     1
 90
        6
176
     1
 90
        2
176
     1
 62
     7
176
     1
 90
        5
176
     1
 90
        0
176
     1
 90
        0
176
     1
290
     0
176
     1
 90
        1
176
     1
 40
0.0
176
     1
 90
        0
176
     1
290
     0
176
     1
290
     1
176
     1
290
     1
176
     1
290
     0
176
     1
290
     0
176
     1
290
     0
176
     1
290
     0
176
     1
290
     0
176
     1
290
     0
176
     1
 90
       50
176
     1
 40
0.0
176
     1
 40
1.0
176
     1
 90
        0
176
     1
 62
    18
420
        0
176
     1
 90
       50
176
     1
 90
        3
176
     1
 62
     5
420
      255
176
     1
290
     0
176
     1
 90
       50
176
     1
 90
       50
176
     1
 90
       50
176
     1
290
     0
176
     1
 90
       50
176
     1
 62
   256
176
     0
 40
1.0
176
     0
 90
        2
176
     1
  1
strokes_ogs.tif
176
     1
290
     0
176
     1
 40
1.0
176
     1
 40
1.0
176
     1
  0
VISUALSTYLE
  5
30
102
{ACAD_REACTORS
330
2A
102
}
330
2A
100
AcDbVisualStyle
  2
Wireframe
 70
     5
177
     3
291
     0
 70
    58
 90
        0
176
     1
 90
        2
176
     1
 90
        0
176
     1
 90
        0
176
     1
 40
0.6
176
     1
 40
30.0
176
     1
 62
     7
420
 16777215
176
     1
 90
        1
176
     1
 90
        4
176
     1
 62
     7
176
     1
 62
   257
176
     1
 90
        1
176
     1
 90
        1
176
     1
 40
1.0
176
     1
 90
        0
176
     1
 62
   257
176
     1
 40
1.0
176
     1
 90
        1
176
     1
 90
        6
176
     1
 90
        2
176
     1
 62
     7
176
     1
 90
        3
176
     1
 90
        0
176
     1
 90
        0
176
     1
290
     0
176
     1
 90
        1
176
     1
 40
0.0
176
     1
 90
        0
176
     1
290
     0
176
     1
290
     1
176
     1
290
     1
176
     1
290
     0
176
     1
290
     0
176
     1
290
     0
176
     1
290
     0
176
     1
290
     0
176
     1
290
     0
176
     1
 90
       50
176
     1
 40
0.0
176
     1
 40
1.0
176
     1
 90
        0
176
     1
 62
    18
420
        0
176
     1
 90
       50
176
     1
 90
        3
176
     1
 62
     5
420
      255
176
     1
290
     0
176
     1
 90
       50
176
     1
 90
       50
176
     1
 90
       50
176
     1
290
     0
176
     1
 90
       50
176
     1
 62
   256
176
     0
 40
1.0
176
     0
 90
        2
176
     1
  1
strokes_ogs.tif
176
     1
290
     0
176
     1
 40
1.0
176
     1
 40
1.0
176
     1
  0
VISUALSTYLE
  5
40
102
{ACAD_REACTORS
330
2A
102
}
330
2A
100
AcDbVisualStyle
  2
X-Ray
 70
    25
177
     3
291
     0
 70
    58
 90
        2
176
     1
 90
        2
176
     1
 90
        1
176
     1
 90
        1
176
     1
 40
0.5
176
     1
 40
30.0
176
     1
 62
     7
420
 16777215
176
     1
 90
        1
176
     1
 90
        0
176
     1
 62
     7
176
     1
 62
   257
176
     1
 90
        1
176
     1
 90
        1
176
     1
 40
1.0
176
     1
 90
        8
176
     1
 62
     7
176
     1
 40
1.0
176
     1
 90
        1
176
     1
 90
        6
176
     1
 90
        2
176
     1
 62
     7
176
     1
 90
        3
176
     1
 90
        0
176
     1
 90
        0
176
     1
290
     0
176
     1
 90
       13
176
     1
 40
0.0
176
     1
 90
        0
176
     1
290
     0
176
     1
290
     1
176
     1
290
     1
176
     1
290
     0
176
     1
290
     0
176
     1
290
     0
176
     1
290
     0
176
     1
290
     0
176
     1
290
     0
176
     1
 90
       50
176
     1
 40
0.0
176
     1
 40
1.0
176
     1
 90
        0
176
     1
 62
    18
420
        0
176
     1
 90
       50
176
     1
 90
        3
176
     1
 62
     5
420
      255
176
     1
290
     0
176
     1
 90
       50
176
     1
 90
       50
176
     1
 90
       50
176
     1
290
     0
176
     1
 90
       50
176
     1
 62
   256
176
     0
 40
1.0
176
     0
 90
        2
176
     1
  1
strokes_ogs.tif
176
     1
290
     0
176
     1
 40
1.0
176
     1
 40
1.0
176
     1
  0
DICTIONARYVAR
  5
1DA
102
{ACAD_REACTORS
330
1D9
102
}
330
1D9
100
DictionaryVariables
280
     0
  1
1:1
  0
DICTIONARYVAR
  5
1DF
102
{ACAD_REACTORS
330
1D9
102
}
330
1D9
100
DictionaryVariables
280
     0
  1
Standard
  0
DICTIONARYVAR
  5
1DE
102
{ACAD_REACTORS
330
1D9
102
}
330
1D9
100
DictionaryVariables
280
     0
  1
Standard
  0
DICTIONARY
  5
1DB
330
6A
100
AcDbDictionary
280
     1
281
     1
  3
ACAD_ROUNDTRIP_2008_TABLESTYLE_CELLSTYLEMAP
360
1DC
  0
CELLSTYLEMAP
  5
1DC
102
{ACAD_REACTORS
330
1DB
102
}
330
1DB
100
AcDbCellStyleMap
 90
        3
300
CELLSTYLE
  1
TABLEFORMAT_BEGIN
 90
        5
170
     1
 91
        0
 92
    32768
 62
   257
 93
        1
300
CONTENTFORMAT
  1
CONTENTFORMAT_BEGIN
 90
        0
 91
        0
 92
        4
 93
        0
300

 40
0.0
140
1.0
 94
        5
 62
     0
340
11
144
6.0
309
CONTENTFORMAT_END
171
     1
301
MARGIN
  1
CELLMARGIN_BEGIN
 40
1.5
 40
1.5
 40
1.5
 40
1.5
 40
1.5
 40
1.5
309
CELLMARGIN_END
 94
        6
 95
        1
302
GRIDFORMAT
  1
GRIDFORMAT_BEGIN
 90
        0
 91
        1
 62
     0
 92
       -2
340
14
 93
        0
 40
0.045
309
GRIDFORMAT_END
 95
        2
302
GRIDFORMAT
  1
GRIDFORMAT_BEGIN
 90
        0
 91
        1
 62
     0
 92
       -2
340
14
 93
        0
 40
0.045
309
GRIDFORMAT_END
 95
        4
302
GRIDFORMAT
  1
GRIDFORMAT_BEGIN
 90
        0
 91
        1
 62
     0
 92
       -2
340
14
 93
        0
 40
0.045
309
GRIDFORMAT_END
 95
        8
302
GRIDFORMAT
  1
GRIDFORMAT_BEGIN
 90
        0
 91
        1
 62
     0
 92
       -2
340
14
 93
        0
 40
0.045
309
GRIDFORMAT_END
 95
       16
302
GRIDFORMAT
  1
GRIDFORMAT_BEGIN
 90
        0
 91
        1
 62
     0
 92
       -2
340
14
 93
        0
 40
0.045
309
GRIDFORMAT_END
 95
       32
302
GRIDFORMAT
  1
GRIDFORMAT_BEGIN
 90
        0
 91
        1
 62
     0
 92
       -2
340
14
 93
        0
 40
0.045
309
GRIDFORMAT_END
309
TABLEFORMAT_END
  1
CELLSTYLE_BEGIN
 90
        1
 91
        1
300
_TITLE
309
CELLSTYLE_END
300
CELLSTYLE
  1
TABLEFORMAT_BEGIN
 90
        5
170
     1
 91
        0
 92
        0
 62
   257
 93
        1
300
CONTENTFORMAT
  1
CONTENTFORMAT_BEGIN
 90
        0
 91
        0
 92
        4
 93
        0
300

 40
0.0
140
1.0
 94
        5
 62
     0
340
11
144
4.5
309
CONTENTFORMAT_END
171
     1
301
MARGIN
  1
CELLMARGIN_BEGIN
 40
1.5
 40
1.5
 40
1.5
 40
1.5
 40
1.5
 40
1.5
309
CELLMARGIN_END
 94
        6
 95
        1
302
GRIDFORMAT
  1
GRIDFORMAT_BEGIN
 90
        0
 91
        1
 62
     0
 92
       -2
340
14
 93
        0
 40
0.045
309
GRIDFORMAT_END
 95
        2
302
GRIDFORMAT
  1
GRIDFORMAT_BEGIN
 90
        0
 91
        1
 62
     0
 92
       -2
340
14
 93
        0
 40
0.045
309
GRIDFORMAT_END
 95
        4
302
GRIDFORMAT
  1
GRIDFORMAT_BEGIN
 90
        0
 91
        1
 62
     0
 92
       -2
340
14
 93
        0
 40
0.045
309
GRIDFORMAT_END
 95
        8
302
GRIDFORMAT
  1
GRIDFORMAT_BEGIN
 90
        0
 91
        1
 62
     0
 92
       -2
340
14
 93
        0
 40
0.045
309
GRIDFORMAT_END
 95
       16
302
GRIDFORMAT
  1
GRIDFORMAT_BEGIN
 90
        0
 91
        1
 62
     0
 92
       -2
340
14
 93
        0
 40
0.045
309
GRIDFORMAT_END
 95
       32
302
GRIDFORMAT
  1
GRIDFORMAT_BEGIN
 90
        0
 91
        1
 62
     0
 92
       -2
340
14
 93
        0
 40
0.045
309
GRIDFORMAT_END
309
TABLEFORMAT_END
  1
CELLSTYLE_BEGIN
 90
        2
 91
        1
300
_HEADER
309
CELLSTYLE_END
300
CELLSTYLE
  1
TABLEFORMAT_BEGIN
 90
        5
170
     1
 91
        0
 92
        0
 62
   257
 93
        1
300
CONTENTFORMAT
  1
CONTENTFORMAT_BEGIN
 90
        0
 91
        0
 92
        4
 93
        0
300

 40
0.0
140
1.0
 94
        2
 62
     0
340
11
144
4.5
309
CONTENTFORMAT_END
171
     1
301
MARGIN
  1
CELLMARGIN_BEGIN
 40
1.5
 40
1.5
 40
1.5
 40
1.5
 40
1.5
 40
1.5
309
CELLMARGIN_END
 94
        6
 95
        1
302
GRIDFORMAT
  1
GRIDFORMAT_BEGIN
 90
        0
 91
        1
 62
     0
 92
       -2
340
14
 93
        0
 40
0.045
309
GRIDFORMAT_END
 95
        2
302
GRIDFORMAT
  1
GRIDFORMAT_BEGIN
 90
        0
 91
        1
 62
     0
 92
       -2
340
14
 93
        0
 40
0.045
309
GRIDFORMAT_END
 95
        4
302
GRIDFORMAT
  1
GRIDFORMAT_BEGIN
 90
        0
 91
        1
 62
     0
 92
       -2
340
14
 93
        0
 40
0.045
309
GRIDFORMAT_END
 95
        8
302
GRIDFORMAT
  1
GRIDFORMAT_BEGIN
 90
        0
 91
        1
 62
     0
 92
       -2
340
14
 93
        0
 40
0.045
309
GRIDFORMAT_END
 95
       16
302
GRIDFORMAT
  1
GRIDFORMAT_BEGIN
 90
        0
 91
        1
 62
     0
 92
       -2
340
14
 93
        0
 40
0.045
309
GRIDFORMAT_END
 95
       32
302
GRIDFORMAT
  1
GRIDFORMAT_BEGIN
 90
        0
 91
        1
 62
     0
 92
       -2
340
14
 93
        0
 40
0.045
309
GRIDFORMAT_END
309
TABLEFORMAT_END
  1
CELLSTYLE_BEGIN
 90
        3
 91
        2
300
_DATA
309
CELLSTYLE_END
  0
ENDSEC
  0
EOF