0
SECTION
  2
HEADER
  9
$ACADVER
  1
AC1027
  9
$ACADMAINTVER
 70
     8
  9
$DWGCODEPAGE
  3
ANSI_1252
  9
$REQUIREDVERSIONS
160
                 0
  9
$COMMENTS
  1
File was created by Cadenas
  9
$CUSTOMPROPERTYTAG
  1
NN
  9
$CUSTOMPROPERTY
  1
Eccentric Collar Intermediate Duty Tapped Base Metric Bore
  9
$CUSTOMPROPERTYTAG
  1
NT
  9
$CUSTOMPROPERTY
  1
Eccentric Collar Pillow Block Bearings -(Intermediate Duty) -Tapped Base Housing
  9
$CUSTOMPROPERTYTAG
  1
NB
  9
$CUSTOMPROPERTY
  1
130769
  9
$CUSTOMPROPERTYTAG
  1
NBSYN
  9
$CUSTOMPROPERTY
  1
$PN.
  9
$CUSTOMPROPERTYTAG
  1
LINA
  9
$CUSTOMPROPERTY
  1
130769
  9
$CUSTOMPROPERTYTAG
  1
SERIES
  9
$CUSTOMPROPERTY
  1
204
  9
$CUSTOMPROPERTYTAG
  1
SS
  9
$CUSTOMPROPERTY
  1
20
  9
$CUSTOMPROPERTYTAG
  1
PN
  9
$CUSTOMPROPERTY
  1
130769
  9
$CUSTOMPROPERTYTAG
  1
DESCRIPTION
  9
$CUSTOMPROPERTY
  1
TB-SXV-20M
  9
$CUSTOMPROPERTYTAG
  1
W
  9
$CUSTOMPROPERTY
  1
0.6
  9
$CUSTOMPROPERTYTAG
  1
A
  9
$CUSTOMPROPERTY
  1
31.0
  9
$CUSTOMPROPERTYTAG
  1
B
  9
$CUSTOMPROPERTY
  1
73.2
  9
$CUSTOMPROPERTYTAG
  1
C
  9
$CUSTOMPROPERTY
  1
38.1
  9
$CUSTOMPROPERTYTAG
  1
D
  9
$CUSTOMPROPERTY
  1
50.8
  9
$CUSTOMPROPERTYTAG
  1
J
  9
$CUSTOMPROPERTY
  1
65.0
  9
$CUSTOMPROPERTYTAG
  1
L
  9
$CUSTOMPROPERTY
  1
33.3
  9
$CUSTOMPROPERTYTAG
  1
M
  9
$CUSTOMPROPERTY
  1
33.4
  9
$CUSTOMPROPERTYTAG
  1
N
  9
$CUSTOMPROPERTY
  1
12.7
  9
$CUSTOMPROPERTYTAG
  1
R
  9
$CUSTOMPROPERTY
  1
M8x1.25
  9
$CUSTOMPROPERTYTAG
  1
S
  9
$CUSTOMPROPERTY
  1
23.4
  9
$CUSTOMPROPERTYTAG
  1
COMPANY
  9
$CUSTOMPROPERTY
  1
baldor
  9
$INSBASE
 10
0.0
 20
0.0
 30
0.0
  9
$EXTMIN
 10
1.000000000000000E+20
 20
1.000000000000000E+20
 30
1.000000000000000E+20
  9
$EXTMAX
 10
-1.000000000000000E+20
 20
-1.000000000000000E+20
 30
-1.000000000000000E+20
  9
$LIMMIN
 10
0.0
 20
0.0
  9
$LIMMAX
 10
420.0
 20
297.0
  9
$ORTHOMODE
 70
     0
  9
$REGENMODE
 70
     1
  9
$FILLMODE
 70
     1
  9
$QTEXTMODE
 70
     0
  9
$MIRRTEXT
 70
     1
  9
$LTSCALE
 40
1.0
  9
$ATTMODE
 70
     1
  9
$TEXTSIZE
 40
2.5
  9
$TRACEWID
 40
1.0
  9
$TEXTSTYLE
  7
Standard
  9
$CLAYER
  8
0
  9
$CELTYPE
  6
ByLayer
  9
$CECOLOR
 62
   256
  9
$CELTSCALE
 40
1.0
  9
$DISPSILH
 70
     0
  9
$DIMSCALE
 40
1.0
  9
$DIMASZ
 40
2.5
  9
$DIMEXO
 40
0.625
  9
$DIMDLI
 40
3.75
  9
$DIMRND
 40
0.0
  9
$DIMDLE
 40
0.0
  9
$DIMEXE
 40
1.25
  9
$DIMTP
 40
0.0
  9
$DIMTM
 40
0.0
  9
$DIMTXT
 40
2.5
  9
$DIMCEN
 40
2.5
  9
$DIMTSZ
 40
0.0
  9
$DIMTOL
 70
     0
  9
$DIMLIM
 70
     0
  9
$DIMTIH
 70
     0
  9
$DIMTOH
 70
     0
  9
$DIMSE1
 70
     0
  9
$DIMSE2
 70
     0
  9
$DIMTAD
 70
     1
  9
$DIMZIN
 70
     8
  9
$DIMBLK
  1

  9
$DIMASO
 70
     1
  9
$DIMSHO
 70
     1
  9
$DIMPOST
  1

  9
$DIMAPOST
  1

  9
$DIMALT
 70
     0
  9
$DIMALTD
 70
     3
  9
$DIMALTF
 40
0.03937007874016
  9
$DIMLFAC
 40
1.0
  9
$DIMTOFL
 70
     1
  9
$DIMTVP
 40
0.0
  9
$DIMTIX
 70
     0
  9
$DIMSOXD
 70
     0
  9
$DIMSAH
 70
     0
  9
$DIMBLK1
  1

  9
$DIMBLK2
  1

  9
$DIMSTYLE
  2
ISO-25
  9
$DIMCLRD
 70
     0
  9
$DIMCLRE
 70
     0
  9
$DIMCLRT
 70
     0
  9
$DIMTFAC
 40
1.0
  9
$DIMGAP
 40
0.625
  9
$DIMJUST
 70
     0
  9
$DIMSD1
 70
     0
  9
$DIMSD2
 70
     0
  9
$DIMTOLJ
 70
     0
  9
$DIMTZIN
 70
     8
  9
$DIMALTZ
 70
     0
  9
$DIMALTTZ
 70
     0
  9
$DIMUPT
 70
     0
  9
$DIMDEC
 70
     2
  9
$DIMTDEC
 70
     2
  9
$DIMALTU
 70
     2
  9
$DIMALTTD
 70
     3
  9
$DIMTXSTY
  7
Standard
  9
$DIMAUNIT
 70
     0
  9
$DIMADEC
 70
     0
  9
$DIMALTRND
 40
0.0
  9
$DIMAZIN
 70
     0
  9
$DIMDSEP
 70
    44
  9
$DIMATFIT
 70
     3
  9
$DIMFRAC
 70
     0
  9
$DIMLDRBLK
  1

  9
$DIMLUNIT
 70
     2
  9
$DIMLWD
 70
    -2
  9
$DIMLWE
 70
    -2
  9
$DIMTMOVE
 70
     0
  9
$DIMFXL
 40
1.0
  9
$DIMFXLON
 70
     0
  9
$DIMJOGANG
 40
0.7853981633974483
  9
$DIMTFILL
 70
     0
  9
$DIMTFILLCLR
 70
     0
  9
$DIMARCSYM
 70
     0
  9
$DIMLTYPE
  6

  9
$DIMLTEX1
  6

  9
$DIMLTEX2
  6

  9
$DIMTXTDIRECTION
 70
     0
  9
$LUNITS
 70
     2
  9
$LUPREC
 70
     4
  9
$SKETCHINC
 40
1.0
  9
$FILLETRAD
 40
10.0
  9
$AUNITS
 70
     0
  9
$AUPREC
 70
     0
  9
$MENU
  1
.
  9
$ELEVATION
 40
0.0
  9
$PELEVATION
 40
0.0
  9
$THICKNESS
 40
0.0
  9
$LIMCHECK
 70
     0
  9
$CHAMFERA
 40
0.0
  9
$CHAMFERB
 40
0.0
  9
$CHAMFERC
 40
0.0
  9
$CHAMFERD
 40
0.0
  9
$SKPOLY
 70
     0
  9
$TDCREATE
 40
2458168.986492581
  9
$TDUCREATE
 40
2458168.944825914
  9
$TDUPDATE
 40
2458168.986492766
  9
$TDUUPDATE
 40
2458168.9448261
  9
$TDINDWG
 40
0.0000000116
  9
$TDUSRTIMER
 40
0.0000000116
  9
$USRTIMER
 70
     1
  9
$ANGBASE
 50
0.0
  9
$ANGDIR
 70
     0
  9
$PDMODE
 70
     0
  9
$PDSIZE
 40
0.0
  9
$PLINEWID
 40
0.0
  9
$SPLFRAME
 70
     0
  9
$SPLINETYPE
 70
     6
  9
$SPLINESEGS
 70
     8
  9
$HANDSEED
  5
1A0
  9
$SURFTAB1
 70
     6
  9
$SURFTAB2
 70
     6
  9
$SURFTYPE
 70
     6
  9
$SURFU
 70
     6
  9
$SURFV
 70
     6
  9
$UCSBASE
  2

  9
$UCSNAME
  2

  9
$UCSORG
 10
0.0
 20
0.0
 30
0.0
  9
$UCSXDIR
 10
1.0
 20
0.0
 30
0.0
  9
$UCSYDIR
 10
0.0
 20
1.0
 30
0.0
  9
$UCSORTHOREF
  2

  9
$UCSORTHOVIEW
 70
     0
  9
$UCSORGTOP
 10
0.0
 20
0.0
 30
0.0
  9
$UCSORGBOTTOM
 10
0.0
 20
0.0
 30
0.0
  9
$UCSORGLEFT
 10
0.0
 20
0.0
 30
0.0
  9
$UCSORGRIGHT
 10
0.0
 20
0.0
 30
0.0
  9
$UCSORGFRONT
 10
0.0
 20
0.0
 30
0.0
  9
$UCSORGBACK
 10
0.0
 20
0.0
 30
0.0
  9
$PUCSBASE
  2

  9
$PUCSNAME
  2

  9
$PUCSORG
 10
0.0
 20
0.0
 30
0.0
  9
$PUCSXDIR
 10
1.0
 20
0.0
 30
0.0
  9
$PUCSYDIR
 10
0.0
 20
1.0
 30
0.0
  9
$PUCSORTHOREF
  2

  9
$PUCSORTHOVIEW
 70
     0
  9
$PUCSORGTOP
 10
0.0
 20
0.0
 30
0.0
  9
$PUCSORGBOTTOM
 10
0.0
 20
0.0
 30
0.0
  9
$PUCSORGLEFT
 10
0.0
 20
0.0
 30
0.0
  9
$PUCSORGRIGHT
 10
0.0
 20
0.0
 30
0.0
  9
$PUCSORGFRONT
 10
0.0
 20
0.0
 30
0.0
  9
$PUCSORGBACK
 10
0.0
 20
0.0
 30
0.0
  9
$USERI1
 70
     0
  9
$USERI2
 70
     0
  9
$USERI3
 70
     0
  9
$USERI4
 70
     0
  9
$USERI5
 70
     0
  9
$USERR1
 40
0.0
  9
$USERR2
 40
0.0
  9
$USERR3
 40
0.0
  9
$USERR4
 40
0.0
  9
$USERR5
 40
0.0
  9
$WORLDVIEW
 70
     1
  9
$SHADEDGE
 70
     3
  9
$SHADEDIF
 70
    70
  9
$TILEMODE
 70
     1
  9
$MAXACTVP
 70
    64
  9
$PINSBASE
 10
0.0
 20
0.0
 30
0.0
  9
$PLIMCHECK
 70
     0
  9
$PEXTMIN
 10
1.000000000000000E+20
 20
1.000000000000000E+20
 30
1.000000000000000E+20
  9
$PEXTMAX
 10
-1.000000000000000E+20
 20
-1.000000000000000E+20
 30
-1.000000000000000E+20
  9
$PLIMMIN
 10
0.0
 20
0.0
  9
$PLIMMAX
 10
420.0
 20
297.0
  9
$UNITMODE
 70
     0
  9
$VISRETAIN
 70
     1
  9
$PLINEGEN
 70
     0
  9
$PSLTSCALE
 70
     1
  9
$TREEDEPTH
 70
  3020
  9
$CMLSTYLE
  2
Standard
  9
$CMLJUST
 70
     0
  9
$CMLSCALE
 40
20.0
  9
$PROXYGRAPHICS
 70
     1
  9
$MEASUREMENT
 70
     1
  9
$CELWEIGHT
370
    -1
  9
$ENDCAPS
280
     0
  9
$JOINSTYLE
280
     0
  9
$LWDISPLAY
290
     0
  9
$INSUNITS
 70
     4
  9
$HYPERLINKBASE
  1

  9
$STYLESHEET
  1

  9
$XEDIT
290
     1
  9
$CEPSNTYPE
380
     0
  9
$PSTYLEMODE
290
     1
  9
$FINGERPRINTGUID
  2
{EFB5DEEE-743B-432E-8050-A816457B961E}
  9
$VERSIONGUID
  2
{FAEB1C32-E019-11D5-929B-00C0DF256EC4}
  9
$EXTNAMES
290
     1
  9
$PSVPSCALE
 40
0.0
  9
$OLESTARTUP
290
     0
  9
$SORTENTS
280
   127
  9
$INDEXCTL
280
     0
  9
$HIDETEXT
280
     1
  9
$XCLIPFRAME
280
     2
  9
$HALOGAP
280
     0
  9
$OBSCOLOR
 70
   257
  9
$OBSLTYPE
280
     0
  9
$INTERSECTIONDISPLAY
280
     0
  9
$INTERSECTIONCOLOR
 70
   257
  9
$DIMASSOC
280
     2
  9
$PROJECTNAME
  1

  9
$CAMERADISPLAY
290
     0
  9
$LENSLENGTH
 40
50.0
  9
$CAMERAHEIGHT
 40
0.0
  9
$STEPSPERSEC
 40
2.0
  9
$STEPSIZE
 40
6.0
  9
$3DDWFPREC
 40
2.0
  9
$PSOLWIDTH
 40
5.0
  9
$PSOLHEIGHT
 40
80.0
  9
$LOFTANG1
 40
1.570796326794897
  9
$LOFTANG2
 40
1.570796326794897
  9
$LOFTMAG1
 40
0.0
  9
$LOFTMAG2
 40
0.0
  9
$LOFTPARAM
 70
     7
  9
$LOFTNORMALS
280
     1
  9
$LATITUDE
 40
37.795
  9
$LONGITUDE
 40
-122.394
  9
$NORTHDIRECTION
 40
0.0
  9
$TIMEZONE
 70
 -8000
  9
$LIGHTGLYPHDISPLAY
280
     1
  9
$TILEMODELIGHTSYNCH
280
     1
  9
$CMATERIAL
347
44
  9
$SOLIDHIST
280
     0
  9
$SHOWHIST
280
     1
  9
$DWFFRAME
280
     2
  9
$DGNFRAME
280
     2
  9
$REALWORLDSCALE
290
     1
  9
$INTERFERECOLOR
 62
   256
  9
$CSHADOW
280
     0
  9
$SHADOWPLANELOCATION
 40
0.0
  0
ENDSEC
  0
SECTION
  2
CLASSES
  0
CLASS
  1
ACDBDICTIONARYWDFLT
  2
AcDbDictionaryWithDefault
  3
ObjectDBX Classes
 90
        0
 91
        4
280
     0
281
     0
  0
CLASS
  1
VISUALSTYLE
  2
AcDbVisualStyle
  3
ObjectDBX Classes
 90
     4095
 91
        4
280
     0
281
     0
  0
CLASS
  1
MATERIAL
  2
AcDbMaterial
  3
ObjectDBX Classes
 90
     1153
 91
        4
280
     0
281
     0
  0
CLASS
  1
SCALE
  2
AcDbScale
  3
ObjectDBX Classes
 90
     1153
 91
        4
280
     0
281
     0
  0
CLASS
  1
TABLESTYLE
  2
AcDbTableStyle
  3
ObjectDBX Classes
 90
     4095
 91
        4
280
     0
281
     0
  0
CLASS
  1
MLEADERSTYLE
  2
AcDbMLeaderStyle
  3
ACDB_MLEADERSTYLE_CLASS
 90
     4095
 91
        4
280
     0
281
     0
  0
CLASS
  1
SUN
  2
AcDbSun
  3
SCENEOE
 90
     1153
 91
        4
280
     0
281
     0
  0
CLASS
  1
DICTIONARYVAR
  2
AcDbDictionaryVar
  3
ObjectDBX Classes
 90
        0
 91
        4
280
     0
281
     0
  0
CLASS
  1
CELLSTYLEMAP
  2
AcDbCellStyleMap
  3
ObjectDBX Classes
 90
     1152
 91
        4
280
     0
281
     0
  0
ENDSEC
  0
SECTION
  2
TABLES
  0
TABLE
  2
VPORT
  5
8
330
0
100
AcDbSymbolTable
 70
     1
  0
VPORT
  5
29
330
8
100
AcDbSymbolTableRecord
100
AcDbViewportTableRecord
  2
*Active
 70
     0
 10
0.0
 20
0.0
 11
1.0
 21
1.0
 12
0.0
 22
-1.997500000000002
 13
0.0
 23
0.0
 14
10.0
 24
10.0
 15
10.0
 25
10.0
 16
0.0
 26
0.0
 36
1.0
 17
0.0
 27
0.0
 37
0.0
 40
46.82309999999998
 41
1.594597538394512
 42
50.0
 43
0.0
 44
0.0
 50
0.0
 51
0.0
 71
     0
 72
   100
 73
     1
 74
     3
 75
     0
 76
     0
 77
     0
 78
     0
281
     0
 65
     1
110
0.0
120
0.0
130
0.0
111
1.0
121
0.0
131
0.0
112
0.0
122
1.0
132
0.0
 79
     0
146
0.0
348
2F
 60
     3
 61
     5
292
     1
282
     1
141
0.0
142
0.0
 63
   250
361
6D
  0
ENDTAB
  0
TABLE
  2
LTYPE
  5
5
330
0
100
AcDbSymbolTable
 70
     3
  0
LTYPE
  5
14
330
5
100
AcDbSymbolTableRecord
100
AcDbLinetypeTableRecord
  2
ByBlock
 70
     0
  3

 72
    65
 73
     0
 40
0.0
  0
LTYPE
  5
15
330
5
100
AcDbSymbolTableRecord
100
AcDbLinetypeTableRecord
  2
ByLayer
 70
     0
  3

 72
    65
 73
     0
 40
0.0
  0
LTYPE
  5
16
330
5
100
AcDbSymbolTableRecord
100
AcDbLinetypeTableRecord
  2
Continuous
 70
     0
  3
Solid line
 72
    65
 73
     0
 40
0.0
  0
LTYPE
  5
94
330
5
100
AcDbSymbolTableRecord
100
AcDbLinetypeTableRecord
  2
Dashed
 70
     0
  3

 72
    65
 73
     2
 40
2.0
 49
1.0
 74
     0
 49
-1.0
 74
     0
  0
LTYPE
  5
113
330
5
100
AcDbSymbolTableRecord
100
AcDbLinetypeTableRecord
  2
Center
 70
     0
  3

 72
    65
 73
     4
 40
1.5
 49
0.45
 74
     0
 49
-0.5
 74
     0
 49
0.05
 74
     0
 49
-0.5
 74
     0
  0
ENDTAB
  0
TABLE
  2
LAYER
  5
2
330
0
100
AcDbSymbolTable
 70
     7
  0
LAYER
  5
10
330
2
100
AcDbSymbolTableRecord
100
AcDbLayerTableRecord
  2
0
 70
     0
 62
     7
  6
Continuous
370
    -3
390
F
347
46
348
0
  0
LAYER
  5
72
330
2
100
AcDbSymbolTableRecord
100
AcDbLayerTableRecord
  2
AM_6
 70
     0
 62
    -2
  6
Continuous
370
    35
390
F
347
46
348
0
  0
LAYER
  5
95
330
2
100
AcDbSymbolTableRecord
100
AcDbLayerTableRecord
  2
AM_9
 70
     0
 62
     6
  6
Dashed
370
    25
390
F
347
46
348
0
  0
LAYER
  5
B2
330
2
100
AcDbSymbolTableRecord
100
AcDbLayerTableRecord
  2
AM_4
 70
     0
 62
     7
  6
Continuous
370
    50
390
F
347
46
348
0
  0
LAYER
  5
114
330
2
100
AcDbSymbolTableRecord
100
AcDbLayerTableRecord
  2
AM_7
 70
     0
 62
     7
  6
Center
370
    25
390
F
347
46
348
0
  0
LAYER
  5
128
330
2
100
AcDbSymbolTableRecord
100
AcDbLayerTableRecord
  2
AM_5
 70
     0
 62
     3
  6
Continuous
370
    25
390
F
347
46
348
0
  0
LAYER
  5
193
330
2
100
AcDbSymbolTableRecord
100
AcDbLayerTableRecord
  2
ConnectionPoints
 70
     0
 62
     7
  6
Continuous
370
    50
390
F
347
46
348
0
  0
ENDTAB
  0
TABLE
  2
STYLE
  5
3
330
0
100
AcDbSymbolTable
 70
     1
  0
STYLE
  5
11
330
3
100
AcDbSymbolTableRecord
100
AcDbTextStyleTableRecord
  2
Standard
 70
     0
 40
0.0
 41
1.0
 50
0.0
 71
     0
 42
2.5
  3
txt
  4

  0
ENDTAB
  0
TABLE
  2
VIEW
  5
6
330
0
100
AcDbSymbolTable
 70
     0
  0
ENDTAB
  0
TABLE
  2
UCS
  5
7
330
0
100
AcDbSymbolTable
 70
     0
  0
ENDTAB
  0
TABLE
  2
APPID
  5
9
330
0
100
AcDbSymbolTable
 70
     1
  0
APPID
  5
12
330
9
100
AcDbSymbolTableRecord
100
AcDbRegAppTableRecord
  2
ACAD
 70
     0
  0
ENDTAB
  0
TABLE
  2
DIMSTYLE
  5
A
330
0
100
AcDbSymbolTable
 70
     1
100
AcDbDimStyleTable
  0
DIMSTYLE
105
27
330
A
100
AcDbSymbolTableRecord
100
AcDbDimStyleTableRecord
  2
ISO-25
 70
     0
 41
2.5
 42
0.625
 43
3.75
 44
1.25
 73
     0
 74
     0
 77
     1
 78
     8
140
2.5
141
2.5
143
0.03937007874016
147
0.625
171
     3
172
     1
178
     0
271
     2
272
     2
274
     3
278
    44
283
     0
284
     8
340
11
  0
ENDTAB
  0
TABLE
  2
BLOCK_RECORD
  5
1
330
0
100
AcDbSymbolTable
 70
     5
  0
BLOCK_RECORD
  5
1F
330
1
100
AcDbSymbolTableRecord
100
AcDbBlockTableRecord
  2
*Model_Space
340
22
 70
     0
280
     1
281
     0
  0
BLOCK_RECORD
  5
1B
330
1
100
AcDbSymbolTableRecord
100
AcDbBlockTableRecord
  2
*Paper_Space
340
1E
 70
     0
280
     1
281
     0
  0
BLOCK_RECORD
  5
23
330
1
100
AcDbSymbolTableRecord
100
AcDbBlockTableRecord
  2
*Paper_Space0
340
26
 70
     0
280
     1
281
     0
  0
BLOCK_RECORD
  5
6E
330
1
100
AcDbSymbolTableRecord
100
AcDbBlockTableRecord
  2
1_130769_4
340
0
102
{BLKREFS
331
6F
102
}
 70
     0
280
     1
281
     0
  0
BLOCK_RECORD
  5
88
330
1
100
AcDbSymbolTableRecord
100
AcDbBlockTableRecord
  2
2_405015E_Metric_0_in_130769_4
340
0
102
{BLKREFS
331
89
102
}
 70
     0
280
     1
281
     0
  0
BLOCK_RECORD
  5
D0
330
1
100
AcDbSymbolTableRecord
100
AcDbBlockTableRecord
  2
3_125645_0_in_130769_4
340
0
102
{BLKREFS
331
D1
102
}
 70
     0
280
     1
281
     0
  0
BLOCK_RECORD
  5
12A
330
1
100
AcDbSymbolTableRecord
100
AcDbBlockTableRecord
  2
4_130769H_0_in_130769_4
340
0
102
{BLKREFS
331
12B
102
}
 70
     0
280
     1
281
     0
  0
ENDTAB
  0
ENDSEC
  0
SECTION
  2
BLOCKS
  0
BLOCK
  5
20
330
1F
100
AcDbEntity
  8
0
100
AcDbBlockBegin
  2
*Model_Space
 70
     0
 10
0.0
 20
0.0
 30
0.0
  3
*Model_Space
  1

  0
ENDBLK
  5
21
330
1F
100
AcDbEntity
  8
0
100
AcDbBlockEnd
  0
BLOCK
  5
1C
330
1B
100
AcDbEntity
 67
     1
  8
0
100
AcDbBlockBegin
  2
*Paper_Space
 70
     0
 10
0.0
 20
0.0
 30
0.0
  3
*Paper_Space
  1

  0
ENDBLK
  5
1D
330
1B
100
AcDbEntity
 67
     1
  8
0
100
AcDbBlockEnd
  0
BLOCK
  5
24
330
23
100
AcDbEntity
  8
0
100
AcDbBlockBegin
  2
*Paper_Space0
 70
     0
 10
0.0
 20
0.0
 30
0.0
  3
*Paper_Space0
  1

  0
ENDBLK
  5
25
330
23
100
AcDbEntity
  8
0
100
AcDbBlockEnd
  0
BLOCK
  5
70
330
6E
100
AcDbEntity
  8
0
100
AcDbBlockBegin
  2
1_130769_4
 70
     2
 10
0.0
 20
0.0
 30
0.0
  3
1_130769_4
  1

  0
ATTDEF
  5
73
330
6E
100
AcDbEntity
  8
AM_6
100
AcDbText
 10
41.60000000000002
 20
20.955
 30
0.0
 40
0.5
  1
Eccentric Collar Intermediate Duty Tapped Base Metric Bore
100
AcDbAttributeDefinition
  3

  2
NN
 70
     8
280
     0
  0
ATTDEF
  5
74
330
6E
100
AcDbEntity
  8
AM_6
100
AcDbText
 10
41.60000000000002
 20
20.455
 30
0.0
 40
0.5
  1
Eccentric Collar Pillow Block Bearings -(Intermediate Duty) -Tapped Base Housing
100
AcDbAttributeDefinition
  3

  2
NT
 70
     8
280
     0
  0
ATTDEF
  5
75
330
6E
100
AcDbEntity
  8
AM_6
100
AcDbText
 10
41.60000000000002
 20
19.955
 30
0.0
 40
0.5
  1
130769
100
AcDbAttributeDefinition
  3

  2
NB
 70
     8
280
     0
  0
ATTDEF
  5
76
330
6E
100
AcDbEntity
  8
AM_6
100
AcDbText
 10
41.60000000000002
 20
19.455
 30
0.0
 40
0.5
  1
$PN.
100
AcDbAttributeDefinition
  3

  2
NBSYN
 70
     8
280
     0
  0
ATTDEF
  5
77
330
6E
100
AcDbEntity
  8
AM_6
100
AcDbText
 10
41.60000000000002
 20
18.955
 30
0.0
 40
0.5
  1
130769
100
AcDbAttributeDefinition
  3

  2
LINA
 70
     8
280
     0
  0
ATTDEF
  5
78
330
6E
100
AcDbEntity
  8
AM_6
100
AcDbText
 10
41.60000000000002
 20
18.455
 30
0.0
 40
0.5
  1
204
100
AcDbAttributeDefinition
  3

  2
SERIES
 70
     8
280
     0
  0
ATTDEF
  5
79
330
6E
100
AcDbEntity
  8
AM_6
100
AcDbText
 10
41.60000000000002
 20
17.955
 30
0.0
 40
0.5
  1
20
100
AcDbAttributeDefinition
  3

  2
SS
 70
     8
280
     0
  0
ATTDEF
  5
7A
330
6E
100
AcDbEntity
  8
AM_6
100
AcDbText
 10
41.60000000000002
 20
17.455
 30
0.0
 40
0.5
  1
130769
100
AcDbAttributeDefinition
  3

  2
PN
 70
     8
280
     0
  0
ATTDEF
  5
7B
330
6E
100
AcDbEntity
  8
AM_6
100
AcDbText
 10
41.60000000000002
 20
16.955
 30
0.0
 40
0.5
  1
TB-SXV-20M
100
AcDbAttributeDefinition
  3

  2
DESCRIPTION
 70
     8
280
     0
  0
ATTDEF
  5
7C
330
6E
100
AcDbEntity
  8
AM_6
100
AcDbText
 10
41.60000000000002
 20
16.455
 30
0.0
 40
0.5
  1
0.6
100
AcDbAttributeDefinition
  3

  2
W
 70
     8
280
     0
  0
ATTDEF
  5
7D
330
6E
100
AcDbEntity
  8
AM_6
100
AcDbText
 10
41.60000000000002
 20
15.955
 30
0.0
 40
0.5
  1
31.0
100
AcDbAttributeDefinition
  3

  2
A
 70
     8
280
     0
  0
ATTDEF
  5
7E
330
6E
100
AcDbEntity
  8
AM_6
100
AcDbText
 10
41.60000000000002
 20
15.455
 30
0.0
 40
0.5
  1
73.2
100
AcDbAttributeDefinition
  3

  2
B
 70
     8
280
     0
  0
ATTDEF
  5
7F
330
6E
100
AcDbEntity
  8
AM_6
100
AcDbText
 10
41.60000000000002
 20
14.955
 30
0.0
 40
0.5
  1
38.1
100
AcDbAttributeDefinition
  3

  2
C
 70
     8
280
     0
  0
ATTDEF
  5
80
330
6E
100
AcDbEntity
  8
AM_6
100
AcDbText
 10
41.60000000000002
 20
14.455
 30
0.0
 40
0.5
  1
50.8
100
AcDbAttributeDefinition
  3

  2
D
 70
     8
280
     0
  0
ATTDEF
  5
81
330
6E
100
AcDbEntity
  8
AM_6
100
AcDbText
 10
41.60000000000002
 20
13.955
 30
0.0
 40
0.5
  1
65.0
100
AcDbAttributeDefinition
  3

  2
J
 70
     8
280
     0
  0
ATTDEF
  5
82
330
6E
100
AcDbEntity
  8
AM_6
100
AcDbText
 10
41.60000000000002
 20
13.455
 30
0.0
 40
0.5
  1
33.3
100
AcDbAttributeDefinition
  3

  2
L
 70
     8
280
     0
  0
ATTDEF
  5
83
330
6E
100
AcDbEntity
  8
AM_6
100
AcDbText
 10
41.60000000000002
 20
12.955
 30
0.0
 40
0.5
  1
33.4
100
AcDbAttributeDefinition
  3

  2
M
 70
     8
280
     0
  0
ATTDEF
  5
84
330
6E
100
AcDbEntity
  8
AM_6
100
AcDbText
 10
41.60000000000002
 20
12.455
 30
0.0
 40
0.5
  1
12.7
100
AcDbAttributeDefinition
  3

  2
N
 70
     8
280
     0
  0
ATTDEF
  5
85
330
6E
100
AcDbEntity
  8
AM_6
100
AcDbText
 10
41.60000000000002
 20
11.955
 30
0.0
 40
0.5
  1
M8x1.25
100
AcDbAttributeDefinition
  3

  2
R
 70
     8
280
     0
  0
ATTDEF
  5
86
330
6E
100
AcDbEntity
  8
AM_6
100
AcDbText
 10
41.60000000000002
 20
11.455
 30
0.0
 40
0.5
  1
23.4
100
AcDbAttributeDefinition
  3

  2
S
 70
     8
280
     0
  0
ATTDEF
  5
87
330
6E
100
AcDbEntity
  8
AM_6
100
AcDbText
 10
41.60000000000002
 20
10.955
 30
0.0
 40
0.5
  1
baldor
100
AcDbAttributeDefinition
  3

  2
COMPANY
 70
     8
280
     0
  0
INSERT
  5
89
330
6E
100
AcDbEntity
  8
0
100
AcDbBlockReference
  2
2_405015E_Metric_0_in_130769_4
 10
0.0
 20
0.0
 30
0.0
  0
INSERT
  5
D1
330
6E
100
AcDbEntity
  8
0
100
AcDbBlockReference
  2
3_125645_0_in_130769_4
 10
0.0
 20
0.0
 30
0.0
  0
INSERT
  5
12B
330
6E
100
AcDbEntity
  8
0
100
AcDbBlockReference
  2
4_130769H_0_in_130769_4
 10
0.0
 20
0.0
 30
0.0
  0
ENDBLK
  5
71
330
6E
100
AcDbEntity
  8
0
100
AcDbBlockEnd
  0
BLOCK
  5
8A
330
88
100
AcDbEntity
  8
0
100
AcDbBlockBegin
  2
2_405015E_Metric_0_in_130769_4
 70
     2
 10
0.0
 20
0.0
 30
0.0
  3
2_405015E_Metric_0_in_130769_4
  1

  0
ATTDEF
  5
8C
330
88
100
AcDbEntity
  8
AM_6
100
AcDbText
 10
39.2889849443663
 20
5.000000000000003
 30
0.0
 40
0.5
  1
405015E -Metric
100
AcDbAttributeDefinition
  3

  2
NN
 70
     8
280
     0
  0
ATTDEF
  5
8D
330
88
100
AcDbEntity
  8
AM_6
100
AcDbText
 10
39.2889849443663
 20
4.500000000000003
 30
0.0
 40
0.5
  1
Grease Fitting
100
AcDbAttributeDefinition
  3

  2
NT
 70
     8
280
     0
  0
ATTDEF
  5
8E
330
88
100
AcDbEntity
  8
AM_6
100
AcDbText
 10
39.2889849443663
 20
4.000000000000003
 30
0.0
 40
0.5
  1
405015E-Metric
100
AcDbAttributeDefinition
  3

  2
NB
 70
     8
280
     0
  0
ATTDEF
  5
8F
330
88
100
AcDbEntity
  8
AM_6
100
AcDbText
 10
39.2889849443663
 20
3.500000000000003
 30
0.0
 40
0.5
  1
$MN.-Metric
100
AcDbAttributeDefinition
  3

  2
NBSYN
 70
     8
280
     0
  0
ATTDEF
  5
90
330
88
100
AcDbEntity
  8
AM_6
100
AcDbText
 10
39.2889849443663
 20
3.000000000000003
 30
0.0
 40
0.5
  1
405015E
100
AcDbAttributeDefinition
  3

  2
LINA
 70
     8
280
     0
  0
ATTDEF
  5
91
330
88
100
AcDbEntity
  8
AM_6
100
AcDbText
 10
39.2889849443663
 20
2.500000000000003
 30
0.0
 40
0.5
  1
405015E
100
AcDbAttributeDefinition
  3

  2
MN
 70
     8
280
     0
  0
ATTDEF
  5
92
330
88
100
AcDbEntity
  8
AM_6
100
AcDbText
 10
39.2889849443663
 20
2.000000000000003
 30
0.0
 40
0.5
  1
1/8 x 27PTF
100
AcDbAttributeDefinition
  3

  2
T
 70
     8
280
     0
  0
ATTDEF
  5
93
330
88
100
AcDbEntity
  8
AM_6
100
AcDbText
 10
39.2889849443663
 20
1.500000000000003
 30
0.0
 40
0.5
  1
baldor
100
AcDbAttributeDefinition
  3

  2
COMPANY
 70
     8
280
     0
  0
LWPOLYLINE
  5
96
330
88
100
AcDbEntity
  8
AM_9
100
AcDbPolyline
 90
        3
 70
     0
 43
0.0
 10
30.10914563857053
 20
0.0000000000000004
 10
29.49359984213939
 20
-1.244379663409133
 10
28.94197036990662
 20
-2.5
  0
LWPOLYLINE
  5
97
330
88
100
AcDbEntity
  8
AM_9
100
AcDbPolyline
 90
        3
 70
     0
 43
0.0
 10
28.94197036990662
 20
2.500000000000001
 10
29.4909636080278
 20
1.250000000000001
 10
30.10914563857053
 20
0.0000000000000004
  0
ELLIPSE
  5
98
330
88
100
AcDbEntity
  8
AM_9
100
AcDbEllipse
 10
21.12057244726099
 20
0.000000000000001
 30
0.0
 11
2.546036870355444E-16
 21
4.15799375318352
 31
0.0
210
0.0
220
0.0
230
1.0
 40
0.7071067811865476
 41
0.0
 42
6.283185307179586
  0
LINE
  5
99
330
88
100
AcDbEntity
  8
AM_9
100
AcDbLine
 10
31.93735689712166
 20
0.0000000000000004
 30
0.0
 11
30.10914563857053
 21
0.0000000000000004
 31
0.0
  0
LWPOLYLINE
  5
9A
330
88
100
AcDbEntity
  8
AM_9
100
AcDbPolyline
 90
        4
 70
     0
 43
0.0
 10
28.06790418625121
 20
5.000000000000001
 10
28.24312120150223
 20
4.432413617746366
 10
28.56977442525713
 20
3.46909456765758
 10
28.94197036990662
 20
2.500000000000001
  0
LWPOLYLINE
  5
9B
330
88
100
AcDbEntity
  8
AM_9
100
AcDbPolyline
 90
        3
 70
     0
 43
0.0
 10
28.94197036990662
 20
-2.5
 10
28.47034288186815
 20
-3.75
 10
28.06790418625121
 20
-4.999999999999999
  0
LWPOLYLINE
  5
9C
330
88
100
AcDbEntity
  8
AM_9
100
AcDbPolyline
 90
        3
 70
     0
 43
0.0
 10
31.06329071346626
 20
-2.499999999999998
 10
31.53491820150472
 20
-1.249999999999999
 10
31.93735689712166
 20
0.0000000000000004
  0
LWPOLYLINE
  5
9D
330
88
100
AcDbEntity
  8
AM_9
100
AcDbPolyline
 90
        3
 70
     0
 43
0.0
 10
31.93735689712166
 20
0.0000000000000004
 10
31.53687095300325
 20
1.244379663409134
 10
31.06329071346626
 20
2.500000000000001
  0
LINE
  5
9E
330
88
100
AcDbEntity
  8
AM_9
100
AcDbLine
 10
31.06329071346626
 20
2.500000000000001
 30
0.0
 11
30.80614803232751
 21
3.107167140180414
 31
0.0
  0
LINE
  5
9F
330
88
100
AcDbEntity
  8
AM_9
100
AcDbLine
 10
30.80111074683514
 20
-3.118643955778647
 30
0.0
 11
31.06329071346626
 21
-2.499999999999998
 31
0.0
  0
LINE
  5
A0
330
88
100
AcDbEntity
  8
AM_9
100
AcDbLine
 10
21.43971791735583
 20
-4.755705400136179
 30
0.0
 11
25.7704993765294
 21
-4.947203810901756
 31
0.0
  0
LINE
  5
A1
330
88
100
AcDbEntity
  8
AM_9
100
AcDbLine
 10
25.77049937652941
 20
4.947203810901757
 30
0.0
 11
21.43971791735583
 21
4.75570540013618
 31
0.0
  0
LINE
  5
A2
330
88
100
AcDbEntity
  8
AM_9
100
AcDbLine
 10
30.50065075736031
 20
2.477229919855583
 30
0.0
 11
30.02908910649532
 21
2.748977116714937
 31
0.0
  0
LINE
  5
A3
330
88
100
AcDbEntity
  8
AM_9
100
AcDbLine
 10
30.02908910649532
 20
-2.748977116714934
 30
0.0
 11
30.50065075736031
 21
-2.477229919855579
 31
0.0
  0
ELLIPSE
  5
A4
330
88
100
AcDbEntity
  8
AM_9
100
AcDbEllipse
 10
29.78687315748312
 20
0.0000000000005769
 30
0.0
 11
-4.913895281579930E-16
 21
-2.67500000000064
 31
0.0
210
0.0
220
0.0
230
1.0
 40
0.707106781186548
 41
0.0
 42
3.141592653589793
  0
LINE
  5
A5
330
88
100
AcDbEntity
  8
AM_9
100
AcDbLine
 10
30.78111756539723
 20
1.989928832732515
 30
0.0
 11
30.51729809351035
 21
2.406586417453947
 31
0.0
  0
LINE
  5
A6
330
88
100
AcDbEntity
  8
AM_9
100
AcDbLine
 10
30.51729809351035
 20
-2.406586417453945
 30
0.0
 11
30.78111756539723
 21
-1.989928832732512
 31
0.0
  0
ELLIPSE
  5
A7
330
88
100
AcDbEntity
  8
AM_9
100
AcDbEllipse
 10
29.20974200451866
 20
0.0
 30
0.0
 11
-5.479672885901666E-16
 21
-2.982994982562498
 31
0.0
210
0.0
220
0.0
230
1.0
 40
0.7071067811865476
 41
0.3869422381883858
 42
2.75465041540141
  0
ELLIPSE
  5
A8
330
88
100
AcDbEntity
  8
AM_9
100
AcDbEllipse
 10
28.00142853498755
 20
0.000000000000238
 30
0.0
 11
-9.184850993604343E-16
 21
-4.999999999999562
 31
0.0
210
0.0
220
0.0
230
1.0
 40
0.7071067811865477
 41
0.8982051386271985
 42
2.243387514962521
  0
LINE
  5
A9
330
88
100
AcDbEntity
  8
AM_9
100
AcDbLine
 10
29.9035457763791
 20
-2.674999999999998
 30
0.0
 11
30.2818479043139
 21
-2.674999999999998
 31
0.0
  0
LINE
  5
AA
330
88
100
AcDbEntity
  8
AM_9
100
AcDbLine
 10
30.2818479043139
 20
2.675000000000001
 30
0.0
 11
29.9035457763791
 21
2.675000000000001
 31
0.0
  0
ELLIPSE
  5
AB
330
88
100
AcDbEntity
  8
AM_9
100
AcDbEllipse
 10
30.28184790431387
 20
0.0000000000000067
 30
0.0
 11
-4.913895281578762E-16
 21
-2.675000000000004
 31
0.0
210
0.0
220
0.0
230
1.0
 40
0.7071067811865487
 41
5.888394187479838
 42
9.819569080469128
  0
ELLIPSE
  5
AC
330
88
100
AcDbEntity
  8
AM_9
100
AcDbEllipse
 10
28.61690295408324
 20
-0.0000000000001403
 30
0.0
 11
-6.627024103767839E-16
 21
-3.60758389460092
 31
0.0
210
0.0
220
0.0
230
1.0
 40
0.7071067811866821
 41
0.663383315189054
 42
2.478209338400787
  0
ELLIPSE
  5
AD
330
88
100
AcDbEntity
  8
AM_9
100
AcDbEllipse
 10
28.0014285349873
 20
0.0000000000000016
 30
0.0
 11
-8.725608443924883E-16
 21
-4.749999999999996
 31
0.0
210
0.0
220
0.0
230
1.0
 40
0.7071067811865464
 41
0.8736482899485836
 42
2.267944363641207
  0
ELLIPSE
  5
AE
330
88
100
AcDbEntity
  8
AM_9
100
AcDbEllipse
 10
31.20108671985641
 20
-0.0000000000000011
 30
0.0
 11
-5.832380380939272E-16
 21
-3.175000000000002
 31
0.0
210
0.0
220
0.0
230
1.0
 40
0.7071067811865466
 41
0.4159140521025488
 42
2.725678601487245
  0
ELLIPSE
  5
AF
330
88
100
AcDbEntity
  8
AM_9
100
AcDbEllipse
 10
25.88010819142764
 20
0.0000000000000024
 30
0.0
 11
-9.184850993605148E-16
 21
-5.0
 31
0.0
210
0.0
220
0.0
230
1.0
 40
0.7071067811865476
 41
0.0
 42
6.283185307179586
  0
ELLIPSE
  5
B0
330
88
100
AcDbEntity
  8
AM_9
100
AcDbEllipse
 10
25.88010819142765
 20
-0.0000000000000031
 30
0.0
 11
-9.092325864233665E-16
 21
-4.949631665534964
 31
0.0
210
0.0
220
0.0
230
1.0
 40
0.7071067811865474
 41
0.0
 42
6.283185307179586
  0
ELLIPSE
  5
B1
330
88
100
AcDbEntity
  8
AM_9
100
AcDbEllipse
 10
21.54486176203843
 20
0.0000000000000027
 30
0.0
 11
-8.740358316248946E-16
 21
-4.758029456511774
 31
0.0
210
0.0
220
0.0
230
1.0
 40
0.7071067811865474
 41
0.0
 42
6.283185307179586
  0
LWPOLYLINE
  5
B3
330
88
100
AcDbEntity
  8
AM_4
100
AcDbPolyline
 90
        4
 70
     0
 43
0.0
 10
30.80614803232751
 20
3.107167140180414
 10
30.64554096518786
 20
3.466206808873183
 10
30.18433077004256
 20
4.432413617746365
 10
29.89611544480234
 20
5.000000000000001
  0
LWPOLYLINE
  5
B4
330
88
100
AcDbEntity
  8
AM_4
100
AcDbPolyline
 90
        3
 70
     0
 43
0.0
 10
29.89611544480234
 20
-4.999999999999999
 10
30.51166124123348
 20
-3.755620336590864
 10
30.80111074683514
 20
-3.118643955778647
  0
LINE
  5
B5
330
88
100
AcDbEntity
  8
AM_4
100
AcDbLine
 10
29.89611544480234
 20
-4.999999999999999
 30
0.0
 11
23.98542128161258
 21
-4.999999999999999
 31
0.0
  0
LWPOLYLINE
  5
B6
330
88
100
AcDbEntity
  8
AM_4
100
AcDbPolyline
 90
        3
 70
     0
 43
0.0
 10
24.93956635650831
 20
-2.499999999999998
 10
25.41119384454678
 20
-3.749999999999999
 10
25.81363254016372
 20
-4.999999999999999
  0
LWPOLYLINE
  5
B7
330
88
100
AcDbEntity
  8
AM_4
100
AcDbPolyline
 90
        4
 70
     0
 43
0.0
 10
22.81824601294867
 20
-2.499999999999998
 10
22.44709120531303
 20
-1.533793191126815
 10
22.11939684454428
 20
-0.5675863822536326
 10
21.94417982929327
 20
0.0000000000000021
  0
LWPOLYLINE
  5
B8
330
88
100
AcDbEntity
  8
AM_4
100
AcDbPolyline
 90
        3
 70
     0
 43
0.0
 10
23.98542128161258
 20
-4.999999999999999
 10
23.36987548518145
 20
-3.755620336590865
 10
22.81824601294867
 20
-2.499999999999998
  0
LWPOLYLINE
  5
B9
330
88
100
AcDbEntity
  8
AM_4
100
AcDbPolyline
 90
        4
 70
     0
 43
0.0
 10
23.7723910878444
 20
0.0000000000000021
 10
24.06060641308461
 20
-0.567586382253634
 10
24.52049990006975
 20
-1.53090543234242
 10
24.93956635650831
 20
-2.499999999999998
  0
LINE
  5
BA
330
88
100
AcDbEntity
  8
AM_4
100
AcDbLine
 10
30.02908910649532
 20
2.748977116714937
 30
0.0
 11
30.00570275184522
 21
2.762453989376798
 31
0.0
  0
LINE
  5
BB
330
88
100
AcDbEntity
  8
AM_4
100
AcDbLine
 10
30.00570275184522
 20
-2.762453989376795
 30
0.0
 11
30.02908910649532
 21
-2.748977116714934
 31
0.0
  0
ELLIPSE
  5
BC
330
88
100
AcDbEntity
  8
AM_4
100
AcDbEllipse
 10
29.20974200451865
 20
0.0000000000000011
 30
0.0
 11
-5.479672885901689E-16
 21
-2.98299498256251
 31
0.0
210
0.0
220
0.0
230
1.0
 40
0.7071067811865469
 41
2.754650415401406
 42
6.670127545367974
  0
ELLIPSE
  5
BD
330
88
100
AcDbEntity
  8
AM_4
100
AcDbEllipse
 10
28.61690295408388
 20
-0.0000000000000007
 30
0.0
 11
-6.627024103768196E-16
 21
-3.607583894601115
 31
0.0
210
0.0
220
0.0
230
1.0
 40
0.7071067811865466
 41
2.478209338400868
 42
6.946568622368513
  0
ELLIPSE
  5
BE
330
88
100
AcDbEntity
  8
AM_4
100
AcDbEllipse
 10
28.00142853498728
 20
0.0000000000000031
 30
0.0
 11
-9.184850993605148E-16
 21
-5.0
 31
0.0
210
0.0
220
0.0
230
1.0
 40
0.7071067811865476
 41
2.243387514962511
 42
7.181390445806867
  0
LINE
  5
BF
330
88
100
AcDbEntity
  8
AM_4
100
AcDbLine
 10
29.78687315748332
 20
-2.674999999999998
 30
0.0
 11
29.9035457763791
 21
-2.674999999999998
 31
0.0
  0
LINE
  5
C0
330
88
100
AcDbEntity
  8
AM_4
100
AcDbLine
 10
29.9035457763791
 20
2.675000000000001
 30
0.0
 11
29.78687315748332
 21
2.675000000000001
 31
0.0
  0
ELLIPSE
  5
C1
330
88
100
AcDbEntity
  8
AM_4
100
AcDbEllipse
 10
29.78687315748332
 20
0.0000000000000013
 30
0.0
 11
-4.913895281578752E-16
 21
-2.674999999999998
 31
0.0
210
0.0
220
0.0
230
1.0
 40
0.7071067811865475
 41
3.141592653589793
 42
6.283185307179586
  0
LINE
  5
C2
330
88
100
AcDbEntity
  8
AM_4
100
AcDbLine
 10
23.7723910878444
 20
0.0000000000000021
 30
0.0
 11
21.94417982929327
 21
0.0000000000000021
 31
0.0
  0
LWPOLYLINE
  5
C3
330
88
100
AcDbEntity
  8
AM_4
100
AcDbPolyline
 90
        3
 70
     0
 43
0.0
 10
24.93956635650831
 20
2.500000000000004
 10
24.39057311838712
 20
1.250000000000003
 10
23.7723910878444
 20
0.0000000000000021
  0
LWPOLYLINE
  5
C4
330
88
100
AcDbEntity
  8
AM_4
100
AcDbPolyline
 90
        3
 70
     0
 43
0.0
 10
25.81363254016372
 20
5.000000000000001
 10
25.4131465960453
 20
3.755620336590869
 10
24.93956635650831
 20
2.500000000000004
  0
LINE
  5
C5
330
88
100
AcDbEntity
  8
AM_4
100
AcDbLine
 10
29.89611544480234
 20
5.000000000000001
 30
0.0
 11
23.98542128161258
 21
5.000000000000001
 31
0.0
  0
LWPOLYLINE
  5
C6
330
88
100
AcDbEntity
  8
AM_4
100
AcDbPolyline
 90
        3
 70
     0
 43
0.0
 10
22.81824601294867
 20
2.500000000000003
 10
23.36723925106986
 20
3.750000000000002
 10
23.98542128161258
 20
5.000000000000001
  0
LWPOLYLINE
  5
C7
330
88
100
AcDbEntity
  8
AM_4
100
AcDbPolyline
 90
        3
 70
     0
 43
0.0
 10
21.94417982929327
 20
0.0000000000000021
 10
22.34466577341168
 20
1.244379663409136
 10
22.81824601294867
 20
2.500000000000003
  0
ELLIPSE
  5
C8
330
88
100
AcDbEntity
  8
AM_4
100
AcDbEllipse
 10
28.00142853498729
 20
-0.0000000000000013
 30
0.0
 11
-8.725608443924894E-16
 21
-4.750000000000002
 31
0.0
210
0.0
220
0.0
230
1.0
 40
0.7071067811865477
 41
2.267944363641207
 42
7.156833597128172
  0
LINE
  5
C9
330
88
100
AcDbEntity
  8
AM_4
100
AcDbLine
 10
29.55434381213159
 20
-2.469230769230768
 30
0.0
 11
30.33760055436899
 21
-2.930769230769228
 31
0.0
  0
LINE
  5
CA
330
88
100
AcDbEntity
  8
AM_4
100
AcDbLine
 10
30.33760055436899
 20
2.930769230769232
 30
0.0
 11
29.55434381213159
 21
2.46923076923077
 31
0.0
  0
ELLIPSE
  5
CB
330
88
100
AcDbEntity
  8
AM_4
100
AcDbEllipse
 10
31.20108671985642
 20
0.0000000000000016
 30
0.0
 11
-5.832380380939279E-16
 21
-3.175000000000005
 31
0.0
210
0.0
220
0.0
230
1.0
 40
0.707106781186548
 41
2.72567860148725
 42
6.69909935928213
  0
ELLIPSE
  5
CC
330
88
100
AcDbEntity
  8
AM_4
100
AcDbEllipse
 10
30.2818479043139
 20
0.0000000000000013
 30
0.0
 11
-4.913895281578748E-16
 21
-2.674999999999996
 31
0.0
210
0.0
220
0.0
230
1.0
 40
0.7071067811865455
 41
3.536383773289552
 42
5.888394187479826
  0
LINE
  5
CD
330
88
100
AcDbEntity
  8
AM_4
100
AcDbLine
 10
33.29151277951082
 20
2.165159119691909
 30
0.0
 11
32.10815146676357
 21
2.904323000259529
 31
0.0
  0
LINE
  5
CE
330
88
100
AcDbEntity
  8
AM_4
100
AcDbLine
 10
32.10815146676357
 20
-2.904323000259526
 30
0.0
 11
33.29151277951082
 21
-2.165159119691905
 31
0.0
  0
ELLIPSE
  5
CF
330
88
100
AcDbEntity
  8
AM_4
100
AcDbEllipse
 10
32.61530028222951
 20
0.0000000000000029
 30
0.0
 11
-4.348012108217431E-16
 21
-2.366947548329683
 31
0.0
210
0.0
220
0.0
230
1.0
 40
0.7071067811865449
 41
0.0
 42
6.283185307179586
  0
ENDBLK
  5
8B
330
88
100
AcDbEntity
  8
0
100
AcDbBlockEnd
  0
BLOCK
  5
D2
330
D0
100
AcDbEntity
  8
0
100
AcDbBlockBegin
  2
3_125645_0_in_130769_4
 70
     2
 10
0.0
 20
0.0
 30
0.0
  3
3_125645_0_in_130769_4
  1

  0
ATTDEF
  5
D4
330
D0
100
AcDbEntity
  8
AM_6
100
AcDbText
 10
30.015
 20
7.6
 30
0.0
 40
0.5
  1
Eccentric Collar Intermediate Duty Insert Metric Bore
100
AcDbAttributeDefinition
  3

  2
NN
 70
     8
280
     0
  0
ATTDEF
  5
D5
330
D0
100
AcDbEntity
  8
AM_6
100
AcDbText
 10
30.015
 20
7.1
 30
0.0
 40
0.5
  1
Eccentric Collar Bearing Inserts -(Intermediate Duty)
100
AcDbAttributeDefinition
  3

  2
NT
 70
     8
280
     0
  0
ATTDEF
  5
D6
330
D0
100
AcDbEntity
  8
AM_6
100
AcDbText
 10
30.015
 20
6.6
 30
0.0
 40
0.5
  1
125645
100
AcDbAttributeDefinition
  3

  2
NB
 70
     8
280
     0
  0
ATTDEF
  5
D7
330
D0
100
AcDbEntity
  8
AM_6
100
AcDbText
 10
30.015
 20
6.1
 30
0.0
 40
0.5
  1
$PN.
100
AcDbAttributeDefinition
  3

  2
NBSYN
 70
     8
280
     0
  0
ATTDEF
  5
D8
330
D0
100
AcDbEntity
  8
AM_6
100
AcDbText
 10
30.015
 20
5.6
 30
0.0
 40
0.5
  1
125645
100
AcDbAttributeDefinition
  3

  2
LINA
 70
     8
280
     0
  0
ATTDEF
  5
D9
330
D0
100
AcDbEntity
  8
AM_6
100
AcDbText
 10
30.015
 20
5.1
 30
0.0
 40
0.5
  1
204
100
AcDbAttributeDefinition
  3

  2
SERIES
 70
     8
280
     0
  0
ATTDEF
  5
DA
330
D0
100
AcDbEntity
  8
AM_6
100
AcDbText
 10
30.015
 20
4.6
 30
0.0
 40
0.5
  1
20
100
AcDbAttributeDefinition
  3

  2
SS
 70
     8
280
     0
  0
ATTDEF
  5
DB
330
D0
100
AcDbEntity
  8
AM_6
100
AcDbText
 10
30.015
 20
4.1
 30
0.0
 40
0.5
  1
125645
100
AcDbAttributeDefinition
  3

  2
PN
 70
     8
280
     0
  0
ATTDEF
  5
DC
330
D0
100
AcDbEntity
  8
AM_6
100
AcDbText
 10
30.015
 20
3.6
 30
0.0
 40
0.5
  1
INS-SXV-20M
100
AcDbAttributeDefinition
  3

  2
DESCRIPTION
 70
     8
280
     0
  0
ATTDEF
  5
DD
330
D0
100
AcDbEntity
  8
AM_6
100
AcDbText
 10
30.015
 20
3.1
 30
0.0
 40
0.5
  1
0.1
100
AcDbAttributeDefinition
  3

  2
WEIGHT
 70
     8
280
     0
  0
ATTDEF
  5
DE
330
D0
100
AcDbEntity
  8
AM_6
100
AcDbText
 10
30.015
 20
2.6
 30
0.0
 40
0.5
  1
31.0
100
AcDbAttributeDefinition
  3

  2
A
 70
     8
280
     0
  0
ATTDEF
  5
DF
330
D0
100
AcDbEntity
  8
AM_6
100
AcDbText
 10
30.015
 20
2.1
 30
0.0
 40
0.5
  1
14.7
100
AcDbAttributeDefinition
  3

  2
C
 70
     8
280
     0
  0
ATTDEF
  5
E0
330
D0
100
AcDbEntity
  8
AM_6
100
AcDbText
 10
30.015
 20
1.6
 30
0.0
 40
0.5
  1
47.0
100
AcDbAttributeDefinition
  3

  2
D
 70
     8
280
     0
  0
ATTDEF
  5
E1
330
D0
100
AcDbEntity
  8
AM_6
100
AcDbText
 10
30.015
 20
1.1
 30
0.0
 40
0.5
  1
3.8
100
AcDbAttributeDefinition
  3

  2
J
 70
     8
280
     0
  0
ATTDEF
  5
E2
330
D0
100
AcDbEntity
  8
AM_6
100
AcDbText
 10
30.015
 20
0.5999999999999996
 30
0.0
 40
0.5
  1
33.3
100
AcDbAttributeDefinition
  3

  2
L
 70
     8
280
     0
  0
ATTDEF
  5
E3
330
D0
100
AcDbEntity
  8
AM_6
100
AcDbText
 10
30.015
 20
0.0999999999999996
 30
0.0
 40
0.5
  1
M6 x 1
100
AcDbAttributeDefinition
  3

  2
N
 70
     8
280
     0
  0
ATTDEF
  5
E4
330
D0
100
AcDbEntity
  8
AM_6
100
AcDbText
 10
30.015
 20
-0.4000000000000004
 30
0.0
 40
0.5
  1
7.6
100
AcDbAttributeDefinition
  3

  2
W
 70
     8
280
     0
  0
ATTDEF
  5
E5
330
D0
100
AcDbEntity
  8
AM_6
100
AcDbText
 10
30.015
 20
-0.9000000000000004
 30
0.0
 40
0.5
  1
23.4
100
AcDbAttributeDefinition
  3

  2
Y
 70
     8
280
     0
  0
ATTDEF
  5
E6
330
D0
100
AcDbEntity
  8
AM_6
100
AcDbText
 10
30.015
 20
-1.4
 30
0.0
 40
0.5
  1
28.4
100
AcDbAttributeDefinition
  3

  2
Z
 70
     8
280
     0
  0
ATTDEF
  5
E7
330
D0
100
AcDbEntity
  8
AM_6
100
AcDbText
 10
30.015
 20
-1.9
 30
0.0
 40
0.5
  1
baldor
100
AcDbAttributeDefinition
  3

  2
COMPANY
 70
     8
280
     0
  0
LINE
  5
E8
330
D0
100
AcDbEntity
  8
AM_9
100
AcDbLine
 10
23.0
 20
5.3
 30
0.0
 11
22.89529753044124
 21
5.3
 31
0.0
  0
ARC
  5
E9
330
D0
100
AcDbEntity
  8
AM_9
100
AcDbCircle
 10
23.0
 20
3.799999999999992
 30
0.0
 40
1.500000000000005
100
AcDbArc
 50
284.763815662013
 51
90.0
  0
LINE
  5
EA
330
D0
100
AcDbEntity
  8
AM_9
100
AcDbLine
 10
23.0
 20
5.3
 30
0.0
 11
23.0
 21
4.663157894736005
 31
0.0
  0
LINE
  5
EB
330
D0
100
AcDbEntity
  8
AM_9
100
AcDbLine
 10
10.0
 20
-23.11715728752538
 30
0.0
 11
10.0
 21
-14.6
 31
0.0
  0
LINE
  5
EC
330
D0
100
AcDbEntity
  8
AM_9
100
AcDbLine
 10
-10.0
 20
-14.6
 30
0.0
 11
-10.0
 21
-23.11715728752538
 31
0.0
  0
LINE
  5
ED
330
D0
100
AcDbEntity
  8
AM_9
100
AcDbLine
 10
10.0
 20
-14.2
 30
0.0
 11
10.0
 21
7.317157287525381
 31
0.0
  0
LINE
  5
EE
330
D0
100
AcDbEntity
  8
AM_9
100
AcDbLine
 10
-10.0
 20
7.317157287525381
 30
0.0
 11
-10.0
 21
-14.2
 31
0.0
  0
LINE
  5
EF
330
D0
100
AcDbEntity
  8
AM_9
100
AcDbLine
 10
-10.0
 20
-14.2
 30
0.0
 11
10.0
 21
-14.2
 31
0.0
  0
LINE
  5
F0
330
D0
100
AcDbEntity
  8
AM_9
100
AcDbLine
 10
-10.0
 20
-14.2
 30
0.0
 11
-10.2
 21
-14.4
 31
0.0
  0
LINE
  5
F1
330
D0
100
AcDbEntity
  8
AM_9
100
AcDbLine
 10
10.2
 20
-14.4
 30
0.0
 11
10.0
 21
-14.2
 31
0.0
  0
LINE
  5
F2
330
D0
100
AcDbEntity
  8
AM_9
100
AcDbLine
 10
-10.2
 20
-14.4
 30
0.0
 11
10.2
 21
-14.4
 31
0.0
  0
LINE
  5
F3
330
D0
100
AcDbEntity
  8
AM_9
100
AcDbLine
 10
-10.0
 20
-14.6
 30
0.0
 11
10.0
 21
-14.6
 31
0.0
  0
LINE
  5
F4
330
D0
100
AcDbEntity
  8
AM_9
100
AcDbLine
 10
10.0
 20
-14.6
 30
0.0
 11
10.2
 21
-14.4
 31
0.0
  0
LINE
  5
F5
330
D0
100
AcDbEntity
  8
AM_9
100
AcDbLine
 10
-10.2
 20
-14.4
 30
0.0
 11
-10.0
 21
-14.6
 31
0.0
  0
LINE
  5
F6
330
D0
100
AcDbEntity
  8
AM_9
100
AcDbLine
 10
-10.0
 20
7.317157287525381
 30
0.0
 11
10.0
 21
7.317157287525381
 31
0.0
  0
LINE
  5
F7
330
D0
100
AcDbEntity
  8
AM_9
100
AcDbLine
 10
10.0
 20
7.317157287525381
 30
0.0
 11
10.28284271247462
 21
7.6
 31
0.0
  0
LINE
  5
F8
330
D0
100
AcDbEntity
  8
AM_9
100
AcDbLine
 10
-10.28284271247462
 20
7.6
 30
0.0
 11
-10.0
 21
7.317157287525381
 31
0.0
  0
LINE
  5
F9
330
D0
100
AcDbEntity
  8
AM_9
100
AcDbLine
 10
-10.0
 20
-23.11715728752538
 30
0.0
 11
10.0
 21
-23.11715728752538
 31
0.0
  0
LINE
  5
FA
330
D0
100
AcDbEntity
  8
AM_9
100
AcDbLine
 10
-10.0
 20
-23.11715728752538
 30
0.0
 11
-10.28284271247462
 21
-23.4
 31
0.0
  0
LINE
  5
FB
330
D0
100
AcDbEntity
  8
AM_9
100
AcDbLine
 10
10.28284271247462
 20
-23.4
 30
0.0
 11
10.0
 21
-23.11715728752538
 31
0.0
  0
LINE
  5
FC
330
D0
100
AcDbEntity
  8
AM_9
100
AcDbLine
 10
-14.2
 20
7.6
 30
0.0
 11
14.2
 21
7.6
 31
0.0
  0
LINE
  5
FD
330
D0
100
AcDbEntity
  8
AM_9
100
AcDbLine
 10
14.2
 20
7.35
 30
0.0
 11
14.2
 21
7.6
 31
0.0
  0
LINE
  5
FE
330
D0
100
AcDbEntity
  8
AM_9
100
AcDbLine
 10
-14.2
 20
7.6
 30
0.0
 11
-14.2
 21
7.35
 31
0.0
  0
LINE
  5
FF
330
D0
100
AcDbEntity
  8
AM_9
100
AcDbLine
 10
14.2
 20
-11.4117438322001
 30
0.0
 11
14.2
 21
-7.35
 31
0.0
  0
LINE
  5
100
330
D0
100
AcDbEntity
  8
AM_9
100
AcDbLine
 10
-14.2
 20
-7.35
 30
0.0
 11
-14.2
 21
-11.4117438322001
 31
0.0
  0
LINE
  5
101
330
D0
100
AcDbEntity
  8
AM_9
100
AcDbLine
 10
22.38095238095238
 20
-4.275
 30
0.0
 11
22.38095238095238
 21
-3.325000000000001
 31
0.0
  0
LINE
  5
102
330
D0
100
AcDbEntity
  8
AM_9
100
AcDbLine
 10
-22.38095238095238
 20
-3.325000000000001
 30
0.0
 11
-22.38095238095238
 21
-4.275
 31
0.0
  0
LINE
  5
103
330
D0
100
AcDbEntity
  8
AM_9
100
AcDbLine
 10
-22.02969586716983
 20
-7.350000000000001
 30
0.0
 11
22.02969586716943
 21
-7.350000000000001
 31
0.0
  0
ARC
  5
104
330
D0
100
AcDbEntity
  8
AM_9
100
AcDbCircle
 10
22.02969586716984
 20
-6.950000000000002
 30
0.0
 40
0.4000000000000004
100
AcDbArc
 50
270.0
 51
342.4903874569471
  0
ARC
  5
105
330
D0
100
AcDbEntity
  8
AM_9
100
AcDbCircle
 10
-22.02969586716984
 20
-6.950000000000001
 30
0.0
 40
0.4000000000000016
100
AcDbArc
 50
197.509612543053
 51
270.0
  0
LINE
  5
106
330
D0
100
AcDbEntity
  8
AM_9
100
AcDbLine
 10
-22.02969586716984
 20
7.35
 30
0.0
 11
22.02969429115066
 21
7.35
 31
0.0
  0
ARC
  5
107
330
D0
100
AcDbEntity
  8
AM_9
100
AcDbCircle
 10
22.02969586716985
 20
6.950000000000007
 30
0.0
 40
0.3999999999999956
100
AcDbArc
 50
17.50961254305195
 51
90.0
  0
ARC
  5
108
330
D0
100
AcDbEntity
  8
AM_9
100
AcDbCircle
 10
-22.02969586716985
 20
6.950000000000007
 30
0.0
 40
0.3999999999999924
100
AcDbArc
 50
90.0
 51
162.490387456948
  0
LINE
  5
109
330
D0
100
AcDbEntity
  8
AM_9
100
AcDbLine
 10
-22.41116246227235
 20
-7.070346320346323
 30
0.0
 11
22.41116246227157
 21
-7.070346320346323
 31
0.0
  0
LINE
  5
10A
330
D0
100
AcDbEntity
  8
AM_9
100
AcDbLine
 10
-23.10788555883035
 20
-4.275
 30
0.0
 11
23.10788555882957
 21
-4.275
 31
0.0
  0
ARC
  5
10B
330
D0
100
AcDbEntity
  8
AM_9
100
AcDbCircle
 10
0.0000000021933246
 20
-0.0000000005468088
 30
0.0
 40
23.49999999774304
100
AcDbArc
 50
342.4903874566091
 51
349.5186831498389
  0
ARC
  5
10C
330
D0
100
AcDbEntity
  8
AM_9
100
AcDbCircle
 10
0.0000000003899281
 20
0.0000000000970504
 30
0.0
 40
23.50000000040031
100
AcDbArc
 50
190.481316850559
 51
197.509612542993
  0
LINE
  5
10D
330
D0
100
AcDbEntity
  8
AM_9
100
AcDbLine
 10
-23.26358474096372
 20
-3.324999999999995
 30
0.0
 11
23.26358474096364
 21
-3.324999999999995
 31
0.0
  0
LINE
  5
10E
330
D0
100
AcDbEntity
  8
AM_9
100
AcDbLine
 10
-22.41116246227235
 20
7.070346320346321
 30
0.0
 11
22.41116246227227
 21
7.070346320346321
 31
0.0
  0
LINE
  5
10F
330
D0
100
AcDbEntity
  8
AM_9
100
AcDbLine
 10
23.38225268512876
 20
2.349523221588198
 30
0.0
 11
22.89454083404722
 21
5.299999999754919
 31
0.0
  0
ARC
  5
110
330
D0
100
AcDbEntity
  8
AM_9
100
AcDbCircle
 10
-0.0000000000047677
 20
-0.0000000000001719
 30
0.0
 40
23.50000000000462
100
AcDbArc
 50
351.8659616417718
 51
5.73800218013423
  0
ARC
  5
111
330
D0
100
AcDbEntity
  8
AM_9
100
AcDbCircle
 10
-0.0000000000478551
 20
-0.000000000012168
 30
0.0
 40
23.50000000004922
100
AcDbArc
 50
13.0230318904888
 51
17.50961254304603
  0
ARC
  5
112
330
D0
100
AcDbEntity
  8
AM_9
100
AcDbCircle
 10
0.0000000000029345
 20
-0.0000000000002283
 30
0.0
 40
23.50000000000279
100
AcDbArc
 50
162.4903874569488
 51
188.1340383582287
  0
LINE
  5
115
330
D0
100
AcDbEntity
  8
AM_7
100
AcDbLine
 10
-2.581425
 20
-18.899999856
 30
0.0
 11
2.581425
 21
-18.899999856
 31
0.0
  0
LINE
  5
116
330
D0
100
AcDbEntity
  8
AM_7
100
AcDbLine
 10
13.685
 20
3.8
 30
0.0
 11
25.015
 21
3.8
 31
0.0
  0
LINE
  5
117
330
D0
100
AcDbEntity
  8
AM_4
100
AcDbLine
 10
13.52380952380952
 20
-12.6
 30
0.0
 11
13.52380952380952
 21
-12.0
 31
0.0
  0
LINE
  5
118
330
D0
100
AcDbEntity
  8
AM_4
100
AcDbLine
 10
-13.52380952380952
 20
-12.0
 30
0.0
 11
-13.52380952380952
 21
-12.6
 31
0.0
  0
LINE
  5
119
330
D0
100
AcDbEntity
  8
AM_4
100
AcDbLine
 10
-14.2
 20
-12.0
 30
0.0
 11
14.2
 21
-12.0
 31
0.0
  0
LINE
  5
11A
330
D0
100
AcDbEntity
  8
AM_4
100
AcDbLine
 10
14.2
 20
-12.0
 30
0.0
 11
14.2
 21
-11.4117438322001
 31
0.0
  0
LINE
  5
11B
330
D0
100
AcDbEntity
  8
AM_4
100
AcDbLine
 10
-14.2
 20
-11.4117438322001
 30
0.0
 11
-14.2
 21
-12.0
 31
0.0
  0
CIRCLE
  5
11C
330
D0
100
AcDbEntity
  8
AM_4
100
AcDbCircle
 10
0.0
 20
-18.899999856
 30
0.0
 40
2.4585
  0
LWPOLYLINE
  5
11D
330
D0
100
AcDbEntity
  8
AM_4
100
AcDbPolyline
 90
       39
 70
     0
 43
0.0
 10
-1.827610984456679
 20
-17.00822946598223
 10
-1.550701104459915
 20
-16.74045311499767
 10
-1.229279844637246
 20
-16.51230266984441
 10
-0.843012971402768
 20
-16.3248289278434
 10
-0.4151213187456457
 20
-16.20597068594052
 10
-0.0163603390442692
 20
-16.16905670778534
 10
0.3952625224343804
 20
-16.20249691657724
 10
0.7698762452916397
 20
-16.29832748176268
 10
1.133448767949935
 20
-16.45783270188112
 10
1.46696009574012
 20
-16.6735857328191
 10
1.769873736674699
 20
-16.94563274094341
 10
2.037407157059744
 20
-17.27532937674109
 10
2.255467633628159
 20
-17.65239962204564
 10
2.418294447843633
 20
-18.07717771712249
 10
2.513752497724409
 20
-18.53475950213336
 10
2.534604475951101
 20
-19.00906332664685
 10
2.475732798948081
 20
-19.49363578163804
 10
2.339586497409777
 20
-19.9534216087983
 10
2.12097158821787
 20
-20.39577967777683
 10
1.842903503048082
 20
-20.77449834538301
 10
1.490817798365499
 20
-21.1079431707875
 10
1.11853969773889
 20
-21.35014233577372
 10
0.6940185003982907
 20
-21.52637974531314
 10
0.293023206421187
 20
-21.61264090697478
 10
-0.1303691735896525
 20
-21.62737558481731
 10
-0.5152085349574332
 20
-21.57384293999257
 10
-0.8962990971893562
 20
-21.45415884998692
 10
-1.245583520380749
 20
-21.27786103047784
 10
-1.570610601270755
 20
-21.04278660556544
 10
-1.863980228185333
 20
-20.75019148825213
 10
-2.114202844215729
 20
-20.40682762633706
 10
-2.316770630867402
 20
-20.01017133116456
 10
-2.45762036311579
 20
-19.57496765318689
 10
-2.529048548451642
 20
-19.11063211300222
 10
-2.523940599303919
 20
-18.62768183549156
 10
-2.440177024429313
 20
-18.15552460791706
 10
-2.273695990986125
 20
-17.69125967776073
 10
-2.078536229752736
 20
-17.33679925837899
 10
-1.827610984641996
 20
-17.0082294658585
  0
LINE
  5
11E
330
D0
100
AcDbEntity
  8
AM_4
100
AcDbLine
 10
16.65
 20
-22.6
 30
0.0
 11
16.65
 21
-13.4
 31
0.0
  0
LINE
  5
11F
330
D0
100
AcDbEntity
  8
AM_4
100
AcDbLine
 10
-16.65
 20
-13.4
 30
0.0
 11
-16.65
 21
-22.6
 31
0.0
  0
LINE
  5
120
330
D0
100
AcDbEntity
  8
AM_4
100
AcDbLine
 10
-15.85
 20
-23.4
 30
0.0
 11
15.84999999989646
 21
-23.4
 31
0.0
  0
LINE
  5
121
330
D0
100
AcDbEntity
  8
AM_4
100
AcDbLine
 10
-16.65
 20
-22.6
 30
0.0
 11
16.65
 21
-22.6
 31
0.0
  0
ARC
  5
122
330
D0
100
AcDbEntity
  8
AM_4
100
AcDbCircle
 10
15.85
 20
-22.6
 30
0.0
 40
0.7999999999999972
100
AcDbArc
 50
270.0
 51
0.0
  0
ARC
  5
123
330
D0
100
AcDbEntity
  8
AM_4
100
AcDbCircle
 10
-15.85
 20
-22.6
 30
0.0
 40
0.7999999999999989
100
AcDbArc
 50
180.0
 51
270.0
  0
LINE
  5
124
330
D0
100
AcDbEntity
  8
AM_4
100
AcDbLine
 10
-16.65
 20
-13.4
 30
0.0
 11
16.65
 21
-13.4
 31
0.0
  0
LINE
  5
125
330
D0
100
AcDbEntity
  8
AM_4
100
AcDbLine
 10
-15.85
 20
-12.6
 30
0.0
 11
15.84999999989646
 21
-12.6
 31
0.0
  0
ARC
  5
126
330
D0
100
AcDbEntity
  8
AM_4
100
AcDbCircle
 10
15.85
 20
-13.39999999999999
 30
0.0
 40
0.7999999999999954
100
AcDbArc
 50
0.0
 51
90.0
  0
ARC
  5
127
330
D0
100
AcDbEntity
  8
AM_4
100
AcDbCircle
 10
-15.85
 20
-13.39999999999999
 30
0.0
 40
0.7999999999999918
100
AcDbArc
 50
90.0
 51
180.0
  0
ARC
  5
129
330
D0
100
AcDbEntity
  8
AM_5
100
AcDbCircle
 10
0.0000000000000026
 20
-18.899999856
 30
0.0
 40
3.0
100
AcDbArc
 50
75.00000000000004
 51
15.00000000000002
  0
ENDBLK
  5
D3
330
D0
100
AcDbEntity
  8
0
100
AcDbBlockEnd
  0
BLOCK
  5
12C
330
12A
100
AcDbEntity
  8
0
100
AcDbBlockBegin
  2
4_130769H_0_in_130769_4
 70
     2
 10
0.0
 20
0.0
 30
0.0
  3
4_130769H_0_in_130769_4
  1

  0
ATTDEF
  5
12E
330
12A
100
AcDbEntity
  8
AM_6
100
AcDbText
 10
41.60000000000002
 20
20.955
 30
0.0
 40
0.5
  1
TB-SXV -M-Housing
100
AcDbAttributeDefinition
  3

  2
NN
 70
     8
280
     0
  0
ATTDEF
  5
12F
330
12A
100
AcDbEntity
  8
AM_6
100
AcDbText
 10
41.60000000000002
 20
20.455
 30
0.0
 40
0.5
  1
Eccentric Collar Pillow Block Bearings -(Intermediate Duty) -Tapped Base Housing
100
AcDbAttributeDefinition
  3

  2
NT
 70
     8
280
     0
  0
ATTDEF
  5
130
330
12A
100
AcDbEntity
  8
AM_6
100
AcDbText
 10
41.60000000000002
 20
19.955
 30
0.0
 40
0.5
  1
130769H
100
AcDbAttributeDefinition
  3

  2
NB
 70
     8
280
     0
  0
ATTDEF
  5
131
330
12A
100
AcDbEntity
  8
AM_6
100
AcDbText
 10
41.60000000000002
 20
19.455
 30
0.0
 40
0.5
  1
$PN.H
100
AcDbAttributeDefinition
  3

  2
NBSYN
 70
     8
280
     0
  0
ATTDEF
  5
132
330
12A
100
AcDbEntity
  8
AM_6
100
AcDbText
 10
41.60000000000002
 20
18.955
 30
0.0
 40
0.5
  1
130769
100
AcDbAttributeDefinition
  3

  2
LINA
 70
     8
280
     0
  0
ATTDEF
  5
133
330
12A
100
AcDbEntity
  8
AM_6
100
AcDbText
 10
41.60000000000002
 20
18.455
 30
0.0
 40
0.5
  1
204
100
AcDbAttributeDefinition
  3

  2
SERIES
 70
     8
280
     0
  0
ATTDEF
  5
134
330
12A
100
AcDbEntity
  8
AM_6
100
AcDbText
 10
41.60000000000002
 20
17.955
 30
0.0
 40
0.5
  1
20
100
AcDbAttributeDefinition
  3

  2
SS
 70
     8
280
     0
  0
ATTDEF
  5
135
330
12A
100
AcDbEntity
  8
AM_6
100
AcDbText
 10
41.60000000000002
 20
17.455
 30
0.0
 40
0.5
  1
130769
100
AcDbAttributeDefinition
  3

  2
PN
 70
     8
280
     0
  0
ATTDEF
  5
136
330
12A
100
AcDbEntity
  8
AM_6
100
AcDbText
 10
41.60000000000002
 20
16.955
 30
0.0
 40
0.5
  1
TB-SXV-20M
100
AcDbAttributeDefinition
  3

  2
DESCRIPTION
 70
     8
280
     0
  0
ATTDEF
  5
137
330
12A
100
AcDbEntity
  8
AM_6
100
AcDbText
 10
41.60000000000002
 20
16.455
 30
0.0
 40
0.5
  1
0.6
100
AcDbAttributeDefinition
  3

  2
W
 70
     8
280
     0
  0
ATTDEF
  5
138
330
12A
100
AcDbEntity
  8
AM_6
100
AcDbText
 10
41.60000000000002
 20
15.955
 30
0.0
 40
0.5
  1
31.0
100
AcDbAttributeDefinition
  3

  2
A
 70
     8
280
     0
  0
ATTDEF
  5
139
330
12A
100
AcDbEntity
  8
AM_6
100
AcDbText
 10
41.60000000000002
 20
15.455
 30
0.0
 40
0.5
  1
73.2
100
AcDbAttributeDefinition
  3

  2
B
 70
     8
280
     0
  0
ATTDEF
  5
13A
330
12A
100
AcDbEntity
  8
AM_6
100
AcDbText
 10
41.60000000000002
 20
14.955
 30
0.0
 40
0.5
  1
38.1
100
AcDbAttributeDefinition
  3

  2
C
 70
     8
280
     0
  0
ATTDEF
  5
13B
330
12A
100
AcDbEntity
  8
AM_6
100
AcDbText
 10
41.60000000000002
 20
14.455
 30
0.0
 40
0.5
  1
50.8
100
AcDbAttributeDefinition
  3

  2
D
 70
     8
280
     0
  0
ATTDEF
  5
13C
330
12A
100
AcDbEntity
  8
AM_6
100
AcDbText
 10
41.60000000000002
 20
13.955
 30
0.0
 40
0.5
  1
65.0
100
AcDbAttributeDefinition
  3

  2
J
 70
     8
280
     0
  0
ATTDEF
  5
13D
330
12A
100
AcDbEntity
  8
AM_6
100
AcDbText
 10
41.60000000000002
 20
13.455
 30
0.0
 40
0.5
  1
33.3
100
AcDbAttributeDefinition
  3

  2
L
 70
     8
280
     0
  0
ATTDEF
  5
13E
330
12A
100
AcDbEntity
  8
AM_6
100
AcDbText
 10
41.60000000000002
 20
12.955
 30
0.0
 40
0.5
  1
33.4
100
AcDbAttributeDefinition
  3

  2
M
 70
     8
280
     0
  0
ATTDEF
  5
13F
330
12A
100
AcDbEntity
  8
AM_6
100
AcDbText
 10
41.60000000000002
 20
12.455
 30
0.0
 40
0.5
  1
12.7
100
AcDbAttributeDefinition
  3

  2
N
 70
     8
280
     0
  0
ATTDEF
  5
140
330
12A
100
AcDbEntity
  8
AM_6
100
AcDbText
 10
41.60000000000002
 20
11.955
 30
0.0
 40
0.5
  1
M8x1.25
100
AcDbAttributeDefinition
  3

  2
R
 70
     8
280
     0
  0
ATTDEF
  5
141
330
12A
100
AcDbEntity
  8
AM_6
100
AcDbText
 10
41.60000000000002
 20
11.455
 30
0.0
 40
0.5
  1
23.4
100
AcDbAttributeDefinition
  3

  2
S
 70
     8
280
     0
  0
ATTDEF
  5
142
330
12A
100
AcDbEntity
  8
AM_6
100
AcDbText
 10
41.60000000000002
 20
10.955
 30
0.0
 40
0.5
  1
1390
100
AcDbAttributeDefinition
  3

  2
CAPS
 70
     8
280
     0
  0
ATTDEF
  5
143
330
12A
100
AcDbEntity
  8
AM_6
100
AcDbText
 10
41.60000000000002
 20
10.455
 30
0.0
 40
0.5
  1
2899
100
AcDbAttributeDefinition
  3

  2
CAPD
 70
     8
280
     0
  0
ATTDEF
  5
144
330
12A
100
AcDbEntity
  8
AM_6
100
AcDbText
 10
41.60000000000002
 20
9.955000000000002
 30
0.0
 40
0.5
  1
baldor
100
AcDbAttributeDefinition
  3

  2
COMPANY
 70
     8
280
     0
  0
LINE
  5
145
330
12A
100
AcDbEntity
  8
AM_9
100
AcDbLine
 10
-14.2
 20
7.599999999999999
 30
0.0
 11
-14.2
 21
14.15561538461538
 31
0.0
  0
LINE
  5
146
330
12A
100
AcDbEntity
  8
AM_9
100
AcDbLine
 10
-14.2
 20
-7.350000000000001
 30
0.0
 11
-14.2
 21
7.349999999999995
 31
0.0
  0
LINE
  5
147
330
12A
100
AcDbEntity
  8
AM_9
100
AcDbLine
 10
-14.2
 20
-16.66875
 30
0.0
 11
-14.2
 21
-12.0
 31
0.0
  0
LINE
  5
148
330
12A
100
AcDbEntity
  8
AM_9
100
AcDbLine
 10
-13.141666709
 20
-14.15561538461539
 30
0.0
 11
-13.141666709
 21
14.15561538461538
 31
0.0
  0
LINE
  5
149
330
12A
100
AcDbEntity
  8
AM_9
100
AcDbLine
 10
14.2
 20
7.599999999999989
 30
0.0
 11
14.2
 21
14.15561538461538
 31
0.0
  0
LINE
  5
14A
330
12A
100
AcDbEntity
  8
AM_9
100
AcDbLine
 10
14.2
 20
-7.350000000000002
 30
0.0
 11
14.2
 21
7.349999999999988
 31
0.0
  0
LINE
  5
14B
330
12A
100
AcDbEntity
  8
AM_9
100
AcDbLine
 10
14.2
 20
-16.66875
 30
0.0
 11
14.2
 21
-12.0
 31
0.0
  0
LINE
  5
14C
330
12A
100
AcDbEntity
  8
AM_9
100
AcDbLine
 10
13.14166670899998
 20
-14.15561538461539
 30
0.0
 11
13.14166670899998
 21
14.15561538461538
 31
0.0
  0
ARC
  5
14D
330
12A
100
AcDbEntity
  8
AM_9
100
AcDbCircle
 10
25.40000000000001
 20
-0.0000000000000012
 30
0.0
 40
3.323500000000007
100
AcDbArc
 50
204.6813114403691
 51
152.7197110781003
  0
ARC
  5
14E
330
12A
100
AcDbEntity
  8
AM_9
100
AcDbCircle
 10
25.40000000000012
 20
0.0000000000000021
 30
0.0
 40
3.323500000000124
100
AcDbArc
 50
168.4092288284308
 51
192.7342745497569
  0
CIRCLE
  5
14F
330
12A
100
AcDbEntity
  8
AM_9
100
AcDbCircle
 10
-25.4
 20
-0.0000000000000012
 30
0.0
 40
3.3235
  0
LINE
  5
150
330
12A
100
AcDbEntity
  8
AM_9
100
AcDbLine
 10
-16.58125
 20
-19.05
 30
0.0
 11
-16.65
 21
-19.05
 31
0.0
  0
LWPOLYLINE
  5
151
330
12A
100
AcDbEntity
  8
AM_9
100
AcDbPolyline
 90
       12
 70
     0
 43
0.0
 10
-16.58125
 20
-19.05
 10
-16.25756376500157
 20
-19.0278978935778
 10
-15.93656460018485
 20
-18.96107028690696
 10
-15.6485039787979
 20
-18.85971700623986
 10
-15.38045716550256
 20
-18.72506907327623
 10
-15.0516968583518
 20
-18.49380308124836
 10
-14.7742286624533
 20
-18.21956444671854
 10
-14.49184554507836
 20
-17.81100241792416
 10
-14.30330036940721
 20
-17.36250575167503
 10
-14.22648723330335
 20
-17.02293056846632
 10
-14.20001032260221
 20
-16.6757615110292
 10
-14.2
 20
-16.66875
  0
LINE
  5
152
330
12A
100
AcDbEntity
  8
AM_9
100
AcDbLine
 10
16.65
 20
-19.05
 30
0.0
 11
16.58124999999999
 21
-19.05
 31
0.0
  0
LWPOLYLINE
  5
153
330
12A
100
AcDbEntity
  8
AM_9
100
AcDbPolyline
 90
       12
 70
     0
 43
0.0
 10
14.2
 20
-16.66875
 10
14.20001032260221
 20
-16.6757615110292
 10
14.22593856025199
 20
-17.01926331542812
 10
14.30330036940721
 20
-17.36250575167503
 10
14.48561559490032
 20
-17.79953203145547
 10
14.77422866245329
 20
-18.21956444671854
 10
15.04367393774328
 20
-18.48704904451252
 10
15.38045716550255
 20
-18.72506907327623
 10
15.64216846007588
 20
-18.85700899378336
 10
15.93656460018485
 20
-18.96107028690696
 10
16.24660934484301
 20
-19.02636896718196
 10
16.58124999999999
 20
-19.05
  0
LINE
  5
154
330
12A
100
AcDbEntity
  8
AM_9
100
AcDbLine
 10
23.57552874392335
 20
-3.809999999999997
 30
0.0
 11
23.57552874392335
 21
13.17869230769231
 31
0.0
  0
LINE
  5
155
330
12A
100
AcDbEntity
  8
AM_9
100
AcDbLine
 10
24.5
 20
-3.809999999999997
 30
0.0
 11
24.5
 21
14.15561538461539
 31
0.0
  0
LINE
  5
156
330
12A
100
AcDbEntity
  8
AM_9
100
AcDbLine
 10
24.5
 20
-3.809999999999997
 30
0.0
 11
22.53454138773531
 21
-3.809999999999997
 31
0.0
  0
LINE
  5
157
330
12A
100
AcDbEntity
  8
AM_9
100
AcDbLine
 10
-23.57552874392334
 20
-3.809999999999997
 30
0.0
 11
-23.57552874392334
 21
13.17869230769231
 31
0.0
  0
LINE
  5
158
330
12A
100
AcDbEntity
  8
AM_9
100
AcDbLine
 10
-22.53454138773531
 20
-3.809999999999997
 30
0.0
 11
-24.5
 21
-3.809999999999997
 31
0.0
  0
LINE
  5
159
330
12A
100
AcDbEntity
  8
AM_9
100
AcDbLine
 10
-24.5
 20
14.15561538461538
 30
0.0
 11
-24.5
 21
-3.809999999999997
 31
0.0
  0
LINE
  5
15A
330
12A
100
AcDbEntity
  8
AM_9
100
AcDbLine
 10
-16.65
 20
-14.15561538461539
 30
0.0
 11
16.65
 21
-14.15561538461539
 31
0.0
  0
LINE
  5
15B
330
12A
100
AcDbEntity
  8
AM_9
100
AcDbLine
 10
-22.53454138773531
 20
-3.809999999999997
 30
0.0
 11
-22.5345413877353
 21
13.17869230769231
 31
0.0
  0
LINE
  5
15C
330
12A
100
AcDbEntity
  8
AM_9
100
AcDbLine
 10
22.5345413877353
 20
13.17869230769231
 30
0.0
 11
22.53454138773531
 21
-3.809999999999997
 31
0.0
  0
LINE
  5
15D
330
12A
100
AcDbEntity
  8
AM_9
100
AcDbLine
 10
23.5
 20
-14.15561538461539
 30
0.0
 11
23.5
 21
-3.809999999999997
 31
0.0
  0
LINE
  5
15E
330
12A
100
AcDbEntity
  8
AM_9
100
AcDbLine
 10
-23.5
 20
-3.809999999999997
 30
0.0
 11
-23.5
 21
-14.15561538461539
 31
0.0
  0
LINE
  5
15F
330
12A
100
AcDbEntity
  8
AM_7
100
AcDbLine
 10
21.2
 20
-0.000000000000002
 30
0.0
 11
29.6
 21
-0.000000000000002
 31
0.0
  0
LINE
  5
160
330
12A
100
AcDbEntity
  8
AM_7
100
AcDbLine
 10
25.4
 20
-4.200000000000002
 30
0.0
 11
25.4
 21
4.199999999999998
 31
0.0
  0
LINE
  5
161
330
12A
100
AcDbEntity
  8
AM_7
100
AcDbLine
 10
-29.6
 20
-0.000000000000002
 30
0.0
 11
-21.2
 21
-0.000000000000002
 31
0.0
  0
LINE
  5
162
330
12A
100
AcDbEntity
  8
AM_7
100
AcDbLine
 10
-25.4
 20
-4.200000000000002
 30
0.0
 11
-25.4
 21
4.199999999999998
 31
0.0
  0
LINE
  5
163
330
12A
100
AcDbEntity
  8
AM_7
100
AcDbLine
 10
0.0
 20
20.955
 30
0.0
 11
0.0
 21
-24.95
 31
0.0
  0
LINE
  5
164
330
12A
100
AcDbEntity
  8
AM_4
100
AcDbLine
 10
-16.58125
 20
19.05
 30
0.0
 11
-34.06000000000001
 21
19.05
 31
0.0
  0
LWPOLYLINE
  5
165
330
12A
100
AcDbEntity
  8
AM_4
100
AcDbPolyline
 90
       12
 70
     0
 43
0.0
 10
-14.2
 20
16.66875
 10
-14.20001032260221
 20
16.67576151102945
 10
-14.225938560252
 20
17.01926331542813
 10
-14.30330036940721
 20
17.36250575167503
 10
-14.48561559490033
 20
17.79953203145547
 10
-14.77422866245329
 20
18.21956444671854
 10
-15.04367393774329
 20
18.48704904451252
 10
-15.38045716550256
 20
18.72506907327623
 10
-15.64216846007588
 20
18.85700899378336
 10
-15.93656460018485
 20
18.96107028690696
 10
-16.24660934484301
 20
19.02636896718195
 10
-16.58125
 20
19.05
  0
LINE
  5
166
330
12A
100
AcDbEntity
  8
AM_4
100
AcDbLine
 10
-14.2
 20
14.15561538461538
 30
0.0
 11
-14.2
 21
16.66875
 31
0.0
  0
LINE
  5
167
330
12A
100
AcDbEntity
  8
AM_4
100
AcDbLine
 10
-16.65
 20
-19.05
 30
0.0
 11
-34.06
 21
-19.05
 31
0.0
  0
LINE
  5
168
330
12A
100
AcDbEntity
  8
AM_4
100
AcDbLine
 10
34.06
 20
-19.05
 30
0.0
 11
16.65
 21
-19.05
 31
0.0
  0
ARC
  5
169
330
12A
100
AcDbEntity
  8
AM_4
100
AcDbCircle
 10
34.05999999999999
 20
16.50999999999999
 30
0.0
 40
2.540000000000013
100
AcDbArc
 50
11.18855867148483
 51
90.0
  0
LINE
  5
16A
330
12A
100
AcDbEntity
  8
AM_4
100
AcDbLine
 10
34.06
 20
19.05
 30
0.0
 11
16.58125
 21
19.05
 31
0.0
  0
LWPOLYLINE
  5
16B
330
12A
100
AcDbEntity
  8
AM_4
100
AcDbPolyline
 90
       12
 70
     0
 43
0.0
 10
16.58125
 20
19.05
 10
16.25756376500157
 20
19.0278978935778
 10
15.93656460018485
 20
18.96107028690696
 10
15.6485039787979
 20
18.85971700623986
 10
15.38045716550256
 20
18.72506907327623
 10
15.0516968583518
 20
18.49380308124836
 10
14.77422866245329
 20
18.21956444671854
 10
14.49184554507836
 20
17.81100241792417
 10
14.30330036940721
 20
17.36250575167503
 10
14.22648723330335
 20
17.02293056846633
 10
14.20001032260221
 20
16.67576151102888
 10
14.2
 20
16.66875000000002
  0
LINE
  5
16C
330
12A
100
AcDbEntity
  8
AM_4
100
AcDbLine
 10
14.2
 20
14.15561538461537
 30
0.0
 11
14.2
 21
16.66874999999999
 31
0.0
  0
LINE
  5
16D
330
12A
100
AcDbEntity
  8
AM_4
100
AcDbLine
 10
16.74
 20
14.15561538461538
 30
0.0
 11
16.74
 21
19.05
 31
0.0
  0
ARC
  5
16E
330
12A
100
AcDbEntity
  8
AM_4
100
AcDbCircle
 10
34.06000000000002
 20
-16.51000000000002
 30
0.0
 40
2.539999999999985
100
AcDbArc
 50
270.0
 51
348.8114413285156
  0
LINE
  5
16F
330
12A
100
AcDbEntity
  8
AM_4
100
AcDbLine
 10
16.74
 20
-19.05
 30
0.0
 11
16.74
 21
-14.15561538461539
 31
0.0
  0
ARC
  5
170
330
12A
100
AcDbEntity
  8
AM_4
100
AcDbCircle
 10
-34.06000000000002
 20
16.51000000000002
 30
0.0
 40
2.539999999999981
100
AcDbArc
 50
90.0
 51
168.8114413285157
  0
LINE
  5
171
330
12A
100
AcDbEntity
  8
AM_4
100
AcDbLine
 10
-16.73999999999999
 20
14.15561538461538
 30
0.0
 11
-16.73999999999999
 21
19.05
 31
0.0
  0
ARC
  5
172
330
12A
100
AcDbEntity
  8
AM_4
100
AcDbCircle
 10
-34.05999999999999
 20
-16.50999999999999
 30
0.0
 40
2.540000000000013
100
AcDbArc
 50
191.1885586714848
 51
270.0
  0
LINE
  5
173
330
12A
100
AcDbEntity
  8
AM_4
100
AcDbLine
 10
-16.73999999999999
 20
-19.05
 30
0.0
 11
-16.73999999999999
 21
-14.15561538461539
 31
0.0
  0
LINE
  5
174
330
12A
100
AcDbEntity
  8
AM_4
100
AcDbLine
 10
-24.5
 20
14.15561538461539
 30
0.0
 11
24.5
 21
14.15561538461539
 31
0.0
  0
LINE
  5
175
330
12A
100
AcDbEntity
  8
AM_4
100
AcDbLine
 10
23.57552874392333
 20
13.17869230769231
 30
0.0
 11
23.57552874392333
 21
14.15561538461539
 31
0.0
  0
LINE
  5
176
330
12A
100
AcDbEntity
  8
AM_4
100
AcDbLine
 10
-23.57552874392334
 20
13.17869230769231
 30
0.0
 11
-23.57552874392334
 21
14.15561538461539
 31
0.0
  0
LINE
  5
177
330
12A
100
AcDbEntity
  8
AM_4
100
AcDbLine
 10
16.65
 20
-14.15561538461539
 30
0.0
 11
24.5
 21
-14.15561538461539
 31
0.0
  0
LINE
  5
178
330
12A
100
AcDbEntity
  8
AM_4
100
AcDbLine
 10
-24.5
 20
-14.15561538461539
 30
0.0
 11
-16.65
 21
-14.15561538461539
 31
0.0
  0
LINE
  5
179
330
12A
100
AcDbEntity
  8
AM_4
100
AcDbLine
 10
22.5345413877353
 20
13.17869230769228
 30
0.0
 11
22.5345413877353
 21
14.15561538461539
 31
0.0
  0
LINE
  5
17A
330
12A
100
AcDbEntity
  8
AM_4
100
AcDbLine
 10
-22.5345413877353
 20
14.15561538461539
 30
0.0
 11
-22.5345413877353
 21
13.17869230769228
 31
0.0
  0
LINE
  5
17B
330
12A
100
AcDbEntity
  8
AM_4
100
AcDbLine
 10
-36.55172456245332
 20
17.00285769230769
 30
0.0
 11
-24.5
 21
17.00285769230769
 31
0.0
  0
LWPOLYLINE
  5
17C
330
12A
100
AcDbEntity
  8
AM_4
100
AcDbPolyline
 90
        4
 70
     0
 43
0.0
 10
-36.55172456245332
 20
17.00285769230769
 10
-36.58519817646294
 20
16.78381411502746
 10
-36.59945350759333
 20
16.56268664699838
 10
-36.60000000000001
 20
16.51000000000001
  0
LWPOLYLINE
  5
17D
330
12A
100
AcDbEntity
  8
AM_4
100
AcDbPolyline
 90
        4
 70
     0
 43
0.0
 10
36.6
 20
16.51
 10
36.59033453315303
 20
16.73137558657905
 10
36.56141169265101
 20
16.95106637127401
 10
36.55172456245331
 20
17.00285769230769
  0
LINE
  5
17E
330
12A
100
AcDbEntity
  8
AM_4
100
AcDbLine
 10
24.5
 20
17.00285769230769
 30
0.0
 11
36.55172456245331
 21
17.00285769230769
 31
0.0
  0
LINE
  5
17F
330
12A
100
AcDbEntity
  8
AM_4
100
AcDbLine
 10
24.5
 20
17.00285769230769
 30
0.0
 11
24.5
 21
14.15561538461539
 31
0.0
  0
LWPOLYLINE
  5
180
330
12A
100
AcDbEntity
  8
AM_4
100
AcDbPolyline
 90
        5
 70
     0
 43
0.0
 10
23.57552874392335
 20
13.17869230769231
 10
24.06685502439037
 20
13.48350863174483
 10
24.37501800615741
 20
13.79344009401586
 10
24.49767238285931
 20
14.10612792893576
 10
24.5
 20
14.15561538461538
  0
LINE
  5
181
330
12A
100
AcDbEntity
  8
AM_4
100
AcDbLine
 10
22.5345413877353
 20
13.17869230769231
 30
0.0
 11
23.57552874392335
 21
13.17869230769231
 31
0.0
  0
LWPOLYLINE
  5
182
330
12A
100
AcDbEntity
  8
AM_4
100
AcDbPolyline
 90
       31
 70
     0
 43
0.0
 10
22.53454138773531
 20
13.17869230769231
 10
21.86775236940653
 20
12.89460610351807
 10
21.03453655143668
 20
12.62011694139121
 10
20.04123520930997
 20
12.3573138495766
 10
18.89540796601172
 20
12.10819691828778
 10
17.60577525873286
 20
11.87466207779279
 10
16.18215197107729
 20
11.65848666923998
 10
14.63537273587131
 20
11.46131591801872
 10
12.97720947706568
 20
11.28465041260076
 10
11.22028181828625
 20
11.12983468415588
 10
9.377961039878269
 20
10.99804697385783
 10
7.464268315389119
 20
10.89029026575758
 10
5.493768001971421
 20
10.80738465346906
 10
3.481456796830906
 20
10.74996109876155
 10
1.442649603305419
 20
10.71845662955967
 10
-0.6071370247968696
 20
10.71311101389696
 10
-2.652302973541095
 20
10.73396493513639
 10
-4.677283295152352
 20
10.78085968234538
 10
-6.666666666666628
 20
10.85343835818186
 10
-8.605312679404177
 20
10.9511485950985
 10
-10.4784670666216
 20
11.07324675919331
 10
-12.27187399239063
 20
11.21880360971265
 10
-13.97188454711746
 20
11.38671137113443
 10
-15.56556062398617
 20
11.57569216400875
 10
-17.04077338576387
 20
11.78430773039213
 10
-18.38629557257563
 20
12.01097037985885
 10
-19.59188694813126
 20
12.25395507278383
 10
-20.64837223410684
 20
12.51141254893574
 10
-21.54771093955283
 20
12.78138340146398
 10
-22.28305855388523
 20
13.06181298916797
 10
-22.53454138773531
 20
13.17869230769231
  0
LINE
  5
183
330
12A
100
AcDbEntity
  8
AM_4
100
AcDbLine
 10
-23.57552874392334
 20
13.17869230769231
 30
0.0
 11
-22.5345413877353
 21
13.17869230769231
 31
0.0
  0
LWPOLYLINE
  5
184
330
12A
100
AcDbEntity
  8
AM_4
100
AcDbPolyline
 90
        5
 70
     0
 43
0.0
 10
-24.5
 20
14.15561538461538
 10
-24.40677010324777
 20
13.84270950743153
 10
-24.1277899487991
 20
13.53218503291079
 10
-23.66518274408218
 20
13.22640523980405
 10
-23.57552874392334
 20
13.17869230769231
  0
LINE
  5
185
330
12A
100
AcDbEntity
  8
AM_4
100
AcDbLine
 10
-24.5
 20
17.00285769230769
 30
0.0
 11
-24.5
 21
14.15561538461539
 31
0.0
  0
LINE
  5
186
330
12A
100
AcDbEntity
  8
AM_4
100
AcDbLine
 10
36.55172456245331
 20
-17.00285769230769
 30
0.0
 11
24.5
 21
-17.00285769230769
 31
0.0
  0
LWPOLYLINE
  5
187
330
12A
100
AcDbEntity
  8
AM_4
100
AcDbPolyline
 90
        4
 70
     0
 43
0.0
 10
36.55172456245331
 20
-17.00285769230769
 10
36.58519817646293
 20
-16.78381411502746
 10
36.59945350759332
 20
-16.56268664699838
 10
36.6
 20
-16.51000000000001
  0
LINE
  5
188
330
12A
100
AcDbEntity
  8
AM_4
100
AcDbLine
 10
36.6
 20
16.51
 30
0.0
 11
36.59999999999999
 21
-16.51000000000001
 31
0.0
  0
LINE
  5
189
330
12A
100
AcDbEntity
  8
AM_4
100
AcDbLine
 10
-36.60000000000001
 20
16.51000000000001
 30
0.0
 11
-36.6
 21
-16.50999999999999
 31
0.0
  0
LWPOLYLINE
  5
18A
330
12A
100
AcDbEntity
  8
AM_4
100
AcDbPolyline
 90
        4
 70
     0
 43
0.0
 10
-36.6
 20
-16.50999999999999
 10
-36.59033453315304
 20
-16.73137558657904
 10
-36.56141169265101
 20
-16.951066371274
 10
-36.55172456245331
 20
-17.00285769230769
  0
LINE
  5
18B
330
12A
100
AcDbEntity
  8
AM_4
100
AcDbLine
 10
-24.5
 20
-17.00285769230769
 30
0.0
 11
-36.55172456245331
 21
-17.00285769230769
 31
0.0
  0
LINE
  5
18C
330
12A
100
AcDbEntity
  8
AM_4
100
AcDbLine
 10
-24.5
 20
-14.15561538461539
 30
0.0
 11
-24.5
 21
-17.00285769230769
 31
0.0
  0
LWPOLYLINE
  5
18D
330
12A
100
AcDbEntity
  8
AM_4
100
AcDbPolyline
 90
       37
 70
     0
 43
0.0
 10
-23.5
 20
-14.15561538461539
 10
-23.41057540515602
 20
-13.85548117588802
 10
-23.14298219578689
 20
-13.55763116971506
 10
-22.69925691779311
 20
-13.26433218449023
 10
-22.08277658846885
 20
-12.97781640258986
 10
-21.29823299536128
 20
-12.70026438211717
 10
-20.35159698893431
 20
-12.43378846153846
 10
-19.25007304079132
 20
-12.18041668351189
 10
-18.002044413296
 20
-11.9420773602583
 10
-16.61700935788389
 20
-11.72058439794087
 10
-15.1055088276337
 20
-11.51762349174394
 10
-13.47904625424961
 20
-11.33473929671482
 10
-11.75000000000003
 20
-11.17332367200617
 10
-9.931529150906469
 20
-11.03460508798745
 10
-8.03747336815325
 20
-10.91963927684361
 10
-6.082247559909277
 20
-10.8293011978157
 10
-4.080732175172905
 20
-10.76427837823277
 10
-2.048159954570012
 20
-10.72506568101368
 10
-0.0000000000000475
 20
-10.71196153846154
 10
2.048159954569917
 20
-10.72506568101367
 10
4.080732175172813
 20
-10.76427837823277
 10
6.082247559909185
 20
-10.8293011978157
 10
8.03747336815316
 20
-10.9196392768436
 10
9.931529150906382
 20
-11.03460508798744
 10
11.74999999999995
 20
-11.17332367200616
 10
13.47904625424953
 20
-11.33473929671481
 10
15.10550882763362
 20
-11.51762349174393
 10
16.61700935788382
 20
-11.72058439794086
 10
18.00204441329594
 20
-11.94207736025829
 10
19.25007304079126
 20
-12.18041668351188
 10
20.35159698893427
 20
-12.43378846153845
 10
21.29823299536124
 20
-12.70026438211716
 10
22.08277658846882
 20
-12.97781640258985
 10
22.69925691779308
 20
-13.26433218449021
 10
23.14298219578687
 20
-13.55763116971504
 10
23.41057540515601
 20
-13.85548117588801
 10
23.5
 20
-14.15561538461537
  0
LINE
  5
18E
330
12A
100
AcDbEntity
  8
AM_4
100
AcDbLine
 10
24.5
 20
-14.15561538461539
 30
0.0
 11
24.5
 21
-17.00285769230769
 31
0.0
  0
LWPOLYLINE
  5
18F
330
12A
100
AcDbEntity
  8
AM_4
100
AcDbPolyline
 90
       37
 70
     0
 43
0.0
 10
36.59999999999999
 20
14.88830769230768
 10
36.46072595015788
 20
14.42086462680038
 10
36.04396376024681
 20
13.95697908527142
 10
35.3528852421799
 20
13.5001815167936
 10
34.39274992076425
 20
13.05394842668495
 10
33.17086500554139
 20
12.62167591820408
 10
31.69652977851045
 20
12.20665384615384
 10
29.9809648209771
 20
11.81204077909969
 10
28.0372266181546
 20
11.44083996075579
 10
25.88010819142765
 20
11.09587645348694
 10
23.52602651452735
 20
10.77977563787811
 10
20.9928975704483
 20
10.49494323200297
 10
18.30000000000002
 20
10.24354698245673
 10
15.46782837970962
 20
10.02750016649566
 10
12.5179372457195
 20
9.848447030841848
 10
9.472777050752292
 20
9.707750277972861
 10
6.355523302609686
 20
9.606480695133056
 10
3.189900184564329
 20
9.545409004996085
 10
0.0000000000000428
 20
9.524999999999991
 10
-3.189900184564244
 20
9.545409004996085
 10
-6.355523302609603
 20
9.606480695133053
 10
-9.47277705075221
 20
9.707750277972858
 10
-12.51793724571943
 20
9.848447030841843
 10
-15.46782837970955
 20
10.02750016649565
 10
-18.29999999999995
 20
10.24354698245672
 10
-20.99289757044824
 20
10.49494323200295
 10
-23.52602651452729
 20
10.7797756378781
 10
-25.8801081914276
 20
11.09587645348693
 10
-28.03722661815456
 20
11.44083996075578
 10
-29.98096482097707
 20
11.81204077909968
 10
-31.69652977851042
 20
12.20665384615383
 10
-33.17086500554137
 20
12.62167591820407
 10
-34.39274992076423
 20
13.05394842668493
 10
-35.35288524217989
 20
13.50018151679359
 10
-36.04396376024681
 20
13.95697908527141
 10
-36.46072595015789
 20
14.42086462680036
 10
-36.60000000000002
 20
14.88830769230767
  0
LWPOLYLINE
  5
190
330
12A
100
AcDbEntity
  8
AM_4
100
AcDbPolyline
 90
       37
 70
     0
 43
0.0
 10
-36.59999999999999
 20
-14.88830769230769
 10
-36.46072595015788
 20
-14.42086462680039
 10
-36.04396376024681
 20
-13.95697908527143
 10
-35.3528852421799
 20
-13.50018151679362
 10
-34.39274992076425
 20
-13.05394842668496
 10
-33.17086500554139
 20
-12.6216759182041
 10
-31.69652977851047
 20
-12.20665384615385
 10
-29.98096482097711
 20
-11.8120407790997
 10
-28.03722661815462
 20
-11.4408399607558
 10
-25.88010819142766
 20
-11.09587645348695
 10
-23.52602651452737
 20
-10.77977563787812
 10
-20.99289757044832
 20
-10.49494323200297
 10
-18.30000000000004
 20
-10.24354698245674
 10
-15.46782837970964
 20
-10.02750016649567
 10
-12.51793724571952
 20
-9.848447030841854
 10
-9.472777050752311
 20
-9.707750277972869
 10
-6.355523302609708
 20
-9.606480695133062
 10
-3.189900184564349
 20
-9.545409004996092
 10
-0.0000000000000636
 20
-9.524999999999997
 10
3.189900184564223
 20
-9.54540900499609
 10
6.355523302609583
 20
-9.606480695133058
 10
9.47277705075219
 20
-9.707750277972863
 10
12.51793724571941
 20
-9.848447030841847
 10
15.46782837970953
 20
-10.02750016649566
 10
18.29999999999993
 20
-10.24354698245673
 10
20.99289757044822
 20
-10.49494323200296
 10
23.52602651452727
 20
-10.7797756378781
 10
25.88010819142758
 20
-11.09587645348694
 10
28.03722661815454
 20
-11.44083996075579
 10
29.98096482097705
 20
-11.81204077909968
 10
31.69652977851041
 20
-12.20665384615383
 10
33.17086500554135
 20
-12.62167591820408
 10
34.39274992076422
 20
-13.05394842668494
 10
35.35288524217989
 20
-13.50018151679359
 10
36.04396376024681
 20
-13.95697908527141
 10
36.46072595015789
 20
-14.42086462680037
 10
36.60000000000002
 20
-14.88830769230767
  0
ARC
  5
191
330
12A
100
AcDbEntity
  8
AM_5
100
AcDbCircle
 10
25.4
 20
-0.0000000000000002
 30
0.0
 40
4.0
100
AcDbArc
 50
75.00000000000001
 51
14.99999999999997
  0
ARC
  5
192
330
12A
100
AcDbEntity
  8
AM_5
100
AcDbCircle
 10
-25.4
 20
-0.0000000000000002
 30
0.0
 40
4.0
100
AcDbArc
 50
75.00000000000001
 51
14.99999999999997
  0
ENDBLK
  5
12D
330
12A
100
AcDbEntity
  8
0
100
AcDbBlockEnd
  0
ENDSEC
  0
SECTION
  2
ENTITIES
  0
INSERT
  5
6F
330
1F
100
AcDbEntity
  8
0
100
AcDbBlockReference
  2
1_130769_4
 10
0.0
 20
0.0
 30
0.0
  0
POINT
  5
194
330
1F
100
AcDbEntity
  8
ConnectionPoints
100
AcDbPoint
 10
0.0
 20
-23.4
 30
0.0000000000000014
  0
POINT
  5
195
330
1F
100
AcDbEntity
  8
ConnectionPoints
100
AcDbPoint
 10
25.88010819142764
 20
0.0000000000000013
 30
20.88010819142764
  0
POINT
  5
196
330
1F
100
AcDbEntity
  8
ConnectionPoints
100
AcDbPoint
 10
0.0
 20
-23.4
 30
0.0000000000000014
  0
ENDSEC
  0
SECTION
  2
OBJECTS
  0
DICTIONARY
  5
C
330
0
100
AcDbDictionary
281
     1
  3
ACAD_DETAILVIEWSTYLE
350
19E
  3
ACAD_GROUP
350
D
  3
ACAD_LAYOUT
350
1A
  3
ACAD_MATERIAL
350
43
  3
ACAD_MLEADERSTYLE
350
6B
  3
ACAD_MLINESTYLE
350
17
  3
ACAD_PLOTSETTINGS
350
19
  3
ACAD_PLOTSTYLENAME
350
E
  3
ACAD_SCALELIST
350
47
  3
ACAD_SECTIONVIEWSTYLE
350
19F
  3
ACAD_TABLESTYLE
350
69
  3
ACAD_VISUALSTYLE
350
2A
  3
ACDB_RECOMPOSE_DATA
350
19B
  3
AcDbVariableDictionary
350
197
  0
SUN
  5
6D
330
29
100
AcDbSun
 90
        1
290
     0
 63
     7
421
 16777215
 40
1.0
291
     1
 91
  2455826
 92
 54000000
292
     0
 70
     2
 71
   256
280
     1
  0
DICTIONARY
  5
19E
102
{ACAD_REACTORS
330
C
102
}
330
C
100
AcDbDictionary
281
     1
  0
DICTIONARY
  5
D
102
{ACAD_REACTORS
330
C
102
}
330
C
100
AcDbDictionary
281
     1
  0
DICTIONARY
  5
1A
102
{ACAD_REACTORS
330
C
102
}
330
C
100
AcDbDictionary
281
     1
  3
Layout1
350
1E
  3
Layout2
350
26
  3
Model
350
22
  0
DICTIONARY
  5
43
102
{ACAD_REACTORS
330
C
102
}
330
C
100
AcDbDictionary
281
     1
  3
ByBlock
350
45
  3
ByLayer
350
44
  3
Global
350
46
  0
DICTIONARY
  5
6B
102
{ACAD_REACTORS
330
C
102
}
330
C
100
AcDbDictionary
281
     1
  3
Standard
350
6C
  0
DICTIONARY
  5
17
102
{ACAD_REACTORS
330
C
102
}
330
C
100
AcDbDictionary
281
     1
  3
Standard
350
18
  0
DICTIONARY
  5
19
102
{ACAD_REACTORS
330
C
102
}
330
C
100
AcDbDictionary
281
     1
  0
ACDBDICTIONARYWDFLT
  5
E
102
{ACAD_REACTORS
330
C
102
}
330
C
100
AcDbDictionary
281
     1
  3
Normal
350
F
100
AcDbDictionaryWithDefault
340
F
  0
DICTIONARY
  5
47
102
{ACAD_REACTORS
330
C
102
}
330
C
100
AcDbDictionary
281
     1
  3
A0
350
48
  3
A1
350
49
  3
A2
350
4A
  3
A3
350
4B
  3
A4
350
4C
  3
A5
350
4D
  3
A6
350
4E
  3
A7
350
4F
  3
A8
350
50
  3
A9
350
51
  3
B0
350
52
  3
B1
350
53
  3
B2
350
54
  3
B3
350
55
  3
B4
350
56
  3
B5
350
57
  3
B6
350
58
  3
B7
350
59
  3
B8
350
5A
  3
B9
350
5B
  3
C0
350
5C
  3
C1
350
5D
  3
C2
350
5E
  3
C3
350
5F
  3
C4
350
60
  3
C5
350
61
  3
C6
350
62
  3
C7
350
63
  3
C8
350
64
  3
C9
350
65
  3
D0
350
66
  3
D1
350
67
  3
D2
350
68
  0
DICTIONARY
  5
19F
102
{ACAD_REACTORS
330
C
102
}
330
C
100
AcDbDictionary
281
     1
  0
DICTIONARY
  5
69
102
{ACAD_REACTORS
330
C
102
}
330
C
100
AcDbDictionary
281
     1
  3
Standard
350
6A
  0
DICTIONARY
  5
2A
102
{ACAD_REACTORS
330
C
102
}
330
C
100
AcDbDictionary
281
     1
  3
2dWireframe
350
2F
  3
Basic
350
32
  3
Brighten
350
36
  3
ColorChange
350
3A
  3
Conceptual
350
34
  3
Dim
350
35
  3
EdgeColorOff
350
3D
  3
Facepattern
350
39
  3
Flat
350
2B
  3
FlatWithEdges
350
2C
  3
Gouraud
350
2D
  3
GouraudWithEdges
350
2E
  3
Hidden
350
31
  3
JitterOff
350
3B
  3
Linepattern
350
38
  3
OverhangOff
350
3C
  3
Realistic
350
33
  3
Shaded
350
42
  3
Shaded with edges
350
41
  3
Shades of Gray
350
3E
  3
Sketchy
350
3F
  3
Thicken
350
37
  3
Wireframe
350
30
  3
X-Ray
350
40
  0
XRECORD
  5
19B
102
{ACAD_REACTORS
330
C
102
}
330
C
100
AcDbXrecord
280
     1
 90
        1
330
6A
  0
DICTIONARY
  5
197
102
{ACAD_REACTORS
330
C
102
}
330
C
100
AcDbDictionary
281
     1
  3
CANNOSCALE
350
198
  3
CMLEADERSTYLE
350
19D
  3
CTABLESTYLE
350
19C
  0
LAYOUT
  5
1E
102
{ACAD_REACTORS
330
1A
102
}
330
1A
100
AcDbPlotSettings
  1

  2
none_device
  4

  6

 40
0.0
 41
0.0
 42
0.0
 43
0.0
 44
0.0
 45
0.0
 46
0.0
 47
0.0
 48
0.0
 49
0.0
140
0.0
141
0.0
142
1.0
143
1.0
 70
   688
 72
     1
 73
     0
 74
     5
  7

 75
    16
 76
     0
 77
     2
 78
   300
147
1.0
148
0.0
149
0.0
100
AcDbLayout
  1
Layout1
 70
     1
 71
     1
 10
0.0
 20
0.0
 11
420.0
 21
297.0
 12
0.0
 22
0.0
 32
0.0
 14
1.000000000000000E+20
 24
1.000000000000000E+20
 34
1.000000000000000E+20
 15
-1.000000000000000E+20
 25
-1.000000000000000E+20
 35
-1.000000000000000E+20
146
0.0
 13
0.0
 23
0.0
 33
0.0
 16
1.0
 26
0.0
 36
0.0
 17
0.0
 27
1.0
 37
0.0
 76
     0
330
1B
  0
LAYOUT
  5
26
102
{ACAD_REACTORS
330
1A
102
}
330
1A
100
AcDbPlotSettings
  1

  2
none_device
  4

  6

 40
0.0
 41
0.0
 42
0.0
 43
0.0
 44
0.0
 45
0.0
 46
0.0
 47
0.0
 48
0.0
 49
0.0
140
0.0
141
0.0
142
1.0
143
1.0
 70
   688
 72
     1
 73
     0
 74
     5
  7

 75
    16
 76
     0
 77
     2
 78
   300
147
1.0
148
0.0
149
0.0
100
AcDbLayout
  1
Layout2
 70
     1
 71
     2
 10
0.0
 20
0.0
 11
0.0
 21
0.0
 12
0.0
 22
0.0
 32
0.0
 14
0.0
 24
0.0
 34
0.0
 15
0.0
 25
0.0
 35
0.0
146
0.0
 13
0.0
 23
0.0
 33
0.0
 16
1.0
 26
0.0
 36
0.0
 17
0.0
 27
1.0
 37
0.0
 76
     0
330
23
  0
LAYOUT
  5
22
102
{ACAD_REACTORS
330
1A
102
}
330
1A
100
AcDbPlotSettings
  1

  2
none_device
  4
Letter_(8.50_x_11.00_Inches)
  6

 40
6.35
 41
6.35
 42
6.35000508
 43
6.35000508
 44
215.9
 45
279.4
 46
0.0
 47
0.0
 48
0.0
 49
0.0
140
0.0
141
0.0
142
1.0
143
1.0
 70
  1712
 72
     1
 73
     0
 74
     0
  7

 75
     0
 76
     0
 77
     2
 78
   300
147
1.0
148
0.0
149
0.0
100
AcDbLayout
  1
Model
 70
     1
 71
     0
 10
0.0
 20
0.0
 11
420.0
 21
297.0
 12
0.0
 22
0.0
 32
0.0
 14
1.000000000000000E+20
 24
1.000000000000000E+20
 34
1.000000000000000E+20
 15
-1.000000000000000E+20
 25
-1.000000000000000E+20
 35
-1.000000000000000E+20
146
0.0
 13
0.0
 23
0.0
 33
0.0
 16
1.0
 26
0.0
 36
0.0
 17
0.0
 27
1.0
 37
0.0
 76
     0
330
1F
331
29
  0
MATERIAL
  5
45
102
{ACAD_REACTORS
330
43
102
}
330
43
100
AcDbMaterial
  1
ByBlock
 72
     1
 94
      127
  0
MATERIAL
  5
44
102
{ACAD_REACTORS
330
43
102
}
330
43
100
AcDbMaterial
  1
ByLayer
 72
     1
 94
      127
  0
MATERIAL
  5
46
102
{ACAD_REACTORS
330
43
102
}
330
43
100
AcDbMaterial
  1
Global
 72
     1
 94
      127
  0
MLEADERSTYLE
  5
6C
102
{ACAD_REACTORS
330
6B
102
}
330
6B
100
AcDbMLeaderStyle
179
     2
170
     2
171
     1
172
     0
 90
        2
 40
0.0
 41
0.0
173
     1
 91
-1056964608
340
14
 92
       -2
290
     1
 42
2.0
291
     1
 43
8.0
  3
Standard
341
0
 44
4.0
300

342
11
174
     1
178
     6
175
     1
176
     0
 93
-1056964608
 45
4.0
292
     0
297
     0
 46
4.0
343
0
 94
-1056964608
 47
1.0
 49
1.0
140
1.0
293
     1
141
0.0
294
     1
177
     0
142
1.0
295
     0
296
     0
143
3.75
271
     0
272
     9
273
     9
298
     0
  0
MLINESTYLE
  5
18
102
{ACAD_REACTORS
330
17
102
}
330
17
100
AcDbMlineStyle
  2
Standard
 70
     0
  3

 62
   256
 51
90.0
 52
90.0
 71
     2
 49
0.5
 62
   256
  6
BYLAYER
 49
-0.5
 62
   256
  6
BYLAYER
  0
ACDBPLACEHOLDER
  5
F
102
{ACAD_REACTORS
330
E
102
}
330
E
  0
SCALE
  5
48
102
{ACAD_REACTORS
330
47
102
}
330
47
100
AcDbScale
 70
     0
300
1:1
140
1.0
141
1.0
290
     1
  0
SCALE
  5
49
102
{ACAD_REACTORS
330
47
102
}
330
47
100
AcDbScale
 70
     0
300
1:2
140
1.0
141
2.0
290
     0
  0
SCALE
  5
4A
102
{ACAD_REACTORS
330
47
102
}
330
47
100
AcDbScale
 70
     0
300
1:4
140
1.0
141
4.0
290
     0
  0
SCALE
  5
4B
102
{ACAD_REACTORS
330
47
102
}
330
47
100
AcDbScale
 70
     0
300
1:5
140
1.0
141
5.0
290
     0
  0
SCALE
  5
4C
102
{ACAD_REACTORS
330
47
102
}
330
47
100
AcDbScale
 70
     0
300
1:8
140
1.0
141
8.0
290
     0
  0
SCALE
  5
4D
102
{ACAD_REACTORS
330
47
102
}
330
47
100
AcDbScale
 70
     0
300
1:10
140
1.0
141
10.0
290
     0
  0
SCALE
  5
4E
102
{ACAD_REACTORS
330
47
102
}
330
47
100
AcDbScale
 70
     0
300
1:16
140
1.0
141
16.0
290
     0
  0
SCALE
  5
4F
102
{ACAD_REACTORS
330
47
102
}
330
47
100
AcDbScale
 70
     0
300
1:20
140
1.0
141
20.0
290
     0
  0
SCALE
  5
50
102
{ACAD_REACTORS
330
47
102
}
330
47
100
AcDbScale
 70
     0
300
1:30
140
1.0
141
30.0
290
     0
  0
SCALE
  5
51
102
{ACAD_REACTORS
330
47
102
}
330
47
100
AcDbScale
 70
     0
300
1:40
140
1.0
141
40.0
290
     0
  0
SCALE
  5
52
102
{ACAD_REACTORS
330
47
102
}
330
47
100
AcDbScale
 70
     0
300
1:50
140
1.0
141
50.0
290
     0
  0
SCALE
  5
53
102
{ACAD_REACTORS
330
47
102
}
330
47
100
AcDbScale
 70
     0
300
1:100
140
1.0
141
100.0
290
     0
  0
SCALE
  5
54
102
{ACAD_REACTORS
330
47
102
}
330
47
100
AcDbScale
 70
     0
300
2:1
140
2.0
141
1.0
290
     0
  0
SCALE
  5
55
102
{ACAD_REACTORS
330
47
102
}
330
47
100
AcDbScale
 70
     0
300
4:1
140
4.0
141
1.0
290
     0
  0
SCALE
  5
56
102
{ACAD_REACTORS
330
47
102
}
330
47
100
AcDbScale
 70
     0
300
8:1
140
8.0
141
1.0
290
     0
  0
SCALE
  5
57
102
{ACAD_REACTORS
330
47
102
}
330
47
100
AcDbScale
 70
     0
300
10:1
140
10.0
141
1.0
290
     0
  0
SCALE
  5
58
102
{ACAD_REACTORS
330
47
102
}
330
47
100
AcDbScale
 70
     0
300
100:1
140
100.0
141
1.0
290
     0
  0
SCALE
  5
59
102
{ACAD_REACTORS
330
47
102
}
330
47
100
AcDbScale
 70
     0
300
1/128" = 1'-0"
140
0.0078125
141
12.0
290
     0
  0
SCALE
  5
5A
102
{ACAD_REACTORS
330
47
102
}
330
47
100
AcDbScale
 70
     0
300
1/64" = 1'-0"
140
0.015625
141
12.0
290
     0
  0
SCALE
  5
5B
102
{ACAD_REACTORS
330
47
102
}
330
47
100
AcDbScale
 70
     0
300
1/32" = 1'-0"
140
0.03125
141
12.0
290
     0
  0
SCALE
  5
5C
102
{ACAD_REACTORS
330
47
102
}
330
47
100
AcDbScale
 70
     0
300
1/16" = 1'-0"
140
0.0625
141
12.0
290
     0
  0
SCALE
  5
5D
102
{ACAD_REACTORS
330
47
102
}
330
47
100
AcDbScale
 70
     0
300
3/32" = 1'-0"
140
0.09375
141
12.0
290
     0
  0
SCALE
  5
5E
102
{ACAD_REACTORS
330
47
102
}
330
47
100
AcDbScale
 70
     0
300
1/8" = 1'-0"
140
0.125
141
12.0
290
     0
  0
SCALE
  5
5F
102
{ACAD_REACTORS
330
47
102
}
330
47
100
AcDbScale
 70
     0
300
3/16" = 1'-0"
140
0.1875
141
12.0
290
     0
  0
SCALE
  5
60
102
{ACAD_REACTORS
330
47
102
}
330
47
100
AcDbScale
 70
     0
300
1/4" = 1'-0"
140
0.25
141
12.0
290
     0
  0
SCALE
  5
61
102
{ACAD_REACTORS
330
47
102
}
330
47
100
AcDbScale
 70
     0
300
3/8" = 1'-0"
140
0.375
141
12.0
290
     0
  0
SCALE
  5
62
102
{ACAD_REACTORS
330
47
102
}
330
47
100
AcDbScale
 70
     0
300
1/2" = 1'-0"
140
0.5
141
12.0
290
     0
  0
SCALE
  5
63
102
{ACAD_REACTORS
330
47
102
}
330
47
100
AcDbScale
 70
     0
300
3/4" = 1'-0"
140
0.75
141
12.0
290
     0
  0
SCALE
  5
64
102
{ACAD_REACTORS
330
47
102
}
330
47
100
AcDbScale
 70
     0
300
1" = 1'-0"
140
1.0
141
12.0
290
     0
  0
SCALE
  5
65
102
{ACAD_REACTORS
330
47
102
}
330
47
100
AcDbScale
 70
     0
300
1-1/2" = 1'-0"
140
1.5
141
12.0
290
     0
  0
SCALE
  5
66
102
{ACAD_REACTORS
330
47
102
}
330
47
100
AcDbScale
 70
     0
300
3" = 1'-0"
140
3.0
141
12.0
290
     0
  0
SCALE
  5
67
102
{ACAD_REACTORS
330
47
102
}
330
47
100
AcDbScale
 70
     0
300
6" = 1'-0"
140
6.0
141
12.0
290
     0
  0
SCALE
  5
68
102
{ACAD_REACTORS
330
47
102
}
330
47
100
AcDbScale
 70
     0
300
1'-0" = 1'-0"
140
12.0
141
12.0
290
     0
  0
TABLESTYLE
  5
6A
102
{ACAD_REACTORS
330
69
102
}
102
{ACAD_XDICTIONARY
360
199
102
}
330
69
100
AcDbTableStyle
  3
Standard
 70
     0
 71
     0
 40
0.06
 41
0.06
280
     0
281
     0
  7
Standard
140
4.5
170
     2
 62
     0
 63
   257
283
     0
 90
        4
 91
        0
  1

274
    -2
284
     1
 64
     0
275
    -2
285
     1
 65
     0
276
    -2
286
     1
 66
     0
277
    -2
287
     1
 67
     0
278
    -2
288
     1
 68
     0
279
    -2
289
     1
 69
     0
  7
Standard
140
6.0
170
     5
 62
     0
 63
   257
283
     0
 90
        4
 91
        0
  1

274
    -2
284
     1
 64
     0
275
    -2
285
     1
 65
     0
276
    -2
286
     1
 66
     0
277
    -2
287
     1
 67
     0
278
    -2
288
     1
 68
     0
279
    -2
289
     1
 69
     0
  7
Standard
140
4.5
170
     5
 62
     0
 63
   257
283
     0
 90
        4
 91
        0
  1

274
    -2
284
     1
 64
     0
275
    -2
285
     1
 65
     0
276
    -2
286
     1
 66
     0
277
    -2
287
     1
 67
     0
278
    -2
288
     1
 68
     0
279
    -2
289
     1
 69
     0
  0
VISUALSTYLE
  5
2F
102
{ACAD_REACTORS
330
2A
102
}
330
2A
100
AcDbVisualStyle
  2
2dWireframe
 70
     4
177
     3
291
     0
 70
    58
 90
        0
176
     1
 90
        2
176
     1
 90
        0
176
     1
 90
        0
176
     1
 40
0.6
176
     1
 40
30.0
176
     1
 62
     7
420
 16777215
176
     1
 90
        1
176
     1
 90
        4
176
     1
 62
     7
176
     1
 62
   257
176
     1
 90
        1
176
     1
 90
        1
176
     1
 40
1.0
176
     1
 90
        0
176
     1
 62
   257
176
     1
 40
1.0
176
     1
 90
        1
176
     1
 90
        6
176
     1
 90
        2
176
     1
 62
     7
176
     1
 90
        5
176
     1
 90
        0
176
     1
 90
        0
176
     1
290
     0
176
     1
 90
        1
176
     1
 40
0.0
176
     1
 90
        0
176
     1
290
     1
176
     1
290
     1
176
     1
290
     0
176
     1
290
     0
176
     1
290
     0
176
     1
290
     0
176
     1
290
     0
176
     1
290
     0
176
     1
290
     0
176
     1
 90
       50
176
     1
 40
0.0
176
     1
 40
1.0
176
     1
 90
        0
176
     1
 62
    18
420
        0
176
     1
 90
       50
176
     1
 90
        3
176
     1
 62
     5
420
      255
176
     1
290
     0
176
     1
 90
       50
176
     1
 90
       50
176
     1
 90
       50
176
     1
290
     0
176
     1
 90
       50
176
     1
 62
   256
176
     0
 40
1.0
176
     0
 90
        2
176
     1
  1
strokes_ogs.tif
176
     1
290
     0
176
     1
 40
1.0
176
     1
 40
1.0
176
     1
  0
VISUALSTYLE
  5
32
102
{ACAD_REACTORS
330
2A
102
}
330
2A
100
AcDbVisualStyle
  2
Basic
 70
     7
177
     3
291
     1
 70
    58
 90
        1
176
     1
 90
        0
176
     1
 90
        1
176
     1
 90
        0
176
     1
 40
0.6
176
     1
 40
30.0
176
     1
 62
     7
420
 16777215
176
     1
 90
        0
176
     1
 90
        4
176
     1
 62
     7
176
     1
 62
   257
176
     1
 90
        1
176
     1
 90
        1
176
     1
 40
1.0
176
     1
 90
        8
176
     1
 62
     7
176
     1
 40
1.0
176
     1
 90
        1
176
     1
 90
        6
176
     1
 90
        2
176
     1
 62
     7
176
     1
 90
        5
176
     1
 90
        0
176
     1
 90
        0
176
     1
290
     0
176
     1
 90
        1
176
     1
 40
0.0
176
     1
 90
        0
176
     1
290
     0
176
     1
290
     1
176
     1
290
     1
176
     1
290
     0
176
     1
290
     0
176
     1
290
     0
176
     1
290
     0
176
     1
290
     0
176
     1
290
     0
176
     1
 90
       50
176
     1
 40
0.0
176
     1
 40
1.0
176
     1
 90
        0
176
     1
 62
    18
420
        0
176
     1
 90
       50
176
     1
 90
        3
176
     1
 62
     5
420
      255
176
     1
290
     0
176
     1
 90
       50
176
     1
 90
       50
176
     1
 90
       50
176
     1
290
     0
176
     1
 90
       50
176
     1
 62
   256
176
     0
 40
1.0
176
     0
 90
        2
176
     1
  1
strokes_ogs.tif
176
     1
290
     0
176
     1
 40
1.0
176
     1
 40
1.0
176
     1
  0
VISUALSTYLE
  5
36
102
{ACAD_REACTORS
330
2A
102
}
330
2A
100
AcDbVisualStyle
  2
Brighten
 70
    12
177
     3
291
     1
 70
    58
 90
        2
176
     1
 90
        2
176
     1
 90
        0
176
     1
 90
        0
176
     1
 40
0.6
176
     1
 40
30.0
176
     1
 62
     7
420
 16777215
176
     1
 90
        1
176
     1
 90
        4
176
     1
 62
     7
176
     1
 62
   257
176
     1
 90
        1
176
     1
 90
        1
176
     1
 40
1.0
176
     1
 90
        8
176
     1
 62
     7
176
     1
 40
1.0
176
     1
 90
        1
176
     1
 90
        6
176
     1
 90
        2
176
     1
 62
     7
176
     1
 90
        5
176
     1
 90
        0
176
     1
 90
        0
176
     1
290
     0
176
     1
 90
        1
176
     1
 40
50.0
176
     1
 90
        0
176
     1
290
     0
176
     1
290
     1
176
     1
290
     1
176
     1
290
     0
176
     1
290
     0
176
     1
290
     0
176
     1
290
     0
176
     1
290
     0
176
     1
290
     0
176
     1
 90
       50
176
     1
 40
0.0
176
     1
 40
1.0
176
     1
 90
        0
176
     1
 62
    18
420
        0
176
     1
 90
       50
176
     1
 90
        3
176
     1
 62
     5
420
      255
176
     1
290
     0
176
     1
 90
       50
176
     1
 90
       50
176
     1
 90
       50
176
     1
290
     0
176
     1
 90
       50
176
     1
 62
   256
176
     0
 40
1.0
176
     0
 90
        2
176
     1
  1
strokes_ogs.tif
176
     1
290
     0
176
     1
 40
1.0
176
     1
 40
1.0
176
     1
  0
VISUALSTYLE
  5
3A
102
{ACAD_REACTORS
330
2A
102
}
330
2A
100
AcDbVisualStyle
  2
ColorChange
 70
    16
177
     3
291
     1
 70
    58
 90
        2
176
     1
 90
        2
176
     1
 90
        3
176
     1
 90
        0
176
     1
 40
0.6
176
     1
 40
30.0
176
     1
 62
     8
420
  8421504
176
     1
 90
        1
176
     1
 90
        4
176
     1
 62
     7
176
     1
 62
   257
176
     1
 90
        1
176
     1
 90
        1
176
     1
 40
1.0
176
     1
 90
        8
176
     1
 62
     8
420
  8421504
176
     1
 40
1.0
176
     1
 90
        1
176
     1
 90
        6
176
     1
 90
        2
176
     1
 62
     7
176
     1
 90
        5
176
     1
 90
        0
176
     1
 90
        0
176
     1
290
     0
176
     1
 90
        1
176
     1
 40
0.0
176
     1
 90
        0
176
     1
290
     0
176
     1
290
     1
176
     1
290
     1
176
     1
290
     0
176
     1
290
     0
176
     1
290
     0
176
     1
290
     0
176
     1
290
     0
176
     1
290
     0
176
     1
 90
       50
176
     1
 40
0.0
176
     1
 40
1.0
176
     1
 90
        0
176
     1
 62
    18
420
        0
176
     1
 90
       50
176
     1
 90
        3
176
     1
 62
     5
420
      255
176
     1
290
     0
176
     1
 90
       50
176
     1
 90
       50
176
     1
 90
       50
176
     1
290
     0
176
     1
 90
       50
176
     1
 62
   256
176
     0
 40
1.0
176
     0
 90
        2
176
     1
  1
strokes_ogs.tif
176
     1
290
     0
176
     1
 40
1.0
176
     1
 40
1.0
176
     1
  0
VISUALSTYLE
  5
34
102
{ACAD_REACTORS
330
2A
102
}
330
2A
100
AcDbVisualStyle
  2
Conceptual
 70
     9
177
     3
291
     0
 70
    58
 90
        3
176
     1
 90
        2
176
     1
 90
        0
176
     1
 90
        0
176
     1
 40
0.6
176
     1
 40
30.0
176
     1
 62
     7
420
 16777215
176
     1
 90
        2
176
     1
 90
        2
176
     1
 62
     7
176
     1
 62
   257
176
     1
 90
        1
176
     1
 90
        1
176
     1
 40
179.0
176
     1
 90
        8
176
     1
 62
     7
176
     1
 40
1.0
176
     1
 90
        1
176
     1
 90
        6
176
     1
 90
        2
176
     1
 62
     7
176
     1
 90
        3
176
     1
 90
        0
176
     1
 90
        0
176
     1
290
     0
176
     1
 90
        1
176
     1
 40
0.0
176
     1
 90
        0
176
     1
290
     0
176
     1
290
     1
176
     1
290
     1
176
     1
290
     0
176
     1
290
     0
176
     1
290
     0
176
     1
290
     0
176
     1
290
     0
176
     1
290
     0
176
     1
 90
       50
176
     1
 40
0.0
176
     1
 40
1.0
176
     1
 90
        0
176
     1
 62
    18
420
        0
176
     1
 90
       50
176
     1
 90
        3
176
     1
 62
     5
420
      255
176
     1
290
     0
176
     1
 90
       50
176
     1
 90
       50
176
     1
 90
       50
176
     1
290
     0
176
     1
 90
       50
176
     1
 62
   256
176
     0
 40
1.0
176
     0
 90
        2
176
     1
  1
strokes_ogs.tif
176
     1
290
     0
176
     1
 40
1.0
176
     1
 40
1.0
176
     1
  0
VISUALSTYLE
  5
35
102
{ACAD_REACTORS
330
2A
102
}
330
2A
100
AcDbVisualStyle
  2
Dim
 70
    11
177
     3
291
     1
 70
    58
 90
        2
176
     1
 90
        2
176
     1
 90
        0
176
     1
 90
        0
176
     1
 40
0.6
176
     1
 40
30.0
176
     1
 62
     7
420
 16777215
176
     1
 90
        1
176
     1
 90
        4
176
     1
 62
     7
176
     1
 62
   257
176
     1
 90
        1
176
     1
 90
        1
176
     1
 40
1.0
176
     1
 90
        8
176
     1
 62
     7
176
     1
 40
1.0
176
     1
 90
        1
176
     1
 90
        6
176
     1
 90
        2
176
     1
 62
     7
176
     1
 90
        5
176
     1
 90
        0
176
     1
 90
        0
176
     1
290
     0
176
     1
 90
        1
176
     1
 40
-50.0
176
     1
 90
        0
176
     1
290
     0
176
     1
290
     1
176
     1
290
     1
176
     1
290
     0
176
     1
290
     0
176
     1
290
     0
176
     1
290
     0
176
     1
290
     0
176
     1
290
     0
176
     1
 90
       50
176
     1
 40
0.0
176
     1
 40
1.0
176
     1
 90
        0
176
     1
 62
    18
420
        0
176
     1
 90
       50
176
     1
 90
        3
176
     1
 62
     5
420
      255
176
     1
290
     0
176
     1
 90
       50
176
     1
 90
       50
176
     1
 90
       50
176
     1
290
     0
176
     1
 90
       50
176
     1
 62
   256
176
     0
 40
1.0
176
     0
 90
        2
176
     1
  1
strokes_ogs.tif
176
     1
290
     0
176
     1
 40
1.0
176
     1
 40
1.0
176
     1
  0
VISUALSTYLE
  5
3D
102
{ACAD_REACTORS
330
2A
102
}
330
2A
100
AcDbVisualStyle
  2
EdgeColorOff
 70
    22
177
     3
291
     1
 70
    58
 90
        2
176
     0
 90
        2
176
     0
 90
        0
176
     0
 90
        0
176
     0
 40
0.6
176
     0
 40
30.0
176
     0
 62
     7
420
 16777215
176
     0
 90
        1
176
     0
 90
        4
176
     0
 62
     7
176
     0
 62
   257
176
     0
 90
        1
176
     0
 90
        1
176
     0
 40
1.0
176
     0
 90
        8
176
     2
 62
     7
176
     0
 40
1.0
176
     0
 90
        1
176
     0
 90
        6
176
     0
 90
        2
176
     0
 62
     7
176
     0
 90
        5
176
     0
 90
        0
176
     0
 90
        0
176
     0
290
     0
176
     0
 90
        1
176
     0
 40
0.0
176
     0
 90
        0
176
     0
290
     0
176
     0
290
     1
176
     0
290
     1
176
     0
290
     0
176
     0
290
     0
176
     0
290
     0
176
     0
290
     0
176
     0
290
     0
176
     0
290
     0
176
     0
 90
       50
176
     0
 40
0.0
176
     0
 40
1.0
176
     0
 90
        0
176
     0
 62
    18
420
        0
176
     0
 90
       50
176
     0
 90
        3
176
     0
 62
     5
420
      255
176
     0
290
     0
176
     0
 90
       50
176
     0
 90
       50
176
     0
 90
       50
176
     0
290
     0
176
     0
 90
       50
176
     0
 62
   256
176
     0
 40
1.0
176
     0
 90
        2
176
     0
  1
strokes_ogs.tif
176
     0
290
     0
176
     0
 40
1.0
176
     0
 40
1.0
176
     0
  0
VISUALSTYLE
  5
39
102
{ACAD_REACTORS
330
2A
102
}
330
2A
100
AcDbVisualStyle
  2
Facepattern
 70
    15
177
     3
291
     1
 70
    58
 90
        2
176
     1
 90
        2
176
     1
 90
        0
176
     1
 90
        0
176
     1
 40
0.6
176
     1
 40
30.0
176
     1
 62
     7
420
 16777215
176
     1
 90
        1
176
     1
 90
        4
176
     1
 62
     7
176
     1
 62
   257
176
     1
 90
        1
176
     1
 90
        1
176
     1
 40
1.0
176
     1
 90
        8
176
     1
 62
     7
176
     1
 40
1.0
176
     1
 90
        1
176
     1
 90
        6
176
     1
 90
        2
176
     1
 62
     7
176
     1
 90
        5
176
     1
 90
        0
176
     1
 90
        0
176
     1
290
     0
176
     1
 90
        1
176
     1
 40
0.0
176
     1
 90
        0
176
     1
290
     0
176
     1
290
     1
176
     1
290
     1
176
     1
290
     0
176
     1
290
     0
176
     1
290
     0
176
     1
290
     0
176
     1
290
     0
176
     1
290
     0
176
     1
 90
       50
176
     1
 40
0.0
176
     1
 40
1.0
176
     1
 90
        0
176
     1
 62
    18
420
        0
176
     1
 90
       50
176
     1
 90
        3
176
     1
 62
     5
420
      255
176
     1
290
     0
176
     1
 90
       50
176
     1
 90
       50
176
     1
 90
       50
176
     1
290
     0
176
     1
 90
       50
176
     1
 62
   256
176
     0
 40
1.0
176
     0
 90
        2
176
     1
  1
strokes_ogs.tif
176
     1
290
     0
176
     1
 40
1.0
176
     1
 40
1.0
176
     1
  0
VISUALSTYLE
  5
2B
102
{ACAD_REACTORS
330
2A
102
}
330
2A
100
AcDbVisualStyle
  2
Flat
 70
     0
177
     3
291
     1
 70
    58
 90
        2
176
     1
 90
        1
176
     1
 90
        1
176
     1
 90
        2
176
     1
 40
0.6
176
     1
 40
30.0
176
     1
 62
     7
420
 16777215
176
     1
 90
        0
176
     1
 90
        0
176
     1
 62
     7
176
     1
 62
   257
176
     1
 90
        1
176
     1
 90
        1
176
     1
 40
1.0
176
     1
 90
        8
176
     1
 62
     7
176
     1
 40
1.0
176
     1
 90
        1
176
     1
 90
        6
176
     1
 90
        2
176
     1
 62
     7
176
     1
 90
        5
176
     1
 90
        0
176
     1
 90
        0
176
     1
290
     0
176
     1
 90
       13
176
     1
 40
0.0
176
     1
 90
        0
176
     1
290
     0
176
     1
290
     1
176
     1
290
     1
176
     1
290
     0
176
     1
290
     0
176
     1
290
     0
176
     1
290
     0
176
     1
290
     0
176
     1
290
     0
176
     1
 90
       50
176
     1
 40
0.0
176
     1
 40
1.0
176
     1
 90
        0
176
     1
 62
    18
420
        0
176
     1
 90
       50
176
     1
 90
        3
176
     1
 62
     5
420
      255
176
     1
290
     0
176
     1
 90
       50
176
     1
 90
       50
176
     1
 90
       50
176
     1
290
     0
176
     1
 90
       50
176
     1
 62
   256
176
     0
 40
1.0
176
     0
 90
        2
176
     1
  1
strokes_ogs.tif
176
     1
290
     0
176
     1
 40
1.0
176
     1
 40
1.0
176
     1
  0
VISUALSTYLE
  5
2C
102
{ACAD_REACTORS
330
2A
102
}
330
2A
100
AcDbVisualStyle
  2
FlatWithEdges
 70
     1
177
     3
291
     1
 70
    58
 90
        2
176
     1
 90
        1
176
     1
 90
        1
176
     1
 90
        2
176
     1
 40
0.6
176
     1
 40
30.0
176
     1
 62
     7
420
 16777215
176
     1
 90
        1
176
     1
 90
        0
176
     1
 62
     7
176
     1
 62
   257
176
     1
 90
        1
176
     1
 90
        1
176
     1
 40
1.0
176
     1
 90
        0
176
     1
 62
   257
176
     1
 40
1.0
176
     1
 90
        1
176
     1
 90
        6
176
     1
 90
        2
176
     1
 62
     7
176
     1
 90
        5
176
     1
 90
        0
176
     1
 90
        0
176
     1
290
     0
176
     1
 90
       13
176
     1
 40
0.0
176
     1
 90
        0
176
     1
290
     0
176
     1
290
     1
176
     1
290
     1
176
     1
290
     0
176
     1
290
     0
176
     1
290
     0
176
     1
290
     0
176
     1
290
     0
176
     1
290
     0
176
     1
 90
       50
176
     1
 40
0.0
176
     1
 40
1.0
176
     1
 90
        0
176
     1
 62
    18
420
        0
176
     1
 90
       50
176
     1
 90
        3
176
     1
 62
     5
420
      255
176
     1
290
     0
176
     1
 90
       50
176
     1
 90
       50
176
     1
 90
       50
176
     1
290
     0
176
     1
 90
       50
176
     1
 62
   256
176
     0
 40
1.0
176
     0
 90
        2
176
     1
  1
strokes_ogs.tif
176
     1
290
     0
176
     1
 40
1.0
176
     1
 40
1.0
176
     1
  0
VISUALSTYLE
  5
2D
102
{ACAD_REACTORS
330
2A
102
}
330
2A
100
AcDbVisualStyle
  2
Gouraud
 70
     2
177
     3
291
     1
 70
    58
 90
        2
176
     1
 90
        2
176
     1
 90
        1
176
     1
 90
        2
176
     1
 40
0.6
176
     1
 40
30.0
176
     1
 62
     7
420
 16777215
176
     1
 90
        0
176
     1
 90
        0
176
     1
 62
     7
176
     1
 62
   257
176
     1
 90
        1
176
     1
 90
        1
176
     1
 40
1.0
176
     1
 90
        0
176
     1
 62
     7
176
     1
 40
1.0
176
     1
 90
        1
176
     1
 90
        6
176
     1
 90
        2
176
     1
 62
     7
176
     1
 90
        5
176
     1
 90
        0
176
     1
 90
        0
176
     1
290
     0
176
     1
 90
       13
176
     1
 40
0.0
176
     1
 90
        0
176
     1
290
     0
176
     1
290
     1
176
     1
290
     1
176
     1
290
     0
176
     1
290
     0
176
     1
290
     0
176
     1
290
     0
176
     1
290
     0
176
     1
290
     0
176
     1
 90
       50
176
     1
 40
0.0
176
     1
 40
1.0
176
     1
 90
        0
176
     1
 62
    18
420
        0
176
     1
 90
       50
176
     1
 90
        3
176
     1
 62
     5
420
      255
176
     1
290
     0
176
     1
 90
       50
176
     1
 90
       50
176
     1
 90
       50
176
     1
290
     0
176
     1
 90
       50
176
     1
 62
   256
176
     0
 40
1.0
176
     0
 90
        2
176
     1
  1
strokes_ogs.tif
176
     1
290
     0
176
     1
 40
1.0
176
     1
 40
1.0
176
     1
  0
VISUALSTYLE
  5
2E
102
{ACAD_REACTORS
330
2A
102
}
330
2A
100
AcDbVisualStyle
  2
GouraudWithEdges
 70
     3
177
     3
291
     1
 70
    58
 90
        2
176
     1
 90
        2
176
     1
 90
        1
176
     1
 90
        2
176
     1
 40
0.6
176
     1
 40
30.0
176
     1
 62
     7
420
 16777215
176
     1
 90
        1
176
     1
 90
        0
176
     1
 62
     7
176
     1
 62
   257
176
     1
 90
        1
176
     1
 90
        1
176
     1
 40
1.0
176
     1
 90
        0
176
     1
 62
   257
176
     1
 40
1.0
176
     1
 90
        1
176
     1
 90
        6
176
     1
 90
        2
176
     1
 62
     7
176
     1
 90
        5
176
     1
 90
        0
176
     1
 90
        0
176
     1
290
     0
176
     1
 90
       13
176
     1
 40
0.0
176
     1
 90
        0
176
     1
290
     0
176
     1
290
     1
176
     1
290
     1
176
     1
290
     0
176
     1
290
     0
176
     1
290
     0
176
     1
290
     0
176
     1
290
     0
176
     1
290
     0
176
     1
 90
       50
176
     1
 40
0.0
176
     1
 40
1.0
176
     1
 90
        0
176
     1
 62
    18
420
        0
176
     1
 90
       50
176
     1
 90
        3
176
     1
 62
     5
420
      255
176
     1
290
     0
176
     1
 90
       50
176
     1
 90
       50
176
     1
 90
       50
176
     1
290
     0
176
     1
 90
       50
176
     1
 62
   256
176
     0
 40
1.0
176
     0
 90
        2
176
     1
  1
strokes_ogs.tif
176
     1
290
     0
176
     1
 40
1.0
176
     1
 40
1.0
176
     1
  0
VISUALSTYLE
  5
31
102
{ACAD_REACTORS
330
2A
102
}
330
2A
100
AcDbVisualStyle
  2
Hidden
 70
     6
177
     3
291
     0
 70
    58
 90
        1
176
     1
 90
        2
176
     1
 90
        2
176
     1
 90
        0
176
     1
 40
0.6
176
     1
 40
30.0
176
     1
 62
     7
420
 16777215
176
     1
 90
        2
176
     1
 90
        2
176
     1
 62
     7
176
     1
 62
   257
176
     1
 90
        2
176
     1
 90
        1
176
     1
 40
40.0
176
     1
 90
        0
176
     1
 62
   257
176
     1
 40
1.0
176
     1
 90
        1
176
     1
 90
        6
176
     1
 90
        2
176
     1
 62
     7
176
     1
 90
        3
176
     1
 90
        0
176
     1
 90
        0
176
     1
290
     0
176
     1
 90
        1
176
     1
 40
0.0
176
     1
 90
        0
176
     1
290
     0
176
     1
290
     1
176
     1
290
     1
176
     1
290
     0
176
     1
290
     0
176
     1
290
     0
176
     1
290
     0
176
     1
290
     0
176
     1
290
     0
176
     1
 90
       50
176
     1
 40
0.0
176
     1
 40
1.0
176
     1
 90
        0
176
     1
 62
    18
420
        0
176
     1
 90
       50
176
     1
 90
        3
176
     1
 62
     5
420
      255
176
     1
290
     0
176
     1
 90
       50
176
     1
 90
       50
176
     1
 90
       50
176
     1
290
     0
176
     1
 90
       50
176
     1
 62
   256
176
     0
 40
1.0
176
     0
 90
        2
176
     1
  1
strokes_ogs.tif
176
     1
290
     0
176
     1
 40
1.0
176
     1
 40
1.0
176
     1
  0
VISUALSTYLE
  5
3B
102
{ACAD_REACTORS
330
2A
102
}
330
2A
100
AcDbVisualStyle
  2
JitterOff
 70
    20
177
     3
291
     1
 70
    58
 90
        2
176
     0
 90
        2
176
     0
 90
        0
176
     0
 90
        0
176
     0
 40
0.6
176
     0
 40
30.0
176
     0
 62
     7
420
 16777215
176
     0
 90
        1
176
     0
 90
        4
176
     0
 62
     7
176
     0
 62
   257
176
     0
 90
        1
176
     0
 90
        1
176
     0
 40
1.0
176
     0
 90
       10
176
     2
 62
     7
176
     0
 40
1.0
176
     0
 90
        1
176
     0
 90
        6
176
     0
 90
        2
176
     0
 62
     7
176
     0
 90
        5
176
     0
 90
        0
176
     0
 90
        0
176
     0
290
     0
176
     0
 90
        1
176
     0
 40
0.0
176
     0
 90
        0
176
     0
290
     0
176
     0
290
     1
176
     0
290
     1
176
     0
290
     0
176
     0
290
     0
176
     0
290
     0
176
     0
290
     0
176
     0
290
     0
176
     0
290
     0
176
     0
 90
       50
176
     0
 40
0.0
176
     0
 40
1.0
176
     0
 90
        0
176
     0
 62
    18
420
        0
176
     0
 90
       50
176
     0
 90
        3
176
     0
 62
     5
420
      255
176
     0
290
     0
176
     0
 90
       50
176
     0
 90
       50
176
     0
 90
       50
176
     0
290
     0
176
     0
 90
       50
176
     0
 62
   256
176
     0
 40
1.0
176
     0
 90
        2
176
     0
  1
strokes_ogs.tif
176
     0
290
     0
176
     0
 40
1.0
176
     0
 40
1.0
176
     0
  0
VISUALSTYLE
  5
38
102
{ACAD_REACTORS
330
2A
102
}
330
2A
100
AcDbVisualStyle
  2
Linepattern
 70
    14
177
     3
291
     1
 70
    58
 90
        2
176
     1
 90
        2
176
     1
 90
        0
176
     1
 90
        0
176
     1
 40
0.6
176
     1
 40
30.0
176
     1
 62
     7
420
 16777215
176
     1
 90
        1
176
     1
 90
        4
176
     1
 62
     7
176
     1
 62
   257
176
     1
 90
        7
176
     1
 90
        7
176
     1
 40
1.0
176
     1
 90
        8
176
     1
 62
     7
176
     1
 40
1.0
176
     1
 90
        1
176
     1
 90
        6
176
     1
 90
        2
176
     1
 62
     7
176
     1
 90
        5
176
     1
 90
        0
176
     1
 90
        0
176
     1
290
     0
176
     1
 90
        1
176
     1
 40
0.0
176
     1
 90
        0
176
     1
290
     0
176
     1
290
     1
176
     1
290
     1
176
     1
290
     0
176
     1
290
     0
176
     1
290
     0
176
     1
290
     0
176
     1
290
     0
176
     1
290
     0
176
     1
 90
       50
176
     1
 40
0.0
176
     1
 40
1.0
176
     1
 90
        0
176
     1
 62
    18
420
        0
176
     1
 90
       50
176
     1
 90
        3
176
     1
 62
     5
420
      255
176
     1
290
     0
176
     1
 90
       50
176
     1
 90
       50
176
     1
 90
       50
176
     1
290
     0
176
     1
 90
       50
176
     1
 62
   256
176
     0
 40
1.0
176
     0
 90
        2
176
     1
  1
strokes_ogs.tif
176
     1
290
     0
176
     1
 40
1.0
176
     1
 40
1.0
176
     1
  0
VISUALSTYLE
  5
3C
102
{ACAD_REACTORS
330
2A
102
}
330
2A
100
AcDbVisualStyle
  2
OverhangOff
 70
    21
177
     3
291
     1
 70
    58
 90
        2
176
     0
 90
        2
176
     0
 90
        0
176
     0
 90
        0
176
     0
 40
0.6
176
     0
 40
30.0
176
     0
 62
     7
420
 16777215
176
     0
 90
        1
176
     0
 90
        4
176
     0
 62
     7
176
     0
 62
   257
176
     0
 90
        1
176
     0
 90
        1
176
     0
 40
1.0
176
     0
 90
        9
176
     2
 62
     7
176
     0
 40
1.0
176
     0
 90
        1
176
     0
 90
        6
176
     0
 90
        2
176
     0
 62
     7
176
     0
 90
        5
176
     0
 90
        0
176
     0
 90
        0
176
     0
290
     0
176
     0
 90
        1
176
     0
 40
0.0
176
     0
 90
        0
176
     0
290
     0
176
     0
290
     1
176
     0
290
     1
176
     0
290
     0
176
     0
290
     0
176
     0
290
     0
176
     0
290
     0
176
     0
290
     0
176
     0
290
     0
176
     0
 90
       50
176
     0
 40
0.0
176
     0
 40
1.0
176
     0
 90
        0
176
     0
 62
    18
420
        0
176
     0
 90
       50
176
     0
 90
        3
176
     0
 62
     5
420
      255
176
     0
290
     0
176
     0
 90
       50
176
     0
 90
       50
176
     0
 90
       50
176
     0
290
     0
176
     0
 90
       50
176
     0
 62
   256
176
     0
 40
1.0
176
     0
 90
        2
176
     0
  1
strokes_ogs.tif
176
     0
290
     0
176
     0
 40
1.0
176
     0
 40
1.0
176
     0
  0
VISUALSTYLE
  5
33
102
{ACAD_REACTORS
330
2A
102
}
330
2A
100
AcDbVisualStyle
  2
Realistic
 70
     8
177
     3
291
     0
 70
    58
 90
        2
176
     1
 90
        3
176
     1
 90
        0
176
     1
 90
        2
176
     1
 40
0.6
176
     1
 40
30.0
176
     1
 62
     7
420
 16777215
176
     1
 90
        0
176
     1
 90
        0
176
     1
 62
     7
176
     1
 62
   257
176
     1
 90
        1
176
     1
 90
        1
176
     1
 40
1.0
176
     1
 90
        8
176
     1
 62
   257
176
     1
 40
1.0
176
     1
 90
        1
176
     1
 90
        6
176
     1
 90
        2
176
     1
 62
     7
176
     1
 90
        3
176
     1
 90
        0
176
     1
 90
        0
176
     1
290
     0
176
     1
 90
       13
176
     1
 40
0.0
176
     1
 90
        0
176
     1
290
     0
176
     1
290
     1
176
     1
290
     1
176
     1
290
     0
176
     1
290
     0
176
     1
290
     0
176
     1
290
     0
176
     1
290
     0
176
     1
290
     0
176
     1
 90
       50
176
     1
 40
0.0
176
     1
 40
1.0
176
     1
 90
        0
176
     1
 62
    18
420
        0
176
     1
 90
       50
176
     1
 90
        3
176
     1
 62
     5
420
      255
176
     1
290
     0
176
     1
 90
       50
176
     1
 90
       50
176
     1
 90
       50
176
     1
290
     0
176
     1
 90
       50
176
     1
 62
   256
176
     0
 40
1.0
176
     0
 90
        2
176
     1
  1
strokes_ogs.tif
176
     1
290
     0
176
     1
 40
1.0
176
     1
 40
1.0
176
     1
  0
VISUALSTYLE
  5
42
102
{ACAD_REACTORS
330
2A
102
}
330
2A
100
AcDbVisualStyle
  2
Shaded
 70
    27
177
     3
291
     0
 70
    58
 90
        2
176
     1
 90
        2
176
     1
 90
        1
176
     1
 90
        2
176
     1
 40
0.6
176
     1
 40
30.0
176
     1
 62
     7
420
 16777215
176
     1
 90
        0
176
     1
 90
        4
176
     1
 62
     7
176
     1
 62
   257
176
     1
 90
        1
176
     1
 90
        1
176
     1
 40
1.0
176
     1
 90
        8
176
     1
 62
   257
176
     1
 40
1.0
176
     1
 90
        1
176
     1
 90
        6
176
     1
 90
        2
176
     1
 62
     8
420
  7895160
176
     1
 90
        3
176
     1
 90
        0
176
     1
 90
        0
176
     1
290
     0
176
     1
 90
        5
176
     1
 40
0.0
176
     1
 90
        0
176
     1
290
     0
176
     1
290
     1
176
     1
290
     1
176
     1
290
     0
176
     1
290
     0
176
     1
290
     0
176
     1
290
     0
176
     1
290
     0
176
     1
290
     0
176
     1
 90
       50
176
     1
 40
0.0
176
     1
 40
1.0
176
     1
 90
        0
176
     1
 62
    18
420
        0
176
     1
 90
       50
176
     1
 90
        3
176
     1
 62
     5
420
      255
176
     1
290
     0
176
     1
 90
       50
176
     1
 90
       50
176
     1
 90
       50
176
     1
290
     0
176
     1
 90
       50
176
     1
 62
   256
176
     0
 40
1.0
176
     0
 90
        2
176
     1
  1
strokes_ogs.tif
176
     1
290
     0
176
     1
 40
1.0
176
     1
 40
1.0
176
     1
  0
VISUALSTYLE
  5
41
102
{ACAD_REACTORS
330
2A
102
}
330
2A
100
AcDbVisualStyle
  2
Shaded with edges
 70
    26
177
     3
291
     0
 70
    58
 90
        2
176
     1
 90
        2
176
     1
 90
        1
176
     1
 90
        2
176
     1
 40
0.6
176
     1
 40
30.0
176
     1
 62
     7
420
 16777215
176
     1
 90
        1
176
     1
 90
       10
176
     1
 62
     7
176
     1
 62
   257
176
     1
 90
        2
176
     1
 90
        1
176
     1
 40
1.0
176
     1
 90
        8
176
     1
 62
   257
176
     1
 40
1.0
176
     1
 90
        1
176
     1
 90
        6
176
     1
 90
        2
176
     1
 62
     7
176
     1
 90
        3
176
     1
 90
        0
176
     1
 90
        0
176
     1
290
     0
176
     1
 90
        5
176
     1
 40
0.0
176
     1
 90
        0
176
     1
290
     0
176
     1
290
     1
176
     1
290
     1
176
     1
290
     0
176
     1
290
     0
176
     1
290
     0
176
     1
290
     0
176
     1
290
     0
176
     1
290
     0
176
     1
 90
       50
176
     1
 40
0.0
176
     1
 40
1.0
176
     1
 90
        0
176
     1
 62
    18
420
        0
176
     1
 90
       50
176
     1
 90
        3
176
     1
 62
     5
420
      255
176
     1
290
     0
176
     1
 90
       50
176
     1
 90
       50
176
     1
 90
       50
176
     1
290
     0
176
     1
 90
       50
176
     1
 62
   256
176
     0
 40
1.0
176
     0
 90
        2
176
     1
  1
strokes_ogs.tif
176
     1
290
     0
176
     1
 40
1.0
176
     1
 40
1.0
176
     1
  0
VISUALSTYLE
  5
3E
102
{ACAD_REACTORS
330
2A
102
}
330
2A
100
AcDbVisualStyle
  2
Shades of Gray
 70
    23
177
     3
291
     0
 70
    58
 90
        2
176
     1
 90
        2
176
     1
 90
        3
176
     1
 90
        0
176
     1
 40
0.6
176
     1
 40
30.0
176
     1
 62
     7
420
 16777215
176
     1
 90
        2
176
     1
 90
        2
176
     1
 62
     7
176
     1
 62
     7
176
     1
 90
        1
176
     1
 90
        1
176
     1
 40
40.0
176
     1
 90
        8
176
     1
 62
     7
176
     1
 40
1.0
176
     1
 90
        1
176
     1
 90
        6
176
     1
 90
        2
176
     1
 62
     7
176
     1
 90
        3
176
     1
 90
        0
176
     1
 90
        0
176
     1
290
     0
176
     1
 90
        1
176
     1
 40
0.0
176
     1
 90
        0
176
     1
290
     0
176
     1
290
     1
176
     1
290
     1
176
     1
290
     0
176
     1
290
     0
176
     1
290
     0
176
     1
290
     0
176
     1
290
     0
176
     1
290
     0
176
     1
 90
       50
176
     1
 40
0.0
176
     1
 40
1.0
176
     1
 90
        0
176
     1
 62
    18
420
        0
176
     1
 90
       50
176
     1
 90
        3
176
     1
 62
     5
420
      255
176
     1
290
     0
176
     1
 90
       50
176
     1
 90
       50
176
     1
 90
       50
176
     1
290
     0
176
     1
 90
       50
176
     1
 62
   256
176
     0
 40
1.0
176
     0
 90
        2
176
     1
  1
strokes_ogs.tif
176
     1
290
     0
176
     1
 40
1.0
176
     1
 40
1.0
176
     1
  0
VISUALSTYLE
  5
3F
102
{ACAD_REACTORS
330
2A
102
}
330
2A
100
AcDbVisualStyle
  2
Sketchy
 70
    24
177
     3
291
     0
 70
    58
 90
        1
176
     1
 90
        2
176
     1
 90
        2
176
     1
 90
        0
176
     1
 40
0.6
176
     1
 40
30.0
176
     1
 62
     7
420
 16777215
176
     1
 90
        2
176
     1
 90
        2
176
     1
 62
     7
176
     1
 62
     7
176
     1
 90
        1
176
     1
 90
        1
176
     1
 40
40.0
176
     1
 90
       11
176
     1
 62
     7
176
     1
 40
1.0
176
     1
 90
        1
176
     1
 90
        6
176
     1
 90
        2
176
     1
 62
     7
176
     1
 90
        6
176
     1
 90
        0
176
     1
 90
        0
176
     1
290
     0
176
     1
 90
        1
176
     1
 40
0.0
176
     1
 90
        0
176
     1
290
     0
176
     1
290
     1
176
     1
290
     1
176
     1
290
     0
176
     1
290
     0
176
     1
290
     0
176
     1
290
     0
176
     1
290
     0
176
     1
290
     0
176
     1
 90
       50
176
     1
 40
0.0
176
     1
 40
1.0
176
     1
 90
        0
176
     1
 62
    18
420
        0
176
     1
 90
       50
176
     1
 90
        3
176
     1
 62
     5
420
      255
176
     1
290
     0
176
     1
 90
       50
176
     1
 90
       50
176
     1
 90
       50
176
     1
290
     0
176
     1
 90
       50
176
     1
 62
   256
176
     0
 40
1.0
176
     0
 90
        2
176
     1
  1
strokes_ogs.tif
176
     1
290
     0
176
     1
 40
1.0
176
     1
 40
1.0
176
     1
  0
VISUALSTYLE
  5
37
102
{ACAD_REACTORS
330
2A
102
}
330
2A
100
AcDbVisualStyle
  2
Thicken
 70
    13
177
     3
291
     1
 70
    58
 90
        2
176
     1
 90
        2
176
     1
 90
        0
176
     1
 90
        0
176
     1
 40
0.6
176
     1
 40
30.0
176
     1
 62
     7
420
 16777215
176
     1
 90
        1
176
     1
 90
        4
176
     1
 62
     7
176
     1
 62
   257
176
     1
 90
        1
176
     1
 90
        1
176
     1
 40
1.0
176
     1
 90
       12
176
     1
 62
     7
176
     1
 40
1.0
176
     1
 90
        1
176
     1
 90
        6
176
     1
 90
        2
176
     1
 62
     7
176
     1
 90
        5
176
     1
 90
        0
176
     1
 90
        0
176
     1
290
     0
176
     1
 90
        1
176
     1
 40
0.0
176
     1
 90
        0
176
     1
290
     0
176
     1
290
     1
176
     1
290
     1
176
     1
290
     0
176
     1
290
     0
176
     1
290
     0
176
     1
290
     0
176
     1
290
     0
176
     1
290
     0
176
     1
 90
       50
176
     1
 40
0.0
176
     1
 40
1.0
176
     1
 90
        0
176
     1
 62
    18
420
        0
176
     1
 90
       50
176
     1
 90
        3
176
     1
 62
     5
420
      255
176
     1
290
     0
176
     1
 90
       50
176
     1
 90
       50
176
     1
 90
       50
176
     1
290
     0
176
     1
 90
       50
176
     1
 62
   256
176
     0
 40
1.0
176
     0
 90
        2
176
     1
  1
strokes_ogs.tif
176
     1
290
     0
176
     1
 40
1.0
176
     1
 40
1.0
176
     1
  0
VISUALSTYLE
  5
30
102
{ACAD_REACTORS
330
2A
102
}
330
2A
100
AcDbVisualStyle
  2
Wireframe
 70
     5
177
     3
291
     0
 70
    58
 90
        0
176
     1
 90
        2
176
     1
 90
        0
176
     1
 90
        0
176
     1
 40
0.6
176
     1
 40
30.0
176
     1
 62
     7
420
 16777215
176
     1
 90
        1
176
     1
 90
        4
176
     1
 62
     7
176
     1
 62
   257
176
     1
 90
        1
176
     1
 90
        1
176
     1
 40
1.0
176
     1
 90
        0
176
     1
 62
   257
176
     1
 40
1.0
176
     1
 90
        1
176
     1
 90
        6
176
     1
 90
        2
176
     1
 62
     7
176
     1
 90
        3
176
     1
 90
        0
176
     1
 90
        0
176
     1
290
     0
176
     1
 90
        1
176
     1
 40
0.0
176
     1
 90
        0
176
     1
290
     0
176
     1
290
     1
176
     1
290
     1
176
     1
290
     0
176
     1
290
     0
176
     1
290
     0
176
     1
290
     0
176
     1
290
     0
176
     1
290
     0
176
     1
 90
       50
176
     1
 40
0.0
176
     1
 40
1.0
176
     1
 90
        0
176
     1
 62
    18
420
        0
176
     1
 90
       50
176
     1
 90
        3
176
     1
 62
     5
420
      255
176
     1
290
     0
176
     1
 90
       50
176
     1
 90
       50
176
     1
 90
       50
176
     1
290
     0
176
     1
 90
       50
176
     1
 62
   256
176
     0
 40
1.0
176
     0
 90
        2
176
     1
  1
strokes_ogs.tif
176
     1
290
     0
176
     1
 40
1.0
176
     1
 40
1.0
176
     1
  0
VISUALSTYLE
  5
40
102
{ACAD_REACTORS
330
2A
102
}
330
2A
100
AcDbVisualStyle
  2
X-Ray
 70
    25
177
     3
291
     0
 70
    58
 90
        2
176
     1
 90
        2
176
     1
 90
        1
176
     1
 90
        1
176
     1
 40
0.5
176
     1
 40
30.0
176
     1
 62
     7
420
 16777215
176
     1
 90
        1
176
     1
 90
        0
176
     1
 62
     7
176
     1
 62
   257
176
     1
 90
        1
176
     1
 90
        1
176
     1
 40
1.0
176
     1
 90
        8
176
     1
 62
     7
176
     1
 40
1.0
176
     1
 90
        1
176
     1
 90
        6
176
     1
 90
        2
176
     1
 62
     7
176
     1
 90
        3
176
     1
 90
        0
176
     1
 90
        0
176
     1
290
     0
176
     1
 90
       13
176
     1
 40
0.0
176
     1
 90
        0
176
     1
290
     0
176
     1
290
     1
176
     1
290
     1
176
     1
290
     0
176
     1
290
     0
176
     1
290
     0
176
     1
290
     0
176
     1
290
     0
176
     1
290
     0
176
     1
 90
       50
176
     1
 40
0.0
176
     1
 40
1.0
176
     1
 90
        0
176
     1
 62
    18
420
        0
176
     1
 90
       50
176
     1
 90
        3
176
     1
 62
     5
420
      255
176
     1
290
     0
176
     1
 90
       50
176
     1
 90
       50
176
     1
 90
       50
176
     1
290
     0
176
     1
 90
       50
176
     1
 62
   256
176
     0
 40
1.0
176
     0
 90
        2
176
     1
  1
strokes_ogs.tif
176
     1
290
     0
176
     1
 40
1.0
176
     1
 40
1.0
176
     1
  0
DICTIONARYVAR
  5
198
102
{ACAD_REACTORS
330
197
102
}
330
197
100
DictionaryVariables
280
     0
  1
1:1
  0
DICTIONARYVAR
  5
19D
102
{ACAD_REACTORS
330
197
102
}
330
197
100
DictionaryVariables
280
     0
  1
Standard
  0
DICTIONARYVAR
  5
19C
102
{ACAD_REACTORS
330
197
102
}
330
197
100
DictionaryVariables
280
     0
  1
Standard
  0
DICTIONARY
  5
199
330
6A
100
AcDbDictionary
280
     1
281
     1
  3
ACAD_ROUNDTRIP_2008_TABLESTYLE_CELLSTYLEMAP
360
19A
  0
CELLSTYLEMAP
  5
19A
102
{ACAD_REACTORS
330
199
102
}
330
199
100
AcDbCellStyleMap
 90
        3
300
CELLSTYLE
  1
TABLEFORMAT_BEGIN
 90
        5
170
     1
 91
        0
 92
    32768
 62
   257
 93
        1
300
CONTENTFORMAT
  1
CONTENTFORMAT_BEGIN
 90
        0
 91
        0
 92
        4
 93
        0
300

 40
0.0
140
1.0
 94
        5
 62
     0
340
11
144
6.0
309
CONTENTFORMAT_END
171
     1
301
MARGIN
  1
CELLMARGIN_BEGIN
 40
1.5
 40
1.5
 40
1.5
 40
1.5
 40
1.5
 40
1.5
309
CELLMARGIN_END
 94
        6
 95
        1
302
GRIDFORMAT
  1
GRIDFORMAT_BEGIN
 90
        0
 91
        1
 62
     0
 92
       -2
340
14
 93
        0
 40
0.045
309
GRIDFORMAT_END
 95
        2
302
GRIDFORMAT
  1
GRIDFORMAT_BEGIN
 90
        0
 91
        1
 62
     0
 92
       -2
340
14
 93
        0
 40
0.045
309
GRIDFORMAT_END
 95
        4
302
GRIDFORMAT
  1
GRIDFORMAT_BEGIN
 90
        0
 91
        1
 62
     0
 92
       -2
340
14
 93
        0
 40
0.045
309
GRIDFORMAT_END
 95
        8
302
GRIDFORMAT
  1
GRIDFORMAT_BEGIN
 90
        0
 91
        1
 62
     0
 92
       -2
340
14
 93
        0
 40
0.045
309
GRIDFORMAT_END
 95
       16
302
GRIDFORMAT
  1
GRIDFORMAT_BEGIN
 90
        0
 91
        1
 62
     0
 92
       -2
340
14
 93
        0
 40
0.045
309
GRIDFORMAT_END
 95
       32
302
GRIDFORMAT
  1
GRIDFORMAT_BEGIN
 90
        0
 91
        1
 62
     0
 92
       -2
340
14
 93
        0
 40
0.045
309
GRIDFORMAT_END
309
TABLEFORMAT_END
  1
CELLSTYLE_BEGIN
 90
        1
 91
        1
300
_TITLE
309
CELLSTYLE_END
300
CELLSTYLE
  1
TABLEFORMAT_BEGIN
 90
        5
170
     1
 91
        0
 92
        0
 62
   257
 93
        1
300
CONTENTFORMAT
  1
CONTENTFORMAT_BEGIN
 90
        0
 91
        0
 92
        4
 93
        0
300

 40
0.0
140
1.0
 94
        5
 62
     0
340
11
144
4.5
309
CONTENTFORMAT_END
171
     1
301
MARGIN
  1
CELLMARGIN_BEGIN
 40
1.5
 40
1.5
 40
1.5
 40
1.5
 40
1.5
 40
1.5
309
CELLMARGIN_END
 94
        6
 95
        1
302
GRIDFORMAT
  1
GRIDFORMAT_BEGIN
 90
        0
 91
        1
 62
     0
 92
       -2
340
14
 93
        0
 40
0.045
309
GRIDFORMAT_END
 95
        2
302
GRIDFORMAT
  1
GRIDFORMAT_BEGIN
 90
        0
 91
        1
 62
     0
 92
       -2
340
14
 93
        0
 40
0.045
309
GRIDFORMAT_END
 95
        4
302
GRIDFORMAT
  1
GRIDFORMAT_BEGIN
 90
        0
 91
        1
 62
     0
 92
       -2
340
14
 93
        0
 40
0.045
309
GRIDFORMAT_END
 95
        8
302
GRIDFORMAT
  1
GRIDFORMAT_BEGIN
 90
        0
 91
        1
 62
     0
 92
       -2
340
14
 93
        0
 40
0.045
309
GRIDFORMAT_END
 95
       16
302
GRIDFORMAT
  1
GRIDFORMAT_BEGIN
 90
        0
 91
        1
 62
     0
 92
       -2
340
14
 93
        0
 40
0.045
309
GRIDFORMAT_END
 95
       32
302
GRIDFORMAT
  1
GRIDFORMAT_BEGIN
 90
        0
 91
        1
 62
     0
 92
       -2
340
14
 93
        0
 40
0.045
309
GRIDFORMAT_END
309
TABLEFORMAT_END
  1
CELLSTYLE_BEGIN
 90
        2
 91
        1
300
_HEADER
309
CELLSTYLE_END
300
CELLSTYLE
  1
TABLEFORMAT_BEGIN
 90
        5
170
     1
 91
        0
 92
        0
 62
   257
 93
        1
300
CONTENTFORMAT
  1
CONTENTFORMAT_BEGIN
 90
        0
 91
        0
 92
        4
 93
        0
300

 40
0.0
140
1.0
 94
        2
 62
     0
340
11
144
4.5
309
CONTENTFORMAT_END
171
     1
301
MARGIN
  1
CELLMARGIN_BEGIN
 40
1.5
 40
1.5
 40
1.5
 40
1.5
 40
1.5
 40
1.5
309
CELLMARGIN_END
 94
        6
 95
        1
302
GRIDFORMAT
  1
GRIDFORMAT_BEGIN
 90
        0
 91
        1
 62
     0
 92
       -2
340
14
 93
        0
 40
0.045
309
GRIDFORMAT_END
 95
        2
302
GRIDFORMAT
  1
GRIDFORMAT_BEGIN
 90
        0
 91
        1
 62
     0
 92
       -2
340
14
 93
        0
 40
0.045
309
GRIDFORMAT_END
 95
        4
302
GRIDFORMAT
  1
GRIDFORMAT_BEGIN
 90
        0
 91
        1
 62
     0
 92
       -2
340
14
 93
        0
 40
0.045
309
GRIDFORMAT_END
 95
        8
302
GRIDFORMAT
  1
GRIDFORMAT_BEGIN
 90
        0
 91
        1
 62
     0
 92
       -2
340
14
 93
        0
 40
0.045
309
GRIDFORMAT_END
 95
       16
302
GRIDFORMAT
  1
GRIDFORMAT_BEGIN
 90
        0
 91
        1
 62
     0
 92
       -2
340
14
 93
        0
 40
0.045
309
GRIDFORMAT_END
 95
       32
302
GRIDFORMAT
  1
GRIDFORMAT_BEGIN
 90
        0
 91
        1
 62
     0
 92
       -2
340
14
 93
        0
 40
0.045
309
GRIDFORMAT_END
309
TABLEFORMAT_END
  1
CELLSTYLE_BEGIN
 90
        3
 91
        2
300
_DATA
309
CELLSTYLE_END
  0
ENDSEC
  0
EOF