0
SECTION
  2
HEADER
  9
$ACADVER
  1
AC1027
  9
$ACADMAINTVER
 70
     8
  9
$DWGCODEPAGE
  3
ANSI_1252
  9
$REQUIREDVERSIONS
160
                 0
  9
$COMMENTS
  1
File was created by Cadenas
  9
$CUSTOMPROPERTYTAG
  1
NN
  9
$CUSTOMPROPERTY
  1
Set Screw Two-Bolt Piloted Flange Metric Bore
  9
$CUSTOMPROPERTYTAG
  1
NT
  9
$CUSTOMPROPERTY
  1
SC 2 Bolt Flange Bearings -(Normal Duty)
  9
$CUSTOMPROPERTYTAG
  1
NB
  9
$CUSTOMPROPERTY
  1
130371
  9
$CUSTOMPROPERTYTAG
  1
NBSYN
  9
$CUSTOMPROPERTY
  1
$PN.
  9
$CUSTOMPROPERTYTAG
  1
LINA
  9
$CUSTOMPROPERTY
  1
130371
  9
$CUSTOMPROPERTYTAG
  1
SERIES
  9
$CUSTOMPROPERTY
  1
208
  9
$CUSTOMPROPERTYTAG
  1
SS
  9
$CUSTOMPROPERTY
  1
40
  9
$CUSTOMPROPERTYTAG
  1
PN
  9
$CUSTOMPROPERTY
  1
130371
  9
$CUSTOMPROPERTYTAG
  1
DESCRIPTION
  9
$CUSTOMPROPERTY
  1
F2BZ-SC-40M
  9
$CUSTOMPROPERTYTAG
  1
WEIGHT
  9
$CUSTOMPROPERTY
  1
1.7
  9
$CUSTOMPROPERTYTAG
  1
A
  9
$CUSTOMPROPERTY
  1
49.3
  9
$CUSTOMPROPERTYTAG
  1
B
  9
$CUSTOMPROPERTY
  1
171.5
  9
$CUSTOMPROPERTYTAG
  1
C
  9
$CUSTOMPROPERTY
  1
54.1
  9
$CUSTOMPROPERTYTAG
  1
D
  9
$CUSTOMPROPERTY
  1
143.8
  9
$CUSTOMPROPERTYTAG
  1
E
  9
$CUSTOMPROPERTY
  1
4.1
  9
$CUSTOMPROPERTYTAG
  1
F
  9
$CUSTOMPROPERTY
  1
M12
  9
$CUSTOMPROPERTYTAG
  1
G
  9
$CUSTOMPROPERTY
  1
50.3
  9
$CUSTOMPROPERTYTAG
  1
H
  9
$CUSTOMPROPERTY
  1
14.2
  9
$CUSTOMPROPERTYTAG
  1
J
  9
$CUSTOMPROPERTY
  1
16.0
  9
$CUSTOMPROPERTYTAG
  1
K
  9
$CUSTOMPROPERTY
  1
100.00 / 99.95
  9
$CUSTOMPROPERTYTAG
  1
L
  9
$CUSTOMPROPERTY
  1
52.1
  9
$CUSTOMPROPERTYTAG
  1
M
  9
$CUSTOMPROPERTY
  1
104.9
  9
$CUSTOMPROPERTYTAG
  1
N
  9
$CUSTOMPROPERTY
  1
46.5
  9
$CUSTOMPROPERTYTAG
  1
COMPANY
  9
$CUSTOMPROPERTY
  1
baldor
  9
$INSBASE
 10
0.0
 20
0.0
 30
0.0
  9
$EXTMIN
 10
1.000000000000000E+20
 20
1.000000000000000E+20
 30
1.000000000000000E+20
  9
$EXTMAX
 10
-1.000000000000000E+20
 20
-1.000000000000000E+20
 30
-1.000000000000000E+20
  9
$LIMMIN
 10
0.0
 20
0.0
  9
$LIMMAX
 10
420.0
 20
297.0
  9
$ORTHOMODE
 70
     0
  9
$REGENMODE
 70
     1
  9
$FILLMODE
 70
     1
  9
$QTEXTMODE
 70
     0
  9
$MIRRTEXT
 70
     1
  9
$LTSCALE
 40
1.0
  9
$ATTMODE
 70
     1
  9
$TEXTSIZE
 40
2.5
  9
$TRACEWID
 40
1.0
  9
$TEXTSTYLE
  7
Standard
  9
$CLAYER
  8
0
  9
$CELTYPE
  6
ByLayer
  9
$CECOLOR
 62
   256
  9
$CELTSCALE
 40
1.0
  9
$DISPSILH
 70
     0
  9
$DIMSCALE
 40
1.0
  9
$DIMASZ
 40
2.5
  9
$DIMEXO
 40
0.625
  9
$DIMDLI
 40
3.75
  9
$DIMRND
 40
0.0
  9
$DIMDLE
 40
0.0
  9
$DIMEXE
 40
1.25
  9
$DIMTP
 40
0.0
  9
$DIMTM
 40
0.0
  9
$DIMTXT
 40
2.5
  9
$DIMCEN
 40
2.5
  9
$DIMTSZ
 40
0.0
  9
$DIMTOL
 70
     0
  9
$DIMLIM
 70
     0
  9
$DIMTIH
 70
     0
  9
$DIMTOH
 70
     0
  9
$DIMSE1
 70
     0
  9
$DIMSE2
 70
     0
  9
$DIMTAD
 70
     1
  9
$DIMZIN
 70
     8
  9
$DIMBLK
  1

  9
$DIMASO
 70
     1
  9
$DIMSHO
 70
     1
  9
$DIMPOST
  1

  9
$DIMAPOST
  1

  9
$DIMALT
 70
     0
  9
$DIMALTD
 70
     3
  9
$DIMALTF
 40
0.03937007874016
  9
$DIMLFAC
 40
1.0
  9
$DIMTOFL
 70
     1
  9
$DIMTVP
 40
0.0
  9
$DIMTIX
 70
     0
  9
$DIMSOXD
 70
     0
  9
$DIMSAH
 70
     0
  9
$DIMBLK1
  1

  9
$DIMBLK2
  1

  9
$DIMSTYLE
  2
ISO-25
  9
$DIMCLRD
 70
     0
  9
$DIMCLRE
 70
     0
  9
$DIMCLRT
 70
     0
  9
$DIMTFAC
 40
1.0
  9
$DIMGAP
 40
0.625
  9
$DIMJUST
 70
     0
  9
$DIMSD1
 70
     0
  9
$DIMSD2
 70
     0
  9
$DIMTOLJ
 70
     0
  9
$DIMTZIN
 70
     8
  9
$DIMALTZ
 70
     0
  9
$DIMALTTZ
 70
     0
  9
$DIMUPT
 70
     0
  9
$DIMDEC
 70
     2
  9
$DIMTDEC
 70
     2
  9
$DIMALTU
 70
     2
  9
$DIMALTTD
 70
     3
  9
$DIMTXSTY
  7
Standard
  9
$DIMAUNIT
 70
     0
  9
$DIMADEC
 70
     0
  9
$DIMALTRND
 40
0.0
  9
$DIMAZIN
 70
     0
  9
$DIMDSEP
 70
    44
  9
$DIMATFIT
 70
     3
  9
$DIMFRAC
 70
     0
  9
$DIMLDRBLK
  1

  9
$DIMLUNIT
 70
     2
  9
$DIMLWD
 70
    -2
  9
$DIMLWE
 70
    -2
  9
$DIMTMOVE
 70
     0
  9
$DIMFXL
 40
1.0
  9
$DIMFXLON
 70
     0
  9
$DIMJOGANG
 40
0.7853981633974483
  9
$DIMTFILL
 70
     0
  9
$DIMTFILLCLR
 70
     0
  9
$DIMARCSYM
 70
     0
  9
$DIMLTYPE
  6

  9
$DIMLTEX1
  6

  9
$DIMLTEX2
  6

  9
$DIMTXTDIRECTION
 70
     0
  9
$LUNITS
 70
     2
  9
$LUPREC
 70
     4
  9
$SKETCHINC
 40
1.0
  9
$FILLETRAD
 40
10.0
  9
$AUNITS
 70
     0
  9
$AUPREC
 70
     0
  9
$MENU
  1
.
  9
$ELEVATION
 40
0.0
  9
$PELEVATION
 40
0.0
  9
$THICKNESS
 40
0.0
  9
$LIMCHECK
 70
     0
  9
$CHAMFERA
 40
0.0
  9
$CHAMFERB
 40
0.0
  9
$CHAMFERC
 40
0.0
  9
$CHAMFERD
 40
0.0
  9
$SKPOLY
 70
     0
  9
$TDCREATE
 40
2458168.987526458
  9
$TDUCREATE
 40
2458168.945859792
  9
$TDUPDATE
 40
2458168.987526644
  9
$TDUUPDATE
 40
2458168.945859977
  9
$TDINDWG
 40
0.0000000116
  9
$TDUSRTIMER
 40
0.0000000116
  9
$USRTIMER
 70
     1
  9
$ANGBASE
 50
0.0
  9
$ANGDIR
 70
     0
  9
$PDMODE
 70
     0
  9
$PDSIZE
 40
0.0
  9
$PLINEWID
 40
0.0
  9
$SPLFRAME
 70
     0
  9
$SPLINETYPE
 70
     6
  9
$SPLINESEGS
 70
     8
  9
$HANDSEED
  5
195
  9
$SURFTAB1
 70
     6
  9
$SURFTAB2
 70
     6
  9
$SURFTYPE
 70
     6
  9
$SURFU
 70
     6
  9
$SURFV
 70
     6
  9
$UCSBASE
  2

  9
$UCSNAME
  2

  9
$UCSORG
 10
0.0
 20
0.0
 30
0.0
  9
$UCSXDIR
 10
1.0
 20
0.0
 30
0.0
  9
$UCSYDIR
 10
0.0
 20
1.0
 30
0.0
  9
$UCSORTHOREF
  2

  9
$UCSORTHOVIEW
 70
     0
  9
$UCSORGTOP
 10
0.0
 20
0.0
 30
0.0
  9
$UCSORGBOTTOM
 10
0.0
 20
0.0
 30
0.0
  9
$UCSORGLEFT
 10
0.0
 20
0.0
 30
0.0
  9
$UCSORGRIGHT
 10
0.0
 20
0.0
 30
0.0
  9
$UCSORGFRONT
 10
0.0
 20
0.0
 30
0.0
  9
$UCSORGBACK
 10
0.0
 20
0.0
 30
0.0
  9
$PUCSBASE
  2

  9
$PUCSNAME
  2

  9
$PUCSORG
 10
0.0
 20
0.0
 30
0.0
  9
$PUCSXDIR
 10
1.0
 20
0.0
 30
0.0
  9
$PUCSYDIR
 10
0.0
 20
1.0
 30
0.0
  9
$PUCSORTHOREF
  2

  9
$PUCSORTHOVIEW
 70
     0
  9
$PUCSORGTOP
 10
0.0
 20
0.0
 30
0.0
  9
$PUCSORGBOTTOM
 10
0.0
 20
0.0
 30
0.0
  9
$PUCSORGLEFT
 10
0.0
 20
0.0
 30
0.0
  9
$PUCSORGRIGHT
 10
0.0
 20
0.0
 30
0.0
  9
$PUCSORGFRONT
 10
0.0
 20
0.0
 30
0.0
  9
$PUCSORGBACK
 10
0.0
 20
0.0
 30
0.0
  9
$USERI1
 70
     0
  9
$USERI2
 70
     0
  9
$USERI3
 70
     0
  9
$USERI4
 70
     0
  9
$USERI5
 70
     0
  9
$USERR1
 40
0.0
  9
$USERR2
 40
0.0
  9
$USERR3
 40
0.0
  9
$USERR4
 40
0.0
  9
$USERR5
 40
0.0
  9
$WORLDVIEW
 70
     1
  9
$SHADEDGE
 70
     3
  9
$SHADEDIF
 70
    70
  9
$TILEMODE
 70
     1
  9
$MAXACTVP
 70
    64
  9
$PINSBASE
 10
0.0
 20
0.0
 30
0.0
  9
$PLIMCHECK
 70
     0
  9
$PEXTMIN
 10
1.000000000000000E+20
 20
1.000000000000000E+20
 30
1.000000000000000E+20
  9
$PEXTMAX
 10
-1.000000000000000E+20
 20
-1.000000000000000E+20
 30
-1.000000000000000E+20
  9
$PLIMMIN
 10
0.0
 20
0.0
  9
$PLIMMAX
 10
420.0
 20
297.0
  9
$UNITMODE
 70
     0
  9
$VISRETAIN
 70
     1
  9
$PLINEGEN
 70
     0
  9
$PSLTSCALE
 70
     1
  9
$TREEDEPTH
 70
  3020
  9
$CMLSTYLE
  2
Standard
  9
$CMLJUST
 70
     0
  9
$CMLSCALE
 40
20.0
  9
$PROXYGRAPHICS
 70
     1
  9
$MEASUREMENT
 70
     1
  9
$CELWEIGHT
370
    -1
  9
$ENDCAPS
280
     0
  9
$JOINSTYLE
280
     0
  9
$LWDISPLAY
290
     0
  9
$INSUNITS
 70
     4
  9
$HYPERLINKBASE
  1

  9
$STYLESHEET
  1

  9
$XEDIT
290
     1
  9
$CEPSNTYPE
380
     0
  9
$PSTYLEMODE
290
     1
  9
$FINGERPRINTGUID
  2
{FC30C8DC-A54E-4290-A9A7-FB530359F4EC}
  9
$VERSIONGUID
  2
{FAEB1C32-E019-11D5-929B-00C0DF256EC4}
  9
$EXTNAMES
290
     1
  9
$PSVPSCALE
 40
0.0
  9
$OLESTARTUP
290
     0
  9
$SORTENTS
280
   127
  9
$INDEXCTL
280
     0
  9
$HIDETEXT
280
     1
  9
$XCLIPFRAME
280
     2
  9
$HALOGAP
280
     0
  9
$OBSCOLOR
 70
   257
  9
$OBSLTYPE
280
     0
  9
$INTERSECTIONDISPLAY
280
     0
  9
$INTERSECTIONCOLOR
 70
   257
  9
$DIMASSOC
280
     2
  9
$PROJECTNAME
  1

  9
$CAMERADISPLAY
290
     0
  9
$LENSLENGTH
 40
50.0
  9
$CAMERAHEIGHT
 40
0.0
  9
$STEPSPERSEC
 40
2.0
  9
$STEPSIZE
 40
6.0
  9
$3DDWFPREC
 40
2.0
  9
$PSOLWIDTH
 40
5.0
  9
$PSOLHEIGHT
 40
80.0
  9
$LOFTANG1
 40
1.570796326794897
  9
$LOFTANG2
 40
1.570796326794897
  9
$LOFTMAG1
 40
0.0
  9
$LOFTMAG2
 40
0.0
  9
$LOFTPARAM
 70
     7
  9
$LOFTNORMALS
280
     1
  9
$LATITUDE
 40
37.795
  9
$LONGITUDE
 40
-122.394
  9
$NORTHDIRECTION
 40
0.0
  9
$TIMEZONE
 70
 -8000
  9
$LIGHTGLYPHDISPLAY
280
     1
  9
$TILEMODELIGHTSYNCH
280
     1
  9
$CMATERIAL
347
44
  9
$SOLIDHIST
280
     0
  9
$SHOWHIST
280
     1
  9
$DWFFRAME
280
     2
  9
$DGNFRAME
280
     2
  9
$REALWORLDSCALE
290
     1
  9
$INTERFERECOLOR
 62
   256
  9
$CSHADOW
280
     0
  9
$SHADOWPLANELOCATION
 40
0.0
  0
ENDSEC
  0
SECTION
  2
CLASSES
  0
CLASS
  1
ACDBDICTIONARYWDFLT
  2
AcDbDictionaryWithDefault
  3
ObjectDBX Classes
 90
        0
 91
        4
280
     0
281
     0
  0
CLASS
  1
VISUALSTYLE
  2
AcDbVisualStyle
  3
ObjectDBX Classes
 90
     4095
 91
        4
280
     0
281
     0
  0
CLASS
  1
MATERIAL
  2
AcDbMaterial
  3
ObjectDBX Classes
 90
     1153
 91
        4
280
     0
281
     0
  0
CLASS
  1
SCALE
  2
AcDbScale
  3
ObjectDBX Classes
 90
     1153
 91
        4
280
     0
281
     0
  0
CLASS
  1
TABLESTYLE
  2
AcDbTableStyle
  3
ObjectDBX Classes
 90
     4095
 91
        4
280
     0
281
     0
  0
CLASS
  1
MLEADERSTYLE
  2
AcDbMLeaderStyle
  3
ACDB_MLEADERSTYLE_CLASS
 90
     4095
 91
        4
280
     0
281
     0
  0
CLASS
  1
SUN
  2
AcDbSun
  3
SCENEOE
 90
     1153
 91
        4
280
     0
281
     0
  0
CLASS
  1
DICTIONARYVAR
  2
AcDbDictionaryVar
  3
ObjectDBX Classes
 90
        0
 91
        4
280
     0
281
     0
  0
CLASS
  1
CELLSTYLEMAP
  2
AcDbCellStyleMap
  3
ObjectDBX Classes
 90
     1152
 91
        4
280
     0
281
     0
  0
ENDSEC
  0
SECTION
  2
TABLES
  0
TABLE
  2
VPORT
  5
8
330
0
100
AcDbSymbolTable
 70
     1
  0
VPORT
  5
29
330
8
100
AcDbSymbolTableRecord
100
AcDbViewportTableRecord
  2
*Active
 70
     0
 10
0.0
 20
0.0
 11
1.0
 21
1.0
 12
0.4724920014175495
 22
-27.05000000000001
 13
0.0
 23
0.0
 14
10.0
 24
10.0
 15
10.0
 25
10.0
 16
0.0
 26
0.0
 36
1.0
 17
0.0
 27
0.0
 37
0.0
 40
60.7002
 41
1.778608368389099
 42
50.0
 43
0.0
 44
0.0
 50
0.0
 51
0.0
 71
     0
 72
   100
 73
     1
 74
     3
 75
     0
 76
     0
 77
     0
 78
     0
281
     0
 65
     1
110
0.0
120
0.0
130
0.0
111
1.0
121
0.0
131
0.0
112
0.0
122
1.0
132
0.0
 79
     0
146
0.0
348
2F
 60
     3
 61
     5
292
     1
282
     1
141
0.0
142
0.0
 63
   250
361
6D
  0
ENDTAB
  0
TABLE
  2
LTYPE
  5
5
330
0
100
AcDbSymbolTable
 70
     3
  0
LTYPE
  5
14
330
5
100
AcDbSymbolTableRecord
100
AcDbLinetypeTableRecord
  2
ByBlock
 70
     0
  3

 72
    65
 73
     0
 40
0.0
  0
LTYPE
  5
15
330
5
100
AcDbSymbolTableRecord
100
AcDbLinetypeTableRecord
  2
ByLayer
 70
     0
  3

 72
    65
 73
     0
 40
0.0
  0
LTYPE
  5
16
330
5
100
AcDbSymbolTableRecord
100
AcDbLinetypeTableRecord
  2
Continuous
 70
     0
  3
Solid line
 72
    65
 73
     0
 40
0.0
  0
LTYPE
  5
97
330
5
100
AcDbSymbolTableRecord
100
AcDbLinetypeTableRecord
  2
Dashed
 70
     0
  3

 72
    65
 73
     2
 40
2.0
 49
1.0
 74
     0
 49
-1.0
 74
     0
  0
LTYPE
  5
168
330
5
100
AcDbSymbolTableRecord
100
AcDbLinetypeTableRecord
  2
Center
 70
     0
  3

 72
    65
 73
     4
 40
1.5
 49
0.45
 74
     0
 49
-0.5
 74
     0
 49
0.05
 74
     0
 49
-0.5
 74
     0
  0
ENDTAB
  0
TABLE
  2
LAYER
  5
2
330
0
100
AcDbSymbolTable
 70
     6
  0
LAYER
  5
10
330
2
100
AcDbSymbolTableRecord
100
AcDbLayerTableRecord
  2
0
 70
     0
 62
     7
  6
Continuous
370
    -3
390
F
347
46
348
0
  0
LAYER
  5
72
330
2
100
AcDbSymbolTableRecord
100
AcDbLayerTableRecord
  2
AM_6
 70
     0
 62
    -2
  6
Continuous
370
    35
390
F
347
46
348
0
  0
LAYER
  5
98
330
2
100
AcDbSymbolTableRecord
100
AcDbLayerTableRecord
  2
AM_9
 70
     0
 62
     6
  6
Dashed
370
    25
390
F
347
46
348
0
  0
LAYER
  5
B5
330
2
100
AcDbSymbolTableRecord
100
AcDbLayerTableRecord
  2
AM_4
 70
     0
 62
     7
  6
Continuous
370
    50
390
F
347
46
348
0
  0
LAYER
  5
169
330
2
100
AcDbSymbolTableRecord
100
AcDbLayerTableRecord
  2
AM_7
 70
     0
 62
     7
  6
Center
370
    25
390
F
347
46
348
0
  0
LAYER
  5
188
330
2
100
AcDbSymbolTableRecord
100
AcDbLayerTableRecord
  2
ConnectionPoints
 70
     0
 62
     7
  6
Continuous
370
    50
390
F
347
46
348
0
  0
ENDTAB
  0
TABLE
  2
STYLE
  5
3
330
0
100
AcDbSymbolTable
 70
     1
  0
STYLE
  5
11
330
3
100
AcDbSymbolTableRecord
100
AcDbTextStyleTableRecord
  2
Standard
 70
     0
 40
0.0
 41
1.0
 50
0.0
 71
     0
 42
2.5
  3
txt
  4

  0
ENDTAB
  0
TABLE
  2
VIEW
  5
6
330
0
100
AcDbSymbolTable
 70
     0
  0
ENDTAB
  0
TABLE
  2
UCS
  5
7
330
0
100
AcDbSymbolTable
 70
     0
  0
ENDTAB
  0
TABLE
  2
APPID
  5
9
330
0
100
AcDbSymbolTable
 70
     1
  0
APPID
  5
12
330
9
100
AcDbSymbolTableRecord
100
AcDbRegAppTableRecord
  2
ACAD
 70
     0
  0
ENDTAB
  0
TABLE
  2
DIMSTYLE
  5
A
330
0
100
AcDbSymbolTable
 70
     1
100
AcDbDimStyleTable
  0
DIMSTYLE
105
27
330
A
100
AcDbSymbolTableRecord
100
AcDbDimStyleTableRecord
  2
ISO-25
 70
     0
 41
2.5
 42
0.625
 43
3.75
 44
1.25
 73
     0
 74
     0
 77
     1
 78
     8
140
2.5
141
2.5
143
0.03937007874016
147
0.625
171
     3
172
     1
178
     0
271
     2
272
     2
274
     3
278
    44
283
     0
284
     8
340
11
  0
ENDTAB
  0
TABLE
  2
BLOCK_RECORD
  5
1
330
0
100
AcDbSymbolTable
 70
     5
  0
BLOCK_RECORD
  5
1F
330
1
100
AcDbSymbolTableRecord
100
AcDbBlockTableRecord
  2
*Model_Space
340
22
 70
     0
280
     1
281
     0
  0
BLOCK_RECORD
  5
1B
330
1
100
AcDbSymbolTableRecord
100
AcDbBlockTableRecord
  2
*Paper_Space
340
1E
 70
     0
280
     1
281
     0
  0
BLOCK_RECORD
  5
23
330
1
100
AcDbSymbolTableRecord
100
AcDbBlockTableRecord
  2
*Paper_Space0
340
26
 70
     0
280
     1
281
     0
  0
BLOCK_RECORD
  5
6E
330
1
100
AcDbSymbolTableRecord
100
AcDbBlockTableRecord
  2
1_130371_4
340
0
102
{BLKREFS
331
6F
102
}
 70
     0
280
     1
281
     0
  0
BLOCK_RECORD
  5
8B
330
1
100
AcDbSymbolTableRecord
100
AcDbBlockTableRecord
  2
2_405015E_Metric_0_in_130371_4
340
0
102
{BLKREFS
331
8C
102
}
 70
     0
280
     1
281
     0
  0
BLOCK_RECORD
  5
D3
330
1
100
AcDbSymbolTableRecord
100
AcDbBlockTableRecord
  2
3_125810_0_in_130371_4
340
0
102
{BLKREFS
331
D4
102
}
 70
     0
280
     1
281
     0
  0
BLOCK_RECORD
  5
12C
330
1
100
AcDbSymbolTableRecord
100
AcDbBlockTableRecord
  2
4_130371H_0_in_130371_4
340
0
102
{BLKREFS
331
12D
102
}
 70
     0
280
     1
281
     0
  0
ENDTAB
  0
ENDSEC
  0
SECTION
  2
BLOCKS
  0
BLOCK
  5
20
330
1F
100
AcDbEntity
  8
0
100
AcDbBlockBegin
  2
*Model_Space
 70
     0
 10
0.0
 20
0.0
 30
0.0
  3
*Model_Space
  1

  0
ENDBLK
  5
21
330
1F
100
AcDbEntity
  8
0
100
AcDbBlockEnd
  0
BLOCK
  5
1C
330
1B
100
AcDbEntity
 67
     1
  8
0
100
AcDbBlockBegin
  2
*Paper_Space
 70
     0
 10
0.0
 20
0.0
 30
0.0
  3
*Paper_Space
  1

  0
ENDBLK
  5
1D
330
1B
100
AcDbEntity
 67
     1
  8
0
100
AcDbBlockEnd
  0
BLOCK
  5
24
330
23
100
AcDbEntity
  8
0
100
AcDbBlockBegin
  2
*Paper_Space0
 70
     0
 10
0.0
 20
0.0
 30
0.0
  3
*Paper_Space0
  1

  0
ENDBLK
  5
25
330
23
100
AcDbEntity
  8
0
100
AcDbBlockEnd
  0
BLOCK
  5
70
330
6E
100
AcDbEntity
  8
0
100
AcDbBlockBegin
  2
1_130371_4
 70
     2
 10
0.0
 20
0.0
 30
0.0
  3
1_130371_4
  1

  0
ATTDEF
  5
73
330
6E
100
AcDbEntity
  8
AM_6
100
AcDbText
 10
58.3949840028352
 20
2.705
 30
0.0
 40
0.5
  1
Set Screw Two-Bolt Piloted Flange Metric Bore
100
AcDbAttributeDefinition
  3

  2
NN
 70
     8
280
     0
  0
ATTDEF
  5
74
330
6E
100
AcDbEntity
  8
AM_6
100
AcDbText
 10
58.3949840028352
 20
2.205
 30
0.0
 40
0.5
  1
SC 2 Bolt Flange Bearings -(Normal Duty)
100
AcDbAttributeDefinition
  3

  2
NT
 70
     8
280
     0
  0
ATTDEF
  5
75
330
6E
100
AcDbEntity
  8
AM_6
100
AcDbText
 10
58.3949840028352
 20
1.705
 30
0.0
 40
0.5
  1
130371
100
AcDbAttributeDefinition
  3

  2
NB
 70
     8
280
     0
  0
ATTDEF
  5
76
330
6E
100
AcDbEntity
  8
AM_6
100
AcDbText
 10
58.3949840028352
 20
1.205
 30
0.0
 40
0.5
  1
$PN.
100
AcDbAttributeDefinition
  3

  2
NBSYN
 70
     8
280
     0
  0
ATTDEF
  5
77
330
6E
100
AcDbEntity
  8
AM_6
100
AcDbText
 10
58.3949840028352
 20
0.7050000000000001
 30
0.0
 40
0.5
  1
130371
100
AcDbAttributeDefinition
  3

  2
LINA
 70
     8
280
     0
  0
ATTDEF
  5
78
330
6E
100
AcDbEntity
  8
AM_6
100
AcDbText
 10
58.3949840028352
 20
0.2050000000000001
 30
0.0
 40
0.5
  1
208
100
AcDbAttributeDefinition
  3

  2
SERIES
 70
     8
280
     0
  0
ATTDEF
  5
79
330
6E
100
AcDbEntity
  8
AM_6
100
AcDbText
 10
58.3949840028352
 20
-0.2949999999999999
 30
0.0
 40
0.5
  1
40
100
AcDbAttributeDefinition
  3

  2
SS
 70
     8
280
     0
  0
ATTDEF
  5
7A
330
6E
100
AcDbEntity
  8
AM_6
100
AcDbText
 10
58.3949840028352
 20
-0.7949999999999999
 30
0.0
 40
0.5
  1
130371
100
AcDbAttributeDefinition
  3

  2
PN
 70
     8
280
     0
  0
ATTDEF
  5
7B
330
6E
100
AcDbEntity
  8
AM_6
100
AcDbText
 10
58.3949840028352
 20
-1.295
 30
0.0
 40
0.5
  1
F2BZ-SC-40M
100
AcDbAttributeDefinition
  3

  2
DESCRIPTION
 70
     8
280
     0
  0
ATTDEF
  5
7C
330
6E
100
AcDbEntity
  8
AM_6
100
AcDbText
 10
58.3949840028352
 20
-1.795
 30
0.0
 40
0.5
  1
1.7
100
AcDbAttributeDefinition
  3

  2
WEIGHT
 70
     8
280
     0
  0
ATTDEF
  5
7D
330
6E
100
AcDbEntity
  8
AM_6
100
AcDbText
 10
58.3949840028352
 20
-2.295
 30
0.0
 40
0.5
  1
49.3
100
AcDbAttributeDefinition
  3

  2
A
 70
     8
280
     0
  0
ATTDEF
  5
7E
330
6E
100
AcDbEntity
  8
AM_6
100
AcDbText
 10
58.3949840028352
 20
-2.795
 30
0.0
 40
0.5
  1
171.5
100
AcDbAttributeDefinition
  3

  2
B
 70
     8
280
     0
  0
ATTDEF
  5
7F
330
6E
100
AcDbEntity
  8
AM_6
100
AcDbText
 10
58.3949840028352
 20
-3.295
 30
0.0
 40
0.5
  1
54.1
100
AcDbAttributeDefinition
  3

  2
C
 70
     8
280
     0
  0
ATTDEF
  5
80
330
6E
100
AcDbEntity
  8
AM_6
100
AcDbText
 10
58.3949840028352
 20
-3.795
 30
0.0
 40
0.5
  1
143.8
100
AcDbAttributeDefinition
  3

  2
D
 70
     8
280
     0
  0
ATTDEF
  5
81
330
6E
100
AcDbEntity
  8
AM_6
100
AcDbText
 10
58.3949840028352
 20
-4.295
 30
0.0
 40
0.5
  1
4.1
100
AcDbAttributeDefinition
  3

  2
E
 70
     8
280
     0
  0
ATTDEF
  5
82
330
6E
100
AcDbEntity
  8
AM_6
100
AcDbText
 10
58.3949840028352
 20
-4.795
 30
0.0
 40
0.5
  1
M12
100
AcDbAttributeDefinition
  3

  2
F
 70
     8
280
     0
  0
ATTDEF
  5
83
330
6E
100
AcDbEntity
  8
AM_6
100
AcDbText
 10
58.3949840028352
 20
-5.295
 30
0.0
 40
0.5
  1
50.3
100
AcDbAttributeDefinition
  3

  2
G
 70
     8
280
     0
  0
ATTDEF
  5
84
330
6E
100
AcDbEntity
  8
AM_6
100
AcDbText
 10
58.3949840028352
 20
-5.795
 30
0.0
 40
0.5
  1
14.2
100
AcDbAttributeDefinition
  3

  2
H
 70
     8
280
     0
  0
ATTDEF
  5
85
330
6E
100
AcDbEntity
  8
AM_6
100
AcDbText
 10
58.3949840028352
 20
-6.295
 30
0.0
 40
0.5
  1
16.0
100
AcDbAttributeDefinition
  3

  2
J
 70
     8
280
     0
  0
ATTDEF
  5
86
330
6E
100
AcDbEntity
  8
AM_6
100
AcDbText
 10
58.3949840028352
 20
-6.795
 30
0.0
 40
0.5
  1
100.00 / 99.95
100
AcDbAttributeDefinition
  3

  2
K
 70
     8
280
     0
  0
ATTDEF
  5
87
330
6E
100
AcDbEntity
  8
AM_6
100
AcDbText
 10
58.3949840028352
 20
-7.295
 30
0.0
 40
0.5
  1
52.1
100
AcDbAttributeDefinition
  3

  2
L
 70
     8
280
     0
  0
ATTDEF
  5
88
330
6E
100
AcDbEntity
  8
AM_6
100
AcDbText
 10
58.3949840028352
 20
-7.795
 30
0.0
 40
0.5
  1
104.9
100
AcDbAttributeDefinition
  3

  2
M
 70
     8
280
     0
  0
ATTDEF
  5
89
330
6E
100
AcDbEntity
  8
AM_6
100
AcDbText
 10
58.3949840028352
 20
-8.295
 30
0.0
 40
0.5
  1
46.5
100
AcDbAttributeDefinition
  3

  2
N
 70
     8
280
     0
  0
ATTDEF
  5
8A
330
6E
100
AcDbEntity
  8
AM_6
100
AcDbText
 10
58.3949840028352
 20
-8.795
 30
0.0
 40
0.5
  1
baldor
100
AcDbAttributeDefinition
  3

  2
COMPANY
 70
     8
280
     0
  0
INSERT
  5
8C
330
6E
100
AcDbEntity
  8
0
100
AcDbBlockReference
  2
2_405015E_Metric_0_in_130371_4
 10
0.0
 20
0.0
 30
0.0
  0
INSERT
  5
D4
330
6E
100
AcDbEntity
  8
0
100
AcDbBlockReference
  2
3_125810_0_in_130371_4
 10
0.0
 20
0.0
 30
0.0
  0
INSERT
  5
12D
330
6E
100
AcDbEntity
  8
0
100
AcDbBlockReference
  2
4_130371H_0_in_130371_4
 10
0.0
 20
0.0
 30
0.0
  0
ENDBLK
  5
71
330
6E
100
AcDbEntity
  8
0
100
AcDbBlockEnd
  0
BLOCK
  5
8D
330
8B
100
AcDbEntity
  8
0
100
AcDbBlockBegin
  2
2_405015E_Metric_0_in_130371_4
 70
     2
 10
0.0
 20
0.0
 30
0.0
  3
2_405015E_Metric_0_in_130371_4
  1

  0
ATTDEF
  5
8F
330
8B
100
AcDbEntity
  8
AM_6
100
AcDbText
 10
58.3949840028352
 20
-19.9
 30
0.0
 40
0.5
  1
405015E -Metric
100
AcDbAttributeDefinition
  3

  2
NN
 70
     8
280
     0
  0
ATTDEF
  5
90
330
8B
100
AcDbEntity
  8
AM_6
100
AcDbText
 10
58.3949840028352
 20
-20.4
 30
0.0
 40
0.5
  1
Grease Fitting
100
AcDbAttributeDefinition
  3

  2
NT
 70
     8
280
     0
  0
ATTDEF
  5
91
330
8B
100
AcDbEntity
  8
AM_6
100
AcDbText
 10
58.3949840028352
 20
-20.9
 30
0.0
 40
0.5
  1
405015E-Metric
100
AcDbAttributeDefinition
  3

  2
NB
 70
     8
280
     0
  0
ATTDEF
  5
92
330
8B
100
AcDbEntity
  8
AM_6
100
AcDbText
 10
58.3949840028352
 20
-21.4
 30
0.0
 40
0.5
  1
$MN.-Metric
100
AcDbAttributeDefinition
  3

  2
NBSYN
 70
     8
280
     0
  0
ATTDEF
  5
93
330
8B
100
AcDbEntity
  8
AM_6
100
AcDbText
 10
58.3949840028352
 20
-21.9
 30
0.0
 40
0.5
  1
405015E
100
AcDbAttributeDefinition
  3

  2
LINA
 70
     8
280
     0
  0
ATTDEF
  5
94
330
8B
100
AcDbEntity
  8
AM_6
100
AcDbText
 10
58.3949840028352
 20
-22.4
 30
0.0
 40
0.5
  1
405015E
100
AcDbAttributeDefinition
  3

  2
MN
 70
     8
280
     0
  0
ATTDEF
  5
95
330
8B
100
AcDbEntity
  8
AM_6
100
AcDbText
 10
58.3949840028352
 20
-22.9
 30
0.0
 40
0.5
  1
1/8 x 27PTF
100
AcDbAttributeDefinition
  3

  2
T
 70
     8
280
     0
  0
ATTDEF
  5
96
330
8B
100
AcDbEntity
  8
AM_6
100
AcDbText
 10
58.3949840028352
 20
-23.4
 30
0.0
 40
0.5
  1
baldor
100
AcDbAttributeDefinition
  3

  2
COMPANY
 70
     8
280
     0
  0
LWPOLYLINE
  5
99
330
8B
100
AcDbEntity
  8
AM_9
100
AcDbPolyline
 90
        4
 70
     0
 43
0.0
 10
49.21514469703942
 20
-24.9
 10
48.59959890060829
 20
-26.14437966340913
 10
48.31456210518017
 20
-26.77131431064605
 10
48.04796942837551
 20
-27.4
  0
LWPOLYLINE
  5
9A
330
8B
100
AcDbEntity
  8
AM_9
100
AcDbPolyline
 90
        4
 70
     0
 43
0.0
 10
48.04796942837551
 20
-22.4
 10
48.3129419027432
 20
-23.025
 10
48.5969626664967
 20
-23.65
 10
49.21514469703942
 20
-24.9
  0
ELLIPSE
  5
9B
330
8B
100
AcDbEntity
  8
AM_9
100
AcDbEllipse
 10
40.22657150572989
 20
-24.9
 30
0.0
 11
2.546036870355445E-16
 21
4.157993753183522
 31
0.0
210
0.0
220
0.0
230
1.0
 40
0.7071067811865472
 41
0.0
 42
6.283185307179586
  0
LINE
  5
9C
330
8B
100
AcDbEntity
  8
AM_9
100
AcDbLine
 10
51.04335595559056
 20
-24.9
 30
0.0
 11
49.21514469703942
 21
-24.9
 31
0.0
  0
LWPOLYLINE
  5
9D
330
8B
100
AcDbEntity
  8
AM_9
100
AcDbPolyline
 90
        4
 70
     0
 43
0.0
 10
47.17390324472011
 20
-19.9
 10
47.34912025997112
 20
-20.46758638225363
 10
47.67577348372602
 20
-21.43090543234242
 10
48.04796942837551
 20
-22.4
  0
LWPOLYLINE
  5
9E
330
8B
100
AcDbEntity
  8
AM_9
100
AcDbPolyline
 90
        4
 70
     0
 43
0.0
 10
48.04796942837551
 20
-27.4
 10
47.80263153966337
 20
-28.025
 10
47.57634194033704
 20
-28.65
 10
47.17390324472011
 20
-29.9
  0
LWPOLYLINE
  5
9F
330
8B
100
AcDbEntity
  8
AM_9
100
AcDbPolyline
 90
        4
 70
     0
 43
0.0
 10
50.16928977193515
 20
-27.4
 10
50.41462766064728
 20
-26.77499999999999
 10
50.64091725997362
 20
-26.15
 10
51.04335595559056
 20
-24.9
  0
LWPOLYLINE
  5
A0
330
8B
100
AcDbEntity
  8
AM_9
100
AcDbPolyline
 90
        4
 70
     0
 43
0.0
 10
51.04335595559056
 20
-24.9
 10
50.64287001147214
 20
-23.65562033659086
 10
50.41601681096617
 20
-23.02868568935394
 10
50.16928977193515
 20
-22.4
  0
LINE
  5
A1
330
8B
100
AcDbEntity
  8
AM_9
100
AcDbLine
 10
50.16928977193515
 20
-22.4
 30
0.0
 11
49.90587560956671
 21
-21.77854632795901
 31
0.0
  0
LINE
  5
A2
330
8B
100
AcDbEntity
  8
AM_9
100
AcDbLine
 10
49.90847811577085
 20
-28.0155278895013
 30
0.0
 11
50.16928977193515
 21
-27.4
 31
0.0
  0
LINE
  5
A3
330
8B
100
AcDbEntity
  8
AM_9
100
AcDbLine
 10
40.54571697582472
 20
-29.65570540013617
 30
0.0
 11
44.87672934296389
 21
-29.84721402118571
 31
0.0
  0
LINE
  5
A4
330
8B
100
AcDbEntity
  8
AM_9
100
AcDbLine
 10
44.87672934296389
 20
-19.95278597881428
 30
0.0
 11
40.54571697582472
 21
-20.14429459986382
 31
0.0
  0
LINE
  5
A5
330
8B
100
AcDbEntity
  8
AM_9
100
AcDbLine
 10
49.6066498158292
 20
-22.42277008014441
 30
0.0
 11
49.13508816496422
 21
-22.15102288328506
 31
0.0
  0
LINE
  5
A6
330
8B
100
AcDbEntity
  8
AM_9
100
AcDbLine
 10
49.13508816496422
 20
-27.64897711671493
 30
0.0
 11
49.6066498158292
 21
-27.37722991985558
 31
0.0
  0
ELLIPSE
  5
A7
330
8B
100
AcDbEntity
  8
AM_9
100
AcDbEllipse
 10
48.8928722159549
 20
-24.90000000000121
 30
0.0
 11
-4.913895281576282E-16
 21
-2.674999999998654
 31
0.0
210
0.0
220
0.0
230
1.0
 40
0.7071067811861816
 41
0.0
 42
3.141592653589793
  0
LINE
  5
A8
330
8B
100
AcDbEntity
  8
AM_9
100
AcDbLine
 10
49.88711662386613
 20
-22.91007116726748
 30
0.0
 11
49.62329715197924
 21
-22.49341358254605
 31
0.0
  0
LINE
  5
A9
330
8B
100
AcDbEntity
  8
AM_9
100
AcDbLine
 10
49.62329715197924
 20
-27.30658641745394
 30
0.0
 11
49.88711662386613
 21
-26.88992883273251
 31
0.0
  0
ELLIPSE
  5
AA
330
8B
100
AcDbEntity
  8
AM_9
100
AcDbEllipse
 10
48.31574106298753
 20
-24.9
 30
0.0
 11
-5.479672885901720E-16
 21
-2.982994982562527
 31
0.0
210
0.0
220
0.0
230
1.0
 40
0.7071067811865477
 41
0.386942238188392
 42
2.754650415401402
  0
ELLIPSE
  5
AB
330
8B
100
AcDbEntity
  8
AM_9
100
AcDbEllipse
 10
47.10742759345679
 20
-24.90000000000005
 30
0.0
 11
-9.184850993605266E-16
 21
-5.000000000000064
 31
0.0
210
0.0
220
0.0
230
1.0
 40
0.707106781186439
 41
0.8982051386265812
 42
2.243387514962991
  0
LINE
  5
AC
330
8B
100
AcDbEntity
  8
AM_9
100
AcDbLine
 10
49.009544834848
 20
-27.57499999999999
 30
0.0
 11
49.3878469627828
 21
-27.575
 31
0.0
  0
LINE
  5
AD
330
8B
100
AcDbEntity
  8
AM_9
100
AcDbLine
 10
49.3878469627828
 20
-22.22499999999999
 30
0.0
 11
49.00954483484799
 21
-22.22499999999999
 31
0.0
  0
ELLIPSE
  5
AE
330
8B
100
AcDbEntity
  8
AM_9
100
AcDbEllipse
 10
49.38784696278277
 20
-24.89999999999992
 30
0.0
 11
-4.913895281578893E-16
 21
-2.675000000000075
 31
0.0
210
0.0
220
0.0
230
1.0
 40
0.7071067811865471
 41
5.888394187479844
 42
9.819569080469142
  0
ELLIPSE
  5
AF
330
8B
100
AcDbEntity
  8
AM_9
100
AcDbEllipse
 10
47.72290201255359
 20
-24.90000000000125
 30
0.0
 11
-6.627024103765060E-16
 21
-3.607583894599408
 31
0.0
210
0.0
220
0.0
230
1.0
 40
0.7071067811865471
 41
0.6633833151888897
 42
2.47820933840133
  0
ELLIPSE
  5
B0
330
8B
100
AcDbEntity
  8
AM_9
100
AcDbEllipse
 10
47.10742759345619
 20
-24.9
 30
0.0
 11
-8.725608443924891E-16
 21
-4.75
 31
0.0
210
0.0
220
0.0
230
1.0
 40
0.7071067811865487
 41
0.8736482899483775
 42
2.267944363641374
  0
ELLIPSE
  5
B1
330
8B
100
AcDbEntity
  8
AM_9
100
AcDbEllipse
 10
50.30708577832531
 20
-24.9
 30
0.0
 11
-5.832380380939270E-16
 21
-3.175000000000001
 31
0.0
210
0.0
220
0.0
230
1.0
 40
0.7071067811865468
 41
0.4159140521025488
 42
2.725678601487245
  0
ELLIPSE
  5
B2
330
8B
100
AcDbEntity
  8
AM_9
100
AcDbEllipse
 10
44.98610724989656
 20
-24.90000000000003
 30
0.0
 11
-9.184850993605089E-16
 21
-4.999999999999968
 31
0.0
210
0.0
220
0.0
230
1.0
 40
0.7071067811865492
 41
0.0
 42
6.283185307179586
  0
ELLIPSE
  5
B3
330
8B
100
AcDbEntity
  8
AM_9
100
AcDbEllipse
 10
44.98610724989654
 20
-24.89999999999999
 30
0.0
 11
-9.092325864233667E-16
 21
-4.949631665534966
 31
0.0
210
0.0
220
0.0
230
1.0
 40
0.7071067811865486
 41
0.0
 42
6.283185307179586
  0
ELLIPSE
  5
B4
330
8B
100
AcDbEntity
  8
AM_9
100
AcDbEllipse
 10
40.65086082050733
 20
-24.89999999999998
 30
0.0
 11
-8.740358316248955E-16
 21
-4.758029456511778
 31
0.0
210
0.0
220
0.0
230
1.0
 40
0.7071067811865452
 41
0.0
 42
6.283185307179586
  0
LWPOLYLINE
  5
B6
330
8B
100
AcDbEntity
  8
AM_4
100
AcDbPolyline
 90
        4
 70
     0
 43
0.0
 10
49.90587560956671
 20
-21.77854632795901
 10
49.75154002365675
 20
-21.43379319112681
 10
49.29032982851145
 20
-20.46758638225363
 10
49.00211450327124
 20
-19.9
  0
LWPOLYLINE
  5
B7
330
8B
100
AcDbEntity
  8
AM_4
100
AcDbPolyline
 90
        4
 70
     0
 43
0.0
 10
49.00211450327124
 20
-29.9
 10
49.61766029970237
 20
-28.65562033659086
 10
49.90269709513049
 20
-28.02868568935394
 10
49.90847811577085
 20
-28.0155278895013
  0
LINE
  5
B8
330
8B
100
AcDbEntity
  8
AM_4
100
AcDbLine
 10
49.00211450327124
 20
-29.9
 30
0.0
 11
43.09142034008148
 21
-29.9
 31
0.0
  0
LWPOLYLINE
  5
B9
330
8B
100
AcDbEntity
  8
AM_4
100
AcDbPolyline
 90
        4
 70
     0
 43
0.0
 10
44.0455654149772
 20
-27.4
 10
44.29090330368934
 20
-28.025
 10
44.51719290301568
 20
-28.65
 10
44.91963159863261
 20
-29.9
  0
LWPOLYLINE
  5
BA
330
8B
100
AcDbEntity
  8
AM_4
100
AcDbPolyline
 90
        4
 70
     0
 43
0.0
 10
41.92424507141757
 20
-27.4
 10
41.55309026378192
 20
-26.43379319112681
 10
41.22539590301318
 20
-25.46758638225363
 10
41.05017888776216
 20
-24.9
  0
LWPOLYLINE
  5
BB
330
8B
100
AcDbEntity
  8
AM_4
100
AcDbPolyline
 90
        4
 70
     0
 43
0.0
 10
43.09142034008148
 20
-29.9
 10
42.47587454365034
 20
-28.65562033659086
 10
42.19083774822223
 20
-28.02868568935394
 10
41.92424507141757
 20
-27.4
  0
LWPOLYLINE
  5
BC
330
8B
100
AcDbEntity
  8
AM_4
100
AcDbPolyline
 90
        4
 70
     0
 43
0.0
 10
42.8783901463133
 20
-24.9
 10
43.16660547155351
 20
-25.46758638225363
 10
43.62649895853865
 20
-26.43090543234242
 10
44.0455654149772
 20
-27.4
  0
LINE
  5
BD
330
8B
100
AcDbEntity
  8
AM_4
100
AcDbLine
 10
49.13508816496422
 20
-22.15102288328506
 30
0.0
 11
49.11170181031412
 21
-22.1375460106232
 31
0.0
  0
LINE
  5
BE
330
8B
100
AcDbEntity
  8
AM_4
100
AcDbLine
 10
49.11170181031412
 20
-27.66245398937679
 30
0.0
 11
49.13508816496422
 21
-27.64897711671493
 31
0.0
  0
ELLIPSE
  5
BF
330
8B
100
AcDbEntity
  8
AM_4
100
AcDbEllipse
 10
48.31574106298755
 20
-24.9
 30
0.0
 11
-5.479672885901694E-16
 21
-2.982994982562513
 31
0.0
210
0.0
220
0.0
230
1.0
 40
0.7071067811865487
 41
2.754650415401407
 42
6.670127545367973
  0
ELLIPSE
  5
C0
330
8B
100
AcDbEntity
  8
AM_4
100
AcDbEllipse
 10
47.72290201255277
 20
-24.90000000000001
 30
0.0
 11
-6.627024103768193E-16
 21
-3.607583894601113
 31
0.0
210
0.0
220
0.0
230
1.0
 40
0.7071067811865479
 41
2.478209338400867
 42
6.946568622368515
  0
ELLIPSE
  5
C1
330
8B
100
AcDbEntity
  8
AM_4
100
AcDbEllipse
 10
47.10742759345618
 20
-24.89999999999999
 30
0.0
 11
-9.184850993605162E-16
 21
-5.000000000000007
 31
0.0
210
0.0
220
0.0
230
1.0
 40
0.7071067811865479
 41
2.243387514962949
 42
7.181390445806191
  0
LINE
  5
C2
330
8B
100
AcDbEntity
  8
AM_4
100
AcDbLine
 10
48.89287221595221
 20
-27.575
 30
0.0
 11
49.009544834848
 21
-27.57499999999999
 31
0.0
  0
LINE
  5
C3
330
8B
100
AcDbEntity
  8
AM_4
100
AcDbLine
 10
49.00954483484799
 20
-22.22499999999999
 30
0.0
 11
48.89287221595221
 21
-22.22499999999999
 31
0.0
  0
ELLIPSE
  5
C4
330
8B
100
AcDbEntity
  8
AM_4
100
AcDbEllipse
 10
48.89287221595222
 20
-24.9
 30
0.0
 11
-4.913895281578762E-16
 21
-2.675000000000004
 31
0.0
210
0.0
220
0.0
230
1.0
 40
0.7071067811865474
 41
3.141592653589793
 42
6.283185307179586
  0
LINE
  5
C5
330
8B
100
AcDbEntity
  8
AM_4
100
AcDbLine
 10
42.8783901463133
 20
-24.9
 30
0.0
 11
41.05017888776216
 21
-24.9
 31
0.0
  0
LWPOLYLINE
  5
C6
330
8B
100
AcDbEntity
  8
AM_4
100
AcDbPolyline
 90
        4
 70
     0
 43
0.0
 10
44.0455654149772
 20
-22.39999999999999
 10
43.78059294060952
 20
-23.025
 10
43.49657217685602
 20
-23.65
 10
42.8783901463133
 20
-24.9
  0
LWPOLYLINE
  5
C7
330
8B
100
AcDbEntity
  8
AM_4
100
AcDbPolyline
 90
        4
 70
     0
 43
0.0
 10
44.91963159863261
 20
-19.9
 10
44.5191456545142
 20
-21.14437966340913
 10
44.29229245400823
 20
-21.77131431064605
 10
44.0455654149772
 20
-22.39999999999999
  0
LINE
  5
C8
330
8B
100
AcDbEntity
  8
AM_4
100
AcDbLine
 10
49.00211450327124
 20
-19.9
 30
0.0
 11
43.09142034008148
 21
-19.9
 31
0.0
  0
LWPOLYLINE
  5
C9
330
8B
100
AcDbEntity
  8
AM_4
100
AcDbPolyline
 90
        4
 70
     0
 43
0.0
 10
41.92424507141757
 20
-22.39999999999999
 10
42.18921754578526
 20
-21.775
 10
42.47323830953875
 20
-21.15
 10
43.09142034008148
 20
-19.9
  0
LWPOLYLINE
  5
CA
330
8B
100
AcDbEntity
  8
AM_4
100
AcDbPolyline
 90
        4
 70
     0
 43
0.0
 10
41.05017888776216
 20
-24.9
 10
41.45066483188057
 20
-23.65562033659086
 10
41.67751803238655
 20
-23.02868568935394
 10
41.92424507141757
 20
-22.39999999999999
  0
ELLIPSE
  5
CB
330
8B
100
AcDbEntity
  8
AM_4
100
AcDbEllipse
 10
47.10742759345619
 20
-24.90000000000001
 30
0.0
 11
-8.725608443924904E-16
 21
-4.750000000000007
 31
0.0
210
0.0
220
0.0
230
1.0
 40
0.7071067811865477
 41
2.267944363641374
 42
7.156833597127964
  0
LINE
  5
CC
330
8B
100
AcDbEntity
  8
AM_4
100
AcDbLine
 10
48.66034287060048
 20
-27.36923076923076
 30
0.0
 11
49.44359961283789
 21
-27.83076923076922
 31
0.0
  0
LINE
  5
CD
330
8B
100
AcDbEntity
  8
AM_4
100
AcDbLine
 10
49.44359961283789
 20
-21.96923076923077
 30
0.0
 11
48.66034287060048
 21
-22.43076923076923
 31
0.0
  0
ELLIPSE
  5
CE
330
8B
100
AcDbEntity
  8
AM_4
100
AcDbEllipse
 10
50.30708577832529
 20
-24.9
 30
0.0
 11
-5.832380380939264E-16
 21
-3.174999999999997
 31
0.0
210
0.0
220
0.0
230
1.0
 40
0.7071067811865454
 41
2.725678601487237
 42
6.699099359282143
  0
ELLIPSE
  5
CF
330
8B
100
AcDbEntity
  8
AM_4
100
AcDbEllipse
 10
49.3878469627828
 20
-24.9
 30
0.0
 11
-4.913895281578768E-16
 21
-2.675000000000008
 31
0.0
210
0.0
220
0.0
230
1.0
 40
0.7071067811865464
 41
3.536383773289554
 42
5.888394187479824
  0
LINE
  5
D0
330
8B
100
AcDbEntity
  8
AM_4
100
AcDbLine
 10
52.39751183797972
 20
-22.73484088030808
 30
0.0
 11
51.21415052523247
 21
-21.99567699974047
 31
0.0
  0
LINE
  5
D1
330
8B
100
AcDbEntity
  8
AM_4
100
AcDbLine
 10
51.21415052523247
 20
-27.80432300025952
 30
0.0
 11
52.39751183797972
 21
-27.0651591196919
 31
0.0
  0
ELLIPSE
  5
D2
330
8B
100
AcDbEntity
  8
AM_4
100
AcDbEllipse
 10
51.7212993406984
 20
-24.9
 30
0.0
 11
-4.348012108217459E-16
 21
-2.366947548329698
 31
0.0
210
0.0
220
0.0
230
1.0
 40
0.7071067811865465
 41
0.0
 42
6.283185307179586
  0
ENDBLK
  5
8E
330
8B
100
AcDbEntity
  8
0
100
AcDbBlockEnd
  0
BLOCK
  5
D5
330
D3
100
AcDbEntity
  8
0
100
AcDbBlockBegin
  2
3_125810_0_in_130371_4
 70
     2
 10
0.0
 20
0.0
 30
0.0
  3
3_125810_0_in_130371_4
  1

  0
ATTDEF
  5
D7
330
D3
100
AcDbEntity
  8
AM_6
100
AcDbText
 10
44.9753410081055
 20
-4.799999999999999
 30
0.0
 40
0.5
  1
Set Screw Insert Metric Bore - Stainless Steel
100
AcDbAttributeDefinition
  3

  2
NN
 70
     8
280
     0
  0
ATTDEF
  5
D8
330
D3
100
AcDbEntity
  8
AM_6
100
AcDbText
 10
44.9753410081055
 20
-5.299999999999999
 30
0.0
 40
0.5
  1
SC Bearing Insert -Metric
100
AcDbAttributeDefinition
  3

  2
NT
 70
     8
280
     0
  0
ATTDEF
  5
D9
330
D3
100
AcDbEntity
  8
AM_6
100
AcDbText
 10
44.9753410081055
 20
-5.799999999999999
 30
0.0
 40
0.5
  1
125810
100
AcDbAttributeDefinition
  3

  2
NB
 70
     8
280
     0
  0
ATTDEF
  5
DA
330
D3
100
AcDbEntity
  8
AM_6
100
AcDbText
 10
44.9753410081055
 20
-6.299999999999999
 30
0.0
 40
0.5
  1
$PN.
100
AcDbAttributeDefinition
  3

  2
NBSYN
 70
     8
280
     0
  0
ATTDEF
  5
DB
330
D3
100
AcDbEntity
  8
AM_6
100
AcDbText
 10
44.9753410081055
 20
-6.799999999999999
 30
0.0
 40
0.5
  1
125810
100
AcDbAttributeDefinition
  3

  2
LINA
 70
     8
280
     0
  0
ATTDEF
  5
DC
330
D3
100
AcDbEntity
  8
AM_6
100
AcDbText
 10
44.9753410081055
 20
-7.299999999999999
 30
0.0
 40
0.5
  1
208
100
AcDbAttributeDefinition
  3

  2
SERIES
 70
     8
280
     0
  0
ATTDEF
  5
DD
330
D3
100
AcDbEntity
  8
AM_6
100
AcDbText
 10
44.9753410081055
 20
-7.799999999999999
 30
0.0
 40
0.5
  1
40
100
AcDbAttributeDefinition
  3

  2
SS
 70
     8
280
     0
  0
ATTDEF
  5
DE
330
D3
100
AcDbEntity
  8
AM_6
100
AcDbText
 10
44.9753410081055
 20
-8.299999999999999
 30
0.0
 40
0.5
  1
125810
100
AcDbAttributeDefinition
  3

  2
PN
 70
     8
280
     0
  0
ATTDEF
  5
DF
330
D3
100
AcDbEntity
  8
AM_6
100
AcDbText
 10
44.9753410081055
 20
-8.799999999999999
 30
0.0
 40
0.5
  1
INS-SC-40
100
AcDbAttributeDefinition
  3

  2
DESCRIPTION
 70
     8
280
     0
  0
ATTDEF
  5
E0
330
D3
100
AcDbEntity
  8
AM_6
100
AcDbText
 10
44.9753410081055
 20
-9.299999999999999
 30
0.0
 40
0.5
  1
0.51
100
AcDbAttributeDefinition
  3

  2
WEIGHT
 70
     8
280
     0
  0
ATTDEF
  5
E1
330
D3
100
AcDbEntity
  8
AM_6
100
AcDbText
 10
44.9753410081055
 20
-9.799999999999999
 30
0.0
 40
0.5
  1
49.3
100
AcDbAttributeDefinition
  3

  2
A
 70
     8
280
     0
  0
ATTDEF
  5
E2
330
D3
100
AcDbEntity
  8
AM_6
100
AcDbText
 10
44.9753410081055
 20
-10.3
 30
0.0
 40
0.5
  1
22.1
100
AcDbAttributeDefinition
  3

  2
C
 70
     8
280
     0
  0
ATTDEF
  5
E3
330
D3
100
AcDbEntity
  8
AM_6
100
AcDbText
 10
44.9753410081055
 20
-10.8
 30
0.0
 40
0.5
  1
80
100
AcDbAttributeDefinition
  3

  2
D
 70
     8
280
     0
  0
ATTDEF
  5
E4
330
D3
100
AcDbEntity
  8
AM_6
100
AcDbText
 10
44.9753410081055
 20
-11.3
 30
0.0
 40
0.5
  1
5.6
100
AcDbAttributeDefinition
  3

  2
J
 70
     8
280
     0
  0
ATTDEF
  5
E5
330
D3
100
AcDbEntity
  8
AM_6
100
AcDbText
 10
44.9753410081055
 20
-11.8
 30
0.0
 40
0.5
  1
52.1
100
AcDbAttributeDefinition
  3

  2
L
 70
     8
280
     0
  0
ATTDEF
  5
E6
330
D3
100
AcDbEntity
  8
AM_6
100
AcDbText
 10
44.9753410081055
 20
-12.3
 30
0.0
 40
0.5
  1
M8 x 1.25
100
AcDbAttributeDefinition
  3

  2
N
 70
     8
280
     0
  0
ATTDEF
  5
E7
330
D3
100
AcDbEntity
  8
AM_6
100
AcDbText
 10
44.9753410081055
 20
-12.8
 30
0.0
 40
0.5
  1
19.1
100
AcDbAttributeDefinition
  3

  2
W
 70
     8
280
     0
  0
ATTDEF
  5
E8
330
D3
100
AcDbEntity
  8
AM_6
100
AcDbText
 10
44.9753410081055
 20
-13.3
 30
0.0
 40
0.5
  1
30.2
100
AcDbAttributeDefinition
  3

  2
Y
 70
     8
280
     0
  0
ATTDEF
  5
E9
330
D3
100
AcDbEntity
  8
AM_6
100
AcDbText
 10
44.9753410081055
 20
-13.8
 30
0.0
 40
0.5
  1
baldor
100
AcDbAttributeDefinition
  3

  2
COMPANY
 70
     8
280
     0
  0
LINE
  5
EA
330
D3
100
AcDbEntity
  8
AM_9
100
AcDbLine
 10
12.8545680243944
 20
-47.8485
 30
0.0
 11
16.5460385494149
 21
-47.8485
 31
0.0
  0
LINE
  5
EB
330
D3
100
AcDbEntity
  8
AM_9
100
AcDbLine
 10
16.5460385494149
 20
-41.2015
 30
0.0
 11
12.85544896150557
 21
-41.2015
 31
0.0
  0
LWPOLYLINE
  5
EC
330
D3
100
AcDbEntity
  8
AM_9
100
AcDbPolyline
 90
       21
 70
     0
 43
0.0
 10
12.85595912929432
 20
-47.84849998902153
 10
12.57564905999299
 20
-47.82862921684329
 10
12.14912093257969
 20
-47.7225241029786
 10
11.73379497567045
 20
-47.52886332198548
 10
11.34113803966855
 20
-47.25065792029132
 10
10.98549627605863
 20
-46.89749743208017
 10
10.67604862244648
 20
-46.47264718484836
 10
10.42774529391782
 20
-45.99251097627
 10
10.25080887253761
 20
-45.46911981779793
 10
10.15148013438497
 20
-44.91838786458473
 10
10.13486187115253
 20
-44.3627226584865
 10
10.1986816442698
 20
-43.81168026533476
 10
10.34044134785863
 20
-43.28444922625695
 10
10.55358808740887
 20
-42.79169397602915
 10
10.83393341557867
 20
-42.34350783704762
 10
11.16883852493783
 20
-41.9560429153915
 10
11.55148668650256
 20
-41.63790414189038
 10
11.96517379396179
 20
-41.40149299870852
 10
12.39463605549673
 20
-41.2554490084383
 10
12.82799243740291
 20
-41.20169726545804
 10
12.85559281558545
 20
-41.20150000651208
  0
LWPOLYLINE
  5
ED
330
D3
100
AcDbEntity
  8
AM_9
100
AcDbPolyline
 90
       11
 70
     0
 43
0.0
 10
12.85559281558545
 20
-41.20150000651208
 10
13.24696938991629
 20
-41.24219936490732
 10
13.6455873659595
 20
-41.37319028257666
 10
14.01289526860517
 20
-41.59171062865609
 10
14.34162918654603
 20
-41.89042884352521
 10
14.62748237880118
 20
-42.266751272236
 10
14.86175714386994
 20
-42.70638100021212
 10
15.04066367108478
 20
-43.20151306824441
 10
15.16012907800592
 20
-43.73484993436846
 10
15.20716683624965
 20
-44.12699892648963
 10
15.22295809511419
 20
-44.525
  0
LINE
  5
EE
330
D3
100
AcDbEntity
  8
AM_9
100
AcDbLine
 10
19.31851652578136
 20
-47.8485
 30
0.0
 11
24.8639608430664
 21
-47.8485
 31
0.0
  0
LINE
  5
EF
330
D3
100
AcDbEntity
  8
AM_9
100
AcDbLine
 10
24.8639608430664
 20
-41.2015
 30
0.0
 11
19.31705424265303
 21
-41.2015
 31
0.0
  0
LWPOLYLINE
  5
F0
330
D3
100
AcDbEntity
  8
AM_9
100
AcDbPolyline
 90
       21
 70
     0
 43
0.0
 10
19.31843071755901
 20
-41.20150001653533
 10
19.27807875062428
 20
-41.20507105112409
 10
19.12165189001233
 20
-41.27891671129473
 10
18.96248669044587
 20
-41.43888057098442
 10
18.79714472842028
 20
-41.68941106174398
 10
18.64064984579411
 20
-42.01288254629853
 10
18.49353822081636
 20
-42.41659022831085
 10
18.37040451689921
 20
-42.87227724662028
 10
18.27302864196627
 20
-43.38959495698552
 10
18.21286877166128
 20
-43.92254587365741
 10
18.18981413992222
 20
-44.48904538975255
 10
18.2062040579518
 20
-45.0337007924685
 10
18.26137480764629
 20
-45.57939591723398
 10
18.34882221246614
 20
-46.08003379516365
 10
18.46821683424256
 20
-46.55074218547113
 10
18.60821085154453
 20
-46.95768170650256
 10
18.76774026898036
 20
-47.30668119573446
 10
18.93109715118469
 20
-47.57019884666293
 10
19.0988780598646
 20
-47.75316487879402
 10
19.21083721393667
 20
-47.82421567020985
 10
19.31851652578136
 20
-47.8485
  0
LINE
  5
F1
330
D3
100
AcDbEntity
  8
AM_9
100
AcDbLine
 10
24.63347494114521
 20
-47.7269697217416
 30
0.0
 11
24.8887464955842
 21
-48.0012768585916
 31
0.0
  0
LINE
  5
F2
330
D3
100
AcDbEntity
  8
AM_9
100
AcDbLine
 10
24.88899947125052
 20
-41.04845130136389
 30
0.0
 11
24.63347494114521
 21
-41.32303027825841
 31
0.0
  0
ELLIPSE
  5
F3
330
D3
100
AcDbEntity
  8
AM_9
100
AcDbEllipse
 10
24.86396084306607
 20
-44.52499999999988
 30
0.0
 11
-6.105170455449582E-16
 21
-3.323500000000131
 31
0.0
210
0.0
220
0.0
230
1.0
 40
0.2588190451025004
 41
3.279584372724173
 42
6.16575094353413
  0
LWPOLYLINE
  5
F4
330
D3
100
AcDbEntity
  8
AM_9
100
AcDbPolyline
 90
       20
 70
     0
 43
0.0
 10
19.31851652578136
 20
-47.8485
 10
19.45258298718167
 20
-47.80337822781839
 10
19.57224376055856
 20
-47.66412383771881
 10
19.66914379147682
 20
-47.44273274195405
 10
19.74893175025504
 20
-47.13309282042726
 10
19.80881975581745
 20
-46.75735842538901
 10
19.85361017268336
 20
-46.30696991482342
 10
19.88331994664697
 20
-45.8160971397535
 10
19.90173669971727
 20
-45.27271033731994
 10
19.90950368992368
 20
-44.72828625783348
 10
19.90818150626444
 20
-44.1618854394946
 10
19.89785241034202
 20
-43.62724824947274
 10
19.87684506950277
 20
-43.10301569280281
 10
19.84433190529823
 20
-42.63022426293084
 10
19.79619000273464
 20
-42.19779696744045
 10
19.73191271375805
 20
-41.83697027619907
 10
19.64628139230536
 20
-41.54309719181509
 10
19.54308085190714
 20
-41.34085922121979
 10
19.41665370953089
 20
-41.22489289277122
 10
19.31843071755901
 20
-41.20150001653533
  0
LWPOLYLINE
  5
F5
330
D3
100
AcDbEntity
  8
AM_9
100
AcDbPolyline
 90
       11
 70
     0
 43
0.0
 10
15.22295809511419
 20
-44.525
 10
15.19219081824802
 20
-45.07858453815076
 10
15.10114932037361
 20
-45.61645957306835
 10
14.95070456608146
 20
-46.12288336617767
 10
14.74401805356791
 20
-46.58473897034339
 10
14.48137914632263
 20
-46.99207700161297
 10
14.16977364674836
 20
-47.33031963683209
 10
13.81241943179348
 20
-47.59028601123551
 10
13.41965622416169
 20
-47.76326433774657
 10
13.00466991765058
 20
-47.84240881179382
 10
12.85595912929432
 20
-47.84849998902153
  0
LINE
  5
F6
330
D3
100
AcDbEntity
  8
AM_9
100
AcDbLine
 10
20.0
 20
-53.05799999999999
 30
0.0
 11
20.0
 21
-5.842000000000007
 31
0.0
  0
LINE
  5
F7
330
D3
100
AcDbEntity
  8
AM_9
100
AcDbLine
 10
-20.0
 20
-5.842000000000007
 30
0.0
 11
-20.0
 21
-53.05799999999999
 31
0.0
  0
LINE
  5
F8
330
D3
100
AcDbEntity
  8
AM_9
100
AcDbLine
 10
20.0
 20
-5.842000000000007
 30
0.0
 11
21.042
 21
-4.799999999999999
 31
0.0
  0
LINE
  5
F9
330
D3
100
AcDbEntity
  8
AM_9
100
AcDbLine
 10
-21.04199999999999
 20
-4.799999999999999
 30
0.0
 11
-20.0
 21
-5.842000000000007
 31
0.0
  0
LINE
  5
FA
330
D3
100
AcDbEntity
  8
AM_9
100
AcDbLine
 10
-20.0
 20
-53.05799999999999
 30
0.0
 11
-21.042
 21
-54.09999999999999
 31
0.0
  0
LINE
  5
FB
330
D3
100
AcDbEntity
  8
AM_9
100
AcDbLine
 10
21.042
 20
-54.09999999999999
 30
0.0
 11
20.0
 21
-53.05799999999999
 31
0.0
  0
LINE
  5
FC
330
D3
100
AcDbEntity
  8
AM_9
100
AcDbLine
 10
-23.09043625716945
 20
-4.799999999999999
 30
0.0
 11
3.481990943595303
 21
-4.799999999999999
 31
0.0
  0
LINE
  5
FD
330
D3
100
AcDbEntity
  8
AM_9
100
AcDbLine
 10
-25.008
 20
-4.799999999999999
 30
0.0
 11
-26.04999999999999
 21
-5.842
 31
0.0
  0
LINE
  5
FE
330
D3
100
AcDbEntity
  8
AM_9
100
AcDbLine
 10
26.04999999999999
 20
-5.842
 30
0.0
 11
25.00799999999999
 21
-4.799999999999999
 31
0.0
  0
LINE
  5
FF
330
D3
100
AcDbEntity
  8
AM_9
100
AcDbLine
 10
26.05
 20
-12.85
 30
0.0
 11
26.05
 21
-5.842
 31
0.0
  0
LINE
  5
100
330
D3
100
AcDbEntity
  8
AM_9
100
AcDbLine
 10
-26.05
 20
-5.842
 30
0.0
 11
-26.05
 21
-12.85
 31
0.0
  0
LINE
  5
101
330
D3
100
AcDbEntity
  8
AM_9
100
AcDbLine
 10
-26.05
 20
-5.842
 30
0.0
 11
26.05
 21
-5.842
 31
0.0
  0
LWPOLYLINE
  5
102
330
D3
100
AcDbEntity
  8
AM_9
100
AcDbPolyline
 90
       38
 70
     0
 43
0.0
 10
16.61978745412852
 20
-40.89671189095328
 10
16.20311496858553
 20
-40.97037697518834
 10
15.7952423669722
 20
-41.13209910945321
 10
15.40993026791853
 20
-41.37571918374551
 10
15.05562837183684
 20
-41.692294249108
 10
14.72733523184415
 20
-42.09353273368281
 10
14.45185806415863
 20
-42.55251232864506
 10
14.22524453287962
 20
-43.0907562313822
 10
14.0721294785768
 20
-43.6654247369222
 10
13.9960016358065
 20
-44.29025721046227
 10
14.00699410429937
 20
-44.92147316357019
 10
14.10879178944323
 20
-45.55363890819549
 10
14.29775923548839
 20
-46.15640465344996
 10
14.56714025449407
 20
-46.70717245712584
 10
14.90855829865549
 20
-47.1933469826647
 10
15.29578681465559
 20
-47.58282553562572
 10
15.72700132457062
 20
-47.88156171129135
 10
16.15756706322884
 20
-48.06595094551891
 10
16.59953854741319
 20
-48.15183786339903
 10
17.01325735208547
 20
-48.13748328034317
 10
17.41229430731752
 20
-48.032701759262
 10
17.7812689622195
 20
-47.84319885850561
 10
18.11753264170068
 20
-47.57625641736406
 10
18.42487540281925
 20
-47.22554160519089
 10
18.68542307118287
 20
-46.81163584545436
 10
18.90686644012879
 20
-46.31460875561359
 10
19.06934657716086
 20
-45.77321487137738
 10
19.17456924983273
 20
-45.16919137972199
 10
19.21166525909929
 20
-44.54800841766468
 10
19.17768559146375
 20
-43.90852324830932
 10
19.07160992019297
 20
-43.28640418131214
 10
18.8932640051265
 20
-42.69921481899011
 10
18.64551618008454
 20
-42.16554865607647
 10
18.34015310353198
 20
-41.71573675338024
 10
17.97738539455866
 20
-41.34974066243822
 10
17.5891631684897
 20
-41.09643965428406
 10
17.16644369936851
 20
-40.94131015144364
 10
16.61978735108694
 20
-40.89671181958416
  0
LINE
  5
103
330
D3
100
AcDbEntity
  8
AM_9
100
AcDbLine
 10
26.05
 20
-38.09999999999999
 30
0.0
 11
26.05
 21
-34.95
 31
0.0
  0
LINE
  5
104
330
D3
100
AcDbEntity
  8
AM_9
100
AcDbLine
 10
-26.05
 20
-34.95
 30
0.0
 11
-26.05
 21
-38.09999999999999
 31
0.0
  0
LINE
  5
105
330
D3
100
AcDbEntity
  8
AM_9
100
AcDbLine
 10
-10.35040890369081
 20
-20.51
 30
0.0
 11
-10.30048746105875
 21
-20.51
 31
0.0
  0
LINE
  5
106
330
D3
100
AcDbEntity
  8
AM_9
100
AcDbLine
 10
-10.07310670313745
 20
-16.09
 30
0.0
 11
-10.35040890369081
 21
-16.09
 31
0.0
  0
LWPOLYLINE
  5
107
330
D3
100
AcDbEntity
  8
AM_9
100
AcDbPolyline
 90
       11
 70
     0
 43
0.0
 10
-8.05940635884925
 20
-18.29997847356615
 10
-8.098253212343831
 20
-18.61895041964811
 10
-8.200669859543131
 20
-18.98921277840947
 10
-8.362044079744443
 20
-19.33868936046638
 10
-8.577632886734385
 20
-19.65852554209035
 10
-8.838540816401222
 20
-19.93502758468691
 10
-9.139498180713534
 20
-20.16481615757591
 10
-9.466770702124593
 20
-20.33750043817425
 10
-9.815374111351709
 20
-20.45272248735172
 10
-10.17063280400775
 20
-20.50567035882681
 10
-10.30065982769125
 20
-20.509999994078
  0
LWPOLYLINE
  5
108
330
D3
100
AcDbEntity
  8
AM_9
100
AcDbPolyline
 90
       12
 70
     0
 43
0.0
 10
-10.0725217785922
 20
-16.09000001181503
 10
-9.975466798475214
 20
-16.09253139509479
 10
-9.62767638837381
 20
-16.13920215738193
 10
-9.29854070297953
 20
-16.24433569566374
 10
-8.994227804618458
 20
-16.40394856442758
 10
-8.7205818815011
 20
-16.61631079370387
 10
-8.487351392652991
 20
-16.87314004227694
 10
-8.297368787210914
 20
-17.17436741443912
 10
-8.160086126787462
 20
-17.50598843900545
 10
-8.078423111403556
 20
-17.8668303399607
 10
-8.05709607706033
 20
-18.23992482033867
 10
-8.05940635884925
 20
-18.29997847356615
  0
LWPOLYLINE
  5
109
330
D3
100
AcDbEntity
  8
AM_9
100
AcDbPolyline
 90
       15
 70
     0
 43
0.0
 10
-10.30065982769125
 20
-20.509999994078
 10
-10.52683357954451
 20
-20.4975156536771
 10
-10.87158528053792
 20
-20.4282435094802
 10
-11.19755049291746
 20
-20.30097152829183
 10
-11.49593886507211
 20
-20.11826983112153
 10
-11.75818892387182
 20
-19.88656613098611
 10
-11.97870535152555
 20
-19.60900395728603
 10
-12.14942097996346
 20
-19.29631511963981
 10
-12.2666468195099
 20
-18.95152098616846
 10
-12.32521272074389
 20
-18.58925370293253
 10
-12.32248979129988
 20
-18.21353449143713
 10
-12.25816049433423
 20
-17.84050546176233
 10
-12.1317702160201
 20
-17.47738369644754
 10
-11.94787774588965
 20
-17.13782126299599
 10
-11.62563296507629
 20
-16.74347929404779
  0
LWPOLYLINE
  5
10A
330
D3
100
AcDbEntity
  8
AM_9
100
AcDbPolyline
 90
       14
 70
     0
 43
0.0
 10
-12.55356309182937
 20
-18.29994851889713
 10
-12.55117048151963
 20
-18.40297325573207
 10
-12.51799115497395
 20
-18.69554810707978
 10
-12.44613617803254
 20
-18.98171230209919
 10
-12.33667250474319
 20
-19.25622921397424
 10
-12.19141593182532
 20
-19.51400111200794
 10
-12.01291998606393
 20
-19.75019689253686
 10
-11.80443344676704
 20
-19.96038273937309
 10
-11.5698269298213
 20
-20.14064267780975
 10
-11.31349318979439
 20
-20.28767924641571
 10
-11.04022909248008
 20
-20.39888735145792
 10
-10.75510877014442
 20
-20.47239821227102
 10
-10.46335720656434
 20
-20.50709413319113
 10
-10.35433896976088
 20
-20.50999648414779
  0
LWPOLYLINE
  5
10B
330
D3
100
AcDbEntity
  8
AM_9
100
AcDbPolyline
 90
        7
 70
     0
 43
0.0
 10
-12.03642583171593
 20
-16.87737215474372
 10
-12.14869343835391
 20
-17.02318694989031
 10
-12.3006703236906
 20
-17.27190066280726
 10
-12.4187808170516
 20
-17.5388429892234
 10
-12.5008740995454
 20
-17.8195445970276
 10
-12.5453421545494
 20
-18.10925138248491
 10
-12.55356309182937
 20
-18.29994851889713
  0
LWPOLYLINE
  5
10C
330
D3
100
AcDbEntity
  8
AM_9
100
AcDbPolyline
 90
        9
 70
     0
 43
0.0
 10
-10.33395393330552
 20
-16.09006163548696
 10
-10.41283802690021
 20
-16.09088734450275
 10
-10.70430029567219
 20
-16.11869460438649
 10
-10.98891562203618
 20
-16.18483854494633
 10
-11.26179242138012
 20
-16.28794201501273
 10
-11.51831613592053
 20
-16.42604726434048
 10
-11.75419489159564
 20
-16.59666961424745
 10
-11.96549886969778
 20
-16.79684748894738
 10
-12.03642583171593
 20
-16.87737215474372
  0
ELLIPSE
  5
10D
330
D3
100
AcDbEntity
  8
AM_9
100
AcDbEllipse
 10
-10.35040890369091
 20
-18.2999999999996
 30
0.0
 11
-4.059704139172753E-16
 21
-2.209999999999607
 31
0.0
210
0.0
220
0.0
230
1.0
 40
0.9659258262890634
 41
6.185792676996063
 42
12.44319582515102
  0
LINE
  5
10E
330
D3
100
AcDbEntity
  8
AM_9
100
AcDbLine
 10
37.78999999999996
 20
-30.41333333333333
 30
0.0
 11
37.78999999999996
 21
-27.46666666666667
 31
0.0
  0
LINE
  5
10F
330
D3
100
AcDbEntity
  8
AM_9
100
AcDbLine
 10
-37.78999999999996
 20
-27.46666666666667
 30
0.0
 11
-37.78999999999996
 21
-30.41333333333333
 31
0.0
  0
LINE
  5
110
330
D3
100
AcDbEntity
  8
AM_9
100
AcDbLine
 10
-37.19396883195165
 20
-34.95
 30
0.0
 11
37.19396883195165
 21
-34.95
 31
0.0
  0
ARC
  5
111
330
D3
100
AcDbEntity
  8
AM_9
100
AcDbCircle
 10
37.19396883195164
 20
-34.06599999999998
 30
0.0
 40
0.8840000000000146
100
AcDbArc
 50
270.0
 51
338.5875329531139
  0
ARC
  5
112
330
D3
100
AcDbEntity
  8
AM_9
100
AcDbCircle
 10
-37.19396883195164
 20
-34.06599999999998
 30
0.0
 40
0.8840000000000174
100
AcDbArc
 50
201.4124670468861
 51
270.0
  0
LINE
  5
113
330
D3
100
AcDbEntity
  8
AM_9
100
AcDbLine
 10
-37.19396883195164
 20
-12.85
 30
0.0
 11
37.19396883195164
 21
-12.85
 31
0.0
  0
ARC
  5
114
330
D3
100
AcDbEntity
  8
AM_9
100
AcDbCircle
 10
37.19396883195164
 20
-13.73399999999999
 30
0.0
 40
0.8839999999999971
100
AcDbArc
 50
21.41246363223927
 51
90.0
  0
ARC
  5
115
330
D3
100
AcDbEntity
  8
AM_9
100
AcDbCircle
 10
-37.19396883195164
 20
-13.73399999999999
 30
0.0
 40
0.8839999999999932
100
AcDbArc
 50
90.0
 51
158.5875363677607
  0
LINE
  5
116
330
D3
100
AcDbEntity
  8
AM_9
100
AcDbLine
 10
-38.01695196947392
 20
-34.38873015873018
 30
0.0
 11
38.01695196947392
 21
-34.38873015873018
 31
0.0
  0
LINE
  5
117
330
D3
100
AcDbEntity
  8
AM_9
100
AcDbLine
 10
-39.25194755353689
 20
-30.41333333333333
 30
0.0
 11
39.25194755353689
 21
-30.41333333333333
 31
0.0
  0
ARC
  5
118
330
D3
100
AcDbEntity
  8
AM_9
100
AcDbCircle
 10
11.27000000000042
 20
-23.90000000000013
 30
0.0
 40
28.72999999999957
100
AcDbArc
 50
338.5875329531158
 51
346.8966393604125
  0
ARC
  5
119
330
D3
100
AcDbEntity
  8
AM_9
100
AcDbCircle
 10
-11.26999999999889
 20
-23.89999999999966
 30
0.0
 40
28.73000000000117
100
AcDbArc
 50
193.1033606395877
 51
201.4124670468839
  0
LINE
  5
11A
330
D3
100
AcDbEntity
  8
AM_9
100
AcDbLine
 10
-10.20241706933438
 20
-16.09406637220138
 30
0.0
 11
-10.0725217785922
 21
-16.09000001181503
 31
0.0
  0
LWPOLYLINE
  5
11B
330
D3
100
AcDbEntity
  8
AM_9
100
AcDbPolyline
 90
        6
 70
     0
 43
0.0
 10
-11.62563296507629
 20
-16.74347929404779
 10
-11.34197842452072
 20
-16.50524607053056
 10
-11.02568075137277
 20
-16.31571421901518
 10
-10.68475112567755
 20
-16.18137568388953
 10
-10.32953855156848
 20
-16.10593246176242
 10
-10.20241706933438
 20
-16.09406637220138
  0
ARC
  5
11C
330
D3
100
AcDbEntity
  8
AM_9
100
AcDbCircle
 10
11.27000000000116
 20
-23.89999999999987
 30
0.0
 40
28.72999999999888
100
AcDbArc
 50
352.8686552534191
 51
21.41246694181868
  0
ARC
  5
11D
330
D3
100
AcDbEntity
  8
AM_9
100
AcDbCircle
 10
-11.27000000000092
 20
-23.8999999999999
 30
0.0
 40
28.72999999999911
100
AcDbArc
 50
158.5875330581814
 51
187.1313447465807
  0
LINE
  5
11E
330
D3
100
AcDbEntity
  8
AM_9
100
AcDbLine
 10
-39.77774962863413
 20
-27.46666666666667
 30
0.0
 11
39.77774962863413
 21
-27.46666666666667
 31
0.0
  0
LINE
  5
11F
330
D3
100
AcDbEntity
  8
AM_9
100
AcDbLine
 10
-38.0169519887076
 20
-13.41126989031699
 30
0.0
 11
38.0169519887076
 21
-13.41126989031699
 31
0.0
  0
ELLIPSE
  5
120
330
D3
100
AcDbEntity
  8
AM_9
100
AcDbEllipse
 10
16.54603854941488
 20
-44.52499999999998
 30
0.0
 11
-6.105170455449295E-16
 21
-3.323499999999974
 31
0.0
210
0.0
220
0.0
230
1.0
 40
0.7660444431189769
 41
0.0
 42
6.283185307179586
  0
ELLIPSE
  5
121
330
D3
100
AcDbEntity
  8
AM_9
100
AcDbEllipse
 10
-10.87039989430587
 20
-18.29999999999999
 30
0.0
 11
-3.690640126521248E-17
 21
-0.2009090909090858
 31
0.0
210
0.0
220
0.0
230
1.0
 40
0.9659258262890719
 41
0.0
 42
6.283185307179586
  0
ELLIPSE
  5
122
330
D3
100
AcDbEntity
  8
AM_4
100
AcDbEllipse
 10
24.86396084306599
 20
-44.52499999999856
 30
0.0
 11
-6.105170455446697E-16
 21
-3.32349999999856
 31
0.0
210
0.0
220
0.0
230
1.0
 40
0.2588190451025115
 41
6.165750943534277
 42
9.562769679903708
  0
LWPOLYLINE
  5
123
330
D3
100
AcDbEntity
  8
AM_4
100
AcDbPolyline
 90
       24
 70
     0
 43
0.0
 10
24.89414278863702
 20
-41.04292449827534
 10
25.01360682883835
 20
-40.94082425288346
 10
25.16103745075226
 20
-40.89297853577381
 10
25.29753008146199
 20
-40.93917115988811
 10
25.41579861537666
 20
-41.07354122803293
 10
25.51848618209195
 20
-41.28970640236265
 10
25.60648016414683
 20
-41.58886508194178
 10
25.67784720070297
 20
-41.95614128107528
 10
25.73632814380201
 20
-42.40810000760115
 10
25.77909652278039
 20
-42.91136979560449
 10
25.80910670251233
 20
-43.48689916766876
 10
25.82497495944644
 20
-44.08946416064833
 10
25.82754151444502
 20
-44.72667832547793
 10
25.81609182082663
 20
-45.35830184500646
 10
25.78950128829293
 20
-45.97238875191751
 10
25.74615985723382
 20
-46.54453509239467
 10
25.68491702072816
 20
-47.04765070702705
 10
25.60312308827946
 20
-47.47559740669502
 10
25.50429551865166
 20
-47.79664105945397
 10
25.38496286544522
 20
-48.02195751132013
 10
25.25578264925681
 20
-48.13532736734282
 10
25.11253258315799
 20
-48.15176939013889
 10
24.96623483490431
 20
-48.07476628223981
 10
24.89419013818969
 20
-48.00712640691452
  0
LWPOLYLINE
  5
124
330
D3
100
AcDbEntity
  8
AM_4
100
AcDbPolyline
 90
       14
 70
     0
 43
0.0
 10
24.89419013818969
 20
-48.00712640691452
 10
24.81573745120959
 20
-47.91165492176011
 10
24.66542079067602
 20
-47.66548723807505
 10
24.52192589011068
 20
-47.34655867466699
 10
24.38457196447277
 20
-46.94297730461757
 10
24.26631333510289
 20
-46.48192815482508
 10
24.16721419656973
 20
-45.94186094307047
 10
24.09957253616869
 20
-45.3657692201238
 10
24.06635902910212
 20
-44.74016460260817
 10
24.07256114971769
 20
-44.1087035172658
 10
24.11979935646003
 20
-43.47712427311024
 10
24.205212162991
 20
-42.87551432723087
 10
24.30124342644447
 20
-42.41730117814812
 10
24.41678747650529
 20
-42.00161124257563
  0
LINE
  5
125
330
D3
100
AcDbEntity
  8
AM_4
100
AcDbLine
 10
-25.00799999999999
 20
-54.09999999999999
 30
0.0
 11
25.008
 21
-54.09999999999999
 31
0.0
  0
LINE
  5
126
330
D3
100
AcDbEntity
  8
AM_4
100
AcDbLine
 10
25.008
 20
-54.09999999999999
 30
0.0
 11
26.04999999999999
 21
-53.05799999999999
 31
0.0
  0
LINE
  5
127
330
D3
100
AcDbEntity
  8
AM_4
100
AcDbLine
 10
-26.04999999999999
 20
-53.05799999999999
 30
0.0
 11
-25.00799999999999
 21
-54.09999999999999
 31
0.0
  0
LINE
  5
128
330
D3
100
AcDbEntity
  8
AM_4
100
AcDbLine
 10
-26.05
 20
-53.05799999999999
 30
0.0
 11
26.05
 21
-53.05799999999999
 31
0.0
  0
LWPOLYLINE
  5
129
330
D3
100
AcDbEntity
  8
AM_4
100
AcDbPolyline
 90
        5
 70
     0
 43
0.0
 10
24.41678747650529
 20
-42.00161124257563
 10
24.5464343926523
 20
-41.64262162861796
 10
24.6866631993104
 20
-41.3443195912246
 10
24.85017805558617
 20
-41.09408279610194
 10
24.89414278863702
 20
-41.04292449827534
  0
LINE
  5
12A
330
D3
100
AcDbEntity
  8
AM_4
100
AcDbLine
 10
26.05
 20
-53.05799999999999
 30
0.0
 11
26.05
 21
-38.09999999999999
 31
0.0
  0
LINE
  5
12B
330
D3
100
AcDbEntity
  8
AM_4
100
AcDbLine
 10
-26.05
 20
-38.09999999999999
 30
0.0
 11
-26.05
 21
-53.05799999999999
 31
0.0
  0
ENDBLK
  5
D6
330
D3
100
AcDbEntity
  8
0
100
AcDbBlockEnd
  0
BLOCK
  5
12E
330
12C
100
AcDbEntity
  8
0
100
AcDbBlockBegin
  2
4_130371H_0_in_130371_4
 70
     2
 10
0.0
 20
0.0
 30
0.0
  3
4_130371H_0_in_130371_4
  1

  0
ATTDEF
  5
130
330
12C
100
AcDbEntity
  8
AM_6
100
AcDbText
 10
57.45
 20
2.705
 30
0.0
 40
0.5
  1
F2BZ-SC -M-Housing
100
AcDbAttributeDefinition
  3

  2
NN
 70
     8
280
     0
  0
ATTDEF
  5
131
330
12C
100
AcDbEntity
  8
AM_6
100
AcDbText
 10
57.45
 20
2.205
 30
0.0
 40
0.5
  1
SC 2 Bolt Flange Bearings -(Normal Duty)
100
AcDbAttributeDefinition
  3

  2
NT
 70
     8
280
     0
  0
ATTDEF
  5
132
330
12C
100
AcDbEntity
  8
AM_6
100
AcDbText
 10
57.45
 20
1.705
 30
0.0
 40
0.5
  1
130371H
100
AcDbAttributeDefinition
  3

  2
NB
 70
     8
280
     0
  0
ATTDEF
  5
133
330
12C
100
AcDbEntity
  8
AM_6
100
AcDbText
 10
57.45
 20
1.205
 30
0.0
 40
0.5
  1
$PN.H
100
AcDbAttributeDefinition
  3

  2
NBSYN
 70
     8
280
     0
  0
ATTDEF
  5
134
330
12C
100
AcDbEntity
  8
AM_6
100
AcDbText
 10
57.45
 20
0.7050000000000001
 30
0.0
 40
0.5
  1
130371
100
AcDbAttributeDefinition
  3

  2
LINA
 70
     8
280
     0
  0
ATTDEF
  5
135
330
12C
100
AcDbEntity
  8
AM_6
100
AcDbText
 10
57.45
 20
0.2050000000000001
 30
0.0
 40
0.5
  1
208
100
AcDbAttributeDefinition
  3

  2
SERIES
 70
     8
280
     0
  0
ATTDEF
  5
136
330
12C
100
AcDbEntity
  8
AM_6
100
AcDbText
 10
57.45
 20
-0.2949999999999999
 30
0.0
 40
0.5
  1
40
100
AcDbAttributeDefinition
  3

  2
SS
 70
     8
280
     0
  0
ATTDEF
  5
137
330
12C
100
AcDbEntity
  8
AM_6
100
AcDbText
 10
57.45
 20
-0.7949999999999999
 30
0.0
 40
0.5
  1
130371
100
AcDbAttributeDefinition
  3

  2
PN
 70
     8
280
     0
  0
ATTDEF
  5
138
330
12C
100
AcDbEntity
  8
AM_6
100
AcDbText
 10
57.45
 20
-1.295
 30
0.0
 40
0.5
  1
F2BZ-SC-40M
100
AcDbAttributeDefinition
  3

  2
DESCRIPTION
 70
     8
280
     0
  0
ATTDEF
  5
139
330
12C
100
AcDbEntity
  8
AM_6
100
AcDbText
 10
57.45
 20
-1.795
 30
0.0
 40
0.5
  1
49.3
100
AcDbAttributeDefinition
  3

  2
A
 70
     8
280
     0
  0
ATTDEF
  5
13A
330
12C
100
AcDbEntity
  8
AM_6
100
AcDbText
 10
57.45
 20
-2.295
 30
0.0
 40
0.5
  1
171.5
100
AcDbAttributeDefinition
  3

  2
B
 70
     8
280
     0
  0
ATTDEF
  5
13B
330
12C
100
AcDbEntity
  8
AM_6
100
AcDbText
 10
57.45
 20
-2.795
 30
0.0
 40
0.5
  1
54.1
100
AcDbAttributeDefinition
  3

  2
C
 70
     8
280
     0
  0
ATTDEF
  5
13C
330
12C
100
AcDbEntity
  8
AM_6
100
AcDbText
 10
57.45
 20
-3.295
 30
0.0
 40
0.5
  1
143.8
100
AcDbAttributeDefinition
  3

  2
D
 70
     8
280
     0
  0
ATTDEF
  5
13D
330
12C
100
AcDbEntity
  8
AM_6
100
AcDbText
 10
57.45
 20
-3.795
 30
0.0
 40
0.5
  1
4.1
100
AcDbAttributeDefinition
  3

  2
E
 70
     8
280
     0
  0
ATTDEF
  5
13E
330
12C
100
AcDbEntity
  8
AM_6
100
AcDbText
 10
57.45
 20
-4.295
 30
0.0
 40
0.5
  1
M12
100
AcDbAttributeDefinition
  3

  2
F
 70
     8
280
     0
  0
ATTDEF
  5
13F
330
12C
100
AcDbEntity
  8
AM_6
100
AcDbText
 10
57.45
 20
-4.795
 30
0.0
 40
0.5
  1
50.3
100
AcDbAttributeDefinition
  3

  2
G
 70
     8
280
     0
  0
ATTDEF
  5
140
330
12C
100
AcDbEntity
  8
AM_6
100
AcDbText
 10
57.45
 20
-5.295
 30
0.0
 40
0.5
  1
14.2
100
AcDbAttributeDefinition
  3

  2
H
 70
     8
280
     0
  0
ATTDEF
  5
141
330
12C
100
AcDbEntity
  8
AM_6
100
AcDbText
 10
57.45
 20
-5.795
 30
0.0
 40
0.5
  1
16.0
100
AcDbAttributeDefinition
  3

  2
J
 70
     8
280
     0
  0
ATTDEF
  5
142
330
12C
100
AcDbEntity
  8
AM_6
100
AcDbText
 10
57.45
 20
-6.295
 30
0.0
 40
0.5
  1
100.00 / 99.95
100
AcDbAttributeDefinition
  3

  2
K
 70
     8
280
     0
  0
ATTDEF
  5
143
330
12C
100
AcDbEntity
  8
AM_6
100
AcDbText
 10
57.45
 20
-6.795
 30
0.0
 40
0.5
  1
100.00
100
AcDbAttributeDefinition
  3

  2
K1
 70
     8
280
     0
  0
ATTDEF
  5
144
330
12C
100
AcDbEntity
  8
AM_6
100
AcDbText
 10
57.45
 20
-7.295
 30
0.0
 40
0.5
  1
52.1
100
AcDbAttributeDefinition
  3

  2
L
 70
     8
280
     0
  0
ATTDEF
  5
145
330
12C
100
AcDbEntity
  8
AM_6
100
AcDbText
 10
57.45
 20
-7.795
 30
0.0
 40
0.5
  1
104.9
100
AcDbAttributeDefinition
  3

  2
M
 70
     8
280
     0
  0
ATTDEF
  5
146
330
12C
100
AcDbEntity
  8
AM_6
100
AcDbText
 10
57.45
 20
-8.295
 30
0.0
 40
0.5
  1
46.5
100
AcDbAttributeDefinition
  3

  2
N
 70
     8
280
     0
  0
ATTDEF
  5
147
330
12C
100
AcDbEntity
  8
AM_6
100
AcDbText
 10
57.45
 20
-8.795
 30
0.0
 40
0.5
  1
baldor
100
AcDbAttributeDefinition
  3

  2
COMPANY
 70
     8
280
     0
  0
LINE
  5
148
330
12C
100
AcDbEntity
  8
AM_9
100
AcDbLine
 10
23.64042733964402
 20
-24.765
 30
0.0
 11
23.640427339644
 21
-4.290711984999948
 31
0.0
  0
LINE
  5
149
330
12C
100
AcDbEntity
  8
AM_9
100
AcDbLine
 10
-3.11571804856316
 20
-24.765
 30
0.0
 11
-3.115718048563161
 21
-4.290711984999867
 31
0.0
  0
LINE
  5
14A
330
12C
100
AcDbEntity
  8
AM_9
100
AcDbLine
 10
42.94224959269072
 20
-16.87999999999999
 30
0.0
 11
42.94224959269072
 21
-4.099999999999998
 31
0.0
  0
LINE
  5
14B
330
12C
100
AcDbEntity
  8
AM_9
100
AcDbLine
 10
-23.64042733964402
 20
-24.765
 30
0.0
 11
-23.64042733964402
 21
-4.290711984999875
 31
0.0
  0
LINE
  5
14C
330
12C
100
AcDbEntity
  8
AM_9
100
AcDbLine
 10
-23.09043625716945
 20
-4.800000000000004
 30
0.0
 11
-40.66666666666666
 21
-4.800000000000005
 31
0.0
  0
LINE
  5
14D
330
12C
100
AcDbEntity
  8
AM_9
100
AcDbLine
 10
50.27268191983783
 20
-28.07462718268497
 30
0.0
 11
50.27268191983783
 21
-21.72537281731503
 31
0.0
  0
LINE
  5
14E
330
12C
100
AcDbEntity
  8
AM_9
100
AcDbLine
 10
3.665709131037739
 20
-4.800000000000003
 30
0.0
 11
3.665709131037734
 21
-24.765
 31
0.0
  0
LINE
  5
14F
330
12C
100
AcDbEntity
  8
AM_9
100
AcDbLine
 10
23.09043625716944
 20
-24.765
 30
0.0
 11
23.09043625716945
 21
-4.800000000000008
 31
0.0
  0
LINE
  5
150
330
12C
100
AcDbEntity
  8
AM_9
100
AcDbLine
 10
-3.665709131037736
 20
-4.800000000000008
 30
0.0
 11
-3.665709131037734
 21
-24.765
 31
0.0
  0
LINE
  5
151
330
12C
100
AcDbEntity
  8
AM_9
100
AcDbLine
 10
-23.09043625716944
 20
-24.765
 30
0.0
 11
-23.09043625716945
 21
-4.800000000000004
 31
0.0
  0
LINE
  5
152
330
12C
100
AcDbEntity
  8
AM_9
100
AcDbLine
 10
40.0
 20
-38.1
 30
0.0
 11
40.0
 21
-4.800000000000006
 31
0.0
  0
LINE
  5
153
330
12C
100
AcDbEntity
  8
AM_9
100
AcDbLine
 10
-40.0
 20
-4.800000000000006
 30
0.0
 11
-40.0
 21
-38.1
 31
0.0
  0
LINE
  5
154
330
12C
100
AcDbEntity
  8
AM_9
100
AcDbLine
 10
3.11571804856316
 20
-24.765
 30
0.0
 11
3.115718048563024
 21
-4.290711984999406
 31
0.0
  0
LINE
  5
155
330
12C
100
AcDbEntity
  8
AM_9
100
AcDbLine
 10
23.64042733964402
 20
-24.765
 30
0.0
 11
-23.64042733964402
 21
-24.765
 31
0.0
  0
LWPOLYLINE
  5
156
330
12C
100
AcDbEntity
  8
AM_9
100
AcDbPolyline
 90
        6
 70
     0
 43
0.0
 10
3.481990943595303
 20
-4.800000000000002
 10
3.446108682687063
 20
-4.795745894453807
 10
3.350047481219151
 20
-4.741624784261552
 10
3.255033347531465
 20
-4.621666596937987
 10
3.182956944002676
 20
-4.478065575145054
 10
3.115718048563024
 20
-4.290711984999406
  0
LINE
  5
157
330
12C
100
AcDbEntity
  8
AM_9
100
AcDbLine
 10
23.640427339644
 20
-4.290711984999948
 30
0.0
 11
-23.64042733964402
 21
-4.290711984999875
 31
0.0
  0
LWPOLYLINE
  5
158
330
12C
100
AcDbEntity
  8
AM_9
100
AcDbPolyline
 90
        6
 70
     0
 43
0.0
 10
-23.64042733964402
 20
-4.290711984999875
 10
-23.56465642911999
 20
-4.497826582919896
 10
-23.47839460325267
 20
-4.656937928765307
 10
-23.38917636907175
 20
-4.755805301882663
 10
-23.29449045591797
 20
-4.798634827277706
 10
-23.27415444461188
 20
-4.800000000000003
  0
LWPOLYLINE
  5
159
330
12C
100
AcDbEntity
  8
AM_9
100
AcDbPolyline
 90
        6
 70
     0
 43
0.0
 10
-3.4819909435953
 20
-4.800000000000008
 10
-3.446108682687059
 20
-4.795745894453812
 10
-3.350047481219148
 20
-4.741624784261558
 10
-3.255033347531457
 20
-4.62166659693799
 10
-3.182956944002751
 20
-4.478065575145231
 10
-3.115718048563161
 20
-4.290711984999867
  0
LWPOLYLINE
  5
15A
330
12C
100
AcDbEntity
  8
AM_9
100
AcDbPolyline
 90
        6
 70
     0
 43
0.0
 10
23.640427339644
 20
-4.290711984999948
 10
23.56465642911997
 20
-4.497826582919929
 10
23.47839460325268
 20
-4.656937928765313
 10
23.38917636907176
 20
-4.755805301882667
 10
23.29449045591797
 20
-4.798634827277709
 10
23.27415444461189
 20
-4.800000000000007
  0
LINE
  5
15B
330
12C
100
AcDbEntity
  8
AM_9
100
AcDbLine
 10
3.481990943595303
 20
-4.800000000000002
 30
0.0
 11
40.66666666666666
 21
-4.800000000000005
 31
0.0
  0
ARC
  5
15C
330
12C
100
AcDbEntity
  8
AM_9
100
AcDbCircle
 10
40.66666666666667
 20
-2.800000000000014
 30
0.0
 40
1.999999999999991
100
AcDbArc
 50
270.0
 51
0.0
  0
ARC
  5
15D
330
12C
100
AcDbEntity
  8
AM_9
100
AcDbCircle
 10
-40.66666666666666
 20
-2.80000000000001
 30
0.0
 40
2.0
100
AcDbArc
 50
180.0
 51
270.0
  0
LINE
  5
15E
330
12C
100
AcDbEntity
  8
AM_9
100
AcDbLine
 10
-42.66666666666666
 20
-2.800000000000008
 30
0.0
 11
42.66666666666666
 21
-2.800000000000008
 31
0.0
  0
LINE
  5
15F
330
12C
100
AcDbEntity
  8
AM_9
100
AcDbLine
 10
42.66666666666666
 20
-2.800000000000008
 30
0.0
 11
42.66666666666666
 21
-0.0000000000000004
 31
0.0
  0
LINE
  5
160
330
12C
100
AcDbEntity
  8
AM_9
100
AcDbLine
 10
-42.66666666666666
 20
-0.0000000000000004
 30
0.0
 11
-42.66666666666666
 21
-2.800000000000008
 31
0.0
  0
LINE
  5
161
330
12C
100
AcDbEntity
  8
AM_9
100
AcDbLine
 10
49.68689548221094
 20
-28.50333847186811
 30
0.0
 11
49.68689548221094
 21
-21.29836687844144
 31
0.0
  0
LINE
  5
162
330
12C
100
AcDbEntity
  8
AM_9
100
AcDbLine
 10
44.25067073036437
 20
-16.88
 30
0.0
 11
33.0430514448067
 21
-16.88
 31
0.0
  0
LINE
  5
163
330
12C
100
AcDbEntity
  8
AM_9
100
AcDbLine
 10
44.25067073036437
 20
-16.88
 30
0.0
 11
44.25067073036437
 21
-4.099999999999998
 31
0.0
  0
LINE
  5
164
330
12C
100
AcDbEntity
  8
AM_9
100
AcDbLine
 10
42.90162994920738
 20
-38.1
 30
0.0
 11
42.90162994920738
 21
-16.87999999999999
 31
0.0
  0
LINE
  5
165
330
12C
100
AcDbEntity
  8
AM_9
100
AcDbLine
 10
52.45
 20
-27.03082880466985
 30
0.0
 11
52.45
 21
-22.76917119533014
 31
0.0
  0
LINE
  5
166
330
12C
100
AcDbEntity
  8
AM_9
100
AcDbLine
 10
6.550000000000001
 20
-18.29999999999999
 30
0.0
 11
6.550000000000001
 21
-4.099999999999995
 31
0.0
  0
LINE
  5
167
330
12C
100
AcDbEntity
  8
AM_9
100
AcDbLine
 10
-6.550000000000001
 20
-4.099999999999995
 30
0.0
 11
-6.550000000000001
 21
-18.29999999999999
 31
0.0
  0
LINE
  5
16A
330
12C
100
AcDbEntity
  8
AM_7
100
AcDbLine
 10
0.0
 20
-56.805
 30
0.0
 11
0.0
 21
2.705
 31
0.0
  0
LINE
  5
16B
330
12C
100
AcDbEntity
  8
AM_4
100
AcDbLine
 10
50.27268191983783
 20
-21.72537281731503
 30
0.0
 11
50.27268191983783
 21
-4.099999999999997
 31
0.0
  0
LINE
  5
16C
330
12C
100
AcDbEntity
  8
AM_4
100
AcDbLine
 10
50.27268191983783
 20
-38.1
 30
0.0
 11
50.27268191983783
 21
-28.07462718268497
 31
0.0
  0
LINE
  5
16D
330
12C
100
AcDbEntity
  8
AM_4
100
AcDbLine
 10
49.68689548221094
 20
-21.29836687844144
 30
0.0
 11
49.68689548221094
 21
-4.099999999999997
 31
0.0
  0
LINE
  5
16E
330
12C
100
AcDbEntity
  8
AM_4
100
AcDbLine
 10
49.68689548221094
 20
-38.1
 30
0.0
 11
49.68689548221094
 21
-28.50333847186811
 31
0.0
  0
LINE
  5
16F
330
12C
100
AcDbEntity
  8
AM_4
100
AcDbLine
 10
-50.0
 20
0.0
 30
0.0
 11
50.0
 21
0.0
 31
0.0
  0
LINE
  5
170
330
12C
100
AcDbEntity
  8
AM_4
100
AcDbLine
 10
50.0
 20
-2.733333333333327
 30
0.0
 11
50.0
 21
0.0
 31
0.0
  0
LINE
  5
171
330
12C
100
AcDbEntity
  8
AM_4
100
AcDbLine
 10
-50.0
 20
0.0
 30
0.0
 11
-50.0
 21
-2.733333333333327
 31
0.0
  0
LINE
  5
172
330
12C
100
AcDbEntity
  8
AM_4
100
AcDbLine
 10
39.78740054559926
 20
-38.1
 30
0.0
 11
39.78740054559926
 21
-4.099999999999996
 31
0.0
  0
LINE
  5
173
330
12C
100
AcDbEntity
  8
AM_4
100
AcDbLine
 10
36.95897342085308
 20
-38.1
 30
0.0
 11
36.95897342085308
 21
-4.10000000000001
 31
0.0
  0
LINE
  5
174
330
12C
100
AcDbEntity
  8
AM_4
100
AcDbLine
 10
-50.0
 20
-2.733333333333327
 30
0.0
 11
50.0
 21
-2.733333333333327
 31
0.0
  0
ARC
  5
175
330
12C
100
AcDbEntity
  8
AM_4
100
AcDbCircle
 10
51.36666666666668
 20
-2.733333333333322
 30
0.0
 40
1.366666666666681
100
AcDbArc
 50
180.0
 51
270.0
  0
ARC
  5
176
330
12C
100
AcDbEntity
  8
AM_4
100
AcDbCircle
 10
-51.36666666666668
 20
-2.733333333333323
 30
0.0
 40
1.366666666666677
100
AcDbArc
 50
270.0
 51
0.0
  0
LINE
  5
177
330
12C
100
AcDbEntity
  8
AM_4
100
AcDbLine
 10
52.45
 20
-38.1
 30
0.0
 11
-52.45000000000008
 21
-38.1
 31
0.0
  0
LINE
  5
178
330
12C
100
AcDbEntity
  8
AM_4
100
AcDbLine
 10
30.17370788784953
 20
-16.87999999999999
 30
0.0
 11
30.17370788784953
 21
-38.1
 31
0.0
  0
LINE
  5
179
330
12C
100
AcDbEntity
  8
AM_4
100
AcDbLine
 10
52.45
 20
-22.76917119533014
 30
0.0
 11
52.45
 21
-4.1
 31
0.0
  0
LINE
  5
17A
330
12C
100
AcDbEntity
  8
AM_4
100
AcDbLine
 10
52.45
 20
-38.1
 30
0.0
 11
52.45
 21
-27.03082880466985
 31
0.0
  0
LINE
  5
17B
330
12C
100
AcDbEntity
  8
AM_4
100
AcDbLine
 10
-52.45000000000008
 20
-4.1
 30
0.0
 11
-52.45000000000008
 21
-38.1
 31
0.0
  0
LINE
  5
17C
330
12C
100
AcDbEntity
  8
AM_4
100
AcDbLine
 10
21.94292137112076
 20
-18.29999999999999
 30
0.0
 11
21.94292137112076
 21
-16.87999999999999
 31
0.0
  0
LINE
  5
17D
330
12C
100
AcDbEntity
  8
AM_4
100
AcDbLine
 10
21.94292137112076
 20
-18.29999999999999
 30
0.0
 11
-21.94292137112076
 21
-18.29999999999999
 31
0.0
  0
LINE
  5
17E
330
12C
100
AcDbEntity
  8
AM_4
100
AcDbLine
 10
-21.94292137112076
 20
-16.87999999999999
 30
0.0
 11
-21.94292137112076
 21
-18.29999999999999
 31
0.0
  0
LINE
  5
17F
330
12C
100
AcDbEntity
  8
AM_4
100
AcDbLine
 10
-11.68487682775112
 20
-16.87999999999999
 30
0.0
 11
-44.25067073036436
 21
-16.88
 31
0.0
  0
LINE
  5
180
330
12C
100
AcDbEntity
  8
AM_4
100
AcDbLine
 10
-44.25067073036436
 20
-16.88
 30
0.0
 11
-44.25067073036435
 21
-4.099999999999998
 31
0.0
  0
LINE
  5
181
330
12C
100
AcDbEntity
  8
AM_4
100
AcDbLine
 10
52.45
 20
-4.1
 30
0.0
 11
-52.45000000000008
 21
-4.1
 31
0.0
  0
LINE
  5
182
330
12C
100
AcDbEntity
  8
AM_4
100
AcDbLine
 10
33.0430514448067
 20
-16.87999999999999
 30
0.0
 11
11.68487682775111
 21
-16.87999999999999
 31
0.0
  0
LINE
  5
183
330
12C
100
AcDbEntity
  8
AM_4
100
AcDbLine
 10
33.04305144480671
 20
-4.099999999999997
 30
0.0
 11
33.0430514448067
 21
-16.87999999999999
 31
0.0
  0
LINE
  5
184
330
12C
100
AcDbEntity
  8
AM_4
100
AcDbLine
 10
11.68487682775111
 20
-16.87999999999999
 30
0.0
 11
11.68487682775112
 21
-4.099999999999994
 31
0.0
  0
LINE
  5
185
330
12C
100
AcDbEntity
  8
AM_4
100
AcDbLine
 10
-11.68487682775112
 20
-16.87999999999999
 30
0.0
 11
-11.68487682775112
 21
-4.099999999999994
 31
0.0
  0
LINE
  5
186
330
12C
100
AcDbEntity
  8
AM_4
100
AcDbLine
 10
-13.23920390356174
 20
-16.87999999999999
 30
0.0
 11
-13.23920390356174
 21
-18.29999999999999
 31
0.0
  0
LINE
  5
187
330
12C
100
AcDbEntity
  8
AM_4
100
AcDbLine
 10
13.23920390356175
 20
-16.87999999999999
 30
0.0
 11
13.23920390356175
 21
-18.29999999999999
 31
0.0
  0
ENDBLK
  5
12F
330
12C
100
AcDbEntity
  8
0
100
AcDbBlockEnd
  0
ENDSEC
  0
SECTION
  2
ENTITIES
  0
INSERT
  5
6F
330
1F
100
AcDbEntity
  8
0
100
AcDbBlockReference
  2
1_130371_4
 10
0.0
 20
0.0
 30
0.0
  0
POINT
  5
189
330
1F
100
AcDbEntity
  8
ConnectionPoints
100
AcDbPoint
 10
0.0
 20
-54.1
 30
0.0000000000000033
  0
POINT
  5
18A
330
1F
100
AcDbEntity
  8
ConnectionPoints
100
AcDbPoint
 10
44.98610724989653
 20
-24.9
 30
44.98610724989652
  0
POINT
  5
18B
330
1F
100
AcDbEntity
  8
ConnectionPoints
100
AcDbPoint
 10
0.0
 20
-54.1
 30
0.0000000000000033
  0
ENDSEC
  0
SECTION
  2
OBJECTS
  0
DICTIONARY
  5
C
330
0
100
AcDbDictionary
281
     1
  3
ACAD_DETAILVIEWSTYLE
350
193
  3
ACAD_GROUP
350
D
  3
ACAD_LAYOUT
350
1A
  3
ACAD_MATERIAL
350
43
  3
ACAD_MLEADERSTYLE
350
6B
  3
ACAD_MLINESTYLE
350
17
  3
ACAD_PLOTSETTINGS
350
19
  3
ACAD_PLOTSTYLENAME
350
E
  3
ACAD_SCALELIST
350
47
  3
ACAD_SECTIONVIEWSTYLE
350
194
  3
ACAD_TABLESTYLE
350
69
  3
ACAD_VISUALSTYLE
350
2A
  3
ACDB_RECOMPOSE_DATA
350
190
  3
AcDbVariableDictionary
350
18C
  0
SUN
  5
6D
330
29
100
AcDbSun
 90
        1
290
     0
 63
     7
421
 16777215
 40
1.0
291
     1
 91
  2455826
 92
 54000000
292
     0
 70
     2
 71
   256
280
     1
  0
DICTIONARY
  5
193
102
{ACAD_REACTORS
330
C
102
}
330
C
100
AcDbDictionary
281
     1
  0
DICTIONARY
  5
D
102
{ACAD_REACTORS
330
C
102
}
330
C
100
AcDbDictionary
281
     1
  0
DICTIONARY
  5
1A
102
{ACAD_REACTORS
330
C
102
}
330
C
100
AcDbDictionary
281
     1
  3
Layout1
350
1E
  3
Layout2
350
26
  3
Model
350
22
  0
DICTIONARY
  5
43
102
{ACAD_REACTORS
330
C
102
}
330
C
100
AcDbDictionary
281
     1
  3
ByBlock
350
45
  3
ByLayer
350
44
  3
Global
350
46
  0
DICTIONARY
  5
6B
102
{ACAD_REACTORS
330
C
102
}
330
C
100
AcDbDictionary
281
     1
  3
Standard
350
6C
  0
DICTIONARY
  5
17
102
{ACAD_REACTORS
330
C
102
}
330
C
100
AcDbDictionary
281
     1
  3
Standard
350
18
  0
DICTIONARY
  5
19
102
{ACAD_REACTORS
330
C
102
}
330
C
100
AcDbDictionary
281
     1
  0
ACDBDICTIONARYWDFLT
  5
E
102
{ACAD_REACTORS
330
C
102
}
330
C
100
AcDbDictionary
281
     1
  3
Normal
350
F
100
AcDbDictionaryWithDefault
340
F
  0
DICTIONARY
  5
47
102
{ACAD_REACTORS
330
C
102
}
330
C
100
AcDbDictionary
281
     1
  3
A0
350
48
  3
A1
350
49
  3
A2
350
4A
  3
A3
350
4B
  3
A4
350
4C
  3
A5
350
4D
  3
A6
350
4E
  3
A7
350
4F
  3
A8
350
50
  3
A9
350
51
  3
B0
350
52
  3
B1
350
53
  3
B2
350
54
  3
B3
350
55
  3
B4
350
56
  3
B5
350
57
  3
B6
350
58
  3
B7
350
59
  3
B8
350
5A
  3
B9
350
5B
  3
C0
350
5C
  3
C1
350
5D
  3
C2
350
5E
  3
C3
350
5F
  3
C4
350
60
  3
C5
350
61
  3
C6
350
62
  3
C7
350
63
  3
C8
350
64
  3
C9
350
65
  3
D0
350
66
  3
D1
350
67
  3
D2
350
68
  0
DICTIONARY
  5
194
102
{ACAD_REACTORS
330
C
102
}
330
C
100
AcDbDictionary
281
     1
  0
DICTIONARY
  5
69
102
{ACAD_REACTORS
330
C
102
}
330
C
100
AcDbDictionary
281
     1
  3
Standard
350
6A
  0
DICTIONARY
  5
2A
102
{ACAD_REACTORS
330
C
102
}
330
C
100
AcDbDictionary
281
     1
  3
2dWireframe
350
2F
  3
Basic
350
32
  3
Brighten
350
36
  3
ColorChange
350
3A
  3
Conceptual
350
34
  3
Dim
350
35
  3
EdgeColorOff
350
3D
  3
Facepattern
350
39
  3
Flat
350
2B
  3
FlatWithEdges
350
2C
  3
Gouraud
350
2D
  3
GouraudWithEdges
350
2E
  3
Hidden
350
31
  3
JitterOff
350
3B
  3
Linepattern
350
38
  3
OverhangOff
350
3C
  3
Realistic
350
33
  3
Shaded
350
42
  3
Shaded with edges
350
41
  3
Shades of Gray
350
3E
  3
Sketchy
350
3F
  3
Thicken
350
37
  3
Wireframe
350
30
  3
X-Ray
350
40
  0
XRECORD
  5
190
102
{ACAD_REACTORS
330
C
102
}
330
C
100
AcDbXrecord
280
     1
 90
        1
330
6A
  0
DICTIONARY
  5
18C
102
{ACAD_REACTORS
330
C
102
}
330
C
100
AcDbDictionary
281
     1
  3
CANNOSCALE
350
18D
  3
CMLEADERSTYLE
350
192
  3
CTABLESTYLE
350
191
  0
LAYOUT
  5
1E
102
{ACAD_REACTORS
330
1A
102
}
330
1A
100
AcDbPlotSettings
  1

  2
none_device
  4

  6

 40
0.0
 41
0.0
 42
0.0
 43
0.0
 44
0.0
 45
0.0
 46
0.0
 47
0.0
 48
0.0
 49
0.0
140
0.0
141
0.0
142
1.0
143
1.0
 70
   688
 72
     1
 73
     0
 74
     5
  7

 75
    16
 76
     0
 77
     2
 78
   300
147
1.0
148
0.0
149
0.0
100
AcDbLayout
  1
Layout1
 70
     1
 71
     1
 10
0.0
 20
0.0
 11
420.0
 21
297.0
 12
0.0
 22
0.0
 32
0.0
 14
1.000000000000000E+20
 24
1.000000000000000E+20
 34
1.000000000000000E+20
 15
-1.000000000000000E+20
 25
-1.000000000000000E+20
 35
-1.000000000000000E+20
146
0.0
 13
0.0
 23
0.0
 33
0.0
 16
1.0
 26
0.0
 36
0.0
 17
0.0
 27
1.0
 37
0.0
 76
     0
330
1B
  0
LAYOUT
  5
26
102
{ACAD_REACTORS
330
1A
102
}
330
1A
100
AcDbPlotSettings
  1

  2
none_device
  4

  6

 40
0.0
 41
0.0
 42
0.0
 43
0.0
 44
0.0
 45
0.0
 46
0.0
 47
0.0
 48
0.0
 49
0.0
140
0.0
141
0.0
142
1.0
143
1.0
 70
   688
 72
     1
 73
     0
 74
     5
  7

 75
    16
 76
     0
 77
     2
 78
   300
147
1.0
148
0.0
149
0.0
100
AcDbLayout
  1
Layout2
 70
     1
 71
     2
 10
0.0
 20
0.0
 11
0.0
 21
0.0
 12
0.0
 22
0.0
 32
0.0
 14
0.0
 24
0.0
 34
0.0
 15
0.0
 25
0.0
 35
0.0
146
0.0
 13
0.0
 23
0.0
 33
0.0
 16
1.0
 26
0.0
 36
0.0
 17
0.0
 27
1.0
 37
0.0
 76
     0
330
23
  0
LAYOUT
  5
22
102
{ACAD_REACTORS
330
1A
102
}
330
1A
100
AcDbPlotSettings
  1

  2
none_device
  4
Letter_(8.50_x_11.00_Inches)
  6

 40
6.35
 41
6.35
 42
6.35000508
 43
6.35000508
 44
215.9
 45
279.4
 46
0.0
 47
0.0
 48
0.0
 49
0.0
140
0.0
141
0.0
142
1.0
143
1.0
 70
  1712
 72
     1
 73
     0
 74
     0
  7

 75
     0
 76
     0
 77
     2
 78
   300
147
1.0
148
0.0
149
0.0
100
AcDbLayout
  1
Model
 70
     1
 71
     0
 10
0.0
 20
0.0
 11
420.0
 21
297.0
 12
0.0
 22
0.0
 32
0.0
 14
1.000000000000000E+20
 24
1.000000000000000E+20
 34
1.000000000000000E+20
 15
-1.000000000000000E+20
 25
-1.000000000000000E+20
 35
-1.000000000000000E+20
146
0.0
 13
0.0
 23
0.0
 33
0.0
 16
1.0
 26
0.0
 36
0.0
 17
0.0
 27
1.0
 37
0.0
 76
     0
330
1F
331
29
  0
MATERIAL
  5
45
102
{ACAD_REACTORS
330
43
102
}
330
43
100
AcDbMaterial
  1
ByBlock
 72
     1
 94
      127
  0
MATERIAL
  5
44
102
{ACAD_REACTORS
330
43
102
}
330
43
100
AcDbMaterial
  1
ByLayer
 72
     1
 94
      127
  0
MATERIAL
  5
46
102
{ACAD_REACTORS
330
43
102
}
330
43
100
AcDbMaterial
  1
Global
 72
     1
 94
      127
  0
MLEADERSTYLE
  5
6C
102
{ACAD_REACTORS
330
6B
102
}
330
6B
100
AcDbMLeaderStyle
179
     2
170
     2
171
     1
172
     0
 90
        2
 40
0.0
 41
0.0
173
     1
 91
-1056964608
340
14
 92
       -2
290
     1
 42
2.0
291
     1
 43
8.0
  3
Standard
341
0
 44
4.0
300

342
11
174
     1
178
     6
175
     1
176
     0
 93
-1056964608
 45
4.0
292
     0
297
     0
 46
4.0
343
0
 94
-1056964608
 47
1.0
 49
1.0
140
1.0
293
     1
141
0.0
294
     1
177
     0
142
1.0
295
     0
296
     0
143
3.75
271
     0
272
     9
273
     9
298
     0
  0
MLINESTYLE
  5
18
102
{ACAD_REACTORS
330
17
102
}
330
17
100
AcDbMlineStyle
  2
Standard
 70
     0
  3

 62
   256
 51
90.0
 52
90.0
 71
     2
 49
0.5
 62
   256
  6
BYLAYER
 49
-0.5
 62
   256
  6
BYLAYER
  0
ACDBPLACEHOLDER
  5
F
102
{ACAD_REACTORS
330
E
102
}
330
E
  0
SCALE
  5
48
102
{ACAD_REACTORS
330
47
102
}
330
47
100
AcDbScale
 70
     0
300
1:1
140
1.0
141
1.0
290
     1
  0
SCALE
  5
49
102
{ACAD_REACTORS
330
47
102
}
330
47
100
AcDbScale
 70
     0
300
1:2
140
1.0
141
2.0
290
     0
  0
SCALE
  5
4A
102
{ACAD_REACTORS
330
47
102
}
330
47
100
AcDbScale
 70
     0
300
1:4
140
1.0
141
4.0
290
     0
  0
SCALE
  5
4B
102
{ACAD_REACTORS
330
47
102
}
330
47
100
AcDbScale
 70
     0
300
1:5
140
1.0
141
5.0
290
     0
  0
SCALE
  5
4C
102
{ACAD_REACTORS
330
47
102
}
330
47
100
AcDbScale
 70
     0
300
1:8
140
1.0
141
8.0
290
     0
  0
SCALE
  5
4D
102
{ACAD_REACTORS
330
47
102
}
330
47
100
AcDbScale
 70
     0
300
1:10
140
1.0
141
10.0
290
     0
  0
SCALE
  5
4E
102
{ACAD_REACTORS
330
47
102
}
330
47
100
AcDbScale
 70
     0
300
1:16
140
1.0
141
16.0
290
     0
  0
SCALE
  5
4F
102
{ACAD_REACTORS
330
47
102
}
330
47
100
AcDbScale
 70
     0
300
1:20
140
1.0
141
20.0
290
     0
  0
SCALE
  5
50
102
{ACAD_REACTORS
330
47
102
}
330
47
100
AcDbScale
 70
     0
300
1:30
140
1.0
141
30.0
290
     0
  0
SCALE
  5
51
102
{ACAD_REACTORS
330
47
102
}
330
47
100
AcDbScale
 70
     0
300
1:40
140
1.0
141
40.0
290
     0
  0
SCALE
  5
52
102
{ACAD_REACTORS
330
47
102
}
330
47
100
AcDbScale
 70
     0
300
1:50
140
1.0
141
50.0
290
     0
  0
SCALE
  5
53
102
{ACAD_REACTORS
330
47
102
}
330
47
100
AcDbScale
 70
     0
300
1:100
140
1.0
141
100.0
290
     0
  0
SCALE
  5
54
102
{ACAD_REACTORS
330
47
102
}
330
47
100
AcDbScale
 70
     0
300
2:1
140
2.0
141
1.0
290
     0
  0
SCALE
  5
55
102
{ACAD_REACTORS
330
47
102
}
330
47
100
AcDbScale
 70
     0
300
4:1
140
4.0
141
1.0
290
     0
  0
SCALE
  5
56
102
{ACAD_REACTORS
330
47
102
}
330
47
100
AcDbScale
 70
     0
300
8:1
140
8.0
141
1.0
290
     0
  0
SCALE
  5
57
102
{ACAD_REACTORS
330
47
102
}
330
47
100
AcDbScale
 70
     0
300
10:1
140
10.0
141
1.0
290
     0
  0
SCALE
  5
58
102
{ACAD_REACTORS
330
47
102
}
330
47
100
AcDbScale
 70
     0
300
100:1
140
100.0
141
1.0
290
     0
  0
SCALE
  5
59
102
{ACAD_REACTORS
330
47
102
}
330
47
100
AcDbScale
 70
     0
300
1/128" = 1'-0"
140
0.0078125
141
12.0
290
     0
  0
SCALE
  5
5A
102
{ACAD_REACTORS
330
47
102
}
330
47
100
AcDbScale
 70
     0
300
1/64" = 1'-0"
140
0.015625
141
12.0
290
     0
  0
SCALE
  5
5B
102
{ACAD_REACTORS
330
47
102
}
330
47
100
AcDbScale
 70
     0
300
1/32" = 1'-0"
140
0.03125
141
12.0
290
     0
  0
SCALE
  5
5C
102
{ACAD_REACTORS
330
47
102
}
330
47
100
AcDbScale
 70
     0
300
1/16" = 1'-0"
140
0.0625
141
12.0
290
     0
  0
SCALE
  5
5D
102
{ACAD_REACTORS
330
47
102
}
330
47
100
AcDbScale
 70
     0
300
3/32" = 1'-0"
140
0.09375
141
12.0
290
     0
  0
SCALE
  5
5E
102
{ACAD_REACTORS
330
47
102
}
330
47
100
AcDbScale
 70
     0
300
1/8" = 1'-0"
140
0.125
141
12.0
290
     0
  0
SCALE
  5
5F
102
{ACAD_REACTORS
330
47
102
}
330
47
100
AcDbScale
 70
     0
300
3/16" = 1'-0"
140
0.1875
141
12.0
290
     0
  0
SCALE
  5
60
102
{ACAD_REACTORS
330
47
102
}
330
47
100
AcDbScale
 70
     0
300
1/4" = 1'-0"
140
0.25
141
12.0
290
     0
  0
SCALE
  5
61
102
{ACAD_REACTORS
330
47
102
}
330
47
100
AcDbScale
 70
     0
300
3/8" = 1'-0"
140
0.375
141
12.0
290
     0
  0
SCALE
  5
62
102
{ACAD_REACTORS
330
47
102
}
330
47
100
AcDbScale
 70
     0
300
1/2" = 1'-0"
140
0.5
141
12.0
290
     0
  0
SCALE
  5
63
102
{ACAD_REACTORS
330
47
102
}
330
47
100
AcDbScale
 70
     0
300
3/4" = 1'-0"
140
0.75
141
12.0
290
     0
  0
SCALE
  5
64
102
{ACAD_REACTORS
330
47
102
}
330
47
100
AcDbScale
 70
     0
300
1" = 1'-0"
140
1.0
141
12.0
290
     0
  0
SCALE
  5
65
102
{ACAD_REACTORS
330
47
102
}
330
47
100
AcDbScale
 70
     0
300
1-1/2" = 1'-0"
140
1.5
141
12.0
290
     0
  0
SCALE
  5
66
102
{ACAD_REACTORS
330
47
102
}
330
47
100
AcDbScale
 70
     0
300
3" = 1'-0"
140
3.0
141
12.0
290
     0
  0
SCALE
  5
67
102
{ACAD_REACTORS
330
47
102
}
330
47
100
AcDbScale
 70
     0
300
6" = 1'-0"
140
6.0
141
12.0
290
     0
  0
SCALE
  5
68
102
{ACAD_REACTORS
330
47
102
}
330
47
100
AcDbScale
 70
     0
300
1'-0" = 1'-0"
140
12.0
141
12.0
290
     0
  0
TABLESTYLE
  5
6A
102
{ACAD_REACTORS
330
69
102
}
102
{ACAD_XDICTIONARY
360
18E
102
}
330
69
100
AcDbTableStyle
  3
Standard
 70
     0
 71
     0
 40
0.06
 41
0.06
280
     0
281
     0
  7
Standard
140
4.5
170
     2
 62
     0
 63
   257
283
     0
 90
        4
 91
        0
  1

274
    -2
284
     1
 64
     0
275
    -2
285
     1
 65
     0
276
    -2
286
     1
 66
     0
277
    -2
287
     1
 67
     0
278
    -2
288
     1
 68
     0
279
    -2
289
     1
 69
     0
  7
Standard
140
6.0
170
     5
 62
     0
 63
   257
283
     0
 90
        4
 91
        0
  1

274
    -2
284
     1
 64
     0
275
    -2
285
     1
 65
     0
276
    -2
286
     1
 66
     0
277
    -2
287
     1
 67
     0
278
    -2
288
     1
 68
     0
279
    -2
289
     1
 69
     0
  7
Standard
140
4.5
170
     5
 62
     0
 63
   257
283
     0
 90
        4
 91
        0
  1

274
    -2
284
     1
 64
     0
275
    -2
285
     1
 65
     0
276
    -2
286
     1
 66
     0
277
    -2
287
     1
 67
     0
278
    -2
288
     1
 68
     0
279
    -2
289
     1
 69
     0
  0
VISUALSTYLE
  5
2F
102
{ACAD_REACTORS
330
2A
102
}
330
2A
100
AcDbVisualStyle
  2
2dWireframe
 70
     4
177
     3
291
     0
 70
    58
 90
        0
176
     1
 90
        2
176
     1
 90
        0
176
     1
 90
        0
176
     1
 40
0.6
176
     1
 40
30.0
176
     1
 62
     7
420
 16777215
176
     1
 90
        1
176
     1
 90
        4
176
     1
 62
     7
176
     1
 62
   257
176
     1
 90
        1
176
     1
 90
        1
176
     1
 40
1.0
176
     1
 90
        0
176
     1
 62
   257
176
     1
 40
1.0
176
     1
 90
        1
176
     1
 90
        6
176
     1
 90
        2
176
     1
 62
     7
176
     1
 90
        5
176
     1
 90
        0
176
     1
 90
        0
176
     1
290
     0
176
     1
 90
        1
176
     1
 40
0.0
176
     1
 90
        0
176
     1
290
     1
176
     1
290
     1
176
     1
290
     0
176
     1
290
     0
176
     1
290
     0
176
     1
290
     0
176
     1
290
     0
176
     1
290
     0
176
     1
290
     0
176
     1
 90
       50
176
     1
 40
0.0
176
     1
 40
1.0
176
     1
 90
        0
176
     1
 62
    18
420
        0
176
     1
 90
       50
176
     1
 90
        3
176
     1
 62
     5
420
      255
176
     1
290
     0
176
     1
 90
       50
176
     1
 90
       50
176
     1
 90
       50
176
     1
290
     0
176
     1
 90
       50
176
     1
 62
   256
176
     0
 40
1.0
176
     0
 90
        2
176
     1
  1
strokes_ogs.tif
176
     1
290
     0
176
     1
 40
1.0
176
     1
 40
1.0
176
     1
  0
VISUALSTYLE
  5
32
102
{ACAD_REACTORS
330
2A
102
}
330
2A
100
AcDbVisualStyle
  2
Basic
 70
     7
177
     3
291
     1
 70
    58
 90
        1
176
     1
 90
        0
176
     1
 90
        1
176
     1
 90
        0
176
     1
 40
0.6
176
     1
 40
30.0
176
     1
 62
     7
420
 16777215
176
     1
 90
        0
176
     1
 90
        4
176
     1
 62
     7
176
     1
 62
   257
176
     1
 90
        1
176
     1
 90
        1
176
     1
 40
1.0
176
     1
 90
        8
176
     1
 62
     7
176
     1
 40
1.0
176
     1
 90
        1
176
     1
 90
        6
176
     1
 90
        2
176
     1
 62
     7
176
     1
 90
        5
176
     1
 90
        0
176
     1
 90
        0
176
     1
290
     0
176
     1
 90
        1
176
     1
 40
0.0
176
     1
 90
        0
176
     1
290
     0
176
     1
290
     1
176
     1
290
     1
176
     1
290
     0
176
     1
290
     0
176
     1
290
     0
176
     1
290
     0
176
     1
290
     0
176
     1
290
     0
176
     1
 90
       50
176
     1
 40
0.0
176
     1
 40
1.0
176
     1
 90
        0
176
     1
 62
    18
420
        0
176
     1
 90
       50
176
     1
 90
        3
176
     1
 62
     5
420
      255
176
     1
290
     0
176
     1
 90
       50
176
     1
 90
       50
176
     1
 90
       50
176
     1
290
     0
176
     1
 90
       50
176
     1
 62
   256
176
     0
 40
1.0
176
     0
 90
        2
176
     1
  1
strokes_ogs.tif
176
     1
290
     0
176
     1
 40
1.0
176
     1
 40
1.0
176
     1
  0
VISUALSTYLE
  5
36
102
{ACAD_REACTORS
330
2A
102
}
330
2A
100
AcDbVisualStyle
  2
Brighten
 70
    12
177
     3
291
     1
 70
    58
 90
        2
176
     1
 90
        2
176
     1
 90
        0
176
     1
 90
        0
176
     1
 40
0.6
176
     1
 40
30.0
176
     1
 62
     7
420
 16777215
176
     1
 90
        1
176
     1
 90
        4
176
     1
 62
     7
176
     1
 62
   257
176
     1
 90
        1
176
     1
 90
        1
176
     1
 40
1.0
176
     1
 90
        8
176
     1
 62
     7
176
     1
 40
1.0
176
     1
 90
        1
176
     1
 90
        6
176
     1
 90
        2
176
     1
 62
     7
176
     1
 90
        5
176
     1
 90
        0
176
     1
 90
        0
176
     1
290
     0
176
     1
 90
        1
176
     1
 40
50.0
176
     1
 90
        0
176
     1
290
     0
176
     1
290
     1
176
     1
290
     1
176
     1
290
     0
176
     1
290
     0
176
     1
290
     0
176
     1
290
     0
176
     1
290
     0
176
     1
290
     0
176
     1
 90
       50
176
     1
 40
0.0
176
     1
 40
1.0
176
     1
 90
        0
176
     1
 62
    18
420
        0
176
     1
 90
       50
176
     1
 90
        3
176
     1
 62
     5
420
      255
176
     1
290
     0
176
     1
 90
       50
176
     1
 90
       50
176
     1
 90
       50
176
     1
290
     0
176
     1
 90
       50
176
     1
 62
   256
176
     0
 40
1.0
176
     0
 90
        2
176
     1
  1
strokes_ogs.tif
176
     1
290
     0
176
     1
 40
1.0
176
     1
 40
1.0
176
     1
  0
VISUALSTYLE
  5
3A
102
{ACAD_REACTORS
330
2A
102
}
330
2A
100
AcDbVisualStyle
  2
ColorChange
 70
    16
177
     3
291
     1
 70
    58
 90
        2
176
     1
 90
        2
176
     1
 90
        3
176
     1
 90
        0
176
     1
 40
0.6
176
     1
 40
30.0
176
     1
 62
     8
420
  8421504
176
     1
 90
        1
176
     1
 90
        4
176
     1
 62
     7
176
     1
 62
   257
176
     1
 90
        1
176
     1
 90
        1
176
     1
 40
1.0
176
     1
 90
        8
176
     1
 62
     8
420
  8421504
176
     1
 40
1.0
176
     1
 90
        1
176
     1
 90
        6
176
     1
 90
        2
176
     1
 62
     7
176
     1
 90
        5
176
     1
 90
        0
176
     1
 90
        0
176
     1
290
     0
176
     1
 90
        1
176
     1
 40
0.0
176
     1
 90
        0
176
     1
290
     0
176
     1
290
     1
176
     1
290
     1
176
     1
290
     0
176
     1
290
     0
176
     1
290
     0
176
     1
290
     0
176
     1
290
     0
176
     1
290
     0
176
     1
 90
       50
176
     1
 40
0.0
176
     1
 40
1.0
176
     1
 90
        0
176
     1
 62
    18
420
        0
176
     1
 90
       50
176
     1
 90
        3
176
     1
 62
     5
420
      255
176
     1
290
     0
176
     1
 90
       50
176
     1
 90
       50
176
     1
 90
       50
176
     1
290
     0
176
     1
 90
       50
176
     1
 62
   256
176
     0
 40
1.0
176
     0
 90
        2
176
     1
  1
strokes_ogs.tif
176
     1
290
     0
176
     1
 40
1.0
176
     1
 40
1.0
176
     1
  0
VISUALSTYLE
  5
34
102
{ACAD_REACTORS
330
2A
102
}
330
2A
100
AcDbVisualStyle
  2
Conceptual
 70
     9
177
     3
291
     0
 70
    58
 90
        3
176
     1
 90
        2
176
     1
 90
        0
176
     1
 90
        0
176
     1
 40
0.6
176
     1
 40
30.0
176
     1
 62
     7
420
 16777215
176
     1
 90
        2
176
     1
 90
        2
176
     1
 62
     7
176
     1
 62
   257
176
     1
 90
        1
176
     1
 90
        1
176
     1
 40
179.0
176
     1
 90
        8
176
     1
 62
     7
176
     1
 40
1.0
176
     1
 90
        1
176
     1
 90
        6
176
     1
 90
        2
176
     1
 62
     7
176
     1
 90
        3
176
     1
 90
        0
176
     1
 90
        0
176
     1
290
     0
176
     1
 90
        1
176
     1
 40
0.0
176
     1
 90
        0
176
     1
290
     0
176
     1
290
     1
176
     1
290
     1
176
     1
290
     0
176
     1
290
     0
176
     1
290
     0
176
     1
290
     0
176
     1
290
     0
176
     1
290
     0
176
     1
 90
       50
176
     1
 40
0.0
176
     1
 40
1.0
176
     1
 90
        0
176
     1
 62
    18
420
        0
176
     1
 90
       50
176
     1
 90
        3
176
     1
 62
     5
420
      255
176
     1
290
     0
176
     1
 90
       50
176
     1
 90
       50
176
     1
 90
       50
176
     1
290
     0
176
     1
 90
       50
176
     1
 62
   256
176
     0
 40
1.0
176
     0
 90
        2
176
     1
  1
strokes_ogs.tif
176
     1
290
     0
176
     1
 40
1.0
176
     1
 40
1.0
176
     1
  0
VISUALSTYLE
  5
35
102
{ACAD_REACTORS
330
2A
102
}
330
2A
100
AcDbVisualStyle
  2
Dim
 70
    11
177
     3
291
     1
 70
    58
 90
        2
176
     1
 90
        2
176
     1
 90
        0
176
     1
 90
        0
176
     1
 40
0.6
176
     1
 40
30.0
176
     1
 62
     7
420
 16777215
176
     1
 90
        1
176
     1
 90
        4
176
     1
 62
     7
176
     1
 62
   257
176
     1
 90
        1
176
     1
 90
        1
176
     1
 40
1.0
176
     1
 90
        8
176
     1
 62
     7
176
     1
 40
1.0
176
     1
 90
        1
176
     1
 90
        6
176
     1
 90
        2
176
     1
 62
     7
176
     1
 90
        5
176
     1
 90
        0
176
     1
 90
        0
176
     1
290
     0
176
     1
 90
        1
176
     1
 40
-50.0
176
     1
 90
        0
176
     1
290
     0
176
     1
290
     1
176
     1
290
     1
176
     1
290
     0
176
     1
290
     0
176
     1
290
     0
176
     1
290
     0
176
     1
290
     0
176
     1
290
     0
176
     1
 90
       50
176
     1
 40
0.0
176
     1
 40
1.0
176
     1
 90
        0
176
     1
 62
    18
420
        0
176
     1
 90
       50
176
     1
 90
        3
176
     1
 62
     5
420
      255
176
     1
290
     0
176
     1
 90
       50
176
     1
 90
       50
176
     1
 90
       50
176
     1
290
     0
176
     1
 90
       50
176
     1
 62
   256
176
     0
 40
1.0
176
     0
 90
        2
176
     1
  1
strokes_ogs.tif
176
     1
290
     0
176
     1
 40
1.0
176
     1
 40
1.0
176
     1
  0
VISUALSTYLE
  5
3D
102
{ACAD_REACTORS
330
2A
102
}
330
2A
100
AcDbVisualStyle
  2
EdgeColorOff
 70
    22
177
     3
291
     1
 70
    58
 90
        2
176
     0
 90
        2
176
     0
 90
        0
176
     0
 90
        0
176
     0
 40
0.6
176
     0
 40
30.0
176
     0
 62
     7
420
 16777215
176
     0
 90
        1
176
     0
 90
        4
176
     0
 62
     7
176
     0
 62
   257
176
     0
 90
        1
176
     0
 90
        1
176
     0
 40
1.0
176
     0
 90
        8
176
     2
 62
     7
176
     0
 40
1.0
176
     0
 90
        1
176
     0
 90
        6
176
     0
 90
        2
176
     0
 62
     7
176
     0
 90
        5
176
     0
 90
        0
176
     0
 90
        0
176
     0
290
     0
176
     0
 90
        1
176
     0
 40
0.0
176
     0
 90
        0
176
     0
290
     0
176
     0
290
     1
176
     0
290
     1
176
     0
290
     0
176
     0
290
     0
176
     0
290
     0
176
     0
290
     0
176
     0
290
     0
176
     0
290
     0
176
     0
 90
       50
176
     0
 40
0.0
176
     0
 40
1.0
176
     0
 90
        0
176
     0
 62
    18
420
        0
176
     0
 90
       50
176
     0
 90
        3
176
     0
 62
     5
420
      255
176
     0
290
     0
176
     0
 90
       50
176
     0
 90
       50
176
     0
 90
       50
176
     0
290
     0
176
     0
 90
       50
176
     0
 62
   256
176
     0
 40
1.0
176
     0
 90
        2
176
     0
  1
strokes_ogs.tif
176
     0
290
     0
176
     0
 40
1.0
176
     0
 40
1.0
176
     0
  0
VISUALSTYLE
  5
39
102
{ACAD_REACTORS
330
2A
102
}
330
2A
100
AcDbVisualStyle
  2
Facepattern
 70
    15
177
     3
291
     1
 70
    58
 90
        2
176
     1
 90
        2
176
     1
 90
        0
176
     1
 90
        0
176
     1
 40
0.6
176
     1
 40
30.0
176
     1
 62
     7
420
 16777215
176
     1
 90
        1
176
     1
 90
        4
176
     1
 62
     7
176
     1
 62
   257
176
     1
 90
        1
176
     1
 90
        1
176
     1
 40
1.0
176
     1
 90
        8
176
     1
 62
     7
176
     1
 40
1.0
176
     1
 90
        1
176
     1
 90
        6
176
     1
 90
        2
176
     1
 62
     7
176
     1
 90
        5
176
     1
 90
        0
176
     1
 90
        0
176
     1
290
     0
176
     1
 90
        1
176
     1
 40
0.0
176
     1
 90
        0
176
     1
290
     0
176
     1
290
     1
176
     1
290
     1
176
     1
290
     0
176
     1
290
     0
176
     1
290
     0
176
     1
290
     0
176
     1
290
     0
176
     1
290
     0
176
     1
 90
       50
176
     1
 40
0.0
176
     1
 40
1.0
176
     1
 90
        0
176
     1
 62
    18
420
        0
176
     1
 90
       50
176
     1
 90
        3
176
     1
 62
     5
420
      255
176
     1
290
     0
176
     1
 90
       50
176
     1
 90
       50
176
     1
 90
       50
176
     1
290
     0
176
     1
 90
       50
176
     1
 62
   256
176
     0
 40
1.0
176
     0
 90
        2
176
     1
  1
strokes_ogs.tif
176
     1
290
     0
176
     1
 40
1.0
176
     1
 40
1.0
176
     1
  0
VISUALSTYLE
  5
2B
102
{ACAD_REACTORS
330
2A
102
}
330
2A
100
AcDbVisualStyle
  2
Flat
 70
     0
177
     3
291
     1
 70
    58
 90
        2
176
     1
 90
        1
176
     1
 90
        1
176
     1
 90
        2
176
     1
 40
0.6
176
     1
 40
30.0
176
     1
 62
     7
420
 16777215
176
     1
 90
        0
176
     1
 90
        0
176
     1
 62
     7
176
     1
 62
   257
176
     1
 90
        1
176
     1
 90
        1
176
     1
 40
1.0
176
     1
 90
        8
176
     1
 62
     7
176
     1
 40
1.0
176
     1
 90
        1
176
     1
 90
        6
176
     1
 90
        2
176
     1
 62
     7
176
     1
 90
        5
176
     1
 90
        0
176
     1
 90
        0
176
     1
290
     0
176
     1
 90
       13
176
     1
 40
0.0
176
     1
 90
        0
176
     1
290
     0
176
     1
290
     1
176
     1
290
     1
176
     1
290
     0
176
     1
290
     0
176
     1
290
     0
176
     1
290
     0
176
     1
290
     0
176
     1
290
     0
176
     1
 90
       50
176
     1
 40
0.0
176
     1
 40
1.0
176
     1
 90
        0
176
     1
 62
    18
420
        0
176
     1
 90
       50
176
     1
 90
        3
176
     1
 62
     5
420
      255
176
     1
290
     0
176
     1
 90
       50
176
     1
 90
       50
176
     1
 90
       50
176
     1
290
     0
176
     1
 90
       50
176
     1
 62
   256
176
     0
 40
1.0
176
     0
 90
        2
176
     1
  1
strokes_ogs.tif
176
     1
290
     0
176
     1
 40
1.0
176
     1
 40
1.0
176
     1
  0
VISUALSTYLE
  5
2C
102
{ACAD_REACTORS
330
2A
102
}
330
2A
100
AcDbVisualStyle
  2
FlatWithEdges
 70
     1
177
     3
291
     1
 70
    58
 90
        2
176
     1
 90
        1
176
     1
 90
        1
176
     1
 90
        2
176
     1
 40
0.6
176
     1
 40
30.0
176
     1
 62
     7
420
 16777215
176
     1
 90
        1
176
     1
 90
        0
176
     1
 62
     7
176
     1
 62
   257
176
     1
 90
        1
176
     1
 90
        1
176
     1
 40
1.0
176
     1
 90
        0
176
     1
 62
   257
176
     1
 40
1.0
176
     1
 90
        1
176
     1
 90
        6
176
     1
 90
        2
176
     1
 62
     7
176
     1
 90
        5
176
     1
 90
        0
176
     1
 90
        0
176
     1
290
     0
176
     1
 90
       13
176
     1
 40
0.0
176
     1
 90
        0
176
     1
290
     0
176
     1
290
     1
176
     1
290
     1
176
     1
290
     0
176
     1
290
     0
176
     1
290
     0
176
     1
290
     0
176
     1
290
     0
176
     1
290
     0
176
     1
 90
       50
176
     1
 40
0.0
176
     1
 40
1.0
176
     1
 90
        0
176
     1
 62
    18
420
        0
176
     1
 90
       50
176
     1
 90
        3
176
     1
 62
     5
420
      255
176
     1
290
     0
176
     1
 90
       50
176
     1
 90
       50
176
     1
 90
       50
176
     1
290
     0
176
     1
 90
       50
176
     1
 62
   256
176
     0
 40
1.0
176
     0
 90
        2
176
     1
  1
strokes_ogs.tif
176
     1
290
     0
176
     1
 40
1.0
176
     1
 40
1.0
176
     1
  0
VISUALSTYLE
  5
2D
102
{ACAD_REACTORS
330
2A
102
}
330
2A
100
AcDbVisualStyle
  2
Gouraud
 70
     2
177
     3
291
     1
 70
    58
 90
        2
176
     1
 90
        2
176
     1
 90
        1
176
     1
 90
        2
176
     1
 40
0.6
176
     1
 40
30.0
176
     1
 62
     7
420
 16777215
176
     1
 90
        0
176
     1
 90
        0
176
     1
 62
     7
176
     1
 62
   257
176
     1
 90
        1
176
     1
 90
        1
176
     1
 40
1.0
176
     1
 90
        0
176
     1
 62
     7
176
     1
 40
1.0
176
     1
 90
        1
176
     1
 90
        6
176
     1
 90
        2
176
     1
 62
     7
176
     1
 90
        5
176
     1
 90
        0
176
     1
 90
        0
176
     1
290
     0
176
     1
 90
       13
176
     1
 40
0.0
176
     1
 90
        0
176
     1
290
     0
176
     1
290
     1
176
     1
290
     1
176
     1
290
     0
176
     1
290
     0
176
     1
290
     0
176
     1
290
     0
176
     1
290
     0
176
     1
290
     0
176
     1
 90
       50
176
     1
 40
0.0
176
     1
 40
1.0
176
     1
 90
        0
176
     1
 62
    18
420
        0
176
     1
 90
       50
176
     1
 90
        3
176
     1
 62
     5
420
      255
176
     1
290
     0
176
     1
 90
       50
176
     1
 90
       50
176
     1
 90
       50
176
     1
290
     0
176
     1
 90
       50
176
     1
 62
   256
176
     0
 40
1.0
176
     0
 90
        2
176
     1
  1
strokes_ogs.tif
176
     1
290
     0
176
     1
 40
1.0
176
     1
 40
1.0
176
     1
  0
VISUALSTYLE
  5
2E
102
{ACAD_REACTORS
330
2A
102
}
330
2A
100
AcDbVisualStyle
  2
GouraudWithEdges
 70
     3
177
     3
291
     1
 70
    58
 90
        2
176
     1
 90
        2
176
     1
 90
        1
176
     1
 90
        2
176
     1
 40
0.6
176
     1
 40
30.0
176
     1
 62
     7
420
 16777215
176
     1
 90
        1
176
     1
 90
        0
176
     1
 62
     7
176
     1
 62
   257
176
     1
 90
        1
176
     1
 90
        1
176
     1
 40
1.0
176
     1
 90
        0
176
     1
 62
   257
176
     1
 40
1.0
176
     1
 90
        1
176
     1
 90
        6
176
     1
 90
        2
176
     1
 62
     7
176
     1
 90
        5
176
     1
 90
        0
176
     1
 90
        0
176
     1
290
     0
176
     1
 90
       13
176
     1
 40
0.0
176
     1
 90
        0
176
     1
290
     0
176
     1
290
     1
176
     1
290
     1
176
     1
290
     0
176
     1
290
     0
176
     1
290
     0
176
     1
290
     0
176
     1
290
     0
176
     1
290
     0
176
     1
 90
       50
176
     1
 40
0.0
176
     1
 40
1.0
176
     1
 90
        0
176
     1
 62
    18
420
        0
176
     1
 90
       50
176
     1
 90
        3
176
     1
 62
     5
420
      255
176
     1
290
     0
176
     1
 90
       50
176
     1
 90
       50
176
     1
 90
       50
176
     1
290
     0
176
     1
 90
       50
176
     1
 62
   256
176
     0
 40
1.0
176
     0
 90
        2
176
     1
  1
strokes_ogs.tif
176
     1
290
     0
176
     1
 40
1.0
176
     1
 40
1.0
176
     1
  0
VISUALSTYLE
  5
31
102
{ACAD_REACTORS
330
2A
102
}
330
2A
100
AcDbVisualStyle
  2
Hidden
 70
     6
177
     3
291
     0
 70
    58
 90
        1
176
     1
 90
        2
176
     1
 90
        2
176
     1
 90
        0
176
     1
 40
0.6
176
     1
 40
30.0
176
     1
 62
     7
420
 16777215
176
     1
 90
        2
176
     1
 90
        2
176
     1
 62
     7
176
     1
 62
   257
176
     1
 90
        2
176
     1
 90
        1
176
     1
 40
40.0
176
     1
 90
        0
176
     1
 62
   257
176
     1
 40
1.0
176
     1
 90
        1
176
     1
 90
        6
176
     1
 90
        2
176
     1
 62
     7
176
     1
 90
        3
176
     1
 90
        0
176
     1
 90
        0
176
     1
290
     0
176
     1
 90
        1
176
     1
 40
0.0
176
     1
 90
        0
176
     1
290
     0
176
     1
290
     1
176
     1
290
     1
176
     1
290
     0
176
     1
290
     0
176
     1
290
     0
176
     1
290
     0
176
     1
290
     0
176
     1
290
     0
176
     1
 90
       50
176
     1
 40
0.0
176
     1
 40
1.0
176
     1
 90
        0
176
     1
 62
    18
420
        0
176
     1
 90
       50
176
     1
 90
        3
176
     1
 62
     5
420
      255
176
     1
290
     0
176
     1
 90
       50
176
     1
 90
       50
176
     1
 90
       50
176
     1
290
     0
176
     1
 90
       50
176
     1
 62
   256
176
     0
 40
1.0
176
     0
 90
        2
176
     1
  1
strokes_ogs.tif
176
     1
290
     0
176
     1
 40
1.0
176
     1
 40
1.0
176
     1
  0
VISUALSTYLE
  5
3B
102
{ACAD_REACTORS
330
2A
102
}
330
2A
100
AcDbVisualStyle
  2
JitterOff
 70
    20
177
     3
291
     1
 70
    58
 90
        2
176
     0
 90
        2
176
     0
 90
        0
176
     0
 90
        0
176
     0
 40
0.6
176
     0
 40
30.0
176
     0
 62
     7
420
 16777215
176
     0
 90
        1
176
     0
 90
        4
176
     0
 62
     7
176
     0
 62
   257
176
     0
 90
        1
176
     0
 90
        1
176
     0
 40
1.0
176
     0
 90
       10
176
     2
 62
     7
176
     0
 40
1.0
176
     0
 90
        1
176
     0
 90
        6
176
     0
 90
        2
176
     0
 62
     7
176
     0
 90
        5
176
     0
 90
        0
176
     0
 90
        0
176
     0
290
     0
176
     0
 90
        1
176
     0
 40
0.0
176
     0
 90
        0
176
     0
290
     0
176
     0
290
     1
176
     0
290
     1
176
     0
290
     0
176
     0
290
     0
176
     0
290
     0
176
     0
290
     0
176
     0
290
     0
176
     0
290
     0
176
     0
 90
       50
176
     0
 40
0.0
176
     0
 40
1.0
176
     0
 90
        0
176
     0
 62
    18
420
        0
176
     0
 90
       50
176
     0
 90
        3
176
     0
 62
     5
420
      255
176
     0
290
     0
176
     0
 90
       50
176
     0
 90
       50
176
     0
 90
       50
176
     0
290
     0
176
     0
 90
       50
176
     0
 62
   256
176
     0
 40
1.0
176
     0
 90
        2
176
     0
  1
strokes_ogs.tif
176
     0
290
     0
176
     0
 40
1.0
176
     0
 40
1.0
176
     0
  0
VISUALSTYLE
  5
38
102
{ACAD_REACTORS
330
2A
102
}
330
2A
100
AcDbVisualStyle
  2
Linepattern
 70
    14
177
     3
291
     1
 70
    58
 90
        2
176
     1
 90
        2
176
     1
 90
        0
176
     1
 90
        0
176
     1
 40
0.6
176
     1
 40
30.0
176
     1
 62
     7
420
 16777215
176
     1
 90
        1
176
     1
 90
        4
176
     1
 62
     7
176
     1
 62
   257
176
     1
 90
        7
176
     1
 90
        7
176
     1
 40
1.0
176
     1
 90
        8
176
     1
 62
     7
176
     1
 40
1.0
176
     1
 90
        1
176
     1
 90
        6
176
     1
 90
        2
176
     1
 62
     7
176
     1
 90
        5
176
     1
 90
        0
176
     1
 90
        0
176
     1
290
     0
176
     1
 90
        1
176
     1
 40
0.0
176
     1
 90
        0
176
     1
290
     0
176
     1
290
     1
176
     1
290
     1
176
     1
290
     0
176
     1
290
     0
176
     1
290
     0
176
     1
290
     0
176
     1
290
     0
176
     1
290
     0
176
     1
 90
       50
176
     1
 40
0.0
176
     1
 40
1.0
176
     1
 90
        0
176
     1
 62
    18
420
        0
176
     1
 90
       50
176
     1
 90
        3
176
     1
 62
     5
420
      255
176
     1
290
     0
176
     1
 90
       50
176
     1
 90
       50
176
     1
 90
       50
176
     1
290
     0
176
     1
 90
       50
176
     1
 62
   256
176
     0
 40
1.0
176
     0
 90
        2
176
     1
  1
strokes_ogs.tif
176
     1
290
     0
176
     1
 40
1.0
176
     1
 40
1.0
176
     1
  0
VISUALSTYLE
  5
3C
102
{ACAD_REACTORS
330
2A
102
}
330
2A
100
AcDbVisualStyle
  2
OverhangOff
 70
    21
177
     3
291
     1
 70
    58
 90
        2
176
     0
 90
        2
176
     0
 90
        0
176
     0
 90
        0
176
     0
 40
0.6
176
     0
 40
30.0
176
     0
 62
     7
420
 16777215
176
     0
 90
        1
176
     0
 90
        4
176
     0
 62
     7
176
     0
 62
   257
176
     0
 90
        1
176
     0
 90
        1
176
     0
 40
1.0
176
     0
 90
        9
176
     2
 62
     7
176
     0
 40
1.0
176
     0
 90
        1
176
     0
 90
        6
176
     0
 90
        2
176
     0
 62
     7
176
     0
 90
        5
176
     0
 90
        0
176
     0
 90
        0
176
     0
290
     0
176
     0
 90
        1
176
     0
 40
0.0
176
     0
 90
        0
176
     0
290
     0
176
     0
290
     1
176
     0
290
     1
176
     0
290
     0
176
     0
290
     0
176
     0
290
     0
176
     0
290
     0
176
     0
290
     0
176
     0
290
     0
176
     0
 90
       50
176
     0
 40
0.0
176
     0
 40
1.0
176
     0
 90
        0
176
     0
 62
    18
420
        0
176
     0
 90
       50
176
     0
 90
        3
176
     0
 62
     5
420
      255
176
     0
290
     0
176
     0
 90
       50
176
     0
 90
       50
176
     0
 90
       50
176
     0
290
     0
176
     0
 90
       50
176
     0
 62
   256
176
     0
 40
1.0
176
     0
 90
        2
176
     0
  1
strokes_ogs.tif
176
     0
290
     0
176
     0
 40
1.0
176
     0
 40
1.0
176
     0
  0
VISUALSTYLE
  5
33
102
{ACAD_REACTORS
330
2A
102
}
330
2A
100
AcDbVisualStyle
  2
Realistic
 70
     8
177
     3
291
     0
 70
    58
 90
        2
176
     1
 90
        3
176
     1
 90
        0
176
     1
 90
        2
176
     1
 40
0.6
176
     1
 40
30.0
176
     1
 62
     7
420
 16777215
176
     1
 90
        0
176
     1
 90
        0
176
     1
 62
     7
176
     1
 62
   257
176
     1
 90
        1
176
     1
 90
        1
176
     1
 40
1.0
176
     1
 90
        8
176
     1
 62
   257
176
     1
 40
1.0
176
     1
 90
        1
176
     1
 90
        6
176
     1
 90
        2
176
     1
 62
     7
176
     1
 90
        3
176
     1
 90
        0
176
     1
 90
        0
176
     1
290
     0
176
     1
 90
       13
176
     1
 40
0.0
176
     1
 90
        0
176
     1
290
     0
176
     1
290
     1
176
     1
290
     1
176
     1
290
     0
176
     1
290
     0
176
     1
290
     0
176
     1
290
     0
176
     1
290
     0
176
     1
290
     0
176
     1
 90
       50
176
     1
 40
0.0
176
     1
 40
1.0
176
     1
 90
        0
176
     1
 62
    18
420
        0
176
     1
 90
       50
176
     1
 90
        3
176
     1
 62
     5
420
      255
176
     1
290
     0
176
     1
 90
       50
176
     1
 90
       50
176
     1
 90
       50
176
     1
290
     0
176
     1
 90
       50
176
     1
 62
   256
176
     0
 40
1.0
176
     0
 90
        2
176
     1
  1
strokes_ogs.tif
176
     1
290
     0
176
     1
 40
1.0
176
     1
 40
1.0
176
     1
  0
VISUALSTYLE
  5
42
102
{ACAD_REACTORS
330
2A
102
}
330
2A
100
AcDbVisualStyle
  2
Shaded
 70
    27
177
     3
291
     0
 70
    58
 90
        2
176
     1
 90
        2
176
     1
 90
        1
176
     1
 90
        2
176
     1
 40
0.6
176
     1
 40
30.0
176
     1
 62
     7
420
 16777215
176
     1
 90
        0
176
     1
 90
        4
176
     1
 62
     7
176
     1
 62
   257
176
     1
 90
        1
176
     1
 90
        1
176
     1
 40
1.0
176
     1
 90
        8
176
     1
 62
   257
176
     1
 40
1.0
176
     1
 90
        1
176
     1
 90
        6
176
     1
 90
        2
176
     1
 62
     8
420
  7895160
176
     1
 90
        3
176
     1
 90
        0
176
     1
 90
        0
176
     1
290
     0
176
     1
 90
        5
176
     1
 40
0.0
176
     1
 90
        0
176
     1
290
     0
176
     1
290
     1
176
     1
290
     1
176
     1
290
     0
176
     1
290
     0
176
     1
290
     0
176
     1
290
     0
176
     1
290
     0
176
     1
290
     0
176
     1
 90
       50
176
     1
 40
0.0
176
     1
 40
1.0
176
     1
 90
        0
176
     1
 62
    18
420
        0
176
     1
 90
       50
176
     1
 90
        3
176
     1
 62
     5
420
      255
176
     1
290
     0
176
     1
 90
       50
176
     1
 90
       50
176
     1
 90
       50
176
     1
290
     0
176
     1
 90
       50
176
     1
 62
   256
176
     0
 40
1.0
176
     0
 90
        2
176
     1
  1
strokes_ogs.tif
176
     1
290
     0
176
     1
 40
1.0
176
     1
 40
1.0
176
     1
  0
VISUALSTYLE
  5
41
102
{ACAD_REACTORS
330
2A
102
}
330
2A
100
AcDbVisualStyle
  2
Shaded with edges
 70
    26
177
     3
291
     0
 70
    58
 90
        2
176
     1
 90
        2
176
     1
 90
        1
176
     1
 90
        2
176
     1
 40
0.6
176
     1
 40
30.0
176
     1
 62
     7
420
 16777215
176
     1
 90
        1
176
     1
 90
       10
176
     1
 62
     7
176
     1
 62
   257
176
     1
 90
        2
176
     1
 90
        1
176
     1
 40
1.0
176
     1
 90
        8
176
     1
 62
   257
176
     1
 40
1.0
176
     1
 90
        1
176
     1
 90
        6
176
     1
 90
        2
176
     1
 62
     7
176
     1
 90
        3
176
     1
 90
        0
176
     1
 90
        0
176
     1
290
     0
176
     1
 90
        5
176
     1
 40
0.0
176
     1
 90
        0
176
     1
290
     0
176
     1
290
     1
176
     1
290
     1
176
     1
290
     0
176
     1
290
     0
176
     1
290
     0
176
     1
290
     0
176
     1
290
     0
176
     1
290
     0
176
     1
 90
       50
176
     1
 40
0.0
176
     1
 40
1.0
176
     1
 90
        0
176
     1
 62
    18
420
        0
176
     1
 90
       50
176
     1
 90
        3
176
     1
 62
     5
420
      255
176
     1
290
     0
176
     1
 90
       50
176
     1
 90
       50
176
     1
 90
       50
176
     1
290
     0
176
     1
 90
       50
176
     1
 62
   256
176
     0
 40
1.0
176
     0
 90
        2
176
     1
  1
strokes_ogs.tif
176
     1
290
     0
176
     1
 40
1.0
176
     1
 40
1.0
176
     1
  0
VISUALSTYLE
  5
3E
102
{ACAD_REACTORS
330
2A
102
}
330
2A
100
AcDbVisualStyle
  2
Shades of Gray
 70
    23
177
     3
291
     0
 70
    58
 90
        2
176
     1
 90
        2
176
     1
 90
        3
176
     1
 90
        0
176
     1
 40
0.6
176
     1
 40
30.0
176
     1
 62
     7
420
 16777215
176
     1
 90
        2
176
     1
 90
        2
176
     1
 62
     7
176
     1
 62
     7
176
     1
 90
        1
176
     1
 90
        1
176
     1
 40
40.0
176
     1
 90
        8
176
     1
 62
     7
176
     1
 40
1.0
176
     1
 90
        1
176
     1
 90
        6
176
     1
 90
        2
176
     1
 62
     7
176
     1
 90
        3
176
     1
 90
        0
176
     1
 90
        0
176
     1
290
     0
176
     1
 90
        1
176
     1
 40
0.0
176
     1
 90
        0
176
     1
290
     0
176
     1
290
     1
176
     1
290
     1
176
     1
290
     0
176
     1
290
     0
176
     1
290
     0
176
     1
290
     0
176
     1
290
     0
176
     1
290
     0
176
     1
 90
       50
176
     1
 40
0.0
176
     1
 40
1.0
176
     1
 90
        0
176
     1
 62
    18
420
        0
176
     1
 90
       50
176
     1
 90
        3
176
     1
 62
     5
420
      255
176
     1
290
     0
176
     1
 90
       50
176
     1
 90
       50
176
     1
 90
       50
176
     1
290
     0
176
     1
 90
       50
176
     1
 62
   256
176
     0
 40
1.0
176
     0
 90
        2
176
     1
  1
strokes_ogs.tif
176
     1
290
     0
176
     1
 40
1.0
176
     1
 40
1.0
176
     1
  0
VISUALSTYLE
  5
3F
102
{ACAD_REACTORS
330
2A
102
}
330
2A
100
AcDbVisualStyle
  2
Sketchy
 70
    24
177
     3
291
     0
 70
    58
 90
        1
176
     1
 90
        2
176
     1
 90
        2
176
     1
 90
        0
176
     1
 40
0.6
176
     1
 40
30.0
176
     1
 62
     7
420
 16777215
176
     1
 90
        2
176
     1
 90
        2
176
     1
 62
     7
176
     1
 62
     7
176
     1
 90
        1
176
     1
 90
        1
176
     1
 40
40.0
176
     1
 90
       11
176
     1
 62
     7
176
     1
 40
1.0
176
     1
 90
        1
176
     1
 90
        6
176
     1
 90
        2
176
     1
 62
     7
176
     1
 90
        6
176
     1
 90
        0
176
     1
 90
        0
176
     1
290
     0
176
     1
 90
        1
176
     1
 40
0.0
176
     1
 90
        0
176
     1
290
     0
176
     1
290
     1
176
     1
290
     1
176
     1
290
     0
176
     1
290
     0
176
     1
290
     0
176
     1
290
     0
176
     1
290
     0
176
     1
290
     0
176
     1
 90
       50
176
     1
 40
0.0
176
     1
 40
1.0
176
     1
 90
        0
176
     1
 62
    18
420
        0
176
     1
 90
       50
176
     1
 90
        3
176
     1
 62
     5
420
      255
176
     1
290
     0
176
     1
 90
       50
176
     1
 90
       50
176
     1
 90
       50
176
     1
290
     0
176
     1
 90
       50
176
     1
 62
   256
176
     0
 40
1.0
176
     0
 90
        2
176
     1
  1
strokes_ogs.tif
176
     1
290
     0
176
     1
 40
1.0
176
     1
 40
1.0
176
     1
  0
VISUALSTYLE
  5
37
102
{ACAD_REACTORS
330
2A
102
}
330
2A
100
AcDbVisualStyle
  2
Thicken
 70
    13
177
     3
291
     1
 70
    58
 90
        2
176
     1
 90
        2
176
     1
 90
        0
176
     1
 90
        0
176
     1
 40
0.6
176
     1
 40
30.0
176
     1
 62
     7
420
 16777215
176
     1
 90
        1
176
     1
 90
        4
176
     1
 62
     7
176
     1
 62
   257
176
     1
 90
        1
176
     1
 90
        1
176
     1
 40
1.0
176
     1
 90
       12
176
     1
 62
     7
176
     1
 40
1.0
176
     1
 90
        1
176
     1
 90
        6
176
     1
 90
        2
176
     1
 62
     7
176
     1
 90
        5
176
     1
 90
        0
176
     1
 90
        0
176
     1
290
     0
176
     1
 90
        1
176
     1
 40
0.0
176
     1
 90
        0
176
     1
290
     0
176
     1
290
     1
176
     1
290
     1
176
     1
290
     0
176
     1
290
     0
176
     1
290
     0
176
     1
290
     0
176
     1
290
     0
176
     1
290
     0
176
     1
 90
       50
176
     1
 40
0.0
176
     1
 40
1.0
176
     1
 90
        0
176
     1
 62
    18
420
        0
176
     1
 90
       50
176
     1
 90
        3
176
     1
 62
     5
420
      255
176
     1
290
     0
176
     1
 90
       50
176
     1
 90
       50
176
     1
 90
       50
176
     1
290
     0
176
     1
 90
       50
176
     1
 62
   256
176
     0
 40
1.0
176
     0
 90
        2
176
     1
  1
strokes_ogs.tif
176
     1
290
     0
176
     1
 40
1.0
176
     1
 40
1.0
176
     1
  0
VISUALSTYLE
  5
30
102
{ACAD_REACTORS
330
2A
102
}
330
2A
100
AcDbVisualStyle
  2
Wireframe
 70
     5
177
     3
291
     0
 70
    58
 90
        0
176
     1
 90
        2
176
     1
 90
        0
176
     1
 90
        0
176
     1
 40
0.6
176
     1
 40
30.0
176
     1
 62
     7
420
 16777215
176
     1
 90
        1
176
     1
 90
        4
176
     1
 62
     7
176
     1
 62
   257
176
     1
 90
        1
176
     1
 90
        1
176
     1
 40
1.0
176
     1
 90
        0
176
     1
 62
   257
176
     1
 40
1.0
176
     1
 90
        1
176
     1
 90
        6
176
     1
 90
        2
176
     1
 62
     7
176
     1
 90
        3
176
     1
 90
        0
176
     1
 90
        0
176
     1
290
     0
176
     1
 90
        1
176
     1
 40
0.0
176
     1
 90
        0
176
     1
290
     0
176
     1
290
     1
176
     1
290
     1
176
     1
290
     0
176
     1
290
     0
176
     1
290
     0
176
     1
290
     0
176
     1
290
     0
176
     1
290
     0
176
     1
 90
       50
176
     1
 40
0.0
176
     1
 40
1.0
176
     1
 90
        0
176
     1
 62
    18
420
        0
176
     1
 90
       50
176
     1
 90
        3
176
     1
 62
     5
420
      255
176
     1
290
     0
176
     1
 90
       50
176
     1
 90
       50
176
     1
 90
       50
176
     1
290
     0
176
     1
 90
       50
176
     1
 62
   256
176
     0
 40
1.0
176
     0
 90
        2
176
     1
  1
strokes_ogs.tif
176
     1
290
     0
176
     1
 40
1.0
176
     1
 40
1.0
176
     1
  0
VISUALSTYLE
  5
40
102
{ACAD_REACTORS
330
2A
102
}
330
2A
100
AcDbVisualStyle
  2
X-Ray
 70
    25
177
     3
291
     0
 70
    58
 90
        2
176
     1
 90
        2
176
     1
 90
        1
176
     1
 90
        1
176
     1
 40
0.5
176
     1
 40
30.0
176
     1
 62
     7
420
 16777215
176
     1
 90
        1
176
     1
 90
        0
176
     1
 62
     7
176
     1
 62
   257
176
     1
 90
        1
176
     1
 90
        1
176
     1
 40
1.0
176
     1
 90
        8
176
     1
 62
     7
176
     1
 40
1.0
176
     1
 90
        1
176
     1
 90
        6
176
     1
 90
        2
176
     1
 62
     7
176
     1
 90
        3
176
     1
 90
        0
176
     1
 90
        0
176
     1
290
     0
176
     1
 90
       13
176
     1
 40
0.0
176
     1
 90
        0
176
     1
290
     0
176
     1
290
     1
176
     1
290
     1
176
     1
290
     0
176
     1
290
     0
176
     1
290
     0
176
     1
290
     0
176
     1
290
     0
176
     1
290
     0
176
     1
 90
       50
176
     1
 40
0.0
176
     1
 40
1.0
176
     1
 90
        0
176
     1
 62
    18
420
        0
176
     1
 90
       50
176
     1
 90
        3
176
     1
 62
     5
420
      255
176
     1
290
     0
176
     1
 90
       50
176
     1
 90
       50
176
     1
 90
       50
176
     1
290
     0
176
     1
 90
       50
176
     1
 62
   256
176
     0
 40
1.0
176
     0
 90
        2
176
     1
  1
strokes_ogs.tif
176
     1
290
     0
176
     1
 40
1.0
176
     1
 40
1.0
176
     1
  0
DICTIONARYVAR
  5
18D
102
{ACAD_REACTORS
330
18C
102
}
330
18C
100
DictionaryVariables
280
     0
  1
1:1
  0
DICTIONARYVAR
  5
192
102
{ACAD_REACTORS
330
18C
102
}
330
18C
100
DictionaryVariables
280
     0
  1
Standard
  0
DICTIONARYVAR
  5
191
102
{ACAD_REACTORS
330
18C
102
}
330
18C
100
DictionaryVariables
280
     0
  1
Standard
  0
DICTIONARY
  5
18E
330
6A
100
AcDbDictionary
280
     1
281
     1
  3
ACAD_ROUNDTRIP_2008_TABLESTYLE_CELLSTYLEMAP
360
18F
  0
CELLSTYLEMAP
  5
18F
102
{ACAD_REACTORS
330
18E
102
}
330
18E
100
AcDbCellStyleMap
 90
        3
300
CELLSTYLE
  1
TABLEFORMAT_BEGIN
 90
        5
170
     1
 91
        0
 92
    32768
 62
   257
 93
        1
300
CONTENTFORMAT
  1
CONTENTFORMAT_BEGIN
 90
        0
 91
        0
 92
        4
 93
        0
300

 40
0.0
140
1.0
 94
        5
 62
     0
340
11
144
6.0
309
CONTENTFORMAT_END
171
     1
301
MARGIN
  1
CELLMARGIN_BEGIN
 40
1.5
 40
1.5
 40
1.5
 40
1.5
 40
1.5
 40
1.5
309
CELLMARGIN_END
 94
        6
 95
        1
302
GRIDFORMAT
  1
GRIDFORMAT_BEGIN
 90
        0
 91
        1
 62
     0
 92
       -2
340
14
 93
        0
 40
0.045
309
GRIDFORMAT_END
 95
        2
302
GRIDFORMAT
  1
GRIDFORMAT_BEGIN
 90
        0
 91
        1
 62
     0
 92
       -2
340
14
 93
        0
 40
0.045
309
GRIDFORMAT_END
 95
        4
302
GRIDFORMAT
  1
GRIDFORMAT_BEGIN
 90
        0
 91
        1
 62
     0
 92
       -2
340
14
 93
        0
 40
0.045
309
GRIDFORMAT_END
 95
        8
302
GRIDFORMAT
  1
GRIDFORMAT_BEGIN
 90
        0
 91
        1
 62
     0
 92
       -2
340
14
 93
        0
 40
0.045
309
GRIDFORMAT_END
 95
       16
302
GRIDFORMAT
  1
GRIDFORMAT_BEGIN
 90
        0
 91
        1
 62
     0
 92
       -2
340
14
 93
        0
 40
0.045
309
GRIDFORMAT_END
 95
       32
302
GRIDFORMAT
  1
GRIDFORMAT_BEGIN
 90
        0
 91
        1
 62
     0
 92
       -2
340
14
 93
        0
 40
0.045
309
GRIDFORMAT_END
309
TABLEFORMAT_END
  1
CELLSTYLE_BEGIN
 90
        1
 91
        1
300
_TITLE
309
CELLSTYLE_END
300
CELLSTYLE
  1
TABLEFORMAT_BEGIN
 90
        5
170
     1
 91
        0
 92
        0
 62
   257
 93
        1
300
CONTENTFORMAT
  1
CONTENTFORMAT_BEGIN
 90
        0
 91
        0
 92
        4
 93
        0
300

 40
0.0
140
1.0
 94
        5
 62
     0
340
11
144
4.5
309
CONTENTFORMAT_END
171
     1
301
MARGIN
  1
CELLMARGIN_BEGIN
 40
1.5
 40
1.5
 40
1.5
 40
1.5
 40
1.5
 40
1.5
309
CELLMARGIN_END
 94
        6
 95
        1
302
GRIDFORMAT
  1
GRIDFORMAT_BEGIN
 90
        0
 91
        1
 62
     0
 92
       -2
340
14
 93
        0
 40
0.045
309
GRIDFORMAT_END
 95
        2
302
GRIDFORMAT
  1
GRIDFORMAT_BEGIN
 90
        0
 91
        1
 62
     0
 92
       -2
340
14
 93
        0
 40
0.045
309
GRIDFORMAT_END
 95
        4
302
GRIDFORMAT
  1
GRIDFORMAT_BEGIN
 90
        0
 91
        1
 62
     0
 92
       -2
340
14
 93
        0
 40
0.045
309
GRIDFORMAT_END
 95
        8
302
GRIDFORMAT
  1
GRIDFORMAT_BEGIN
 90
        0
 91
        1
 62
     0
 92
       -2
340
14
 93
        0
 40
0.045
309
GRIDFORMAT_END
 95
       16
302
GRIDFORMAT
  1
GRIDFORMAT_BEGIN
 90
        0
 91
        1
 62
     0
 92
       -2
340
14
 93
        0
 40
0.045
309
GRIDFORMAT_END
 95
       32
302
GRIDFORMAT
  1
GRIDFORMAT_BEGIN
 90
        0
 91
        1
 62
     0
 92
       -2
340
14
 93
        0
 40
0.045
309
GRIDFORMAT_END
309
TABLEFORMAT_END
  1
CELLSTYLE_BEGIN
 90
        2
 91
        1
300
_HEADER
309
CELLSTYLE_END
300
CELLSTYLE
  1
TABLEFORMAT_BEGIN
 90
        5
170
     1
 91
        0
 92
        0
 62
   257
 93
        1
300
CONTENTFORMAT
  1
CONTENTFORMAT_BEGIN
 90
        0
 91
        0
 92
        4
 93
        0
300

 40
0.0
140
1.0
 94
        2
 62
     0
340
11
144
4.5
309
CONTENTFORMAT_END
171
     1
301
MARGIN
  1
CELLMARGIN_BEGIN
 40
1.5
 40
1.5
 40
1.5
 40
1.5
 40
1.5
 40
1.5
309
CELLMARGIN_END
 94
        6
 95
        1
302
GRIDFORMAT
  1
GRIDFORMAT_BEGIN
 90
        0
 91
        1
 62
     0
 92
       -2
340
14
 93
        0
 40
0.045
309
GRIDFORMAT_END
 95
        2
302
GRIDFORMAT
  1
GRIDFORMAT_BEGIN
 90
        0
 91
        1
 62
     0
 92
       -2
340
14
 93
        0
 40
0.045
309
GRIDFORMAT_END
 95
        4
302
GRIDFORMAT
  1
GRIDFORMAT_BEGIN
 90
        0
 91
        1
 62
     0
 92
       -2
340
14
 93
        0
 40
0.045
309
GRIDFORMAT_END
 95
        8
302
GRIDFORMAT
  1
GRIDFORMAT_BEGIN
 90
        0
 91
        1
 62
     0
 92
       -2
340
14
 93
        0
 40
0.045
309
GRIDFORMAT_END
 95
       16
302
GRIDFORMAT
  1
GRIDFORMAT_BEGIN
 90
        0
 91
        1
 62
     0
 92
       -2
340
14
 93
        0
 40
0.045
309
GRIDFORMAT_END
 95
       32
302
GRIDFORMAT
  1
GRIDFORMAT_BEGIN
 90
        0
 91
        1
 62
     0
 92
       -2
340
14
 93
        0
 40
0.045
309
GRIDFORMAT_END
309
TABLEFORMAT_END
  1
CELLSTYLE_BEGIN
 90
        3
 91
        2
300
_DATA
309
CELLSTYLE_END
  0
ENDSEC
  0
EOF