0
SECTION
  2
HEADER
  9
$ACADVER
  1
AC1027
  9
$ACADMAINTVER
 70
     8
  9
$DWGCODEPAGE
  3
ANSI_1252
  9
$REQUIREDVERSIONS
160
                 0
  9
$COMMENTS
  1
File was created by Cadenas
  9
$CUSTOMPROPERTYTAG
  1
NN
  9
$CUSTOMPROPERTY
  1
Set Screw Two-Bolt Piloted Flange Metric Bore
  9
$CUSTOMPROPERTYTAG
  1
NT
  9
$CUSTOMPROPERTY
  1
SC 2 Bolt Flange Bearings -(Normal Duty)
  9
$CUSTOMPROPERTYTAG
  1
NB
  9
$CUSTOMPROPERTY
  1
130369
  9
$CUSTOMPROPERTYTAG
  1
NBSYN
  9
$CUSTOMPROPERTY
  1
$PN.
  9
$CUSTOMPROPERTYTAG
  1
LINA
  9
$CUSTOMPROPERTY
  1
130369
  9
$CUSTOMPROPERTYTAG
  1
SERIES
  9
$CUSTOMPROPERTY
  1
206
  9
$CUSTOMPROPERTYTAG
  1
SS
  9
$CUSTOMPROPERTY
  1
30
  9
$CUSTOMPROPERTYTAG
  1
PN
  9
$CUSTOMPROPERTY
  1
130369
  9
$CUSTOMPROPERTYTAG
  1
DESCRIPTION
  9
$CUSTOMPROPERTY
  1
F2BZ-SC-30M
  9
$CUSTOMPROPERTYTAG
  1
WEIGHT
  9
$CUSTOMPROPERTY
  1
0.8
  9
$CUSTOMPROPERTYTAG
  1
A
  9
$CUSTOMPROPERTY
  1
38.6
  9
$CUSTOMPROPERTYTAG
  1
B
  9
$CUSTOMPROPERTY
  1
141.2
  9
$CUSTOMPROPERTYTAG
  1
C
  9
$CUSTOMPROPERTY
  1
42.7
  9
$CUSTOMPROPERTYTAG
  1
D
  9
$CUSTOMPROPERTY
  1
116.6
  9
$CUSTOMPROPERTYTAG
  1
E
  9
$CUSTOMPROPERTY
  1
3.0
  9
$CUSTOMPROPERTYTAG
  1
F
  9
$CUSTOMPROPERTY
  1
M10
  9
$CUSTOMPROPERTYTAG
  1
G
  9
$CUSTOMPROPERTY
  1
39.6
  9
$CUSTOMPROPERTYTAG
  1
H
  9
$CUSTOMPROPERTY
  1
12.7
  9
$CUSTOMPROPERTYTAG
  1
J
  9
$CUSTOMPROPERTY
  1
12.4
  9
$CUSTOMPROPERTYTAG
  1
K
  9
$CUSTOMPROPERTY
  1
80.01 / 79.96
  9
$CUSTOMPROPERTYTAG
  1
L
  9
$CUSTOMPROPERTY
  1
39.9
  9
$CUSTOMPROPERTYTAG
  1
M
  9
$CUSTOMPROPERTY
  1
79.5
  9
$CUSTOMPROPERTYTAG
  1
N
  9
$CUSTOMPROPERTY
  1
39.6
  9
$CUSTOMPROPERTYTAG
  1
COMPANY
  9
$CUSTOMPROPERTY
  1
baldor
  9
$INSBASE
 10
0.0
 20
0.0
 30
0.0
  9
$EXTMIN
 10
1.000000000000000E+20
 20
1.000000000000000E+20
 30
1.000000000000000E+20
  9
$EXTMAX
 10
-1.000000000000000E+20
 20
-1.000000000000000E+20
 30
-1.000000000000000E+20
  9
$LIMMIN
 10
0.0
 20
0.0
  9
$LIMMAX
 10
420.0
 20
297.0
  9
$ORTHOMODE
 70
     0
  9
$REGENMODE
 70
     1
  9
$FILLMODE
 70
     1
  9
$QTEXTMODE
 70
     0
  9
$MIRRTEXT
 70
     1
  9
$LTSCALE
 40
1.0
  9
$ATTMODE
 70
     1
  9
$TEXTSIZE
 40
2.5
  9
$TRACEWID
 40
1.0
  9
$TEXTSTYLE
  7
Standard
  9
$CLAYER
  8
0
  9
$CELTYPE
  6
ByLayer
  9
$CECOLOR
 62
   256
  9
$CELTSCALE
 40
1.0
  9
$DISPSILH
 70
     0
  9
$DIMSCALE
 40
1.0
  9
$DIMASZ
 40
2.5
  9
$DIMEXO
 40
0.625
  9
$DIMDLI
 40
3.75
  9
$DIMRND
 40
0.0
  9
$DIMDLE
 40
0.0
  9
$DIMEXE
 40
1.25
  9
$DIMTP
 40
0.0
  9
$DIMTM
 40
0.0
  9
$DIMTXT
 40
2.5
  9
$DIMCEN
 40
2.5
  9
$DIMTSZ
 40
0.0
  9
$DIMTOL
 70
     0
  9
$DIMLIM
 70
     0
  9
$DIMTIH
 70
     0
  9
$DIMTOH
 70
     0
  9
$DIMSE1
 70
     0
  9
$DIMSE2
 70
     0
  9
$DIMTAD
 70
     1
  9
$DIMZIN
 70
     8
  9
$DIMBLK
  1

  9
$DIMASO
 70
     1
  9
$DIMSHO
 70
     1
  9
$DIMPOST
  1

  9
$DIMAPOST
  1

  9
$DIMALT
 70
     0
  9
$DIMALTD
 70
     3
  9
$DIMALTF
 40
0.03937007874016
  9
$DIMLFAC
 40
1.0
  9
$DIMTOFL
 70
     1
  9
$DIMTVP
 40
0.0
  9
$DIMTIX
 70
     0
  9
$DIMSOXD
 70
     0
  9
$DIMSAH
 70
     0
  9
$DIMBLK1
  1

  9
$DIMBLK2
  1

  9
$DIMSTYLE
  2
ISO-25
  9
$DIMCLRD
 70
     0
  9
$DIMCLRE
 70
     0
  9
$DIMCLRT
 70
     0
  9
$DIMTFAC
 40
1.0
  9
$DIMGAP
 40
0.625
  9
$DIMJUST
 70
     0
  9
$DIMSD1
 70
     0
  9
$DIMSD2
 70
     0
  9
$DIMTOLJ
 70
     0
  9
$DIMTZIN
 70
     8
  9
$DIMALTZ
 70
     0
  9
$DIMALTTZ
 70
     0
  9
$DIMUPT
 70
     0
  9
$DIMDEC
 70
     2
  9
$DIMTDEC
 70
     2
  9
$DIMALTU
 70
     2
  9
$DIMALTTD
 70
     3
  9
$DIMTXSTY
  7
Standard
  9
$DIMAUNIT
 70
     0
  9
$DIMADEC
 70
     0
  9
$DIMALTRND
 40
0.0
  9
$DIMAZIN
 70
     0
  9
$DIMDSEP
 70
    44
  9
$DIMATFIT
 70
     3
  9
$DIMFRAC
 70
     0
  9
$DIMLDRBLK
  1

  9
$DIMLUNIT
 70
     2
  9
$DIMLWD
 70
    -2
  9
$DIMLWE
 70
    -2
  9
$DIMTMOVE
 70
     0
  9
$DIMFXL
 40
1.0
  9
$DIMFXLON
 70
     0
  9
$DIMJOGANG
 40
0.7853981633974483
  9
$DIMTFILL
 70
     0
  9
$DIMTFILLCLR
 70
     0
  9
$DIMARCSYM
 70
     0
  9
$DIMLTYPE
  6

  9
$DIMLTEX1
  6

  9
$DIMLTEX2
  6

  9
$DIMTXTDIRECTION
 70
     0
  9
$LUNITS
 70
     2
  9
$LUPREC
 70
     4
  9
$SKETCHINC
 40
1.0
  9
$FILLETRAD
 40
10.0
  9
$AUNITS
 70
     0
  9
$AUPREC
 70
     0
  9
$MENU
  1
.
  9
$ELEVATION
 40
0.0
  9
$PELEVATION
 40
0.0
  9
$THICKNESS
 40
0.0
  9
$LIMCHECK
 70
     0
  9
$CHAMFERA
 40
0.0
  9
$CHAMFERB
 40
0.0
  9
$CHAMFERC
 40
0.0
  9
$CHAMFERD
 40
0.0
  9
$SKPOLY
 70
     0
  9
$TDCREATE
 40
2458168.987549977
  9
$TDUCREATE
 40
2458168.94588331
  9
$TDUPDATE
 40
2458168.987550162
  9
$TDUUPDATE
 40
2458168.945883495
  9
$TDINDWG
 40
0.0000000116
  9
$TDUSRTIMER
 40
0.0000000116
  9
$USRTIMER
 70
     1
  9
$ANGBASE
 50
0.0
  9
$ANGDIR
 70
     0
  9
$PDMODE
 70
     0
  9
$PDSIZE
 40
0.0
  9
$PLINEWID
 40
0.0
  9
$SPLFRAME
 70
     0
  9
$SPLINETYPE
 70
     6
  9
$SPLINESEGS
 70
     8
  9
$HANDSEED
  5
197
  9
$SURFTAB1
 70
     6
  9
$SURFTAB2
 70
     6
  9
$SURFTYPE
 70
     6
  9
$SURFU
 70
     6
  9
$SURFV
 70
     6
  9
$UCSBASE
  2

  9
$UCSNAME
  2

  9
$UCSORG
 10
0.0
 20
0.0
 30
0.0
  9
$UCSXDIR
 10
1.0
 20
0.0
 30
0.0
  9
$UCSYDIR
 10
0.0
 20
1.0
 30
0.0
  9
$UCSORTHOREF
  2

  9
$UCSORTHOVIEW
 70
     0
  9
$UCSORGTOP
 10
0.0
 20
0.0
 30
0.0
  9
$UCSORGBOTTOM
 10
0.0
 20
0.0
 30
0.0
  9
$UCSORGLEFT
 10
0.0
 20
0.0
 30
0.0
  9
$UCSORGRIGHT
 10
0.0
 20
0.0
 30
0.0
  9
$UCSORGFRONT
 10
0.0
 20
0.0
 30
0.0
  9
$UCSORGBACK
 10
0.0
 20
0.0
 30
0.0
  9
$PUCSBASE
  2

  9
$PUCSNAME
  2

  9
$PUCSORG
 10
0.0
 20
0.0
 30
0.0
  9
$PUCSXDIR
 10
1.0
 20
0.0
 30
0.0
  9
$PUCSYDIR
 10
0.0
 20
1.0
 30
0.0
  9
$PUCSORTHOREF
  2

  9
$PUCSORTHOVIEW
 70
     0
  9
$PUCSORGTOP
 10
0.0
 20
0.0
 30
0.0
  9
$PUCSORGBOTTOM
 10
0.0
 20
0.0
 30
0.0
  9
$PUCSORGLEFT
 10
0.0
 20
0.0
 30
0.0
  9
$PUCSORGRIGHT
 10
0.0
 20
0.0
 30
0.0
  9
$PUCSORGFRONT
 10
0.0
 20
0.0
 30
0.0
  9
$PUCSORGBACK
 10
0.0
 20
0.0
 30
0.0
  9
$USERI1
 70
     0
  9
$USERI2
 70
     0
  9
$USERI3
 70
     0
  9
$USERI4
 70
     0
  9
$USERI5
 70
     0
  9
$USERR1
 40
0.0
  9
$USERR2
 40
0.0
  9
$USERR3
 40
0.0
  9
$USERR4
 40
0.0
  9
$USERR5
 40
0.0
  9
$WORLDVIEW
 70
     1
  9
$SHADEDGE
 70
     3
  9
$SHADEDIF
 70
    70
  9
$TILEMODE
 70
     1
  9
$MAXACTVP
 70
    64
  9
$PINSBASE
 10
0.0
 20
0.0
 30
0.0
  9
$PLIMCHECK
 70
     0
  9
$PEXTMIN
 10
1.000000000000000E+20
 20
1.000000000000000E+20
 30
1.000000000000000E+20
  9
$PEXTMAX
 10
-1.000000000000000E+20
 20
-1.000000000000000E+20
 30
-1.000000000000000E+20
  9
$PLIMMIN
 10
0.0
 20
0.0
  9
$PLIMMAX
 10
420.0
 20
297.0
  9
$UNITMODE
 70
     0
  9
$VISRETAIN
 70
     1
  9
$PLINEGEN
 70
     0
  9
$PSLTSCALE
 70
     1
  9
$TREEDEPTH
 70
  3020
  9
$CMLSTYLE
  2
Standard
  9
$CMLJUST
 70
     0
  9
$CMLSCALE
 40
20.0
  9
$PROXYGRAPHICS
 70
     1
  9
$MEASUREMENT
 70
     1
  9
$CELWEIGHT
370
    -1
  9
$ENDCAPS
280
     0
  9
$JOINSTYLE
280
     0
  9
$LWDISPLAY
290
     0
  9
$INSUNITS
 70
     4
  9
$HYPERLINKBASE
  1

  9
$STYLESHEET
  1

  9
$XEDIT
290
     1
  9
$CEPSNTYPE
380
     0
  9
$PSTYLEMODE
290
     1
  9
$FINGERPRINTGUID
  2
{DA186434-C3CC-4F4D-A087-633A0328336D}
  9
$VERSIONGUID
  2
{FAEB1C32-E019-11D5-929B-00C0DF256EC4}
  9
$EXTNAMES
290
     1
  9
$PSVPSCALE
 40
0.0
  9
$OLESTARTUP
290
     0
  9
$SORTENTS
280
   127
  9
$INDEXCTL
280
     0
  9
$HIDETEXT
280
     1
  9
$XCLIPFRAME
280
     2
  9
$HALOGAP
280
     0
  9
$OBSCOLOR
 70
   257
  9
$OBSLTYPE
280
     0
  9
$INTERSECTIONDISPLAY
280
     0
  9
$INTERSECTIONCOLOR
 70
   257
  9
$DIMASSOC
280
     2
  9
$PROJECTNAME
  1

  9
$CAMERADISPLAY
290
     0
  9
$LENSLENGTH
 40
50.0
  9
$CAMERAHEIGHT
 40
0.0
  9
$STEPSPERSEC
 40
2.0
  9
$STEPSIZE
 40
6.0
  9
$3DDWFPREC
 40
2.0
  9
$PSOLWIDTH
 40
5.0
  9
$PSOLHEIGHT
 40
80.0
  9
$LOFTANG1
 40
1.570796326794897
  9
$LOFTANG2
 40
1.570796326794897
  9
$LOFTMAG1
 40
0.0
  9
$LOFTMAG2
 40
0.0
  9
$LOFTPARAM
 70
     7
  9
$LOFTNORMALS
280
     1
  9
$LATITUDE
 40
37.795
  9
$LONGITUDE
 40
-122.394
  9
$NORTHDIRECTION
 40
0.0
  9
$TIMEZONE
 70
 -8000
  9
$LIGHTGLYPHDISPLAY
280
     1
  9
$TILEMODELIGHTSYNCH
280
     1
  9
$CMATERIAL
347
44
  9
$SOLIDHIST
280
     0
  9
$SHOWHIST
280
     1
  9
$DWFFRAME
280
     2
  9
$DGNFRAME
280
     2
  9
$REALWORLDSCALE
290
     1
  9
$INTERFERECOLOR
 62
   256
  9
$CSHADOW
280
     0
  9
$SHADOWPLANELOCATION
 40
0.0
  0
ENDSEC
  0
SECTION
  2
CLASSES
  0
CLASS
  1
ACDBDICTIONARYWDFLT
  2
AcDbDictionaryWithDefault
  3
ObjectDBX Classes
 90
        0
 91
        4
280
     0
281
     0
  0
CLASS
  1
VISUALSTYLE
  2
AcDbVisualStyle
  3
ObjectDBX Classes
 90
     4095
 91
        4
280
     0
281
     0
  0
CLASS
  1
MATERIAL
  2
AcDbMaterial
  3
ObjectDBX Classes
 90
     1153
 91
        4
280
     0
281
     0
  0
CLASS
  1
SCALE
  2
AcDbScale
  3
ObjectDBX Classes
 90
     1153
 91
        4
280
     0
281
     0
  0
CLASS
  1
TABLESTYLE
  2
AcDbTableStyle
  3
ObjectDBX Classes
 90
     4095
 91
        4
280
     0
281
     0
  0
CLASS
  1
MLEADERSTYLE
  2
AcDbMLeaderStyle
  3
ACDB_MLEADERSTYLE_CLASS
 90
     4095
 91
        4
280
     0
281
     0
  0
CLASS
  1
SUN
  2
AcDbSun
  3
SCENEOE
 90
     1153
 91
        4
280
     0
281
     0
  0
CLASS
  1
DICTIONARYVAR
  2
AcDbDictionaryVar
  3
ObjectDBX Classes
 90
        0
 91
        4
280
     0
281
     0
  0
CLASS
  1
CELLSTYLEMAP
  2
AcDbCellStyleMap
  3
ObjectDBX Classes
 90
     1152
 91
        4
280
     0
281
     0
  0
ENDSEC
  0
SECTION
  2
TABLES
  0
TABLE
  2
VPORT
  5
8
330
0
100
AcDbSymbolTable
 70
     1
  0
VPORT
  5
29
330
8
100
AcDbSymbolTableRecord
100
AcDbViewportTableRecord
  2
*Active
 70
     0
 10
0.0
 20
0.0
 11
1.0
 21
1.0
 12
1.677537386519873
 22
-21.35000000000002
 13
0.0
 23
0.0
 14
10.0
 24
10.0
 15
10.0
 25
10.0
 16
0.0
 26
0.0
 36
1.0
 17
0.0
 27
0.0
 37
0.0
 40
47.90940000000003
 41
1.763999888717047
 42
50.0
 43
0.0
 44
0.0
 50
0.0
 51
0.0
 71
     0
 72
   100
 73
     1
 74
     3
 75
     0
 76
     0
 77
     0
 78
     0
281
     0
 65
     1
110
0.0
120
0.0
130
0.0
111
1.0
121
0.0
131
0.0
112
0.0
122
1.0
132
0.0
 79
     0
146
0.0
348
2F
 60
     3
 61
     5
292
     1
282
     1
141
0.0
142
0.0
 63
   250
361
6D
  0
ENDTAB
  0
TABLE
  2
LTYPE
  5
5
330
0
100
AcDbSymbolTable
 70
     3
  0
LTYPE
  5
14
330
5
100
AcDbSymbolTableRecord
100
AcDbLinetypeTableRecord
  2
ByBlock
 70
     0
  3

 72
    65
 73
     0
 40
0.0
  0
LTYPE
  5
15
330
5
100
AcDbSymbolTableRecord
100
AcDbLinetypeTableRecord
  2
ByLayer
 70
     0
  3

 72
    65
 73
     0
 40
0.0
  0
LTYPE
  5
16
330
5
100
AcDbSymbolTableRecord
100
AcDbLinetypeTableRecord
  2
Continuous
 70
     0
  3
Solid line
 72
    65
 73
     0
 40
0.0
  0
LTYPE
  5
97
330
5
100
AcDbSymbolTableRecord
100
AcDbLinetypeTableRecord
  2
Dashed
 70
     0
  3

 72
    65
 73
     2
 40
2.0
 49
1.0
 74
     0
 49
-1.0
 74
     0
  0
LTYPE
  5
16A
330
5
100
AcDbSymbolTableRecord
100
AcDbLinetypeTableRecord
  2
Center
 70
     0
  3

 72
    65
 73
     4
 40
1.5
 49
0.45
 74
     0
 49
-0.5
 74
     0
 49
0.05
 74
     0
 49
-0.5
 74
     0
  0
ENDTAB
  0
TABLE
  2
LAYER
  5
2
330
0
100
AcDbSymbolTable
 70
     6
  0
LAYER
  5
10
330
2
100
AcDbSymbolTableRecord
100
AcDbLayerTableRecord
  2
0
 70
     0
 62
     7
  6
Continuous
370
    -3
390
F
347
46
348
0
  0
LAYER
  5
72
330
2
100
AcDbSymbolTableRecord
100
AcDbLayerTableRecord
  2
AM_6
 70
     0
 62
    -2
  6
Continuous
370
    35
390
F
347
46
348
0
  0
LAYER
  5
98
330
2
100
AcDbSymbolTableRecord
100
AcDbLayerTableRecord
  2
AM_9
 70
     0
 62
     6
  6
Dashed
370
    25
390
F
347
46
348
0
  0
LAYER
  5
B5
330
2
100
AcDbSymbolTableRecord
100
AcDbLayerTableRecord
  2
AM_4
 70
     0
 62
     7
  6
Continuous
370
    50
390
F
347
46
348
0
  0
LAYER
  5
16B
330
2
100
AcDbSymbolTableRecord
100
AcDbLayerTableRecord
  2
AM_7
 70
     0
 62
     7
  6
Center
370
    25
390
F
347
46
348
0
  0
LAYER
  5
18A
330
2
100
AcDbSymbolTableRecord
100
AcDbLayerTableRecord
  2
ConnectionPoints
 70
     0
 62
     7
  6
Continuous
370
    50
390
F
347
46
348
0
  0
ENDTAB
  0
TABLE
  2
STYLE
  5
3
330
0
100
AcDbSymbolTable
 70
     1
  0
STYLE
  5
11
330
3
100
AcDbSymbolTableRecord
100
AcDbTextStyleTableRecord
  2
Standard
 70
     0
 40
0.0
 41
1.0
 50
0.0
 71
     0
 42
2.5
  3
txt
  4

  0
ENDTAB
  0
TABLE
  2
VIEW
  5
6
330
0
100
AcDbSymbolTable
 70
     0
  0
ENDTAB
  0
TABLE
  2
UCS
  5
7
330
0
100
AcDbSymbolTable
 70
     0
  0
ENDTAB
  0
TABLE
  2
APPID
  5
9
330
0
100
AcDbSymbolTable
 70
     1
  0
APPID
  5
12
330
9
100
AcDbSymbolTableRecord
100
AcDbRegAppTableRecord
  2
ACAD
 70
     0
  0
ENDTAB
  0
TABLE
  2
DIMSTYLE
  5
A
330
0
100
AcDbSymbolTable
 70
     1
100
AcDbDimStyleTable
  0
DIMSTYLE
105
27
330
A
100
AcDbSymbolTableRecord
100
AcDbDimStyleTableRecord
  2
ISO-25
 70
     0
 41
2.5
 42
0.625
 43
3.75
 44
1.25
 73
     0
 74
     0
 77
     1
 78
     8
140
2.5
141
2.5
143
0.03937007874016
147
0.625
171
     3
172
     1
178
     0
271
     2
272
     2
274
     3
278
    44
283
     0
284
     8
340
11
  0
ENDTAB
  0
TABLE
  2
BLOCK_RECORD
  5
1
330
0
100
AcDbSymbolTable
 70
     5
  0
BLOCK_RECORD
  5
1F
330
1
100
AcDbSymbolTableRecord
100
AcDbBlockTableRecord
  2
*Model_Space
340
22
 70
     0
280
     1
281
     0
  0
BLOCK_RECORD
  5
1B
330
1
100
AcDbSymbolTableRecord
100
AcDbBlockTableRecord
  2
*Paper_Space
340
1E
 70
     0
280
     1
281
     0
  0
BLOCK_RECORD
  5
23
330
1
100
AcDbSymbolTableRecord
100
AcDbBlockTableRecord
  2
*Paper_Space0
340
26
 70
     0
280
     1
281
     0
  0
BLOCK_RECORD
  5
6E
330
1
100
AcDbSymbolTableRecord
100
AcDbBlockTableRecord
  2
1_130369_4
340
0
102
{BLKREFS
331
6F
102
}
 70
     0
280
     1
281
     0
  0
BLOCK_RECORD
  5
8B
330
1
100
AcDbSymbolTableRecord
100
AcDbBlockTableRecord
  2
2_405015E_Metric_0_in_130369_4
340
0
102
{BLKREFS
331
8C
102
}
 70
     0
280
     1
281
     0
  0
BLOCK_RECORD
  5
D3
330
1
100
AcDbSymbolTableRecord
100
AcDbBlockTableRecord
  2
3_125806_0_in_130369_4
340
0
102
{BLKREFS
331
D4
102
}
 70
     0
280
     1
281
     0
  0
BLOCK_RECORD
  5
12C
330
1
100
AcDbSymbolTableRecord
100
AcDbBlockTableRecord
  2
4_130369H_0_in_130369_4
340
0
102
{BLKREFS
331
12D
102
}
 70
     0
280
     1
281
     0
  0
ENDTAB
  0
ENDSEC
  0
SECTION
  2
BLOCKS
  0
BLOCK
  5
20
330
1F
100
AcDbEntity
  8
0
100
AcDbBlockBegin
  2
*Model_Space
 70
     0
 10
0.0
 20
0.0
 30
0.0
  3
*Model_Space
  1

  0
ENDBLK
  5
21
330
1F
100
AcDbEntity
  8
0
100
AcDbBlockEnd
  0
BLOCK
  5
1C
330
1B
100
AcDbEntity
 67
     1
  8
0
100
AcDbBlockBegin
  2
*Paper_Space
 70
     0
 10
0.0
 20
0.0
 30
0.0
  3
*Paper_Space
  1

  0
ENDBLK
  5
1D
330
1B
100
AcDbEntity
 67
     1
  8
0
100
AcDbBlockEnd
  0
BLOCK
  5
24
330
23
100
AcDbEntity
  8
0
100
AcDbBlockBegin
  2
*Paper_Space0
 70
     0
 10
0.0
 20
0.0
 30
0.0
  3
*Paper_Space0
  1

  0
ENDBLK
  5
25
330
23
100
AcDbEntity
  8
0
100
AcDbBlockEnd
  0
BLOCK
  5
70
330
6E
100
AcDbEntity
  8
0
100
AcDbBlockBegin
  2
1_130369_4
 70
     2
 10
0.0
 20
0.0
 30
0.0
  3
1_130369_4
  1

  0
ATTDEF
  5
73
330
6E
100
AcDbEntity
  8
AM_6
100
AcDbText
 10
48.1050747730397
 20
2.134999999999986
 30
0.0
 40
0.5
  1
Set Screw Two-Bolt Piloted Flange Metric Bore
100
AcDbAttributeDefinition
  3

  2
NN
 70
     8
280
     0
  0
ATTDEF
  5
74
330
6E
100
AcDbEntity
  8
AM_6
100
AcDbText
 10
48.1050747730397
 20
1.634999999999986
 30
0.0
 40
0.5
  1
SC 2 Bolt Flange Bearings -(Normal Duty)
100
AcDbAttributeDefinition
  3

  2
NT
 70
     8
280
     0
  0
ATTDEF
  5
75
330
6E
100
AcDbEntity
  8
AM_6
100
AcDbText
 10
48.1050747730397
 20
1.134999999999986
 30
0.0
 40
0.5
  1
130369
100
AcDbAttributeDefinition
  3

  2
NB
 70
     8
280
     0
  0
ATTDEF
  5
76
330
6E
100
AcDbEntity
  8
AM_6
100
AcDbText
 10
48.1050747730397
 20
0.6349999999999856
 30
0.0
 40
0.5
  1
$PN.
100
AcDbAttributeDefinition
  3

  2
NBSYN
 70
     8
280
     0
  0
ATTDEF
  5
77
330
6E
100
AcDbEntity
  8
AM_6
100
AcDbText
 10
48.1050747730397
 20
0.1349999999999856
 30
0.0
 40
0.5
  1
130369
100
AcDbAttributeDefinition
  3

  2
LINA
 70
     8
280
     0
  0
ATTDEF
  5
78
330
6E
100
AcDbEntity
  8
AM_6
100
AcDbText
 10
48.1050747730397
 20
-0.3650000000000144
 30
0.0
 40
0.5
  1
206
100
AcDbAttributeDefinition
  3

  2
SERIES
 70
     8
280
     0
  0
ATTDEF
  5
79
330
6E
100
AcDbEntity
  8
AM_6
100
AcDbText
 10
48.1050747730397
 20
-0.8650000000000144
 30
0.0
 40
0.5
  1
30
100
AcDbAttributeDefinition
  3

  2
SS
 70
     8
280
     0
  0
ATTDEF
  5
7A
330
6E
100
AcDbEntity
  8
AM_6
100
AcDbText
 10
48.1050747730397
 20
-1.365000000000014
 30
0.0
 40
0.5
  1
130369
100
AcDbAttributeDefinition
  3

  2
PN
 70
     8
280
     0
  0
ATTDEF
  5
7B
330
6E
100
AcDbEntity
  8
AM_6
100
AcDbText
 10
48.1050747730397
 20
-1.865000000000014
 30
0.0
 40
0.5
  1
F2BZ-SC-30M
100
AcDbAttributeDefinition
  3

  2
DESCRIPTION
 70
     8
280
     0
  0
ATTDEF
  5
7C
330
6E
100
AcDbEntity
  8
AM_6
100
AcDbText
 10
48.1050747730397
 20
-2.365000000000014
 30
0.0
 40
0.5
  1
0.8
100
AcDbAttributeDefinition
  3

  2
WEIGHT
 70
     8
280
     0
  0
ATTDEF
  5
7D
330
6E
100
AcDbEntity
  8
AM_6
100
AcDbText
 10
48.1050747730397
 20
-2.865000000000014
 30
0.0
 40
0.5
  1
38.6
100
AcDbAttributeDefinition
  3

  2
A
 70
     8
280
     0
  0
ATTDEF
  5
7E
330
6E
100
AcDbEntity
  8
AM_6
100
AcDbText
 10
48.1050747730397
 20
-3.365000000000014
 30
0.0
 40
0.5
  1
141.2
100
AcDbAttributeDefinition
  3

  2
B
 70
     8
280
     0
  0
ATTDEF
  5
7F
330
6E
100
AcDbEntity
  8
AM_6
100
AcDbText
 10
48.1050747730397
 20
-3.865000000000014
 30
0.0
 40
0.5
  1
42.7
100
AcDbAttributeDefinition
  3

  2
C
 70
     8
280
     0
  0
ATTDEF
  5
80
330
6E
100
AcDbEntity
  8
AM_6
100
AcDbText
 10
48.1050747730397
 20
-4.365000000000014
 30
0.0
 40
0.5
  1
116.6
100
AcDbAttributeDefinition
  3

  2
D
 70
     8
280
     0
  0
ATTDEF
  5
81
330
6E
100
AcDbEntity
  8
AM_6
100
AcDbText
 10
48.1050747730397
 20
-4.865000000000014
 30
0.0
 40
0.5
  1
3.0
100
AcDbAttributeDefinition
  3

  2
E
 70
     8
280
     0
  0
ATTDEF
  5
82
330
6E
100
AcDbEntity
  8
AM_6
100
AcDbText
 10
48.1050747730397
 20
-5.365000000000014
 30
0.0
 40
0.5
  1
M10
100
AcDbAttributeDefinition
  3

  2
F
 70
     8
280
     0
  0
ATTDEF
  5
83
330
6E
100
AcDbEntity
  8
AM_6
100
AcDbText
 10
48.1050747730397
 20
-5.865000000000014
 30
0.0
 40
0.5
  1
39.6
100
AcDbAttributeDefinition
  3

  2
G
 70
     8
280
     0
  0
ATTDEF
  5
84
330
6E
100
AcDbEntity
  8
AM_6
100
AcDbText
 10
48.1050747730397
 20
-6.365000000000014
 30
0.0
 40
0.5
  1
12.7
100
AcDbAttributeDefinition
  3

  2
H
 70
     8
280
     0
  0
ATTDEF
  5
85
330
6E
100
AcDbEntity
  8
AM_6
100
AcDbText
 10
48.1050747730397
 20
-6.865000000000014
 30
0.0
 40
0.5
  1
12.4
100
AcDbAttributeDefinition
  3

  2
J
 70
     8
280
     0
  0
ATTDEF
  5
86
330
6E
100
AcDbEntity
  8
AM_6
100
AcDbText
 10
48.1050747730397
 20
-7.365000000000014
 30
0.0
 40
0.5
  1
80.01 / 79.96
100
AcDbAttributeDefinition
  3

  2
K
 70
     8
280
     0
  0
ATTDEF
  5
87
330
6E
100
AcDbEntity
  8
AM_6
100
AcDbText
 10
48.1050747730397
 20
-7.865000000000014
 30
0.0
 40
0.5
  1
39.9
100
AcDbAttributeDefinition
  3

  2
L
 70
     8
280
     0
  0
ATTDEF
  5
88
330
6E
100
AcDbEntity
  8
AM_6
100
AcDbText
 10
48.1050747730397
 20
-8.365000000000014
 30
0.0
 40
0.5
  1
79.5
100
AcDbAttributeDefinition
  3

  2
M
 70
     8
280
     0
  0
ATTDEF
  5
89
330
6E
100
AcDbEntity
  8
AM_6
100
AcDbText
 10
48.1050747730397
 20
-8.865000000000014
 30
0.0
 40
0.5
  1
39.6
100
AcDbAttributeDefinition
  3

  2
N
 70
     8
280
     0
  0
ATTDEF
  5
8A
330
6E
100
AcDbEntity
  8
AM_6
100
AcDbText
 10
48.1050747730397
 20
-9.365000000000014
 30
0.0
 40
0.5
  1
baldor
100
AcDbAttributeDefinition
  3

  2
COMPANY
 70
     8
280
     0
  0
INSERT
  5
8C
330
6E
100
AcDbEntity
  8
0
100
AcDbBlockReference
  2
2_405015E_Metric_0_in_130369_4
 10
0.0
 20
0.0
 30
0.0
  0
INSERT
  5
D4
330
6E
100
AcDbEntity
  8
0
100
AcDbBlockReference
  2
3_125806_0_in_130369_4
 10
0.0
 20
0.0
 30
0.0
  0
INSERT
  5
12D
330
6E
100
AcDbEntity
  8
0
100
AcDbBlockReference
  2
4_130369H_0_in_130369_4
 10
0.0
 20
0.0
 30
0.0
  0
ENDBLK
  5
71
330
6E
100
AcDbEntity
  8
0
100
AcDbBlockEnd
  0
BLOCK
  5
8D
330
8B
100
AcDbEntity
  8
0
100
AcDbBlockBegin
  2
2_405015E_Metric_0_in_130369_4
 70
     2
 10
0.0
 20
0.0
 30
0.0
  3
2_405015E_Metric_0_in_130369_4
  1

  0
ATTDEF
  5
8F
330
8B
100
AcDbEntity
  8
AM_6
100
AcDbText
 10
48.1050747730397
 20
-15.56666666666665
 30
0.0
 40
0.5
  1
405015E -Metric
100
AcDbAttributeDefinition
  3

  2
NN
 70
     8
280
     0
  0
ATTDEF
  5
90
330
8B
100
AcDbEntity
  8
AM_6
100
AcDbText
 10
48.1050747730397
 20
-16.06666666666665
 30
0.0
 40
0.5
  1
Grease Fitting
100
AcDbAttributeDefinition
  3

  2
NT
 70
     8
280
     0
  0
ATTDEF
  5
91
330
8B
100
AcDbEntity
  8
AM_6
100
AcDbText
 10
48.1050747730397
 20
-16.56666666666665
 30
0.0
 40
0.5
  1
405015E-Metric
100
AcDbAttributeDefinition
  3

  2
NB
 70
     8
280
     0
  0
ATTDEF
  5
92
330
8B
100
AcDbEntity
  8
AM_6
100
AcDbText
 10
48.1050747730397
 20
-17.06666666666665
 30
0.0
 40
0.5
  1
$MN.-Metric
100
AcDbAttributeDefinition
  3

  2
NBSYN
 70
     8
280
     0
  0
ATTDEF
  5
93
330
8B
100
AcDbEntity
  8
AM_6
100
AcDbText
 10
48.1050747730397
 20
-17.56666666666665
 30
0.0
 40
0.5
  1
405015E
100
AcDbAttributeDefinition
  3

  2
LINA
 70
     8
280
     0
  0
ATTDEF
  5
94
330
8B
100
AcDbEntity
  8
AM_6
100
AcDbText
 10
48.1050747730397
 20
-18.06666666666665
 30
0.0
 40
0.5
  1
405015E
100
AcDbAttributeDefinition
  3

  2
MN
 70
     8
280
     0
  0
ATTDEF
  5
95
330
8B
100
AcDbEntity
  8
AM_6
100
AcDbText
 10
48.1050747730397
 20
-18.56666666666665
 30
0.0
 40
0.5
  1
1/8 x 27PTF
100
AcDbAttributeDefinition
  3

  2
T
 70
     8
280
     0
  0
ATTDEF
  5
96
330
8B
100
AcDbEntity
  8
AM_6
100
AcDbText
 10
48.1050747730397
 20
-19.06666666666665
 30
0.0
 40
0.5
  1
baldor
100
AcDbAttributeDefinition
  3

  2
COMPANY
 70
     8
280
     0
  0
LWPOLYLINE
  5
99
330
8B
100
AcDbEntity
  8
AM_9
100
AcDbPolyline
 90
        3
 70
     0
 43
0.0
 10
38.92523546724392
 20
-20.56666666666666
 10
38.30968967081279
 20
-21.8110463300758
 10
37.75806019858001
 20
-23.06666666666667
  0
LWPOLYLINE
  5
9A
330
8B
100
AcDbEntity
  8
AM_9
100
AcDbPolyline
 90
        3
 70
     0
 43
0.0
 10
37.75806019858001
 20
-18.06666666666667
 10
38.3070534367012
 20
-19.31666666666666
 10
38.92523546724392
 20
-20.56666666666666
  0
ELLIPSE
  5
9B
330
8B
100
AcDbEntity
  8
AM_9
100
AcDbEllipse
 10
29.93666227593438
 20
-20.56666666666666
 30
0.0
 11
2.546036870355443E-16
 21
4.157993753183518
 31
0.0
210
0.0
220
0.0
230
1.0
 40
0.7071067811865487
 41
0.0
 42
6.283185307179586
  0
LINE
  5
9C
330
8B
100
AcDbEntity
  8
AM_9
100
AcDbLine
 10
40.75344672579506
 20
-20.56666666666666
 30
0.0
 11
38.92523546724392
 21
-20.56666666666666
 31
0.0
  0
LWPOLYLINE
  5
9D
330
8B
100
AcDbEntity
  8
AM_9
100
AcDbPolyline
 90
        4
 70
     0
 43
0.0
 10
36.8839940149246
 20
-15.56666666666666
 10
37.05921103017562
 20
-16.1342530489203
 10
37.38586425393052
 20
-17.09757209900908
 10
37.75806019858001
 20
-18.06666666666667
  0
LWPOLYLINE
  5
9E
330
8B
100
AcDbEntity
  8
AM_9
100
AcDbPolyline
 90
        3
 70
     0
 43
0.0
 10
37.75806019858001
 20
-23.06666666666667
 10
37.28643271054154
 20
-24.31666666666666
 10
36.8839940149246
 20
-25.56666666666666
  0
LWPOLYLINE
  5
9F
330
8B
100
AcDbEntity
  8
AM_9
100
AcDbPolyline
 90
        3
 70
     0
 43
0.0
 10
39.87938054213965
 20
-23.06666666666666
 10
40.35100803017811
 20
-21.81666666666667
 10
40.75344672579506
 20
-20.56666666666666
  0
LWPOLYLINE
  5
A0
330
8B
100
AcDbEntity
  8
AM_9
100
AcDbPolyline
 90
        3
 70
     0
 43
0.0
 10
40.75344672579506
 20
-20.56666666666666
 10
40.35296078167664
 20
-19.32228700325753
 10
39.87938054213965
 20
-18.06666666666667
  0
LINE
  5
A1
330
8B
100
AcDbEntity
  8
AM_9
100
AcDbLine
 10
39.87938054213965
 20
-18.06666666666667
 30
0.0
 11
39.62228249006345
 21
-17.45960127397252
 31
0.0
  0
LINE
  5
A2
330
8B
100
AcDbEntity
  8
AM_9
100
AcDbLine
 10
39.6189180955743
 20
-23.68139912417652
 30
0.0
 11
39.87938054213965
 21
-23.06666666666666
 31
0.0
  0
LINE
  5
A3
330
8B
100
AcDbEntity
  8
AM_9
100
AcDbLine
 10
30.25580774602922
 20
-25.32237206680284
 30
0.0
 11
34.58682011316839
 21
-25.51388068785237
 31
0.0
  0
LINE
  5
A4
330
8B
100
AcDbEntity
  8
AM_9
100
AcDbLine
 10
34.58682011316839
 20
-15.61945264548095
 30
0.0
 11
30.25580774602922
 21
-15.81096126653048
 31
0.0
  0
LINE
  5
A5
330
8B
100
AcDbEntity
  8
AM_9
100
AcDbLine
 10
39.3167405860337
 20
-18.08943674681108
 30
0.0
 11
38.84517893516872
 21
-17.81768954995173
 31
0.0
  0
LINE
  5
A6
330
8B
100
AcDbEntity
  8
AM_9
100
AcDbLine
 10
38.84517893516871
 20
-23.3156437833816
 30
0.0
 11
39.3167405860337
 21
-23.04389658652224
 31
0.0
  0
ELLIPSE
  5
A7
330
8B
100
AcDbEntity
  8
AM_9
100
AcDbEllipse
 10
38.60296298615637
 20
-20.5666666666679
 30
0.0
 11
-4.913895281576230E-16
 21
-2.674999999998626
 31
0.0
210
0.0
220
0.0
230
1.0
 40
0.7071067811866806
 41
0.0
 42
3.141592653589793
  0
LINE
  5
A8
330
8B
100
AcDbEntity
  8
AM_9
100
AcDbLine
 10
39.59720739407062
 20
-18.57673783393415
 30
0.0
 11
39.33338792218375
 21
-18.16008024921272
 31
0.0
  0
LINE
  5
A9
330
8B
100
AcDbEntity
  8
AM_9
100
AcDbLine
 10
39.33338792218375
 20
-22.97325308412061
 30
0.0
 11
39.59720739407062
 21
-22.55659549939918
 31
0.0
  0
ELLIPSE
  5
AA
330
8B
100
AcDbEntity
  8
AM_9
100
AcDbEllipse
 10
38.02583183319204
 20
-20.56666666666666
 30
0.0
 11
-5.479672885901687E-16
 21
-2.982994982562509
 31
0.0
210
0.0
220
0.0
230
1.0
 40
0.7071067811865519
 41
0.3869422381883885
 42
2.754650415401405
  0
ELLIPSE
  5
AB
330
8B
100
AcDbEntity
  8
AM_9
100
AcDbEllipse
 10
36.81751836366013
 20
-20.56666666666719
 30
0.0
 11
-9.184850993606846E-16
 21
-5.000000000000924
 31
0.0
210
0.0
220
0.0
230
1.0
 40
0.7071067811865477
 41
0.8982051386271381
 42
2.24338751496269
  0
LINE
  5
AC
330
8B
100
AcDbEntity
  8
AM_9
100
AcDbLine
 10
38.71963560505249
 20
-23.24166666666666
 30
0.0
 11
39.0979377329873
 21
-23.24166666666666
 31
0.0
  0
LINE
  5
AD
330
8B
100
AcDbEntity
  8
AM_9
100
AcDbLine
 10
39.0979377329873
 20
-17.89166666666666
 30
0.0
 11
38.7196356050525
 21
-17.89166666666666
 31
0.0
  0
ELLIPSE
  5
AE
330
8B
100
AcDbEntity
  8
AM_9
100
AcDbEllipse
 10
39.09793773298726
 20
-20.56666666666676
 30
0.0
 11
-4.913895281578586E-16
 21
-2.674999999999908
 31
0.0
210
0.0
220
0.0
230
1.0
 40
0.7071067811865488
 41
5.888394187479832
 42
9.81956908046911
  0
ELLIPSE
  5
AF
330
8B
100
AcDbEntity
  8
AM_9
100
AcDbEllipse
 10
37.4329927827561
 20
-20.56666666666596
 30
0.0
 11
-6.627024103769935E-16
 21
-3.607583894602062
 31
0.0
210
0.0
220
0.0
230
1.0
 40
0.7071067811866869
 41
0.6633833151890718
 42
2.478209338400478
  0
ELLIPSE
  5
B0
330
8B
100
AcDbEntity
  8
AM_9
100
AcDbEllipse
 10
36.8175183636607
 20
-20.56666666666667
 30
0.0
 11
-8.725608443924878E-16
 21
-4.749999999999993
 31
0.0
210
0.0
220
0.0
230
1.0
 40
0.7071067811865454
 41
0.873648289948056
 42
2.267944363641508
  0
ELLIPSE
  5
B1
330
8B
100
AcDbEntity
  8
AM_9
100
AcDbEllipse
 10
40.01717654852982
 20
-20.56666666666666
 30
0.0
 11
-5.832380380939251E-16
 21
-3.17499999999999
 31
0.0
210
0.0
220
0.0
230
1.0
 40
0.7071067811865492
 41
0.4159140521025417
 42
2.725678601487252
  0
ELLIPSE
  5
B2
330
8B
100
AcDbEntity
  8
AM_9
100
AcDbEllipse
 10
34.69619802010106
 20
-20.56666666666666
 30
0.0
 11
-9.184850993605174E-16
 21
-5.000000000000014
 31
0.0
210
0.0
220
0.0
230
1.0
 40
0.7071067811865498
 41
0.0
 42
6.283185307179586
  0
ELLIPSE
  5
B3
330
8B
100
AcDbEntity
  8
AM_9
100
AcDbEllipse
 10
34.69619802010104
 20
-20.56666666666666
 30
0.0
 11
-9.092325864233675E-16
 21
-4.949631665534969
 31
0.0
210
0.0
220
0.0
230
1.0
 40
0.7071067811865467
 41
0.0
 42
6.283185307179586
  0
ELLIPSE
  5
B4
330
8B
100
AcDbEntity
  8
AM_9
100
AcDbEllipse
 10
30.36095159071184
 20
-20.56666666666667
 30
0.0
 11
-8.740358316248928E-16
 21
-4.758029456511764
 31
0.0
210
0.0
220
0.0
230
1.0
 40
0.7071067811865474
 41
0.0
 42
6.283185307179586
  0
LWPOLYLINE
  5
B6
330
8B
100
AcDbEntity
  8
AM_4
100
AcDbPolyline
 90
        4
 70
     0
 43
0.0
 10
39.62228249006345
 20
-17.45960127397252
 10
39.46163079386125
 20
-17.10045985779348
 10
39.00042059871596
 20
-16.1342530489203
 10
38.71220527347574
 20
-15.56666666666666
  0
LWPOLYLINE
  5
B7
330
8B
100
AcDbEntity
  8
AM_4
100
AcDbPolyline
 90
        3
 70
     0
 43
0.0
 10
38.71220527347574
 20
-25.56666666666666
 10
39.32775106990687
 20
-24.32228700325753
 10
39.6189180955743
 20
-23.68139912417652
  0
LINE
  5
B8
330
8B
100
AcDbEntity
  8
AM_4
100
AcDbLine
 10
38.71220527347574
 20
-25.56666666666666
 30
0.0
 11
32.80151111028597
 21
-25.56666666666666
 31
0.0
  0
LWPOLYLINE
  5
B9
330
8B
100
AcDbEntity
  8
AM_4
100
AcDbPolyline
 90
        3
 70
     0
 43
0.0
 10
33.75565618518171
 20
-23.06666666666666
 10
34.22728367322017
 20
-24.31666666666666
 10
34.62972236883711
 20
-25.56666666666666
  0
LWPOLYLINE
  5
BA
330
8B
100
AcDbEntity
  8
AM_4
100
AcDbPolyline
 90
        4
 70
     0
 43
0.0
 10
31.63433584162206
 20
-23.06666666666666
 10
31.26318103398642
 20
-22.10045985779348
 10
30.93548667321767
 20
-21.1342530489203
 10
30.76026965796666
 20
-20.56666666666666
  0
LWPOLYLINE
  5
BB
330
8B
100
AcDbEntity
  8
AM_4
100
AcDbPolyline
 90
        3
 70
     0
 43
0.0
 10
32.80151111028597
 20
-25.56666666666666
 10
32.18596531385484
 20
-24.32228700325753
 10
31.63433584162206
 20
-23.06666666666666
  0
LWPOLYLINE
  5
BC
330
8B
100
AcDbEntity
  8
AM_4
100
AcDbPolyline
 90
        4
 70
     0
 43
0.0
 10
32.5884809165178
 20
-20.56666666666666
 10
32.876696241758
 20
-21.1342530489203
 10
33.33658972874314
 20
-22.09757209900908
 10
33.75565618518171
 20
-23.06666666666666
  0
LINE
  5
BD
330
8B
100
AcDbEntity
  8
AM_4
100
AcDbLine
 10
38.84517893516872
 20
-17.81768954995173
 30
0.0
 11
38.82179258051861
 21
-17.80421267728986
 31
0.0
  0
LINE
  5
BE
330
8B
100
AcDbEntity
  8
AM_4
100
AcDbLine
 10
38.82179258051861
 20
-23.32912065604346
 30
0.0
 11
38.84517893516871
 21
-23.3156437833816
 31
0.0
  0
ELLIPSE
  5
BF
330
8B
100
AcDbEntity
  8
AM_4
100
AcDbEllipse
 10
38.02583183319205
 20
-20.56666666666666
 30
0.0
 11
-5.479672885901700E-16
 21
-2.982994982562516
 31
0.0
210
0.0
220
0.0
230
1.0
 40
0.7071067811865479
 41
2.754650415401411
 42
6.670127545367968
  0
ELLIPSE
  5
C0
330
8B
100
AcDbEntity
  8
AM_4
100
AcDbEllipse
 10
37.43299278275726
 20
-20.56666666666667
 30
0.0
 11
-6.627024103768193E-16
 21
-3.607583894601113
 31
0.0
210
0.0
220
0.0
230
1.0
 40
0.7071067811865479
 41
2.478209338400864
 42
6.946568622368517
  0
ELLIPSE
  5
C1
330
8B
100
AcDbEntity
  8
AM_4
100
AcDbEllipse
 10
36.81751836366063
 20
-20.56666666666666
 30
0.0
 11
-9.184850993605038E-16
 21
-4.99999999999994
 31
0.0
210
0.0
220
0.0
230
1.0
 40
0.7071067811865476
 41
2.243387514962695
 42
7.181390445806555
  0
LINE
  5
C2
330
8B
100
AcDbEntity
  8
AM_4
100
AcDbLine
 10
38.60296298615671
 20
-23.24166666666666
 30
0.0
 11
38.71963560505249
 21
-23.24166666666666
 31
0.0
  0
LINE
  5
C3
330
8B
100
AcDbEntity
  8
AM_4
100
AcDbLine
 10
38.7196356050525
 20
-17.89166666666666
 30
0.0
 11
38.60296298615671
 21
-17.89166666666666
 31
0.0
  0
ELLIPSE
  5
C4
330
8B
100
AcDbEntity
  8
AM_4
100
AcDbEllipse
 10
38.60296298615671
 20
-20.56666666666666
 30
0.0
 11
-4.913895281578750E-16
 21
-2.674999999999997
 31
0.0
210
0.0
220
0.0
230
1.0
 40
0.7071067811865492
 41
3.141592653589793
 42
6.283185307179586
  0
LINE
  5
C5
330
8B
100
AcDbEntity
  8
AM_4
100
AcDbLine
 10
32.5884809165178
 20
-20.56666666666666
 30
0.0
 11
30.76026965796666
 21
-20.56666666666666
 31
0.0
  0
LWPOLYLINE
  5
C6
330
8B
100
AcDbEntity
  8
AM_4
100
AcDbPolyline
 90
        3
 70
     0
 43
0.0
 10
33.75565618518171
 20
-18.06666666666666
 10
33.20666294706052
 20
-19.31666666666666
 10
32.5884809165178
 20
-20.56666666666666
  0
LWPOLYLINE
  5
C7
330
8B
100
AcDbEntity
  8
AM_4
100
AcDbPolyline
 90
        3
 70
     0
 43
0.0
 10
34.62972236883711
 20
-15.56666666666666
 10
34.22923642471869
 20
-16.8110463300758
 10
33.75565618518171
 20
-18.06666666666666
  0
LINE
  5
C8
330
8B
100
AcDbEntity
  8
AM_4
100
AcDbLine
 10
38.71220527347574
 20
-15.56666666666666
 30
0.0
 11
32.80151111028597
 21
-15.56666666666666
 31
0.0
  0
LWPOLYLINE
  5
C9
330
8B
100
AcDbEntity
  8
AM_4
100
AcDbPolyline
 90
        3
 70
     0
 43
0.0
 10
31.63433584162206
 20
-18.06666666666666
 10
32.18332907974325
 20
-16.81666666666666
 10
32.80151111028597
 20
-15.56666666666666
  0
LWPOLYLINE
  5
CA
330
8B
100
AcDbEntity
  8
AM_4
100
AcDbPolyline
 90
        3
 70
     0
 43
0.0
 10
30.76026965796666
 20
-20.56666666666666
 10
31.16075560208508
 20
-19.32228700325753
 10
31.63433584162206
 20
-18.06666666666666
  0
ELLIPSE
  5
CB
330
8B
100
AcDbEntity
  8
AM_4
100
AcDbEllipse
 10
36.81751836366068
 20
-20.56666666666666
 30
0.0
 11
-8.725608443924897E-16
 21
-4.750000000000004
 31
0.0
210
0.0
220
0.0
230
1.0
 40
0.7071067811865482
 41
2.267944363641502
 42
7.156833597127644
  0
LINE
  5
CC
330
8B
100
AcDbEntity
  8
AM_4
100
AcDbLine
 10
38.37043364080498
 20
-23.03589743589743
 30
0.0
 11
39.15369038304239
 21
-23.49743589743589
 31
0.0
  0
LINE
  5
CD
330
8B
100
AcDbEntity
  8
AM_4
100
AcDbLine
 10
39.15369038304239
 20
-17.63589743589743
 30
0.0
 11
38.37043364080498
 21
-18.09743589743589
 31
0.0
  0
ELLIPSE
  5
CE
330
8B
100
AcDbEntity
  8
AM_4
100
AcDbEllipse
 10
40.01717654852982
 20
-20.56666666666666
 30
0.0
 11
-5.832380380939264E-16
 21
-3.174999999999997
 31
0.0
210
0.0
220
0.0
230
1.0
 40
0.7071067811865498
 41
2.725678601487254
 42
6.699099359282127
  0
ELLIPSE
  5
CF
330
8B
100
AcDbEntity
  8
AM_4
100
AcDbEllipse
 10
39.09793773298732
 20
-20.56666666666666
 30
0.0
 11
-4.913895281578782E-16
 21
-2.675000000000015
 31
0.0
210
0.0
220
0.0
230
1.0
 40
0.7071067811865498
 41
3.536383773289565
 42
5.888394187479816
  0
LINE
  5
D0
330
8B
100
AcDbEntity
  8
AM_4
100
AcDbLine
 10
42.10760260818422
 20
-18.40150754697476
 30
0.0
 11
40.92424129543696
 21
-17.66234366640714
 31
0.0
  0
LINE
  5
D1
330
8B
100
AcDbEntity
  8
AM_4
100
AcDbLine
 10
40.92424129543696
 20
-23.47098966692619
 30
0.0
 11
42.10760260818422
 21
-22.73182578635857
 31
0.0
  0
ELLIPSE
  5
D2
330
8B
100
AcDbEntity
  8
AM_4
100
AcDbEllipse
 10
41.43139011090291
 20
-20.56666666666666
 30
0.0
 11
-4.348012108217413E-16
 21
-2.366947548329673
 31
0.0
210
0.0
220
0.0
230
1.0
 40
0.7071067811865479
 41
0.0
 42
6.283185307179586
  0
ENDBLK
  5
8E
330
8B
100
AcDbEntity
  8
0
100
AcDbBlockEnd
  0
BLOCK
  5
D5
330
D3
100
AcDbEntity
  8
0
100
AcDbBlockBegin
  2
3_125806_0_in_130369_4
 70
     2
 10
0.0
 20
0.0
 30
0.0
  3
3_125806_0_in_130369_4
  1

  0
ATTDEF
  5
D7
330
D3
100
AcDbEntity
  8
AM_6
100
AcDbText
 10
35.98953406218637
 20
-4.100000000000001
 30
0.0
 40
0.5
  1
Set Screw Insert Metric Bore - Stainless Steel
100
AcDbAttributeDefinition
  3

  2
NN
 70
     8
280
     0
  0
ATTDEF
  5
D8
330
D3
100
AcDbEntity
  8
AM_6
100
AcDbText
 10
35.98953406218637
 20
-4.600000000000001
 30
0.0
 40
0.5
  1
SC Bearing Insert -Metric
100
AcDbAttributeDefinition
  3

  2
NT
 70
     8
280
     0
  0
ATTDEF
  5
D9
330
D3
100
AcDbEntity
  8
AM_6
100
AcDbText
 10
35.98953406218637
 20
-5.100000000000001
 30
0.0
 40
0.5
  1
125806
100
AcDbAttributeDefinition
  3

  2
NB
 70
     8
280
     0
  0
ATTDEF
  5
DA
330
D3
100
AcDbEntity
  8
AM_6
100
AcDbText
 10
35.98953406218637
 20
-5.600000000000001
 30
0.0
 40
0.5
  1
$PN.
100
AcDbAttributeDefinition
  3

  2
NBSYN
 70
     8
280
     0
  0
ATTDEF
  5
DB
330
D3
100
AcDbEntity
  8
AM_6
100
AcDbText
 10
35.98953406218637
 20
-6.100000000000001
 30
0.0
 40
0.5
  1
125806
100
AcDbAttributeDefinition
  3

  2
LINA
 70
     8
280
     0
  0
ATTDEF
  5
DC
330
D3
100
AcDbEntity
  8
AM_6
100
AcDbText
 10
35.98953406218637
 20
-6.600000000000001
 30
0.0
 40
0.5
  1
206
100
AcDbAttributeDefinition
  3

  2
SERIES
 70
     8
280
     0
  0
ATTDEF
  5
DD
330
D3
100
AcDbEntity
  8
AM_6
100
AcDbText
 10
35.98953406218637
 20
-7.100000000000001
 30
0.0
 40
0.5
  1
30
100
AcDbAttributeDefinition
  3

  2
SS
 70
     8
280
     0
  0
ATTDEF
  5
DE
330
D3
100
AcDbEntity
  8
AM_6
100
AcDbText
 10
35.98953406218637
 20
-7.600000000000001
 30
0.0
 40
0.5
  1
125806
100
AcDbAttributeDefinition
  3

  2
PN
 70
     8
280
     0
  0
ATTDEF
  5
DF
330
D3
100
AcDbEntity
  8
AM_6
100
AcDbText
 10
35.98953406218637
 20
-8.100000000000001
 30
0.0
 40
0.5
  1
INS-SC-30
100
AcDbAttributeDefinition
  3

  2
DESCRIPTION
 70
     8
280
     0
  0
ATTDEF
  5
E0
330
D3
100
AcDbEntity
  8
AM_6
100
AcDbText
 10
35.98953406218637
 20
-8.600000000000001
 30
0.0
 40
0.5
  1
0.27
100
AcDbAttributeDefinition
  3

  2
WEIGHT
 70
     8
280
     0
  0
ATTDEF
  5
E1
330
D3
100
AcDbEntity
  8
AM_6
100
AcDbText
 10
35.98953406218637
 20
-9.100000000000001
 30
0.0
 40
0.5
  1
38.6
100
AcDbAttributeDefinition
  3

  2
A
 70
     8
280
     0
  0
ATTDEF
  5
E2
330
D3
100
AcDbEntity
  8
AM_6
100
AcDbText
 10
35.98953406218637
 20
-9.600000000000001
 30
0.0
 40
0.5
  1
17.5
100
AcDbAttributeDefinition
  3

  2
C
 70
     8
280
     0
  0
ATTDEF
  5
E3
330
D3
100
AcDbEntity
  8
AM_6
100
AcDbText
 10
35.98953406218637
 20
-10.1
 30
0.0
 40
0.5
  1
62
100
AcDbAttributeDefinition
  3

  2
D
 70
     8
280
     0
  0
ATTDEF
  5
E4
330
D3
100
AcDbEntity
  8
AM_6
100
AcDbText
 10
35.98953406218637
 20
-10.6
 30
0.0
 40
0.5
  1
4.1
100
AcDbAttributeDefinition
  3

  2
J
 70
     8
280
     0
  0
ATTDEF
  5
E5
330
D3
100
AcDbEntity
  8
AM_6
100
AcDbText
 10
35.98953406218637
 20
-11.1
 30
0.0
 40
0.5
  1
39.9
100
AcDbAttributeDefinition
  3

  2
L
 70
     8
280
     0
  0
ATTDEF
  5
E6
330
D3
100
AcDbEntity
  8
AM_6
100
AcDbText
 10
35.98953406218637
 20
-11.6
 30
0.0
 40
0.5
  1
M8 x 1.25
100
AcDbAttributeDefinition
  3

  2
N
 70
     8
280
     0
  0
ATTDEF
  5
E7
330
D3
100
AcDbEntity
  8
AM_6
100
AcDbText
 10
35.98953406218637
 20
-12.1
 30
0.0
 40
0.5
  1
14.7
100
AcDbAttributeDefinition
  3

  2
W
 70
     8
280
     0
  0
ATTDEF
  5
E8
330
D3
100
AcDbEntity
  8
AM_6
100
AcDbText
 10
35.98953406218637
 20
-12.6
 30
0.0
 40
0.5
  1
23.9
100
AcDbAttributeDefinition
  3

  2
Y
 70
     8
280
     0
  0
ATTDEF
  5
E9
330
D3
100
AcDbEntity
  8
AM_6
100
AcDbText
 10
35.98953406218637
 20
-13.1
 30
0.0
 40
0.5
  1
baldor
100
AcDbAttributeDefinition
  3

  2
COMPANY
 70
     8
280
     0
  0
LINE
  5
EA
330
D3
100
AcDbEntity
  8
AM_9
100
AcDbLine
 10
9.640190424079497
 20
-38.44850000000001
 30
0.0
 11
12.56320942296968
 21
-38.44850000000001
 31
0.0
  0
LINE
  5
EB
330
D3
100
AcDbEntity
  8
AM_9
100
AcDbLine
 10
12.56320942296968
 20
-31.80150000000001
 30
0.0
 11
9.64090389717991
 21
-31.80150000000001
 31
0.0
  0
LWPOLYLINE
  5
EC
330
D3
100
AcDbEntity
  8
AM_9
100
AcDbPolyline
 90
       21
 70
     0
 43
0.0
 10
9.641984492066296
 20
-38.44849999256058
 10
9.374165525359539
 20
-38.43043613398176
 10
8.948139707778274
 20
-38.32856504216059
 10
8.530145300581026
 20
-38.14085849840968
 10
8.130691372122131
 20
-37.86944275541383
 10
7.765855004737307
 20
-37.5240521077943
 10
7.442474335385877
 20
-37.10351717529627
 10
7.180325292302932
 20
-36.62663534627723
 10
6.990584811530694
 20
-36.10396219479451
 10
6.881364378542603
 20
-35.55232580328374
 10
6.858748020741447
 20
-34.99955193798014
 10
6.919215133607518
 20
-34.45038861546433
 10
7.059123110516373
 20
-33.92715943233926
 10
7.271509029450072
 20
-33.43687854138425
 10
7.553676573345479
 20
-32.98632595573133
 10
7.891163641340716
 20
-32.59465991440366
 10
8.280166842696504
 20
-32.26758606369773
 10
8.70037242554549
 20
-32.02159432395997
 10
9.13469250167171
 20
-31.86606311370235
 10
9.57145040460716
 20
-31.80276305937175
 10
9.641540523148898
 20
-31.80150001919377
  0
LWPOLYLINE
  5
ED
330
D3
100
AcDbEntity
  8
AM_9
100
AcDbPolyline
 90
       11
 70
     0
 43
0.0
 10
9.641540523148898
 20
-31.80150001919377
 10
9.987814524554349
 20
-31.83349965767009
 10
10.38203121611989
 20
-31.95360907198765
 10
10.74268819087009
 20
-32.15973151512372
 10
11.06433976936696
 20
-32.44498557855351
 10
11.34572980865705
 20
-32.81016918047404
 10
11.5766230039661
 20
-33.23969233292536
 10
11.75538366162111
 20
-33.72984509221867
 10
11.87696005846571
 20
-34.26094250526744
 10
11.93022818771867
 20
-34.68905303774196
 10
11.94811774260652
 20
-35.125
  0
LINE
  5
EE
330
D3
100
AcDbEntity
  8
AM_9
100
AcDbLine
 10
14.48888739433603
 20
-38.44850000000001
 30
0.0
 11
18.87890846035815
 21
-38.44850000000001
 31
0.0
  0
LINE
  5
EF
330
D3
100
AcDbEntity
  8
AM_9
100
AcDbLine
 10
18.87890846035815
 20
-31.80150000000001
 30
0.0
 11
14.4872823275179
 21
-31.80150000000001
 31
0.0
  0
LWPOLYLINE
  5
F0
330
D3
100
AcDbEntity
  8
AM_9
100
AcDbPolyline
 90
       21
 70
     0
 43
0.0
 10
14.48879554379839
 20
-31.80150001894554
 10
14.45824657926563
 20
-31.80354926311012
 10
14.29978773568902
 20
-31.87057537900523
 10
14.13490333968682
 20
-32.02221656680818
 10
13.9596828114208
 20
-32.26253517679293
 10
13.78934503346242
 20
-32.57679676762797
 10
13.62615020593932
 20
-32.97078615762226
 10
13.48564139128366
 20
-33.4215866450653
 10
13.37212899511251
 20
-33.93593232289392
 10
13.29989009379267
 20
-34.46710246520144
 10
13.26917791401033
 20
-35.03417500798545
 10
13.28320818407802
 20
-35.57527561863562
 10
13.34054560393357
 20
-36.11901888043266
 10
13.43374215216764
 20
-36.61830512757751
 10
13.56185240203648
 20
-37.089671306945
 10
13.71358508585408
 20
-37.50358587159068
 10
13.88585115365056
 20
-37.86168409769089
 10
14.06211832820107
 20
-38.13767474288166
 10
14.24104245146679
 20
-38.33408431447293
 10
14.36873126540464
 20
-38.41922626620063
 10
14.48888739433603
 20
-38.44850000000001
  0
LINE
  5
F1
330
D3
100
AcDbEntity
  8
AM_9
100
AcDbLine
 10
18.64842255843696
 20
-38.3269697217416
 30
0.0
 11
18.98423574253818
 21
-38.6878244720867
 31
0.0
  0
LINE
  5
F2
330
D3
100
AcDbEntity
  8
AM_9
100
AcDbLine
 10
18.98371229465118
 20
-31.56273800927356
 30
0.0
 11
18.64842255843696
 21
-31.92303027825842
 31
0.0
  0
ELLIPSE
  5
F3
330
D3
100
AcDbEntity
  8
AM_9
100
AcDbEllipse
 10
18.87890846035845
 20
-35.12499999999942
 30
0.0
 11
-6.105170455450444E-16
 21
-3.3235000000006
 31
0.0
210
0.0
220
0.0
230
1.0
 40
0.2588190451025355
 41
3.228458288991057
 42
6.182590834146165
  0
LWPOLYLINE
  5
F4
330
D3
100
AcDbEntity
  8
AM_9
100
AcDbPolyline
 90
       20
 70
     0
 43
0.0
 10
14.48888739433603
 20
-38.44850000000001
 10
14.61982680793237
 20
-38.40391778114149
 10
14.73176798818366
 20
-38.26637716804961
 10
14.81749509253345
 20
-38.04795744564193
 10
14.88321573596555
 20
-37.74282881997654
 10
14.92848286697937
 20
-37.3700239428011
 10
14.95856250249339
 20
-36.92269886856528
 10
14.97594582301616
 20
-36.4316896549601
 10
14.98520187793047
 20
-35.88674424345376
 10
14.98866876091281
 20
-35.34387993029382
 10
14.98822930351824
 20
-34.77823541646375
 10
14.98384669156968
 20
-34.24863166949605
 10
14.97359115002008
 20
-33.72893321111763
 10
14.95501302446919
 20
-33.25771016174458
 10
14.92336639763085
 20
-32.82567409305801
 10
14.87530928372159
 20
-32.45992664990059
 10
14.8048090722226
 20
-32.16025405797981
 10
14.713072300845
 20
-31.95164786407272
 10
14.59377878059691
 20
-31.82918316365994
 10
14.48879554379839
 20
-31.80150001894554
  0
LWPOLYLINE
  5
F5
330
D3
100
AcDbEntity
  8
AM_9
100
AcDbPolyline
 90
       11
 70
     0
 43
0.0
 10
11.94811774260652
 20
-35.125
 10
11.91946527094866
 20
-35.67519628773038
 10
11.83452268355266
 20
-36.20969293294464
 10
11.69382321051083
 20
-36.71273012240864
 10
11.49959959311391
 20
-37.17184005419094
 10
11.24933087163867
 20
-37.58017346697117
 10
10.94969179287708
 20
-37.92010313810921
 10
10.60078391065967
 20
-38.18364036522198
 10
10.21323999905921
 20
-38.35991861708143
 10
9.802519195920217
 20
-38.44142641511376
 10
9.641984492066296
 20
-38.44849999256058
  0
LINE
  5
F6
330
D3
100
AcDbEntity
  8
AM_9
100
AcDbLine
 10
15.0
 20
-41.902
 30
0.0
 11
15.0
 21
-4.897999999999996
 31
0.0
  0
LINE
  5
F7
330
D3
100
AcDbEntity
  8
AM_9
100
AcDbLine
 10
-15.0
 20
-4.897999999999996
 30
0.0
 11
-15.0
 21
-41.902
 31
0.0
  0
LINE
  5
F8
330
D3
100
AcDbEntity
  8
AM_9
100
AcDbLine
 10
-15.0
 20
-41.902
 30
0.0
 11
-15.79800000000003
 21
-42.7
 31
0.0
  0
LINE
  5
F9
330
D3
100
AcDbEntity
  8
AM_9
100
AcDbLine
 10
15.79800000000003
 20
-42.7
 30
0.0
 11
15.0
 21
-41.902
 31
0.0
  0
LINE
  5
FA
330
D3
100
AcDbEntity
  8
AM_9
100
AcDbLine
 10
15.0
 20
-4.897999999999996
 30
0.0
 11
15.79800000000003
 21
-4.100000000000001
 31
0.0
  0
LINE
  5
FB
330
D3
100
AcDbEntity
  8
AM_9
100
AcDbLine
 10
-15.79800000000003
 20
-4.100000000000001
 30
0.0
 11
-15.0
 21
-4.897999999999996
 31
0.0
  0
LWPOLYLINE
  5
FC
330
D3
100
AcDbEntity
  8
AM_9
100
AcDbPolyline
 90
       39
 70
     0
 43
0.0
 10
12.70070731510818
 20
-31.40045649090516
 10
12.27069201432058
 20
-31.47817389743712
 10
11.84871880215974
 20
-31.64964879935463
 10
11.46600816021252
 20
-31.89511257559725
 10
11.11299872398367
 20
-32.21051147436192
 10
10.7782733554667
 20
-32.61531959209562
 10
10.49596798983385
 20
-33.07683360967444
 10
10.25773765734026
 20
-33.62748048162749
 10
10.09532224270107
 20
-34.21527320830425
 10
10.0118666122049
 20
-34.86158056203153
 10
10.02058400292726
 20
-35.51501428604107
 10
10.12580400806155
 20
-36.171761470466
 10
10.3237598292779
 20
-36.79857343467135
 10
10.60717016857708
 20
-37.37182260820241
 10
10.96698460182319
 20
-37.87791572382653
 10
11.37203598651904
 20
-38.27980514109822
 10
11.82230207796838
 20
-38.58628676663876
 10
12.26040721548353
 20
-38.76871218797882
 10
12.70755466430172
 20
-38.84998387378208
 10
13.11412828807679
 20
-38.82987875378984
 10
13.50352779142374
 20
-38.72100720780646
 10
13.86015614970986
 20
-38.53024310719349
 10
14.18337617977716
 20
-38.2650362052083
 10
14.48177784511933
 20
-37.91403646738097
 10
14.73406482464111
 20
-37.50143133505937
 10
14.95269822450011
 20
-36.99702753967451
 10
15.1135981494618
 20
-36.4477354408293
 10
15.2206572430563
 20
-35.82565493883887
 10
15.26075801188903
 20
-35.18510458409557
 10
15.23108763198146
 20
-34.52135645969158
 10
15.12984130654927
 20
-33.87458974485659
 10
14.95600477852657
 20
-33.26246974379193
 10
14.71121555544885
 20
-32.70523098598544
 10
14.40683069028599
 20
-32.23650759889238
 10
14.04100190916773
 20
-31.85551170839292
 10
13.65215442318092
 20
-31.59744861201908
 10
13.22538114508214
 20
-31.44142463471792
 10
12.96582521631022
 20
-31.40198820862049
 10
12.70070672171593
 20
-31.40045608434201
  0
LINE
  5
FD
330
D3
100
AcDbEntity
  8
AM_9
100
AcDbLine
 10
19.95000000000003
 20
-30.3
 30
0.0
 11
19.95000000000003
 21
-27.55
 31
0.0
  0
LINE
  5
FE
330
D3
100
AcDbEntity
  8
AM_9
100
AcDbLine
 10
-19.95000000000003
 20
-27.55
 30
0.0
 11
-19.95000000000003
 21
-30.3
 31
0.0
  0
LINE
  5
FF
330
D3
100
AcDbEntity
  8
AM_9
100
AcDbLine
 10
19.95000000000003
 20
-10.05
 30
0.0
 11
19.95000000000003
 21
-4.898000000000001
 31
0.0
  0
LINE
  5
100
330
D3
100
AcDbEntity
  8
AM_9
100
AcDbLine
 10
-19.95000000000003
 20
-4.898000000000001
 30
0.0
 11
-19.95000000000003
 21
-10.05
 31
0.0
  0
LINE
  5
101
330
D3
100
AcDbEntity
  8
AM_9
100
AcDbLine
 10
-19.152
 20
-4.100000000000001
 30
0.0
 11
4.375313853398085
 21
-4.100000000000001
 31
0.0
  0
LINE
  5
102
330
D3
100
AcDbEntity
  8
AM_9
100
AcDbLine
 10
-19.152
 20
-4.100000000000001
 30
0.0
 11
-19.95000000000004
 21
-4.898000000000001
 31
0.0
  0
LINE
  5
103
330
D3
100
AcDbEntity
  8
AM_9
100
AcDbLine
 10
19.95000000000003
 20
-4.898000000000001
 30
0.0
 11
19.152
 21
-4.100000000000001
 31
0.0
  0
LINE
  5
104
330
D3
100
AcDbEntity
  8
AM_9
100
AcDbLine
 10
-19.95000000000004
 20
-4.898000000000001
 30
0.0
 11
19.95000000000003
 21
-4.898000000000001
 31
0.0
  0
LINE
  5
105
330
D3
100
AcDbEntity
  8
AM_9
100
AcDbLine
 10
-7.999861394077914
 20
-16.45000000000001
 30
0.0
 11
-7.9916828686795
 21
-16.45000000000001
 31
0.0
  0
LINE
  5
106
330
D3
100
AcDbEntity
  8
AM_9
100
AcDbLine
 10
-7.825698560318423
 20
-12.95
 30
0.0
 11
-7.999861394077914
 21
-12.95
 31
0.0
  0
LWPOLYLINE
  5
107
330
D3
100
AcDbEntity
  8
AM_9
100
AcDbPolyline
 90
        8
 70
     0
 43
0.0
 10
-6.575092692460164
 20
-15.70348371278167
 10
-6.646770924528718
 20
-15.79668731263402
 10
-6.855073250273395
 20
-16.01204008775895
 10
-7.094424659817421
 20
-16.18999753387355
 10
-7.354588470175284
 20
-16.32288536179591
 10
-7.631060496645373
 20
-16.41003967871049
 10
-7.912869729894644
 20
-16.44791094821568
 10
-7.991714037623938
 20
-16.4499999902641
  0
LWPOLYLINE
  5
108
330
D3
100
AcDbEntity
  8
AM_9
100
AcDbPolyline
 90
       15
 70
     0
 43
0.0
 10
-7.825267243932064
 20
-12.95000000480478
 10
-7.724802627231802
 20
-12.95329233356913
 10
-7.449454658314343
 20
-12.994393719527
 10
-7.188892264859865
 20
-13.08198378942732
 10
-6.948474355788517
 20
-13.21281594949225
 10
-6.733060992726248
 20
-13.38530678055372
 10
-6.550169453151521
 20
-13.59286360832501
 10
-6.402514405341843
 20
-13.83468185187416
 10
-6.296967283668237
 20
-14.10004488047985
 10
-6.236042920404758
 20
-14.38698986498584
 10
-6.22292432841836
 20
-14.68281510586865
 10
-6.25914146433312
 20
-14.98181296560259
 10
-6.343487284059275
 20
-15.27300790302163
 10
-6.473981076748355
 20
-15.54691450654468
 10
-6.575092692460164
 20
-15.70348371278167
  0
LWPOLYLINE
  5
109
330
D3
100
AcDbEntity
  8
AM_9
100
AcDbPolyline
 90
       14
 70
     0
 43
0.0
 10
-8.217288092533478
 20
-16.43428171480434
 10
-8.467702164659594
 20
-16.37814701750424
 10
-8.725113422308251
 20
-16.27308456578903
 10
-8.960164788966502
 20
-16.12421149257238
 10
-9.166103283954488
 20
-15.9367095831256
 10
-9.338272789285865
 20
-15.71342420241923
 10
-9.470608994622708
 20
-15.46274789711917
 10
-9.560003429825503
 20
-15.18773410803962
 10
-9.602783148591339
 20
-14.89954910929287
 10
-9.596924617230371
 20
-14.6021592491686
 10
-9.542471641091188
 20
-14.30768978698362
 10
-9.439347647893388
 20
-14.0223782531303
 10
-9.291241773034747
 20
-13.75643445289398
 10
-9.036044331522737
 20
-13.45112532644319
  0
LINE
  5
10A
330
D3
100
AcDbEntity
  8
AM_9
100
AcDbLine
 10
-7.991714037623938
 20
-16.4499999902641
 30
0.0
 11
-8.17277242175439
 21
-16.43990531563809
 31
0.0
  0
ELLIPSE
  5
10B
330
D3
100
AcDbEntity
  8
AM_9
100
AcDbEllipse
 10
-8.411618965831925
 20
-14.7
 30
0.0
 11
9.741508629581278E-18
 21
0.1590909090909101
 31
0.0
210
0.0
220
0.0
230
1.0
 40
0.9659258262890733
 41
0.0
 42
6.283185307179586
  0
LWPOLYLINE
  5
10C
330
D3
100
AcDbEntity
  8
AM_9
100
AcDbPolyline
 90
        9
 70
     0
 43
0.0
 10
-9.430458112369095
 20
-15.70160915378697
 10
-9.323560778159871
 20
-15.83995061861444
 10
-9.159813415136414
 20
-16.00717655471614
 10
-8.97529116596117
 20
-16.15092341272594
 10
-8.773436839313868
 20
-16.26856727840822
 10
-8.558016020633357
 20
-16.35802641350726
 10
-8.333017678167954
 20
-16.41779697450425
 10
-8.102554750000591
 20
-16.44696578547227
 10
-8.005106086489322
 20
-16.44999209274371
  0
LWPOLYLINE
  5
10D
330
D3
100
AcDbEntity
  8
AM_9
100
AcDbPolyline
 90
       19
 70
     0
 43
0.0
 10
-7.9883378174503
 20
-12.95003817368758
 10
-8.04474964525971
 20
-12.9505793247433
 10
-8.275238369239364
 20
-12.97193671632758
 10
-8.500407780354093
 20
-13.02357038708524
 10
-8.716398763528494
 20
-13.10440600790599
 10
-8.91956924428192
 20
-13.2129114201796
 10
-9.106530092854403
 20
-13.34713880401601
 10
-9.274176260479857
 20
-13.50476405507671
 10
-9.419712937700563
 20
-13.68312188737285
 10
-9.540680079770794
 20
-13.87923656996559
 10
-9.63497843572285
 20
-14.0898495808212
 10
-9.700899518361505
 20
-14.3114467944052
 10
-9.737160711195804
 20
-14.54028892170365
 10
-9.742944959833878
 20
-14.77244953430055
 10
-9.717942417201474
 20
-15.00386485011922
 10
-9.662392335057007
 20
-15.23038891935963
 10
-9.5771114340879
 20
-15.44789264448411
 10
-9.463505329354382
 20
-15.65235259569582
 10
-9.430458112369095
 20
-15.70160915378697
  0
ELLIPSE
  5
10E
330
D3
100
AcDbEntity
  8
AM_9
100
AcDbEllipse
 10
-7.999861394078054
 20
-14.69999999999983
 30
0.0
 11
-3.214697847761492E-16
 21
-1.749999999999831
 31
0.0
210
0.0
220
0.0
230
1.0
 40
0.9659258262890591
 41
6.186719868447003
 42
12.44611852244013
  0
LINE
  5
10F
330
D3
100
AcDbEntity
  8
AM_9
100
AcDbLine
 10
29.25
 20
-23.65666666666667
 30
0.0
 11
29.25
 21
-21.32333333333333
 31
0.0
  0
LINE
  5
110
330
D3
100
AcDbEntity
  8
AM_9
100
AcDbLine
 10
-29.25
 20
-21.32333333333333
 30
0.0
 11
-29.25
 21
-23.65666666666667
 31
0.0
  0
LINE
  5
111
330
D3
100
AcDbEntity
  8
AM_9
100
AcDbLine
 10
-28.77802961806125
 20
-10.05
 30
0.0
 11
28.77802961806125
 21
-10.05
 31
0.0
  0
ARC
  5
112
330
D3
100
AcDbEntity
  8
AM_9
100
AcDbCircle
 10
28.77802961806125
 20
-10.75000000000001
 30
0.0
 40
0.7000000000000096
100
AcDbArc
 50
21.41247027384557
 51
90.0
  0
ARC
  5
113
330
D3
100
AcDbEntity
  8
AM_9
100
AcDbCircle
 10
-28.77802961806125
 20
-10.75000000000001
 30
0.0
 40
0.70000000000001
100
AcDbArc
 50
90.0
 51
158.5875297261544
  0
LINE
  5
114
330
D3
100
AcDbEntity
  8
AM_9
100
AcDbLine
 10
-28.77802961806126
 20
-27.55
 30
0.0
 11
28.77802961806126
 21
-27.55
 31
0.0
  0
ARC
  5
115
330
D3
100
AcDbEntity
  8
AM_9
100
AcDbCircle
 10
28.77802961806126
 20
-26.85
 30
0.0
 40
0.6999999999999993
100
AcDbArc
 50
270.0
 51
338.5875329531161
  0
ARC
  5
116
330
D3
100
AcDbEntity
  8
AM_9
100
AcDbCircle
 10
-28.77802961806126
 20
-26.85
 30
0.0
 40
0.6999999999999985
100
AcDbArc
 50
201.4124670468839
 51
270.0
  0
LINE
  5
117
330
D3
100
AcDbEntity
  8
AM_9
100
AcDbLine
 10
-29.42971309799971
 20
-27.10555555555556
 30
0.0
 11
29.42971309799971
 21
-27.10555555555556
 31
0.0
  0
ARC
  5
118
330
D3
100
AcDbEntity
  8
AM_9
100
AcDbCircle
 10
8.250000000001652
 20
-18.80000000000055
 30
0.0
 40
22.74999999999827
100
AcDbArc
 50
338.5875329531157
 51
347.6736410797011
  0
ARC
  5
119
330
D3
100
AcDbEntity
  8
AM_9
100
AcDbCircle
 10
-8.250000000001062
 20
-18.80000000000037
 30
0.0
 40
22.74999999999888
100
AcDbArc
 50
192.326358920299
 51
201.4124670468842
  0
LINE
  5
11A
330
D3
100
AcDbEntity
  8
AM_9
100
AcDbLine
 10
-30.47555486121525
 20
-23.65666666666667
 30
0.0
 11
30.47555486121525
 21
-23.65666666666667
 31
0.0
  0
LINE
  5
11B
330
D3
100
AcDbEntity
  8
AM_9
100
AcDbLine
 10
-7.898400068600965
 20
-12.95162906082451
 30
0.0
 11
-7.825267243932064
 21
-12.95000000480478
 31
0.0
  0
LWPOLYLINE
  5
11C
330
D3
100
AcDbEntity
  8
AM_9
100
AcDbPolyline
 90
        6
 70
     0
 43
0.0
 10
-9.036044331522737
 20
-13.45112532644319
 10
-8.809661227280346
 20
-13.26518463328963
 10
-8.557860980006792
 20
-13.1183727385662
 10
-8.28711188456995
 20
-13.01570594634767
 10
-8.00558265395297
 20
-12.95991198054713
 10
-7.898400068600965
 20
-12.95162906082451
  0
ARC
  5
11D
330
D3
100
AcDbEntity
  8
AM_9
100
AcDbCircle
 10
8.250000000080199
 20
-18.79999999998942
 30
0.0
 40
22.74999999992147
100
AcDbArc
 50
353.6318927234458
 51
21.41246714622407
  0
ARC
  5
11E
330
D3
100
AcDbEntity
  8
AM_9
100
AcDbCircle
 10
-8.249999999999524
 20
-18.80000000000007
 30
0.0
 40
22.75000000000047
100
AcDbArc
 50
158.5875328538251
 51
186.368107276505
  0
LINE
  5
11F
330
D3
100
AcDbEntity
  8
AM_9
100
AcDbLine
 10
-30.85962823420343
 20
-21.32333333333333
 30
0.0
 11
30.85962823420343
 21
-21.32333333333333
 31
0.0
  0
LINE
  5
120
330
D3
100
AcDbEntity
  8
AM_9
100
AcDbLine
 10
-29.42971308360654
 20
-10.49444440774092
 30
0.0
 11
29.42971308360654
 21
-10.49444440774092
 31
0.0
  0
ELLIPSE
  5
121
330
D3
100
AcDbEntity
  8
AM_9
100
AcDbEllipse
 10
12.56320942296962
 20
-35.12499999999986
 30
0.0
 11
-6.105170455449073E-16
 21
-3.323499999999854
 31
0.0
210
0.0
220
0.0
230
1.0
 40
0.7660444431189769
 41
0.0
 42
6.283185307179586
  0
ELLIPSE
  5
122
330
D3
100
AcDbEntity
  8
AM_4
100
AcDbEllipse
 10
18.8789084603607
 20
-35.1249999999911
 30
0.0
 11
-6.105170455432966E-16
 21
-3.323499999991085
 31
0.0
210
0.0
220
0.0
230
1.0
 40
0.2588190451025559
 41
6.182590834143825
 42
9.51164359617346
  0
LWPOLYLINE
  5
123
330
D3
100
AcDbEntity
  8
AM_4
100
AcDbPolyline
 90
       24
 70
     0
 43
0.0
 10
18.98926404520426
 20
-31.55677235106852
 10
19.11358928307981
 20
-31.44924919596874
 10
19.26241967481979
 20
-31.39696239133346
 10
19.39731359114558
 20
-31.43899295906846
 10
19.50970575251372
 20
-31.56732361791509
 10
19.604620270885
 20
-31.77523870494092
 10
19.68386030444343
 20
-32.06564784701961
 10
19.74585848076642
 20
-32.42262585881139
 10
19.79556188795646
 20
-32.87076392048957
 10
19.83046877273791
 20
-33.37103797109185
 10
19.85470038798388
 20
-33.95542542384069
 10
19.86763229562736
 20
-34.56962225149613
 10
19.87106285184677
 20
-35.22825676159692
 10
19.86449507068744
 20
-35.88404662737996
 10
19.84672891215875
 20
-36.52684556596205
 10
19.8151027599803
 20
-37.1290365679033
 10
19.76679795855151
 20
-37.66245132750483
 10
19.69740661640024
 20
-38.11929566808233
 10
19.60884990553774
 20
-38.46163957774274
 10
19.49611927281146
 20
-38.70435408301034
 10
19.37184868274687
 20
-38.8264449628364
 10
19.22966392088131
 20
-38.84981633810316
 10
19.08380449283674
 20
-38.77958385282651
 10
18.98930794424764
 20
-38.69327485138061
  0
LWPOLYLINE
  5
124
330
D3
100
AcDbEntity
  8
AM_4
100
AcDbPolyline
 90
       14
 70
     0
 43
0.0
 10
18.98930794424764
 20
-38.69327485138061
 10
18.93082960221815
 20
-38.62482116376373
 10
18.77538137699984
 20
-38.38891970485813
 10
18.62448605388486
 20
-38.0821619984325
 10
18.4751663248239
 20
-37.68686805769708
 10
18.34395105995214
 20
-37.23395645509881
 10
18.22882698569165
 20
-36.69115784484963
 10
18.1469196603356
 20
-36.10974348087633
 10
18.10137438708515
 20
-35.46702411851063
 10
18.10005819796715
 20
-34.81509151945632
 10
18.14544087351389
 20
-34.15629871295467
 10
18.23467868778138
 20
-33.52513046289236
 10
18.34385623504645
 20
-33.01687779724809
 10
18.47745885192798
 20
-32.55589780711612
  0
LWPOLYLINE
  5
125
330
D3
100
AcDbEntity
  8
AM_4
100
AcDbPolyline
 90
        5
 70
     0
 43
0.0
 10
18.47745885192798
 20
-32.55589780711612
 10
18.6172241576208
 20
-32.18498199262248
 10
18.7675887558058
 20
-31.87474666287557
 10
18.94176234651507
 20
-31.61194471601624
 10
18.98926404520426
 20
-31.55677235106852
  0
LINE
  5
126
330
D3
100
AcDbEntity
  8
AM_4
100
AcDbLine
 10
19.95000000000003
 20
-41.902
 30
0.0
 11
19.95000000000003
 21
-30.3
 31
0.0
  0
LINE
  5
127
330
D3
100
AcDbEntity
  8
AM_4
100
AcDbLine
 10
-19.95000000000003
 20
-30.3
 30
0.0
 11
-19.95000000000003
 21
-41.902
 31
0.0
  0
LINE
  5
128
330
D3
100
AcDbEntity
  8
AM_4
100
AcDbLine
 10
-19.152
 20
-42.7
 30
0.0
 11
19.152
 21
-42.7
 31
0.0
  0
LINE
  5
129
330
D3
100
AcDbEntity
  8
AM_4
100
AcDbLine
 10
-19.95000000000003
 20
-41.902
 30
0.0
 11
19.95000000000004
 21
-41.902
 31
0.0
  0
LINE
  5
12A
330
D3
100
AcDbEntity
  8
AM_4
100
AcDbLine
 10
19.152
 20
-42.7
 30
0.0
 11
19.95000000000004
 21
-41.902
 31
0.0
  0
LINE
  5
12B
330
D3
100
AcDbEntity
  8
AM_4
100
AcDbLine
 10
-19.95000000000003
 20
-41.902
 30
0.0
 11
-19.152
 21
-42.7
 31
0.0
  0
ENDBLK
  5
D6
330
D3
100
AcDbEntity
  8
0
100
AcDbBlockEnd
  0
BLOCK
  5
12E
330
12C
100
AcDbEntity
  8
0
100
AcDbBlockBegin
  2
4_130369H_0_in_130369_4
 70
     2
 10
0.0
 20
0.0
 30
0.0
  3
4_130369H_0_in_130369_4
  1

  0
ATTDEF
  5
130
330
12C
100
AcDbEntity
  8
AM_6
100
AcDbText
 10
44.98277269004235
 20
2.134999999999986
 30
0.0
 40
0.5
  1
F2BZ-SC -M-Housing
100
AcDbAttributeDefinition
  3

  2
NN
 70
     8
280
     0
  0
ATTDEF
  5
131
330
12C
100
AcDbEntity
  8
AM_6
100
AcDbText
 10
44.98277269004235
 20
1.634999999999986
 30
0.0
 40
0.5
  1
SC 2 Bolt Flange Bearings -(Normal Duty)
100
AcDbAttributeDefinition
  3

  2
NT
 70
     8
280
     0
  0
ATTDEF
  5
132
330
12C
100
AcDbEntity
  8
AM_6
100
AcDbText
 10
44.98277269004235
 20
1.134999999999986
 30
0.0
 40
0.5
  1
130369H
100
AcDbAttributeDefinition
  3

  2
NB
 70
     8
280
     0
  0
ATTDEF
  5
133
330
12C
100
AcDbEntity
  8
AM_6
100
AcDbText
 10
44.98277269004235
 20
0.6349999999999856
 30
0.0
 40
0.5
  1
$PN.H
100
AcDbAttributeDefinition
  3

  2
NBSYN
 70
     8
280
     0
  0
ATTDEF
  5
134
330
12C
100
AcDbEntity
  8
AM_6
100
AcDbText
 10
44.98277269004235
 20
0.1349999999999856
 30
0.0
 40
0.5
  1
130369
100
AcDbAttributeDefinition
  3

  2
LINA
 70
     8
280
     0
  0
ATTDEF
  5
135
330
12C
100
AcDbEntity
  8
AM_6
100
AcDbText
 10
44.98277269004235
 20
-0.3650000000000144
 30
0.0
 40
0.5
  1
206
100
AcDbAttributeDefinition
  3

  2
SERIES
 70
     8
280
     0
  0
ATTDEF
  5
136
330
12C
100
AcDbEntity
  8
AM_6
100
AcDbText
 10
44.98277269004235
 20
-0.8650000000000144
 30
0.0
 40
0.5
  1
30
100
AcDbAttributeDefinition
  3

  2
SS
 70
     8
280
     0
  0
ATTDEF
  5
137
330
12C
100
AcDbEntity
  8
AM_6
100
AcDbText
 10
44.98277269004235
 20
-1.365000000000014
 30
0.0
 40
0.5
  1
130369
100
AcDbAttributeDefinition
  3

  2
PN
 70
     8
280
     0
  0
ATTDEF
  5
138
330
12C
100
AcDbEntity
  8
AM_6
100
AcDbText
 10
44.98277269004235
 20
-1.865000000000014
 30
0.0
 40
0.5
  1
F2BZ-SC-30M
100
AcDbAttributeDefinition
  3

  2
DESCRIPTION
 70
     8
280
     0
  0
ATTDEF
  5
139
330
12C
100
AcDbEntity
  8
AM_6
100
AcDbText
 10
44.98277269004235
 20
-2.365000000000014
 30
0.0
 40
0.5
  1
38.6
100
AcDbAttributeDefinition
  3

  2
A
 70
     8
280
     0
  0
ATTDEF
  5
13A
330
12C
100
AcDbEntity
  8
AM_6
100
AcDbText
 10
44.98277269004235
 20
-2.865000000000014
 30
0.0
 40
0.5
  1
141.2
100
AcDbAttributeDefinition
  3

  2
B
 70
     8
280
     0
  0
ATTDEF
  5
13B
330
12C
100
AcDbEntity
  8
AM_6
100
AcDbText
 10
44.98277269004235
 20
-3.365000000000014
 30
0.0
 40
0.5
  1
42.7
100
AcDbAttributeDefinition
  3

  2
C
 70
     8
280
     0
  0
ATTDEF
  5
13C
330
12C
100
AcDbEntity
  8
AM_6
100
AcDbText
 10
44.98277269004235
 20
-3.865000000000014
 30
0.0
 40
0.5
  1
116.6
100
AcDbAttributeDefinition
  3

  2
D
 70
     8
280
     0
  0
ATTDEF
  5
13D
330
12C
100
AcDbEntity
  8
AM_6
100
AcDbText
 10
44.98277269004235
 20
-4.365000000000014
 30
0.0
 40
0.5
  1
3.0
100
AcDbAttributeDefinition
  3

  2
E
 70
     8
280
     0
  0
ATTDEF
  5
13E
330
12C
100
AcDbEntity
  8
AM_6
100
AcDbText
 10
44.98277269004235
 20
-4.865000000000014
 30
0.0
 40
0.5
  1
M10
100
AcDbAttributeDefinition
  3

  2
F
 70
     8
280
     0
  0
ATTDEF
  5
13F
330
12C
100
AcDbEntity
  8
AM_6
100
AcDbText
 10
44.98277269004235
 20
-5.365000000000014
 30
0.0
 40
0.5
  1
39.6
100
AcDbAttributeDefinition
  3

  2
G
 70
     8
280
     0
  0
ATTDEF
  5
140
330
12C
100
AcDbEntity
  8
AM_6
100
AcDbText
 10
44.98277269004235
 20
-5.865000000000014
 30
0.0
 40
0.5
  1
12.7
100
AcDbAttributeDefinition
  3

  2
H
 70
     8
280
     0
  0
ATTDEF
  5
141
330
12C
100
AcDbEntity
  8
AM_6
100
AcDbText
 10
44.98277269004235
 20
-6.365000000000014
 30
0.0
 40
0.5
  1
12.4
100
AcDbAttributeDefinition
  3

  2
J
 70
     8
280
     0
  0
ATTDEF
  5
142
330
12C
100
AcDbEntity
  8
AM_6
100
AcDbText
 10
44.98277269004235
 20
-6.865000000000014
 30
0.0
 40
0.5
  1
80.01 / 79.96
100
AcDbAttributeDefinition
  3

  2
K
 70
     8
280
     0
  0
ATTDEF
  5
143
330
12C
100
AcDbEntity
  8
AM_6
100
AcDbText
 10
44.98277269004235
 20
-7.365000000000014
 30
0.0
 40
0.5
  1
80.01
100
AcDbAttributeDefinition
  3

  2
K1
 70
     8
280
     0
  0
ATTDEF
  5
144
330
12C
100
AcDbEntity
  8
AM_6
100
AcDbText
 10
44.98277269004235
 20
-7.865000000000014
 30
0.0
 40
0.5
  1
39.9
100
AcDbAttributeDefinition
  3

  2
L
 70
     8
280
     0
  0
ATTDEF
  5
145
330
12C
100
AcDbEntity
  8
AM_6
100
AcDbText
 10
44.98277269004235
 20
-8.365000000000014
 30
0.0
 40
0.5
  1
79.5
100
AcDbAttributeDefinition
  3

  2
M
 70
     8
280
     0
  0
ATTDEF
  5
146
330
12C
100
AcDbEntity
  8
AM_6
100
AcDbText
 10
44.98277269004235
 20
-8.865000000000014
 30
0.0
 40
0.5
  1
39.6
100
AcDbAttributeDefinition
  3

  2
N
 70
     8
280
     0
  0
ATTDEF
  5
147
330
12C
100
AcDbEntity
  8
AM_6
100
AcDbText
 10
44.98277269004235
 20
-9.365000000000014
 30
0.0
 40
0.5
  1
baldor
100
AcDbAttributeDefinition
  3

  2
COMPANY
 70
     8
280
     0
  0
LINE
  5
148
330
12C
100
AcDbEntity
  8
AM_9
100
AcDbLine
 10
19.66682532658
 20
-19.695
 30
0.0
 11
19.66682532657997
 21
-3.718033988750025
 31
0.0
  0
LINE
  5
149
330
12C
100
AcDbEntity
  8
AM_9
100
AcDbLine
 10
-4.094950000131075
 20
-19.69500000000001
 30
0.0
 11
-4.094950000131071
 21
-3.718033988749933
 31
0.0
  0
LINE
  5
14A
330
12C
100
AcDbEntity
  8
AM_9
100
AcDbLine
 10
32.94482382923416
 20
-2.000000000000009
 30
0.0
 11
32.94482382923414
 21
-0.0000000000000014
 31
0.0
  0
LWPOLYLINE
  5
14B
330
12C
100
AcDbEntity
  8
AM_9
100
AcDbPolyline
 90
       12
 70
     0
 43
0.0
 10
30.35750928849438
 20
-2.999883556897577
 10
30.90260461839759
 20
-2.971441374006164
 10
31.4767202871533
 20
-2.874770465900514
 10
32.04518410049219
 20
-2.693494730496866
 10
32.60267528792594
 20
-2.411121622609035
 10
32.72817232129648
 20
-2.325563809765514
 10
32.81168366091025
 20
-2.254253283068677
 10
32.86695530563637
 20
-2.193909863779008
 10
32.91934901751672
 20
-2.110602739987248
 10
32.93553225438612
 20
-2.066736972533943
 10
32.94362801177928
 20
-2.02393079886822
 10
32.94482382923416
 20
-2.000000000000009
  0
LINE
  5
14C
330
12C
100
AcDbEntity
  8
AM_9
100
AcDbLine
 10
33.80697086679289
 20
-14.43
 30
0.0
 11
33.80697086679289
 21
0.0000000000000013
 31
0.0
  0
LINE
  5
14D
330
12C
100
AcDbEntity
  8
AM_9
100
AcDbLine
 10
-19.66682532658
 20
-19.695
 30
0.0
 11
-19.66682532657995
 21
-3.718033988749978
 31
0.0
  0
LINE
  5
14E
330
12C
100
AcDbEntity
  8
AM_9
100
AcDbLine
 10
-19.2456880782243
 20
-4.099999999999998
 30
0.0
 11
-31.5
 21
-4.100000000000001
 31
0.0
  0
LINE
  5
14F
330
12C
100
AcDbEntity
  8
AM_9
100
AcDbLine
 10
39.98277269004235
 20
-23.74129384935164
 30
0.0
 11
39.98277269004235
 21
-17.39203948398169
 31
0.0
  0
LINE
  5
150
330
12C
100
AcDbEntity
  8
AM_9
100
AcDbLine
 10
4.516087248486776
 20
-4.099999999999998
 30
0.0
 11
4.516087248486776
 21
-19.695
 31
0.0
  0
LINE
  5
151
330
12C
100
AcDbEntity
  8
AM_9
100
AcDbLine
 10
19.2456880782243
 20
-19.695
 30
0.0
 11
19.2456880782243
 21
-4.100000000000001
 31
0.0
  0
LINE
  5
152
330
12C
100
AcDbEntity
  8
AM_9
100
AcDbLine
 10
-4.516087248486776
 20
-4.100000000000001
 30
0.0
 11
-4.516087248486776
 21
-19.69500000000001
 31
0.0
  0
LINE
  5
153
330
12C
100
AcDbEntity
  8
AM_9
100
AcDbLine
 10
-19.2456880782243
 20
-19.695
 30
0.0
 11
-19.2456880782243
 21
-4.099999999999998
 31
0.0
  0
LINE
  5
154
330
12C
100
AcDbEntity
  8
AM_9
100
AcDbLine
 10
31.0
 20
-30.3
 30
0.0
 11
31.0
 21
-4.1
 31
0.0
  0
LINE
  5
155
330
12C
100
AcDbEntity
  8
AM_9
100
AcDbLine
 10
-31.0
 20
-4.1
 30
0.0
 11
-31.0
 21
-30.3
 31
0.0
  0
LINE
  5
156
330
12C
100
AcDbEntity
  8
AM_9
100
AcDbLine
 10
4.094950000131075
 20
-19.695
 30
0.0
 11
4.094950000130904
 21
-3.718033988749356
 31
0.0
  0
LINE
  5
157
330
12C
100
AcDbEntity
  8
AM_9
100
AcDbLine
 10
19.66682532658
 20
-19.695
 30
0.0
 11
-19.66682532658
 21
-19.695
 31
0.0
  0
LWPOLYLINE
  5
158
330
12C
100
AcDbEntity
  8
AM_9
100
AcDbPolyline
 90
        6
 70
     0
 43
0.0
 10
4.375313853398085
 20
-4.1
 10
4.355230490136397
 20
-4.098297305515977
 10
4.279989427639408
 20
-4.061100079204975
 10
4.20533495489659
 20
-3.972299625349065
 10
4.148272969912774
 20
-3.862885709981486
 10
4.094950000130904
 20
-3.718033988749356
  0
LINE
  5
159
330
12C
100
AcDbEntity
  8
AM_9
100
AcDbLine
 10
19.66682532657997
 20
-3.718033988750025
 30
0.0
 11
-19.66682532657995
 21
-3.718033988749978
 31
0.0
  0
LWPOLYLINE
  5
15A
330
12C
100
AcDbEntity
  8
AM_9
100
AcDbPolyline
 90
        6
 70
     0
 43
0.0
 10
-19.66682532657995
 20
-3.718033988749978
 10
-19.60805511044723
 20
-3.875148804567829
 10
-19.54128267363933
 20
-3.994918147003216
 10
-19.47239940775238
 20
-4.068468126780379
 10
-19.39947783990195
 20
-4.099285111646502
 10
-19.38646147331299
 20
-4.1
  0
LWPOLYLINE
  5
15B
330
12C
100
AcDbEntity
  8
AM_9
100
AcDbPolyline
 90
        6
 70
     0
 43
0.0
 10
-4.375313853398085
 20
-4.100000000000003
 10
-4.355230490136397
 20
-4.098297305515981
 10
-4.279989427639408
 20
-4.061100079204978
 10
-4.20533495489659
 20
-3.972299625349069
 10
-4.14827296991287
 20
-3.862885709981712
 10
-4.094950000131071
 20
-3.718033988749933
  0
LWPOLYLINE
  5
15C
330
12C
100
AcDbEntity
  8
AM_9
100
AcDbPolyline
 90
        6
 70
     0
 43
0.0
 10
19.66682532657997
 20
-3.718033988750025
 10
19.60805511044722
 20
-3.875148804567853
 10
19.54128267363933
 20
-3.994918147003221
 10
19.47239940775238
 20
-4.068468126780385
 10
19.39947783990195
 20
-4.099285111646505
 10
19.38646147331299
 20
-4.100000000000003
  0
LINE
  5
15D
330
12C
100
AcDbEntity
  8
AM_9
100
AcDbLine
 10
4.375313853398085
 20
-4.1
 30
0.0
 11
31.5
 21
-4.100000000000001
 31
0.0
  0
ARC
  5
15E
330
12C
100
AcDbEntity
  8
AM_9
100
AcDbCircle
 10
31.50000000000001
 20
-2.600000000000014
 30
0.0
 40
1.499999999999988
100
AcDbArc
 50
270.0
 51
0.0
  0
ARC
  5
15F
330
12C
100
AcDbEntity
  8
AM_9
100
AcDbCircle
 10
-31.50000000000002
 20
-2.600000000000017
 30
0.0
 40
1.499999999999986
100
AcDbArc
 50
180.0
 51
270.0
  0
LINE
  5
160
330
12C
100
AcDbEntity
  8
AM_9
100
AcDbLine
 10
-33.00000000000001
 20
-2.600000000000008
 30
0.0
 11
33.0
 21
-2.600000000000008
 31
0.0
  0
LINE
  5
161
330
12C
100
AcDbEntity
  8
AM_9
100
AcDbLine
 10
33.0
 20
-2.600000000000008
 30
0.0
 11
33.0
 21
0.0
 31
0.0
  0
LINE
  5
162
330
12C
100
AcDbEntity
  8
AM_9
100
AcDbLine
 10
-33.0
 20
0.0
 30
0.0
 11
-33.0
 21
-2.600000000000008
 31
0.0
  0
LINE
  5
163
330
12C
100
AcDbEntity
  8
AM_9
100
AcDbLine
 10
39.39698625241543
 20
-24.16469371366505
 30
0.0
 11
39.39698625241543
 21
-16.96503354510809
 31
0.0
  0
LINE
  5
164
330
12C
100
AcDbEntity
  8
AM_9
100
AcDbLine
 10
35.06817997702228
 20
-14.43
 30
0.0
 11
24.94878859226648
 21
-14.43
 31
0.0
  0
LINE
  5
165
330
12C
100
AcDbEntity
  8
AM_9
100
AcDbLine
 10
35.06817997702228
 20
-14.43
 30
0.0
 11
35.06817997702228
 21
-2.999999999999997
 31
0.0
  0
LINE
  5
166
330
12C
100
AcDbEntity
  8
AM_9
100
AcDbLine
 10
33.74152940334491
 20
-30.3
 30
0.0
 11
33.74152940334491
 21
-14.43
 31
0.0
  0
LINE
  5
167
330
12C
100
AcDbEntity
  8
AM_9
100
AcDbLine
 10
39.75
 20
-30.3
 30
0.0
 11
39.75
 21
-2.999999999999997
 31
0.0
  0
LINE
  5
168
330
12C
100
AcDbEntity
  8
AM_9
100
AcDbLine
 10
5.75
 20
-15.7
 30
0.0
 11
5.75
 21
-2.999999999999996
 31
0.0
  0
LINE
  5
169
330
12C
100
AcDbEntity
  8
AM_9
100
AcDbLine
 10
-5.75
 20
-2.999999999999996
 30
0.0
 11
-5.75
 21
-15.7
 31
0.0
  0
LINE
  5
16C
330
12C
100
AcDbEntity
  8
AM_7
100
AcDbLine
 10
0.0
 20
-44.835
 30
0.0
 11
0.0
 21
2.134999999999986
 31
0.0
  0
LINE
  5
16D
330
12C
100
AcDbEntity
  8
AM_4
100
AcDbLine
 10
39.98277269004235
 20
-17.39203948398169
 30
0.0
 11
39.98277269004235
 21
-2.999999999999997
 31
0.0
  0
LINE
  5
16E
330
12C
100
AcDbEntity
  8
AM_4
100
AcDbLine
 10
39.98277269004235
 20
-30.3
 30
0.0
 11
39.98277269004235
 21
-23.74129384935164
 31
0.0
  0
LINE
  5
16F
330
12C
100
AcDbEntity
  8
AM_4
100
AcDbLine
 10
39.98277269004235
 20
-30.3
 30
0.0
 11
-39.75000000000001
 21
-30.3
 31
0.0
  0
LINE
  5
170
330
12C
100
AcDbEntity
  8
AM_4
100
AcDbLine
 10
39.39698625241543
 20
-16.96503354510809
 30
0.0
 11
39.39698625241543
 21
-2.999999999999997
 31
0.0
  0
LINE
  5
171
330
12C
100
AcDbEntity
  8
AM_4
100
AcDbLine
 10
39.39698625241543
 20
-30.3
 30
0.0
 11
39.39698625241543
 21
-24.16469371366505
 31
0.0
  0
LINE
  5
172
330
12C
100
AcDbEntity
  8
AM_4
100
AcDbLine
 10
21.01360734198705
 20
-14.43
 30
0.0
 11
21.01360734198704
 21
-30.3
 31
0.0
  0
LINE
  5
173
330
12C
100
AcDbEntity
  8
AM_4
100
AcDbLine
 10
35.06817997702228
 20
-2.999999999999997
 30
0.0
 11
35.06817997702228
 21
0.0000000000000011
 31
0.0
  0
LINE
  5
174
330
12C
100
AcDbEntity
  8
AM_4
100
AcDbLine
 10
39.75
 20
-2.999999999999997
 30
0.0
 11
39.75
 21
0.0
 31
0.0
  0
LINE
  5
175
330
12C
100
AcDbEntity
  8
AM_4
100
AcDbLine
 10
-39.75000000000001
 20
0.0
 30
0.0
 11
-39.75000000000001
 21
-30.3
 31
0.0
  0
LINE
  5
176
330
12C
100
AcDbEntity
  8
AM_4
100
AcDbLine
 10
29.49749131580376
 20
-30.3
 30
0.0
 11
29.49749131580376
 21
-2.999999999999996
 31
0.0
  0
LINE
  5
177
330
12C
100
AcDbEntity
  8
AM_4
100
AcDbLine
 10
26.66906419105758
 20
-30.3
 30
0.0
 11
26.66906419105758
 21
-2.999999999999996
 31
0.0
  0
LINE
  5
178
330
12C
100
AcDbEntity
  8
AM_4
100
AcDbLine
 10
33.92661715268576
 20
0.0000000000000013
 30
0.0
 11
33.92661715268575
 21
-2.000000000000007
 31
0.0
  0
LINE
  5
179
330
12C
100
AcDbEntity
  8
AM_4
100
AcDbLine
 10
-39.75000000000001
 20
0.0
 30
0.0
 11
39.75
 21
0.0
 31
0.0
  0
LWPOLYLINE
  5
17A
330
12C
100
AcDbEntity
  8
AM_4
100
AcDbPolyline
 90
        6
 70
     0
 43
0.0
 10
33.92661715268575
 20
-2.000000000000007
 10
33.96589055165776
 20
-2.324514106812344
 10
34.07870086217883
 20
-2.612583943396158
 10
34.2536102361527
 20
-2.835636620177632
 10
34.47537765265752
 20
-2.969912003160625
 10
34.6518561892092
 20
-2.999999999999999
  0
LINE
  5
17B
330
12C
100
AcDbEntity
  8
AM_4
100
AcDbLine
 10
-32.94482382923416
 20
-2.000000000000007
 30
0.0
 11
33.92661715268575
 21
-2.000000000000007
 31
0.0
  0
LWPOLYLINE
  5
17C
330
12C
100
AcDbEntity
  8
AM_4
100
AcDbPolyline
 90
       13
 70
     0
 43
0.0
 10
-30.35104114737554
 20
-2.999929133513677
 10
-30.89774679233019
 20
-2.960535912923834
 10
-31.4654165763291
 20
-2.850962717092588
 10
-31.8481136962772
 20
-2.74536685040521
 10
-32.22838543132333
 20
-2.605252324193137
 10
-32.602675287926
 20
-2.411121622608992
 10
-32.72817232129652
 20
-2.32556380976546
 10
-32.81168366091026
 20
-2.254253283068643
 10
-32.86695530563639
 20
-2.193909863778981
 10
-32.91934901751679
 20
-2.110602739987061
 10
-32.93553225438616
 20
-2.066736972533765
 10
-32.94362801177928
 20
-2.023930798868057
 10
-32.94482382923414
 20
-2.000000000000007
  0
LINE
  5
17D
330
12C
100
AcDbEntity
  8
AM_4
100
AcDbLine
 10
-18.485521743029
 20
-14.43
 30
0.0
 11
-18.48552174302898
 21
-15.7
 31
0.0
  0
LINE
  5
17E
330
12C
100
AcDbEntity
  8
AM_4
100
AcDbLine
 10
18.485521743029
 20
-15.7
 30
0.0
 11
-18.48552174302898
 21
-15.7
 31
0.0
  0
LINE
  5
17F
330
12C
100
AcDbEntity
  8
AM_4
100
AcDbLine
 10
18.485521743029
 20
-15.7
 30
0.0
 11
18.485521743029
 21
-14.43
 31
0.0
  0
LINE
  5
180
330
12C
100
AcDbEntity
  8
AM_4
100
AcDbLine
 10
24.94878859226648
 20
-14.43
 30
0.0
 11
10.85128587968236
 21
-14.42999999999999
 31
0.0
  0
LINE
  5
181
330
12C
100
AcDbEntity
  8
AM_4
100
AcDbLine
 10
24.94878859226647
 20
-2.999999999999997
 30
0.0
 11
24.94878859226648
 21
-14.43
 31
0.0
  0
LINE
  5
182
330
12C
100
AcDbEntity
  8
AM_4
100
AcDbLine
 10
-10.85128587968235
 20
-14.42999999999999
 30
0.0
 11
-35.06817997702229
 21
-14.43
 31
0.0
  0
LINE
  5
183
330
12C
100
AcDbEntity
  8
AM_4
100
AcDbLine
 10
39.98277269004235
 20
-2.999999999999997
 30
0.0
 11
-30.35104114737554
 21
-2.999929133513677
 31
0.0
  0
LINE
  5
184
330
12C
100
AcDbEntity
  8
AM_4
100
AcDbLine
 10
-32.94482382923416
 20
-2.000000000000007
 30
0.0
 11
-32.94482382923414
 21
0.0000000000000014
 31
0.0
  0
LINE
  5
185
330
12C
100
AcDbEntity
  8
AM_4
100
AcDbLine
 10
-35.06817997702229
 20
-14.43
 30
0.0
 11
-35.06817997702229
 21
0.0000000000000011
 31
0.0
  0
LINE
  5
186
330
12C
100
AcDbEntity
  8
AM_4
100
AcDbLine
 10
10.85128587968236
 20
-14.42999999999999
 30
0.0
 11
10.85128587968237
 21
-2.999999999999995
 31
0.0
  0
LINE
  5
187
330
12C
100
AcDbEntity
  8
AM_4
100
AcDbLine
 10
-10.85128587968235
 20
-14.42999999999999
 30
0.0
 11
-10.85128587968236
 21
-2.999999999999995
 31
0.0
  0
LINE
  5
188
330
12C
100
AcDbEntity
  8
AM_4
100
AcDbLine
 10
-11.92957178115645
 20
-14.42999999999999
 30
0.0
 11
-11.92957178115645
 21
-15.7
 31
0.0
  0
LINE
  5
189
330
12C
100
AcDbEntity
  8
AM_4
100
AcDbLine
 10
11.92957178115645
 20
-14.42999999999999
 30
0.0
 11
11.92957178115645
 21
-15.7
 31
0.0
  0
ENDBLK
  5
12F
330
12C
100
AcDbEntity
  8
0
100
AcDbBlockEnd
  0
ENDSEC
  0
SECTION
  2
ENTITIES
  0
INSERT
  5
6F
330
1F
100
AcDbEntity
  8
0
100
AcDbBlockReference
  2
1_130369_4
 10
0.0
 20
0.0
 30
0.0
  0
POINT
  5
18B
330
1F
100
AcDbEntity
  8
ConnectionPoints
100
AcDbPoint
 10
0.0
 20
-42.7
 30
0.0000000000000026
  0
POINT
  5
18C
330
1F
100
AcDbEntity
  8
ConnectionPoints
100
AcDbPoint
 10
34.69619802010104
 20
-20.56666666666666
 30
34.69619802010103
  0
POINT
  5
18D
330
1F
100
AcDbEntity
  8
ConnectionPoints
100
AcDbPoint
 10
0.0
 20
-42.7
 30
0.0000000000000026
  0
ENDSEC
  0
SECTION
  2
OBJECTS
  0
DICTIONARY
  5
C
330
0
100
AcDbDictionary
281
     1
  3
ACAD_DETAILVIEWSTYLE
350
195
  3
ACAD_GROUP
350
D
  3
ACAD_LAYOUT
350
1A
  3
ACAD_MATERIAL
350
43
  3
ACAD_MLEADERSTYLE
350
6B
  3
ACAD_MLINESTYLE
350
17
  3
ACAD_PLOTSETTINGS
350
19
  3
ACAD_PLOTSTYLENAME
350
E
  3
ACAD_SCALELIST
350
47
  3
ACAD_SECTIONVIEWSTYLE
350
196
  3
ACAD_TABLESTYLE
350
69
  3
ACAD_VISUALSTYLE
350
2A
  3
ACDB_RECOMPOSE_DATA
350
192
  3
AcDbVariableDictionary
350
18E
  0
SUN
  5
6D
330
29
100
AcDbSun
 90
        1
290
     0
 63
     7
421
 16777215
 40
1.0
291
     1
 91
  2455826
 92
 54000000
292
     0
 70
     2
 71
   256
280
     1
  0
DICTIONARY
  5
195
102
{ACAD_REACTORS
330
C
102
}
330
C
100
AcDbDictionary
281
     1
  0
DICTIONARY
  5
D
102
{ACAD_REACTORS
330
C
102
}
330
C
100
AcDbDictionary
281
     1
  0
DICTIONARY
  5
1A
102
{ACAD_REACTORS
330
C
102
}
330
C
100
AcDbDictionary
281
     1
  3
Layout1
350
1E
  3
Layout2
350
26
  3
Model
350
22
  0
DICTIONARY
  5
43
102
{ACAD_REACTORS
330
C
102
}
330
C
100
AcDbDictionary
281
     1
  3
ByBlock
350
45
  3
ByLayer
350
44
  3
Global
350
46
  0
DICTIONARY
  5
6B
102
{ACAD_REACTORS
330
C
102
}
330
C
100
AcDbDictionary
281
     1
  3
Standard
350
6C
  0
DICTIONARY
  5
17
102
{ACAD_REACTORS
330
C
102
}
330
C
100
AcDbDictionary
281
     1
  3
Standard
350
18
  0
DICTIONARY
  5
19
102
{ACAD_REACTORS
330
C
102
}
330
C
100
AcDbDictionary
281
     1
  0
ACDBDICTIONARYWDFLT
  5
E
102
{ACAD_REACTORS
330
C
102
}
330
C
100
AcDbDictionary
281
     1
  3
Normal
350
F
100
AcDbDictionaryWithDefault
340
F
  0
DICTIONARY
  5
47
102
{ACAD_REACTORS
330
C
102
}
330
C
100
AcDbDictionary
281
     1
  3
A0
350
48
  3
A1
350
49
  3
A2
350
4A
  3
A3
350
4B
  3
A4
350
4C
  3
A5
350
4D
  3
A6
350
4E
  3
A7
350
4F
  3
A8
350
50
  3
A9
350
51
  3
B0
350
52
  3
B1
350
53
  3
B2
350
54
  3
B3
350
55
  3
B4
350
56
  3
B5
350
57
  3
B6
350
58
  3
B7
350
59
  3
B8
350
5A
  3
B9
350
5B
  3
C0
350
5C
  3
C1
350
5D
  3
C2
350
5E
  3
C3
350
5F
  3
C4
350
60
  3
C5
350
61
  3
C6
350
62
  3
C7
350
63
  3
C8
350
64
  3
C9
350
65
  3
D0
350
66
  3
D1
350
67
  3
D2
350
68
  0
DICTIONARY
  5
196
102
{ACAD_REACTORS
330
C
102
}
330
C
100
AcDbDictionary
281
     1
  0
DICTIONARY
  5
69
102
{ACAD_REACTORS
330
C
102
}
330
C
100
AcDbDictionary
281
     1
  3
Standard
350
6A
  0
DICTIONARY
  5
2A
102
{ACAD_REACTORS
330
C
102
}
330
C
100
AcDbDictionary
281
     1
  3
2dWireframe
350
2F
  3
Basic
350
32
  3
Brighten
350
36
  3
ColorChange
350
3A
  3
Conceptual
350
34
  3
Dim
350
35
  3
EdgeColorOff
350
3D
  3
Facepattern
350
39
  3
Flat
350
2B
  3
FlatWithEdges
350
2C
  3
Gouraud
350
2D
  3
GouraudWithEdges
350
2E
  3
Hidden
350
31
  3
JitterOff
350
3B
  3
Linepattern
350
38
  3
OverhangOff
350
3C
  3
Realistic
350
33
  3
Shaded
350
42
  3
Shaded with edges
350
41
  3
Shades of Gray
350
3E
  3
Sketchy
350
3F
  3
Thicken
350
37
  3
Wireframe
350
30
  3
X-Ray
350
40
  0
XRECORD
  5
192
102
{ACAD_REACTORS
330
C
102
}
330
C
100
AcDbXrecord
280
     1
 90
        1
330
6A
  0
DICTIONARY
  5
18E
102
{ACAD_REACTORS
330
C
102
}
330
C
100
AcDbDictionary
281
     1
  3
CANNOSCALE
350
18F
  3
CMLEADERSTYLE
350
194
  3
CTABLESTYLE
350
193
  0
LAYOUT
  5
1E
102
{ACAD_REACTORS
330
1A
102
}
330
1A
100
AcDbPlotSettings
  1

  2
none_device
  4

  6

 40
0.0
 41
0.0
 42
0.0
 43
0.0
 44
0.0
 45
0.0
 46
0.0
 47
0.0
 48
0.0
 49
0.0
140
0.0
141
0.0
142
1.0
143
1.0
 70
   688
 72
     1
 73
     0
 74
     5
  7

 75
    16
 76
     0
 77
     2
 78
   300
147
1.0
148
0.0
149
0.0
100
AcDbLayout
  1
Layout1
 70
     1
 71
     1
 10
0.0
 20
0.0
 11
420.0
 21
297.0
 12
0.0
 22
0.0
 32
0.0
 14
1.000000000000000E+20
 24
1.000000000000000E+20
 34
1.000000000000000E+20
 15
-1.000000000000000E+20
 25
-1.000000000000000E+20
 35
-1.000000000000000E+20
146
0.0
 13
0.0
 23
0.0
 33
0.0
 16
1.0
 26
0.0
 36
0.0
 17
0.0
 27
1.0
 37
0.0
 76
     0
330
1B
  0
LAYOUT
  5
26
102
{ACAD_REACTORS
330
1A
102
}
330
1A
100
AcDbPlotSettings
  1

  2
none_device
  4

  6

 40
0.0
 41
0.0
 42
0.0
 43
0.0
 44
0.0
 45
0.0
 46
0.0
 47
0.0
 48
0.0
 49
0.0
140
0.0
141
0.0
142
1.0
143
1.0
 70
   688
 72
     1
 73
     0
 74
     5
  7

 75
    16
 76
     0
 77
     2
 78
   300
147
1.0
148
0.0
149
0.0
100
AcDbLayout
  1
Layout2
 70
     1
 71
     2
 10
0.0
 20
0.0
 11
0.0
 21
0.0
 12
0.0
 22
0.0
 32
0.0
 14
0.0
 24
0.0
 34
0.0
 15
0.0
 25
0.0
 35
0.0
146
0.0
 13
0.0
 23
0.0
 33
0.0
 16
1.0
 26
0.0
 36
0.0
 17
0.0
 27
1.0
 37
0.0
 76
     0
330
23
  0
LAYOUT
  5
22
102
{ACAD_REACTORS
330
1A
102
}
330
1A
100
AcDbPlotSettings
  1

  2
none_device
  4
Letter_(8.50_x_11.00_Inches)
  6

 40
6.35
 41
6.35
 42
6.35000508
 43
6.35000508
 44
215.9
 45
279.4
 46
0.0
 47
0.0
 48
0.0
 49
0.0
140
0.0
141
0.0
142
1.0
143
1.0
 70
  1712
 72
     1
 73
     0
 74
     0
  7

 75
     0
 76
     0
 77
     2
 78
   300
147
1.0
148
0.0
149
0.0
100
AcDbLayout
  1
Model
 70
     1
 71
     0
 10
0.0
 20
0.0
 11
420.0
 21
297.0
 12
0.0
 22
0.0
 32
0.0
 14
1.000000000000000E+20
 24
1.000000000000000E+20
 34
1.000000000000000E+20
 15
-1.000000000000000E+20
 25
-1.000000000000000E+20
 35
-1.000000000000000E+20
146
0.0
 13
0.0
 23
0.0
 33
0.0
 16
1.0
 26
0.0
 36
0.0
 17
0.0
 27
1.0
 37
0.0
 76
     0
330
1F
331
29
  0
MATERIAL
  5
45
102
{ACAD_REACTORS
330
43
102
}
330
43
100
AcDbMaterial
  1
ByBlock
 72
     1
 94
      127
  0
MATERIAL
  5
44
102
{ACAD_REACTORS
330
43
102
}
330
43
100
AcDbMaterial
  1
ByLayer
 72
     1
 94
      127
  0
MATERIAL
  5
46
102
{ACAD_REACTORS
330
43
102
}
330
43
100
AcDbMaterial
  1
Global
 72
     1
 94
      127
  0
MLEADERSTYLE
  5
6C
102
{ACAD_REACTORS
330
6B
102
}
330
6B
100
AcDbMLeaderStyle
179
     2
170
     2
171
     1
172
     0
 90
        2
 40
0.0
 41
0.0
173
     1
 91
-1056964608
340
14
 92
       -2
290
     1
 42
2.0
291
     1
 43
8.0
  3
Standard
341
0
 44
4.0
300

342
11
174
     1
178
     6
175
     1
176
     0
 93
-1056964608
 45
4.0
292
     0
297
     0
 46
4.0
343
0
 94
-1056964608
 47
1.0
 49
1.0
140
1.0
293
     1
141
0.0
294
     1
177
     0
142
1.0
295
     0
296
     0
143
3.75
271
     0
272
     9
273
     9
298
     0
  0
MLINESTYLE
  5
18
102
{ACAD_REACTORS
330
17
102
}
330
17
100
AcDbMlineStyle
  2
Standard
 70
     0
  3

 62
   256
 51
90.0
 52
90.0
 71
     2
 49
0.5
 62
   256
  6
BYLAYER
 49
-0.5
 62
   256
  6
BYLAYER
  0
ACDBPLACEHOLDER
  5
F
102
{ACAD_REACTORS
330
E
102
}
330
E
  0
SCALE
  5
48
102
{ACAD_REACTORS
330
47
102
}
330
47
100
AcDbScale
 70
     0
300
1:1
140
1.0
141
1.0
290
     1
  0
SCALE
  5
49
102
{ACAD_REACTORS
330
47
102
}
330
47
100
AcDbScale
 70
     0
300
1:2
140
1.0
141
2.0
290
     0
  0
SCALE
  5
4A
102
{ACAD_REACTORS
330
47
102
}
330
47
100
AcDbScale
 70
     0
300
1:4
140
1.0
141
4.0
290
     0
  0
SCALE
  5
4B
102
{ACAD_REACTORS
330
47
102
}
330
47
100
AcDbScale
 70
     0
300
1:5
140
1.0
141
5.0
290
     0
  0
SCALE
  5
4C
102
{ACAD_REACTORS
330
47
102
}
330
47
100
AcDbScale
 70
     0
300
1:8
140
1.0
141
8.0
290
     0
  0
SCALE
  5
4D
102
{ACAD_REACTORS
330
47
102
}
330
47
100
AcDbScale
 70
     0
300
1:10
140
1.0
141
10.0
290
     0
  0
SCALE
  5
4E
102
{ACAD_REACTORS
330
47
102
}
330
47
100
AcDbScale
 70
     0
300
1:16
140
1.0
141
16.0
290
     0
  0
SCALE
  5
4F
102
{ACAD_REACTORS
330
47
102
}
330
47
100
AcDbScale
 70
     0
300
1:20
140
1.0
141
20.0
290
     0
  0
SCALE
  5
50
102
{ACAD_REACTORS
330
47
102
}
330
47
100
AcDbScale
 70
     0
300
1:30
140
1.0
141
30.0
290
     0
  0
SCALE
  5
51
102
{ACAD_REACTORS
330
47
102
}
330
47
100
AcDbScale
 70
     0
300
1:40
140
1.0
141
40.0
290
     0
  0
SCALE
  5
52
102
{ACAD_REACTORS
330
47
102
}
330
47
100
AcDbScale
 70
     0
300
1:50
140
1.0
141
50.0
290
     0
  0
SCALE
  5
53
102
{ACAD_REACTORS
330
47
102
}
330
47
100
AcDbScale
 70
     0
300
1:100
140
1.0
141
100.0
290
     0
  0
SCALE
  5
54
102
{ACAD_REACTORS
330
47
102
}
330
47
100
AcDbScale
 70
     0
300
2:1
140
2.0
141
1.0
290
     0
  0
SCALE
  5
55
102
{ACAD_REACTORS
330
47
102
}
330
47
100
AcDbScale
 70
     0
300
4:1
140
4.0
141
1.0
290
     0
  0
SCALE
  5
56
102
{ACAD_REACTORS
330
47
102
}
330
47
100
AcDbScale
 70
     0
300
8:1
140
8.0
141
1.0
290
     0
  0
SCALE
  5
57
102
{ACAD_REACTORS
330
47
102
}
330
47
100
AcDbScale
 70
     0
300
10:1
140
10.0
141
1.0
290
     0
  0
SCALE
  5
58
102
{ACAD_REACTORS
330
47
102
}
330
47
100
AcDbScale
 70
     0
300
100:1
140
100.0
141
1.0
290
     0
  0
SCALE
  5
59
102
{ACAD_REACTORS
330
47
102
}
330
47
100
AcDbScale
 70
     0
300
1/128" = 1'-0"
140
0.0078125
141
12.0
290
     0
  0
SCALE
  5
5A
102
{ACAD_REACTORS
330
47
102
}
330
47
100
AcDbScale
 70
     0
300
1/64" = 1'-0"
140
0.015625
141
12.0
290
     0
  0
SCALE
  5
5B
102
{ACAD_REACTORS
330
47
102
}
330
47
100
AcDbScale
 70
     0
300
1/32" = 1'-0"
140
0.03125
141
12.0
290
     0
  0
SCALE
  5
5C
102
{ACAD_REACTORS
330
47
102
}
330
47
100
AcDbScale
 70
     0
300
1/16" = 1'-0"
140
0.0625
141
12.0
290
     0
  0
SCALE
  5
5D
102
{ACAD_REACTORS
330
47
102
}
330
47
100
AcDbScale
 70
     0
300
3/32" = 1'-0"
140
0.09375
141
12.0
290
     0
  0
SCALE
  5
5E
102
{ACAD_REACTORS
330
47
102
}
330
47
100
AcDbScale
 70
     0
300
1/8" = 1'-0"
140
0.125
141
12.0
290
     0
  0
SCALE
  5
5F
102
{ACAD_REACTORS
330
47
102
}
330
47
100
AcDbScale
 70
     0
300
3/16" = 1'-0"
140
0.1875
141
12.0
290
     0
  0
SCALE
  5
60
102
{ACAD_REACTORS
330
47
102
}
330
47
100
AcDbScale
 70
     0
300
1/4" = 1'-0"
140
0.25
141
12.0
290
     0
  0
SCALE
  5
61
102
{ACAD_REACTORS
330
47
102
}
330
47
100
AcDbScale
 70
     0
300
3/8" = 1'-0"
140
0.375
141
12.0
290
     0
  0
SCALE
  5
62
102
{ACAD_REACTORS
330
47
102
}
330
47
100
AcDbScale
 70
     0
300
1/2" = 1'-0"
140
0.5
141
12.0
290
     0
  0
SCALE
  5
63
102
{ACAD_REACTORS
330
47
102
}
330
47
100
AcDbScale
 70
     0
300
3/4" = 1'-0"
140
0.75
141
12.0
290
     0
  0
SCALE
  5
64
102
{ACAD_REACTORS
330
47
102
}
330
47
100
AcDbScale
 70
     0
300
1" = 1'-0"
140
1.0
141
12.0
290
     0
  0
SCALE
  5
65
102
{ACAD_REACTORS
330
47
102
}
330
47
100
AcDbScale
 70
     0
300
1-1/2" = 1'-0"
140
1.5
141
12.0
290
     0
  0
SCALE
  5
66
102
{ACAD_REACTORS
330
47
102
}
330
47
100
AcDbScale
 70
     0
300
3" = 1'-0"
140
3.0
141
12.0
290
     0
  0
SCALE
  5
67
102
{ACAD_REACTORS
330
47
102
}
330
47
100
AcDbScale
 70
     0
300
6" = 1'-0"
140
6.0
141
12.0
290
     0
  0
SCALE
  5
68
102
{ACAD_REACTORS
330
47
102
}
330
47
100
AcDbScale
 70
     0
300
1'-0" = 1'-0"
140
12.0
141
12.0
290
     0
  0
TABLESTYLE
  5
6A
102
{ACAD_REACTORS
330
69
102
}
102
{ACAD_XDICTIONARY
360
190
102
}
330
69
100
AcDbTableStyle
  3
Standard
 70
     0
 71
     0
 40
0.06
 41
0.06
280
     0
281
     0
  7
Standard
140
4.5
170
     2
 62
     0
 63
   257
283
     0
 90
        4
 91
        0
  1

274
    -2
284
     1
 64
     0
275
    -2
285
     1
 65
     0
276
    -2
286
     1
 66
     0
277
    -2
287
     1
 67
     0
278
    -2
288
     1
 68
     0
279
    -2
289
     1
 69
     0
  7
Standard
140
6.0
170
     5
 62
     0
 63
   257
283
     0
 90
        4
 91
        0
  1

274
    -2
284
     1
 64
     0
275
    -2
285
     1
 65
     0
276
    -2
286
     1
 66
     0
277
    -2
287
     1
 67
     0
278
    -2
288
     1
 68
     0
279
    -2
289
     1
 69
     0
  7
Standard
140
4.5
170
     5
 62
     0
 63
   257
283
     0
 90
        4
 91
        0
  1

274
    -2
284
     1
 64
     0
275
    -2
285
     1
 65
     0
276
    -2
286
     1
 66
     0
277
    -2
287
     1
 67
     0
278
    -2
288
     1
 68
     0
279
    -2
289
     1
 69
     0
  0
VISUALSTYLE
  5
2F
102
{ACAD_REACTORS
330
2A
102
}
330
2A
100
AcDbVisualStyle
  2
2dWireframe
 70
     4
177
     3
291
     0
 70
    58
 90
        0
176
     1
 90
        2
176
     1
 90
        0
176
     1
 90
        0
176
     1
 40
0.6
176
     1
 40
30.0
176
     1
 62
     7
420
 16777215
176
     1
 90
        1
176
     1
 90
        4
176
     1
 62
     7
176
     1
 62
   257
176
     1
 90
        1
176
     1
 90
        1
176
     1
 40
1.0
176
     1
 90
        0
176
     1
 62
   257
176
     1
 40
1.0
176
     1
 90
        1
176
     1
 90
        6
176
     1
 90
        2
176
     1
 62
     7
176
     1
 90
        5
176
     1
 90
        0
176
     1
 90
        0
176
     1
290
     0
176
     1
 90
        1
176
     1
 40
0.0
176
     1
 90
        0
176
     1
290
     1
176
     1
290
     1
176
     1
290
     0
176
     1
290
     0
176
     1
290
     0
176
     1
290
     0
176
     1
290
     0
176
     1
290
     0
176
     1
290
     0
176
     1
 90
       50
176
     1
 40
0.0
176
     1
 40
1.0
176
     1
 90
        0
176
     1
 62
    18
420
        0
176
     1
 90
       50
176
     1
 90
        3
176
     1
 62
     5
420
      255
176
     1
290
     0
176
     1
 90
       50
176
     1
 90
       50
176
     1
 90
       50
176
     1
290
     0
176
     1
 90
       50
176
     1
 62
   256
176
     0
 40
1.0
176
     0
 90
        2
176
     1
  1
strokes_ogs.tif
176
     1
290
     0
176
     1
 40
1.0
176
     1
 40
1.0
176
     1
  0
VISUALSTYLE
  5
32
102
{ACAD_REACTORS
330
2A
102
}
330
2A
100
AcDbVisualStyle
  2
Basic
 70
     7
177
     3
291
     1
 70
    58
 90
        1
176
     1
 90
        0
176
     1
 90
        1
176
     1
 90
        0
176
     1
 40
0.6
176
     1
 40
30.0
176
     1
 62
     7
420
 16777215
176
     1
 90
        0
176
     1
 90
        4
176
     1
 62
     7
176
     1
 62
   257
176
     1
 90
        1
176
     1
 90
        1
176
     1
 40
1.0
176
     1
 90
        8
176
     1
 62
     7
176
     1
 40
1.0
176
     1
 90
        1
176
     1
 90
        6
176
     1
 90
        2
176
     1
 62
     7
176
     1
 90
        5
176
     1
 90
        0
176
     1
 90
        0
176
     1
290
     0
176
     1
 90
        1
176
     1
 40
0.0
176
     1
 90
        0
176
     1
290
     0
176
     1
290
     1
176
     1
290
     1
176
     1
290
     0
176
     1
290
     0
176
     1
290
     0
176
     1
290
     0
176
     1
290
     0
176
     1
290
     0
176
     1
 90
       50
176
     1
 40
0.0
176
     1
 40
1.0
176
     1
 90
        0
176
     1
 62
    18
420
        0
176
     1
 90
       50
176
     1
 90
        3
176
     1
 62
     5
420
      255
176
     1
290
     0
176
     1
 90
       50
176
     1
 90
       50
176
     1
 90
       50
176
     1
290
     0
176
     1
 90
       50
176
     1
 62
   256
176
     0
 40
1.0
176
     0
 90
        2
176
     1
  1
strokes_ogs.tif
176
     1
290
     0
176
     1
 40
1.0
176
     1
 40
1.0
176
     1
  0
VISUALSTYLE
  5
36
102
{ACAD_REACTORS
330
2A
102
}
330
2A
100
AcDbVisualStyle
  2
Brighten
 70
    12
177
     3
291
     1
 70
    58
 90
        2
176
     1
 90
        2
176
     1
 90
        0
176
     1
 90
        0
176
     1
 40
0.6
176
     1
 40
30.0
176
     1
 62
     7
420
 16777215
176
     1
 90
        1
176
     1
 90
        4
176
     1
 62
     7
176
     1
 62
   257
176
     1
 90
        1
176
     1
 90
        1
176
     1
 40
1.0
176
     1
 90
        8
176
     1
 62
     7
176
     1
 40
1.0
176
     1
 90
        1
176
     1
 90
        6
176
     1
 90
        2
176
     1
 62
     7
176
     1
 90
        5
176
     1
 90
        0
176
     1
 90
        0
176
     1
290
     0
176
     1
 90
        1
176
     1
 40
50.0
176
     1
 90
        0
176
     1
290
     0
176
     1
290
     1
176
     1
290
     1
176
     1
290
     0
176
     1
290
     0
176
     1
290
     0
176
     1
290
     0
176
     1
290
     0
176
     1
290
     0
176
     1
 90
       50
176
     1
 40
0.0
176
     1
 40
1.0
176
     1
 90
        0
176
     1
 62
    18
420
        0
176
     1
 90
       50
176
     1
 90
        3
176
     1
 62
     5
420
      255
176
     1
290
     0
176
     1
 90
       50
176
     1
 90
       50
176
     1
 90
       50
176
     1
290
     0
176
     1
 90
       50
176
     1
 62
   256
176
     0
 40
1.0
176
     0
 90
        2
176
     1
  1
strokes_ogs.tif
176
     1
290
     0
176
     1
 40
1.0
176
     1
 40
1.0
176
     1
  0
VISUALSTYLE
  5
3A
102
{ACAD_REACTORS
330
2A
102
}
330
2A
100
AcDbVisualStyle
  2
ColorChange
 70
    16
177
     3
291
     1
 70
    58
 90
        2
176
     1
 90
        2
176
     1
 90
        3
176
     1
 90
        0
176
     1
 40
0.6
176
     1
 40
30.0
176
     1
 62
     8
420
  8421504
176
     1
 90
        1
176
     1
 90
        4
176
     1
 62
     7
176
     1
 62
   257
176
     1
 90
        1
176
     1
 90
        1
176
     1
 40
1.0
176
     1
 90
        8
176
     1
 62
     8
420
  8421504
176
     1
 40
1.0
176
     1
 90
        1
176
     1
 90
        6
176
     1
 90
        2
176
     1
 62
     7
176
     1
 90
        5
176
     1
 90
        0
176
     1
 90
        0
176
     1
290
     0
176
     1
 90
        1
176
     1
 40
0.0
176
     1
 90
        0
176
     1
290
     0
176
     1
290
     1
176
     1
290
     1
176
     1
290
     0
176
     1
290
     0
176
     1
290
     0
176
     1
290
     0
176
     1
290
     0
176
     1
290
     0
176
     1
 90
       50
176
     1
 40
0.0
176
     1
 40
1.0
176
     1
 90
        0
176
     1
 62
    18
420
        0
176
     1
 90
       50
176
     1
 90
        3
176
     1
 62
     5
420
      255
176
     1
290
     0
176
     1
 90
       50
176
     1
 90
       50
176
     1
 90
       50
176
     1
290
     0
176
     1
 90
       50
176
     1
 62
   256
176
     0
 40
1.0
176
     0
 90
        2
176
     1
  1
strokes_ogs.tif
176
     1
290
     0
176
     1
 40
1.0
176
     1
 40
1.0
176
     1
  0
VISUALSTYLE
  5
34
102
{ACAD_REACTORS
330
2A
102
}
330
2A
100
AcDbVisualStyle
  2
Conceptual
 70
     9
177
     3
291
     0
 70
    58
 90
        3
176
     1
 90
        2
176
     1
 90
        0
176
     1
 90
        0
176
     1
 40
0.6
176
     1
 40
30.0
176
     1
 62
     7
420
 16777215
176
     1
 90
        2
176
     1
 90
        2
176
     1
 62
     7
176
     1
 62
   257
176
     1
 90
        1
176
     1
 90
        1
176
     1
 40
179.0
176
     1
 90
        8
176
     1
 62
     7
176
     1
 40
1.0
176
     1
 90
        1
176
     1
 90
        6
176
     1
 90
        2
176
     1
 62
     7
176
     1
 90
        3
176
     1
 90
        0
176
     1
 90
        0
176
     1
290
     0
176
     1
 90
        1
176
     1
 40
0.0
176
     1
 90
        0
176
     1
290
     0
176
     1
290
     1
176
     1
290
     1
176
     1
290
     0
176
     1
290
     0
176
     1
290
     0
176
     1
290
     0
176
     1
290
     0
176
     1
290
     0
176
     1
 90
       50
176
     1
 40
0.0
176
     1
 40
1.0
176
     1
 90
        0
176
     1
 62
    18
420
        0
176
     1
 90
       50
176
     1
 90
        3
176
     1
 62
     5
420
      255
176
     1
290
     0
176
     1
 90
       50
176
     1
 90
       50
176
     1
 90
       50
176
     1
290
     0
176
     1
 90
       50
176
     1
 62
   256
176
     0
 40
1.0
176
     0
 90
        2
176
     1
  1
strokes_ogs.tif
176
     1
290
     0
176
     1
 40
1.0
176
     1
 40
1.0
176
     1
  0
VISUALSTYLE
  5
35
102
{ACAD_REACTORS
330
2A
102
}
330
2A
100
AcDbVisualStyle
  2
Dim
 70
    11
177
     3
291
     1
 70
    58
 90
        2
176
     1
 90
        2
176
     1
 90
        0
176
     1
 90
        0
176
     1
 40
0.6
176
     1
 40
30.0
176
     1
 62
     7
420
 16777215
176
     1
 90
        1
176
     1
 90
        4
176
     1
 62
     7
176
     1
 62
   257
176
     1
 90
        1
176
     1
 90
        1
176
     1
 40
1.0
176
     1
 90
        8
176
     1
 62
     7
176
     1
 40
1.0
176
     1
 90
        1
176
     1
 90
        6
176
     1
 90
        2
176
     1
 62
     7
176
     1
 90
        5
176
     1
 90
        0
176
     1
 90
        0
176
     1
290
     0
176
     1
 90
        1
176
     1
 40
-50.0
176
     1
 90
        0
176
     1
290
     0
176
     1
290
     1
176
     1
290
     1
176
     1
290
     0
176
     1
290
     0
176
     1
290
     0
176
     1
290
     0
176
     1
290
     0
176
     1
290
     0
176
     1
 90
       50
176
     1
 40
0.0
176
     1
 40
1.0
176
     1
 90
        0
176
     1
 62
    18
420
        0
176
     1
 90
       50
176
     1
 90
        3
176
     1
 62
     5
420
      255
176
     1
290
     0
176
     1
 90
       50
176
     1
 90
       50
176
     1
 90
       50
176
     1
290
     0
176
     1
 90
       50
176
     1
 62
   256
176
     0
 40
1.0
176
     0
 90
        2
176
     1
  1
strokes_ogs.tif
176
     1
290
     0
176
     1
 40
1.0
176
     1
 40
1.0
176
     1
  0
VISUALSTYLE
  5
3D
102
{ACAD_REACTORS
330
2A
102
}
330
2A
100
AcDbVisualStyle
  2
EdgeColorOff
 70
    22
177
     3
291
     1
 70
    58
 90
        2
176
     0
 90
        2
176
     0
 90
        0
176
     0
 90
        0
176
     0
 40
0.6
176
     0
 40
30.0
176
     0
 62
     7
420
 16777215
176
     0
 90
        1
176
     0
 90
        4
176
     0
 62
     7
176
     0
 62
   257
176
     0
 90
        1
176
     0
 90
        1
176
     0
 40
1.0
176
     0
 90
        8
176
     2
 62
     7
176
     0
 40
1.0
176
     0
 90
        1
176
     0
 90
        6
176
     0
 90
        2
176
     0
 62
     7
176
     0
 90
        5
176
     0
 90
        0
176
     0
 90
        0
176
     0
290
     0
176
     0
 90
        1
176
     0
 40
0.0
176
     0
 90
        0
176
     0
290
     0
176
     0
290
     1
176
     0
290
     1
176
     0
290
     0
176
     0
290
     0
176
     0
290
     0
176
     0
290
     0
176
     0
290
     0
176
     0
290
     0
176
     0
 90
       50
176
     0
 40
0.0
176
     0
 40
1.0
176
     0
 90
        0
176
     0
 62
    18
420
        0
176
     0
 90
       50
176
     0
 90
        3
176
     0
 62
     5
420
      255
176
     0
290
     0
176
     0
 90
       50
176
     0
 90
       50
176
     0
 90
       50
176
     0
290
     0
176
     0
 90
       50
176
     0
 62
   256
176
     0
 40
1.0
176
     0
 90
        2
176
     0
  1
strokes_ogs.tif
176
     0
290
     0
176
     0
 40
1.0
176
     0
 40
1.0
176
     0
  0
VISUALSTYLE
  5
39
102
{ACAD_REACTORS
330
2A
102
}
330
2A
100
AcDbVisualStyle
  2
Facepattern
 70
    15
177
     3
291
     1
 70
    58
 90
        2
176
     1
 90
        2
176
     1
 90
        0
176
     1
 90
        0
176
     1
 40
0.6
176
     1
 40
30.0
176
     1
 62
     7
420
 16777215
176
     1
 90
        1
176
     1
 90
        4
176
     1
 62
     7
176
     1
 62
   257
176
     1
 90
        1
176
     1
 90
        1
176
     1
 40
1.0
176
     1
 90
        8
176
     1
 62
     7
176
     1
 40
1.0
176
     1
 90
        1
176
     1
 90
        6
176
     1
 90
        2
176
     1
 62
     7
176
     1
 90
        5
176
     1
 90
        0
176
     1
 90
        0
176
     1
290
     0
176
     1
 90
        1
176
     1
 40
0.0
176
     1
 90
        0
176
     1
290
     0
176
     1
290
     1
176
     1
290
     1
176
     1
290
     0
176
     1
290
     0
176
     1
290
     0
176
     1
290
     0
176
     1
290
     0
176
     1
290
     0
176
     1
 90
       50
176
     1
 40
0.0
176
     1
 40
1.0
176
     1
 90
        0
176
     1
 62
    18
420
        0
176
     1
 90
       50
176
     1
 90
        3
176
     1
 62
     5
420
      255
176
     1
290
     0
176
     1
 90
       50
176
     1
 90
       50
176
     1
 90
       50
176
     1
290
     0
176
     1
 90
       50
176
     1
 62
   256
176
     0
 40
1.0
176
     0
 90
        2
176
     1
  1
strokes_ogs.tif
176
     1
290
     0
176
     1
 40
1.0
176
     1
 40
1.0
176
     1
  0
VISUALSTYLE
  5
2B
102
{ACAD_REACTORS
330
2A
102
}
330
2A
100
AcDbVisualStyle
  2
Flat
 70
     0
177
     3
291
     1
 70
    58
 90
        2
176
     1
 90
        1
176
     1
 90
        1
176
     1
 90
        2
176
     1
 40
0.6
176
     1
 40
30.0
176
     1
 62
     7
420
 16777215
176
     1
 90
        0
176
     1
 90
        0
176
     1
 62
     7
176
     1
 62
   257
176
     1
 90
        1
176
     1
 90
        1
176
     1
 40
1.0
176
     1
 90
        8
176
     1
 62
     7
176
     1
 40
1.0
176
     1
 90
        1
176
     1
 90
        6
176
     1
 90
        2
176
     1
 62
     7
176
     1
 90
        5
176
     1
 90
        0
176
     1
 90
        0
176
     1
290
     0
176
     1
 90
       13
176
     1
 40
0.0
176
     1
 90
        0
176
     1
290
     0
176
     1
290
     1
176
     1
290
     1
176
     1
290
     0
176
     1
290
     0
176
     1
290
     0
176
     1
290
     0
176
     1
290
     0
176
     1
290
     0
176
     1
 90
       50
176
     1
 40
0.0
176
     1
 40
1.0
176
     1
 90
        0
176
     1
 62
    18
420
        0
176
     1
 90
       50
176
     1
 90
        3
176
     1
 62
     5
420
      255
176
     1
290
     0
176
     1
 90
       50
176
     1
 90
       50
176
     1
 90
       50
176
     1
290
     0
176
     1
 90
       50
176
     1
 62
   256
176
     0
 40
1.0
176
     0
 90
        2
176
     1
  1
strokes_ogs.tif
176
     1
290
     0
176
     1
 40
1.0
176
     1
 40
1.0
176
     1
  0
VISUALSTYLE
  5
2C
102
{ACAD_REACTORS
330
2A
102
}
330
2A
100
AcDbVisualStyle
  2
FlatWithEdges
 70
     1
177
     3
291
     1
 70
    58
 90
        2
176
     1
 90
        1
176
     1
 90
        1
176
     1
 90
        2
176
     1
 40
0.6
176
     1
 40
30.0
176
     1
 62
     7
420
 16777215
176
     1
 90
        1
176
     1
 90
        0
176
     1
 62
     7
176
     1
 62
   257
176
     1
 90
        1
176
     1
 90
        1
176
     1
 40
1.0
176
     1
 90
        0
176
     1
 62
   257
176
     1
 40
1.0
176
     1
 90
        1
176
     1
 90
        6
176
     1
 90
        2
176
     1
 62
     7
176
     1
 90
        5
176
     1
 90
        0
176
     1
 90
        0
176
     1
290
     0
176
     1
 90
       13
176
     1
 40
0.0
176
     1
 90
        0
176
     1
290
     0
176
     1
290
     1
176
     1
290
     1
176
     1
290
     0
176
     1
290
     0
176
     1
290
     0
176
     1
290
     0
176
     1
290
     0
176
     1
290
     0
176
     1
 90
       50
176
     1
 40
0.0
176
     1
 40
1.0
176
     1
 90
        0
176
     1
 62
    18
420
        0
176
     1
 90
       50
176
     1
 90
        3
176
     1
 62
     5
420
      255
176
     1
290
     0
176
     1
 90
       50
176
     1
 90
       50
176
     1
 90
       50
176
     1
290
     0
176
     1
 90
       50
176
     1
 62
   256
176
     0
 40
1.0
176
     0
 90
        2
176
     1
  1
strokes_ogs.tif
176
     1
290
     0
176
     1
 40
1.0
176
     1
 40
1.0
176
     1
  0
VISUALSTYLE
  5
2D
102
{ACAD_REACTORS
330
2A
102
}
330
2A
100
AcDbVisualStyle
  2
Gouraud
 70
     2
177
     3
291
     1
 70
    58
 90
        2
176
     1
 90
        2
176
     1
 90
        1
176
     1
 90
        2
176
     1
 40
0.6
176
     1
 40
30.0
176
     1
 62
     7
420
 16777215
176
     1
 90
        0
176
     1
 90
        0
176
     1
 62
     7
176
     1
 62
   257
176
     1
 90
        1
176
     1
 90
        1
176
     1
 40
1.0
176
     1
 90
        0
176
     1
 62
     7
176
     1
 40
1.0
176
     1
 90
        1
176
     1
 90
        6
176
     1
 90
        2
176
     1
 62
     7
176
     1
 90
        5
176
     1
 90
        0
176
     1
 90
        0
176
     1
290
     0
176
     1
 90
       13
176
     1
 40
0.0
176
     1
 90
        0
176
     1
290
     0
176
     1
290
     1
176
     1
290
     1
176
     1
290
     0
176
     1
290
     0
176
     1
290
     0
176
     1
290
     0
176
     1
290
     0
176
     1
290
     0
176
     1
 90
       50
176
     1
 40
0.0
176
     1
 40
1.0
176
     1
 90
        0
176
     1
 62
    18
420
        0
176
     1
 90
       50
176
     1
 90
        3
176
     1
 62
     5
420
      255
176
     1
290
     0
176
     1
 90
       50
176
     1
 90
       50
176
     1
 90
       50
176
     1
290
     0
176
     1
 90
       50
176
     1
 62
   256
176
     0
 40
1.0
176
     0
 90
        2
176
     1
  1
strokes_ogs.tif
176
     1
290
     0
176
     1
 40
1.0
176
     1
 40
1.0
176
     1
  0
VISUALSTYLE
  5
2E
102
{ACAD_REACTORS
330
2A
102
}
330
2A
100
AcDbVisualStyle
  2
GouraudWithEdges
 70
     3
177
     3
291
     1
 70
    58
 90
        2
176
     1
 90
        2
176
     1
 90
        1
176
     1
 90
        2
176
     1
 40
0.6
176
     1
 40
30.0
176
     1
 62
     7
420
 16777215
176
     1
 90
        1
176
     1
 90
        0
176
     1
 62
     7
176
     1
 62
   257
176
     1
 90
        1
176
     1
 90
        1
176
     1
 40
1.0
176
     1
 90
        0
176
     1
 62
   257
176
     1
 40
1.0
176
     1
 90
        1
176
     1
 90
        6
176
     1
 90
        2
176
     1
 62
     7
176
     1
 90
        5
176
     1
 90
        0
176
     1
 90
        0
176
     1
290
     0
176
     1
 90
       13
176
     1
 40
0.0
176
     1
 90
        0
176
     1
290
     0
176
     1
290
     1
176
     1
290
     1
176
     1
290
     0
176
     1
290
     0
176
     1
290
     0
176
     1
290
     0
176
     1
290
     0
176
     1
290
     0
176
     1
 90
       50
176
     1
 40
0.0
176
     1
 40
1.0
176
     1
 90
        0
176
     1
 62
    18
420
        0
176
     1
 90
       50
176
     1
 90
        3
176
     1
 62
     5
420
      255
176
     1
290
     0
176
     1
 90
       50
176
     1
 90
       50
176
     1
 90
       50
176
     1
290
     0
176
     1
 90
       50
176
     1
 62
   256
176
     0
 40
1.0
176
     0
 90
        2
176
     1
  1
strokes_ogs.tif
176
     1
290
     0
176
     1
 40
1.0
176
     1
 40
1.0
176
     1
  0
VISUALSTYLE
  5
31
102
{ACAD_REACTORS
330
2A
102
}
330
2A
100
AcDbVisualStyle
  2
Hidden
 70
     6
177
     3
291
     0
 70
    58
 90
        1
176
     1
 90
        2
176
     1
 90
        2
176
     1
 90
        0
176
     1
 40
0.6
176
     1
 40
30.0
176
     1
 62
     7
420
 16777215
176
     1
 90
        2
176
     1
 90
        2
176
     1
 62
     7
176
     1
 62
   257
176
     1
 90
        2
176
     1
 90
        1
176
     1
 40
40.0
176
     1
 90
        0
176
     1
 62
   257
176
     1
 40
1.0
176
     1
 90
        1
176
     1
 90
        6
176
     1
 90
        2
176
     1
 62
     7
176
     1
 90
        3
176
     1
 90
        0
176
     1
 90
        0
176
     1
290
     0
176
     1
 90
        1
176
     1
 40
0.0
176
     1
 90
        0
176
     1
290
     0
176
     1
290
     1
176
     1
290
     1
176
     1
290
     0
176
     1
290
     0
176
     1
290
     0
176
     1
290
     0
176
     1
290
     0
176
     1
290
     0
176
     1
 90
       50
176
     1
 40
0.0
176
     1
 40
1.0
176
     1
 90
        0
176
     1
 62
    18
420
        0
176
     1
 90
       50
176
     1
 90
        3
176
     1
 62
     5
420
      255
176
     1
290
     0
176
     1
 90
       50
176
     1
 90
       50
176
     1
 90
       50
176
     1
290
     0
176
     1
 90
       50
176
     1
 62
   256
176
     0
 40
1.0
176
     0
 90
        2
176
     1
  1
strokes_ogs.tif
176
     1
290
     0
176
     1
 40
1.0
176
     1
 40
1.0
176
     1
  0
VISUALSTYLE
  5
3B
102
{ACAD_REACTORS
330
2A
102
}
330
2A
100
AcDbVisualStyle
  2
JitterOff
 70
    20
177
     3
291
     1
 70
    58
 90
        2
176
     0
 90
        2
176
     0
 90
        0
176
     0
 90
        0
176
     0
 40
0.6
176
     0
 40
30.0
176
     0
 62
     7
420
 16777215
176
     0
 90
        1
176
     0
 90
        4
176
     0
 62
     7
176
     0
 62
   257
176
     0
 90
        1
176
     0
 90
        1
176
     0
 40
1.0
176
     0
 90
       10
176
     2
 62
     7
176
     0
 40
1.0
176
     0
 90
        1
176
     0
 90
        6
176
     0
 90
        2
176
     0
 62
     7
176
     0
 90
        5
176
     0
 90
        0
176
     0
 90
        0
176
     0
290
     0
176
     0
 90
        1
176
     0
 40
0.0
176
     0
 90
        0
176
     0
290
     0
176
     0
290
     1
176
     0
290
     1
176
     0
290
     0
176
     0
290
     0
176
     0
290
     0
176
     0
290
     0
176
     0
290
     0
176
     0
290
     0
176
     0
 90
       50
176
     0
 40
0.0
176
     0
 40
1.0
176
     0
 90
        0
176
     0
 62
    18
420
        0
176
     0
 90
       50
176
     0
 90
        3
176
     0
 62
     5
420
      255
176
     0
290
     0
176
     0
 90
       50
176
     0
 90
       50
176
     0
 90
       50
176
     0
290
     0
176
     0
 90
       50
176
     0
 62
   256
176
     0
 40
1.0
176
     0
 90
        2
176
     0
  1
strokes_ogs.tif
176
     0
290
     0
176
     0
 40
1.0
176
     0
 40
1.0
176
     0
  0
VISUALSTYLE
  5
38
102
{ACAD_REACTORS
330
2A
102
}
330
2A
100
AcDbVisualStyle
  2
Linepattern
 70
    14
177
     3
291
     1
 70
    58
 90
        2
176
     1
 90
        2
176
     1
 90
        0
176
     1
 90
        0
176
     1
 40
0.6
176
     1
 40
30.0
176
     1
 62
     7
420
 16777215
176
     1
 90
        1
176
     1
 90
        4
176
     1
 62
     7
176
     1
 62
   257
176
     1
 90
        7
176
     1
 90
        7
176
     1
 40
1.0
176
     1
 90
        8
176
     1
 62
     7
176
     1
 40
1.0
176
     1
 90
        1
176
     1
 90
        6
176
     1
 90
        2
176
     1
 62
     7
176
     1
 90
        5
176
     1
 90
        0
176
     1
 90
        0
176
     1
290
     0
176
     1
 90
        1
176
     1
 40
0.0
176
     1
 90
        0
176
     1
290
     0
176
     1
290
     1
176
     1
290
     1
176
     1
290
     0
176
     1
290
     0
176
     1
290
     0
176
     1
290
     0
176
     1
290
     0
176
     1
290
     0
176
     1
 90
       50
176
     1
 40
0.0
176
     1
 40
1.0
176
     1
 90
        0
176
     1
 62
    18
420
        0
176
     1
 90
       50
176
     1
 90
        3
176
     1
 62
     5
420
      255
176
     1
290
     0
176
     1
 90
       50
176
     1
 90
       50
176
     1
 90
       50
176
     1
290
     0
176
     1
 90
       50
176
     1
 62
   256
176
     0
 40
1.0
176
     0
 90
        2
176
     1
  1
strokes_ogs.tif
176
     1
290
     0
176
     1
 40
1.0
176
     1
 40
1.0
176
     1
  0
VISUALSTYLE
  5
3C
102
{ACAD_REACTORS
330
2A
102
}
330
2A
100
AcDbVisualStyle
  2
OverhangOff
 70
    21
177
     3
291
     1
 70
    58
 90
        2
176
     0
 90
        2
176
     0
 90
        0
176
     0
 90
        0
176
     0
 40
0.6
176
     0
 40
30.0
176
     0
 62
     7
420
 16777215
176
     0
 90
        1
176
     0
 90
        4
176
     0
 62
     7
176
     0
 62
   257
176
     0
 90
        1
176
     0
 90
        1
176
     0
 40
1.0
176
     0
 90
        9
176
     2
 62
     7
176
     0
 40
1.0
176
     0
 90
        1
176
     0
 90
        6
176
     0
 90
        2
176
     0
 62
     7
176
     0
 90
        5
176
     0
 90
        0
176
     0
 90
        0
176
     0
290
     0
176
     0
 90
        1
176
     0
 40
0.0
176
     0
 90
        0
176
     0
290
     0
176
     0
290
     1
176
     0
290
     1
176
     0
290
     0
176
     0
290
     0
176
     0
290
     0
176
     0
290
     0
176
     0
290
     0
176
     0
290
     0
176
     0
 90
       50
176
     0
 40
0.0
176
     0
 40
1.0
176
     0
 90
        0
176
     0
 62
    18
420
        0
176
     0
 90
       50
176
     0
 90
        3
176
     0
 62
     5
420
      255
176
     0
290
     0
176
     0
 90
       50
176
     0
 90
       50
176
     0
 90
       50
176
     0
290
     0
176
     0
 90
       50
176
     0
 62
   256
176
     0
 40
1.0
176
     0
 90
        2
176
     0
  1
strokes_ogs.tif
176
     0
290
     0
176
     0
 40
1.0
176
     0
 40
1.0
176
     0
  0
VISUALSTYLE
  5
33
102
{ACAD_REACTORS
330
2A
102
}
330
2A
100
AcDbVisualStyle
  2
Realistic
 70
     8
177
     3
291
     0
 70
    58
 90
        2
176
     1
 90
        3
176
     1
 90
        0
176
     1
 90
        2
176
     1
 40
0.6
176
     1
 40
30.0
176
     1
 62
     7
420
 16777215
176
     1
 90
        0
176
     1
 90
        0
176
     1
 62
     7
176
     1
 62
   257
176
     1
 90
        1
176
     1
 90
        1
176
     1
 40
1.0
176
     1
 90
        8
176
     1
 62
   257
176
     1
 40
1.0
176
     1
 90
        1
176
     1
 90
        6
176
     1
 90
        2
176
     1
 62
     7
176
     1
 90
        3
176
     1
 90
        0
176
     1
 90
        0
176
     1
290
     0
176
     1
 90
       13
176
     1
 40
0.0
176
     1
 90
        0
176
     1
290
     0
176
     1
290
     1
176
     1
290
     1
176
     1
290
     0
176
     1
290
     0
176
     1
290
     0
176
     1
290
     0
176
     1
290
     0
176
     1
290
     0
176
     1
 90
       50
176
     1
 40
0.0
176
     1
 40
1.0
176
     1
 90
        0
176
     1
 62
    18
420
        0
176
     1
 90
       50
176
     1
 90
        3
176
     1
 62
     5
420
      255
176
     1
290
     0
176
     1
 90
       50
176
     1
 90
       50
176
     1
 90
       50
176
     1
290
     0
176
     1
 90
       50
176
     1
 62
   256
176
     0
 40
1.0
176
     0
 90
        2
176
     1
  1
strokes_ogs.tif
176
     1
290
     0
176
     1
 40
1.0
176
     1
 40
1.0
176
     1
  0
VISUALSTYLE
  5
42
102
{ACAD_REACTORS
330
2A
102
}
330
2A
100
AcDbVisualStyle
  2
Shaded
 70
    27
177
     3
291
     0
 70
    58
 90
        2
176
     1
 90
        2
176
     1
 90
        1
176
     1
 90
        2
176
     1
 40
0.6
176
     1
 40
30.0
176
     1
 62
     7
420
 16777215
176
     1
 90
        0
176
     1
 90
        4
176
     1
 62
     7
176
     1
 62
   257
176
     1
 90
        1
176
     1
 90
        1
176
     1
 40
1.0
176
     1
 90
        8
176
     1
 62
   257
176
     1
 40
1.0
176
     1
 90
        1
176
     1
 90
        6
176
     1
 90
        2
176
     1
 62
     8
420
  7895160
176
     1
 90
        3
176
     1
 90
        0
176
     1
 90
        0
176
     1
290
     0
176
     1
 90
        5
176
     1
 40
0.0
176
     1
 90
        0
176
     1
290
     0
176
     1
290
     1
176
     1
290
     1
176
     1
290
     0
176
     1
290
     0
176
     1
290
     0
176
     1
290
     0
176
     1
290
     0
176
     1
290
     0
176
     1
 90
       50
176
     1
 40
0.0
176
     1
 40
1.0
176
     1
 90
        0
176
     1
 62
    18
420
        0
176
     1
 90
       50
176
     1
 90
        3
176
     1
 62
     5
420
      255
176
     1
290
     0
176
     1
 90
       50
176
     1
 90
       50
176
     1
 90
       50
176
     1
290
     0
176
     1
 90
       50
176
     1
 62
   256
176
     0
 40
1.0
176
     0
 90
        2
176
     1
  1
strokes_ogs.tif
176
     1
290
     0
176
     1
 40
1.0
176
     1
 40
1.0
176
     1
  0
VISUALSTYLE
  5
41
102
{ACAD_REACTORS
330
2A
102
}
330
2A
100
AcDbVisualStyle
  2
Shaded with edges
 70
    26
177
     3
291
     0
 70
    58
 90
        2
176
     1
 90
        2
176
     1
 90
        1
176
     1
 90
        2
176
     1
 40
0.6
176
     1
 40
30.0
176
     1
 62
     7
420
 16777215
176
     1
 90
        1
176
     1
 90
       10
176
     1
 62
     7
176
     1
 62
   257
176
     1
 90
        2
176
     1
 90
        1
176
     1
 40
1.0
176
     1
 90
        8
176
     1
 62
   257
176
     1
 40
1.0
176
     1
 90
        1
176
     1
 90
        6
176
     1
 90
        2
176
     1
 62
     7
176
     1
 90
        3
176
     1
 90
        0
176
     1
 90
        0
176
     1
290
     0
176
     1
 90
        5
176
     1
 40
0.0
176
     1
 90
        0
176
     1
290
     0
176
     1
290
     1
176
     1
290
     1
176
     1
290
     0
176
     1
290
     0
176
     1
290
     0
176
     1
290
     0
176
     1
290
     0
176
     1
290
     0
176
     1
 90
       50
176
     1
 40
0.0
176
     1
 40
1.0
176
     1
 90
        0
176
     1
 62
    18
420
        0
176
     1
 90
       50
176
     1
 90
        3
176
     1
 62
     5
420
      255
176
     1
290
     0
176
     1
 90
       50
176
     1
 90
       50
176
     1
 90
       50
176
     1
290
     0
176
     1
 90
       50
176
     1
 62
   256
176
     0
 40
1.0
176
     0
 90
        2
176
     1
  1
strokes_ogs.tif
176
     1
290
     0
176
     1
 40
1.0
176
     1
 40
1.0
176
     1
  0
VISUALSTYLE
  5
3E
102
{ACAD_REACTORS
330
2A
102
}
330
2A
100
AcDbVisualStyle
  2
Shades of Gray
 70
    23
177
     3
291
     0
 70
    58
 90
        2
176
     1
 90
        2
176
     1
 90
        3
176
     1
 90
        0
176
     1
 40
0.6
176
     1
 40
30.0
176
     1
 62
     7
420
 16777215
176
     1
 90
        2
176
     1
 90
        2
176
     1
 62
     7
176
     1
 62
     7
176
     1
 90
        1
176
     1
 90
        1
176
     1
 40
40.0
176
     1
 90
        8
176
     1
 62
     7
176
     1
 40
1.0
176
     1
 90
        1
176
     1
 90
        6
176
     1
 90
        2
176
     1
 62
     7
176
     1
 90
        3
176
     1
 90
        0
176
     1
 90
        0
176
     1
290
     0
176
     1
 90
        1
176
     1
 40
0.0
176
     1
 90
        0
176
     1
290
     0
176
     1
290
     1
176
     1
290
     1
176
     1
290
     0
176
     1
290
     0
176
     1
290
     0
176
     1
290
     0
176
     1
290
     0
176
     1
290
     0
176
     1
 90
       50
176
     1
 40
0.0
176
     1
 40
1.0
176
     1
 90
        0
176
     1
 62
    18
420
        0
176
     1
 90
       50
176
     1
 90
        3
176
     1
 62
     5
420
      255
176
     1
290
     0
176
     1
 90
       50
176
     1
 90
       50
176
     1
 90
       50
176
     1
290
     0
176
     1
 90
       50
176
     1
 62
   256
176
     0
 40
1.0
176
     0
 90
        2
176
     1
  1
strokes_ogs.tif
176
     1
290
     0
176
     1
 40
1.0
176
     1
 40
1.0
176
     1
  0
VISUALSTYLE
  5
3F
102
{ACAD_REACTORS
330
2A
102
}
330
2A
100
AcDbVisualStyle
  2
Sketchy
 70
    24
177
     3
291
     0
 70
    58
 90
        1
176
     1
 90
        2
176
     1
 90
        2
176
     1
 90
        0
176
     1
 40
0.6
176
     1
 40
30.0
176
     1
 62
     7
420
 16777215
176
     1
 90
        2
176
     1
 90
        2
176
     1
 62
     7
176
     1
 62
     7
176
     1
 90
        1
176
     1
 90
        1
176
     1
 40
40.0
176
     1
 90
       11
176
     1
 62
     7
176
     1
 40
1.0
176
     1
 90
        1
176
     1
 90
        6
176
     1
 90
        2
176
     1
 62
     7
176
     1
 90
        6
176
     1
 90
        0
176
     1
 90
        0
176
     1
290
     0
176
     1
 90
        1
176
     1
 40
0.0
176
     1
 90
        0
176
     1
290
     0
176
     1
290
     1
176
     1
290
     1
176
     1
290
     0
176
     1
290
     0
176
     1
290
     0
176
     1
290
     0
176
     1
290
     0
176
     1
290
     0
176
     1
 90
       50
176
     1
 40
0.0
176
     1
 40
1.0
176
     1
 90
        0
176
     1
 62
    18
420
        0
176
     1
 90
       50
176
     1
 90
        3
176
     1
 62
     5
420
      255
176
     1
290
     0
176
     1
 90
       50
176
     1
 90
       50
176
     1
 90
       50
176
     1
290
     0
176
     1
 90
       50
176
     1
 62
   256
176
     0
 40
1.0
176
     0
 90
        2
176
     1
  1
strokes_ogs.tif
176
     1
290
     0
176
     1
 40
1.0
176
     1
 40
1.0
176
     1
  0
VISUALSTYLE
  5
37
102
{ACAD_REACTORS
330
2A
102
}
330
2A
100
AcDbVisualStyle
  2
Thicken
 70
    13
177
     3
291
     1
 70
    58
 90
        2
176
     1
 90
        2
176
     1
 90
        0
176
     1
 90
        0
176
     1
 40
0.6
176
     1
 40
30.0
176
     1
 62
     7
420
 16777215
176
     1
 90
        1
176
     1
 90
        4
176
     1
 62
     7
176
     1
 62
   257
176
     1
 90
        1
176
     1
 90
        1
176
     1
 40
1.0
176
     1
 90
       12
176
     1
 62
     7
176
     1
 40
1.0
176
     1
 90
        1
176
     1
 90
        6
176
     1
 90
        2
176
     1
 62
     7
176
     1
 90
        5
176
     1
 90
        0
176
     1
 90
        0
176
     1
290
     0
176
     1
 90
        1
176
     1
 40
0.0
176
     1
 90
        0
176
     1
290
     0
176
     1
290
     1
176
     1
290
     1
176
     1
290
     0
176
     1
290
     0
176
     1
290
     0
176
     1
290
     0
176
     1
290
     0
176
     1
290
     0
176
     1
 90
       50
176
     1
 40
0.0
176
     1
 40
1.0
176
     1
 90
        0
176
     1
 62
    18
420
        0
176
     1
 90
       50
176
     1
 90
        3
176
     1
 62
     5
420
      255
176
     1
290
     0
176
     1
 90
       50
176
     1
 90
       50
176
     1
 90
       50
176
     1
290
     0
176
     1
 90
       50
176
     1
 62
   256
176
     0
 40
1.0
176
     0
 90
        2
176
     1
  1
strokes_ogs.tif
176
     1
290
     0
176
     1
 40
1.0
176
     1
 40
1.0
176
     1
  0
VISUALSTYLE
  5
30
102
{ACAD_REACTORS
330
2A
102
}
330
2A
100
AcDbVisualStyle
  2
Wireframe
 70
     5
177
     3
291
     0
 70
    58
 90
        0
176
     1
 90
        2
176
     1
 90
        0
176
     1
 90
        0
176
     1
 40
0.6
176
     1
 40
30.0
176
     1
 62
     7
420
 16777215
176
     1
 90
        1
176
     1
 90
        4
176
     1
 62
     7
176
     1
 62
   257
176
     1
 90
        1
176
     1
 90
        1
176
     1
 40
1.0
176
     1
 90
        0
176
     1
 62
   257
176
     1
 40
1.0
176
     1
 90
        1
176
     1
 90
        6
176
     1
 90
        2
176
     1
 62
     7
176
     1
 90
        3
176
     1
 90
        0
176
     1
 90
        0
176
     1
290
     0
176
     1
 90
        1
176
     1
 40
0.0
176
     1
 90
        0
176
     1
290
     0
176
     1
290
     1
176
     1
290
     1
176
     1
290
     0
176
     1
290
     0
176
     1
290
     0
176
     1
290
     0
176
     1
290
     0
176
     1
290
     0
176
     1
 90
       50
176
     1
 40
0.0
176
     1
 40
1.0
176
     1
 90
        0
176
     1
 62
    18
420
        0
176
     1
 90
       50
176
     1
 90
        3
176
     1
 62
     5
420
      255
176
     1
290
     0
176
     1
 90
       50
176
     1
 90
       50
176
     1
 90
       50
176
     1
290
     0
176
     1
 90
       50
176
     1
 62
   256
176
     0
 40
1.0
176
     0
 90
        2
176
     1
  1
strokes_ogs.tif
176
     1
290
     0
176
     1
 40
1.0
176
     1
 40
1.0
176
     1
  0
VISUALSTYLE
  5
40
102
{ACAD_REACTORS
330
2A
102
}
330
2A
100
AcDbVisualStyle
  2
X-Ray
 70
    25
177
     3
291
     0
 70
    58
 90
        2
176
     1
 90
        2
176
     1
 90
        1
176
     1
 90
        1
176
     1
 40
0.5
176
     1
 40
30.0
176
     1
 62
     7
420
 16777215
176
     1
 90
        1
176
     1
 90
        0
176
     1
 62
     7
176
     1
 62
   257
176
     1
 90
        1
176
     1
 90
        1
176
     1
 40
1.0
176
     1
 90
        8
176
     1
 62
     7
176
     1
 40
1.0
176
     1
 90
        1
176
     1
 90
        6
176
     1
 90
        2
176
     1
 62
     7
176
     1
 90
        3
176
     1
 90
        0
176
     1
 90
        0
176
     1
290
     0
176
     1
 90
       13
176
     1
 40
0.0
176
     1
 90
        0
176
     1
290
     0
176
     1
290
     1
176
     1
290
     1
176
     1
290
     0
176
     1
290
     0
176
     1
290
     0
176
     1
290
     0
176
     1
290
     0
176
     1
290
     0
176
     1
 90
       50
176
     1
 40
0.0
176
     1
 40
1.0
176
     1
 90
        0
176
     1
 62
    18
420
        0
176
     1
 90
       50
176
     1
 90
        3
176
     1
 62
     5
420
      255
176
     1
290
     0
176
     1
 90
       50
176
     1
 90
       50
176
     1
 90
       50
176
     1
290
     0
176
     1
 90
       50
176
     1
 62
   256
176
     0
 40
1.0
176
     0
 90
        2
176
     1
  1
strokes_ogs.tif
176
     1
290
     0
176
     1
 40
1.0
176
     1
 40
1.0
176
     1
  0
DICTIONARYVAR
  5
18F
102
{ACAD_REACTORS
330
18E
102
}
330
18E
100
DictionaryVariables
280
     0
  1
1:1
  0
DICTIONARYVAR
  5
194
102
{ACAD_REACTORS
330
18E
102
}
330
18E
100
DictionaryVariables
280
     0
  1
Standard
  0
DICTIONARYVAR
  5
193
102
{ACAD_REACTORS
330
18E
102
}
330
18E
100
DictionaryVariables
280
     0
  1
Standard
  0
DICTIONARY
  5
190
330
6A
100
AcDbDictionary
280
     1
281
     1
  3
ACAD_ROUNDTRIP_2008_TABLESTYLE_CELLSTYLEMAP
360
191
  0
CELLSTYLEMAP
  5
191
102
{ACAD_REACTORS
330
190
102
}
330
190
100
AcDbCellStyleMap
 90
        3
300
CELLSTYLE
  1
TABLEFORMAT_BEGIN
 90
        5
170
     1
 91
        0
 92
    32768
 62
   257
 93
        1
300
CONTENTFORMAT
  1
CONTENTFORMAT_BEGIN
 90
        0
 91
        0
 92
        4
 93
        0
300

 40
0.0
140
1.0
 94
        5
 62
     0
340
11
144
6.0
309
CONTENTFORMAT_END
171
     1
301
MARGIN
  1
CELLMARGIN_BEGIN
 40
1.5
 40
1.5
 40
1.5
 40
1.5
 40
1.5
 40
1.5
309
CELLMARGIN_END
 94
        6
 95
        1
302
GRIDFORMAT
  1
GRIDFORMAT_BEGIN
 90
        0
 91
        1
 62
     0
 92
       -2
340
14
 93
        0
 40
0.045
309
GRIDFORMAT_END
 95
        2
302
GRIDFORMAT
  1
GRIDFORMAT_BEGIN
 90
        0
 91
        1
 62
     0
 92
       -2
340
14
 93
        0
 40
0.045
309
GRIDFORMAT_END
 95
        4
302
GRIDFORMAT
  1
GRIDFORMAT_BEGIN
 90
        0
 91
        1
 62
     0
 92
       -2
340
14
 93
        0
 40
0.045
309
GRIDFORMAT_END
 95
        8
302
GRIDFORMAT
  1
GRIDFORMAT_BEGIN
 90
        0
 91
        1
 62
     0
 92
       -2
340
14
 93
        0
 40
0.045
309
GRIDFORMAT_END
 95
       16
302
GRIDFORMAT
  1
GRIDFORMAT_BEGIN
 90
        0
 91
        1
 62
     0
 92
       -2
340
14
 93
        0
 40
0.045
309
GRIDFORMAT_END
 95
       32
302
GRIDFORMAT
  1
GRIDFORMAT_BEGIN
 90
        0
 91
        1
 62
     0
 92
       -2
340
14
 93
        0
 40
0.045
309
GRIDFORMAT_END
309
TABLEFORMAT_END
  1
CELLSTYLE_BEGIN
 90
        1
 91
        1
300
_TITLE
309
CELLSTYLE_END
300
CELLSTYLE
  1
TABLEFORMAT_BEGIN
 90
        5
170
     1
 91
        0
 92
        0
 62
   257
 93
        1
300
CONTENTFORMAT
  1
CONTENTFORMAT_BEGIN
 90
        0
 91
        0
 92
        4
 93
        0
300

 40
0.0
140
1.0
 94
        5
 62
     0
340
11
144
4.5
309
CONTENTFORMAT_END
171
     1
301
MARGIN
  1
CELLMARGIN_BEGIN
 40
1.5
 40
1.5
 40
1.5
 40
1.5
 40
1.5
 40
1.5
309
CELLMARGIN_END
 94
        6
 95
        1
302
GRIDFORMAT
  1
GRIDFORMAT_BEGIN
 90
        0
 91
        1
 62
     0
 92
       -2
340
14
 93
        0
 40
0.045
309
GRIDFORMAT_END
 95
        2
302
GRIDFORMAT
  1
GRIDFORMAT_BEGIN
 90
        0
 91
        1
 62
     0
 92
       -2
340
14
 93
        0
 40
0.045
309
GRIDFORMAT_END
 95
        4
302
GRIDFORMAT
  1
GRIDFORMAT_BEGIN
 90
        0
 91
        1
 62
     0
 92
       -2
340
14
 93
        0
 40
0.045
309
GRIDFORMAT_END
 95
        8
302
GRIDFORMAT
  1
GRIDFORMAT_BEGIN
 90
        0
 91
        1
 62
     0
 92
       -2
340
14
 93
        0
 40
0.045
309
GRIDFORMAT_END
 95
       16
302
GRIDFORMAT
  1
GRIDFORMAT_BEGIN
 90
        0
 91
        1
 62
     0
 92
       -2
340
14
 93
        0
 40
0.045
309
GRIDFORMAT_END
 95
       32
302
GRIDFORMAT
  1
GRIDFORMAT_BEGIN
 90
        0
 91
        1
 62
     0
 92
       -2
340
14
 93
        0
 40
0.045
309
GRIDFORMAT_END
309
TABLEFORMAT_END
  1
CELLSTYLE_BEGIN
 90
        2
 91
        1
300
_HEADER
309
CELLSTYLE_END
300
CELLSTYLE
  1
TABLEFORMAT_BEGIN
 90
        5
170
     1
 91
        0
 92
        0
 62
   257
 93
        1
300
CONTENTFORMAT
  1
CONTENTFORMAT_BEGIN
 90
        0
 91
        0
 92
        4
 93
        0
300

 40
0.0
140
1.0
 94
        2
 62
     0
340
11
144
4.5
309
CONTENTFORMAT_END
171
     1
301
MARGIN
  1
CELLMARGIN_BEGIN
 40
1.5
 40
1.5
 40
1.5
 40
1.5
 40
1.5
 40
1.5
309
CELLMARGIN_END
 94
        6
 95
        1
302
GRIDFORMAT
  1
GRIDFORMAT_BEGIN
 90
        0
 91
        1
 62
     0
 92
       -2
340
14
 93
        0
 40
0.045
309
GRIDFORMAT_END
 95
        2
302
GRIDFORMAT
  1
GRIDFORMAT_BEGIN
 90
        0
 91
        1
 62
     0
 92
       -2
340
14
 93
        0
 40
0.045
309
GRIDFORMAT_END
 95
        4
302
GRIDFORMAT
  1
GRIDFORMAT_BEGIN
 90
        0
 91
        1
 62
     0
 92
       -2
340
14
 93
        0
 40
0.045
309
GRIDFORMAT_END
 95
        8
302
GRIDFORMAT
  1
GRIDFORMAT_BEGIN
 90
        0
 91
        1
 62
     0
 92
       -2
340
14
 93
        0
 40
0.045
309
GRIDFORMAT_END
 95
       16
302
GRIDFORMAT
  1
GRIDFORMAT_BEGIN
 90
        0
 91
        1
 62
     0
 92
       -2
340
14
 93
        0
 40
0.045
309
GRIDFORMAT_END
 95
       32
302
GRIDFORMAT
  1
GRIDFORMAT_BEGIN
 90
        0
 91
        1
 62
     0
 92
       -2
340
14
 93
        0
 40
0.045
309
GRIDFORMAT_END
309
TABLEFORMAT_END
  1
CELLSTYLE_BEGIN
 90
        3
 91
        2
300
_DATA
309
CELLSTYLE_END
  0
ENDSEC
  0
EOF