0
SECTION
  2
HEADER
  9
$ACADVER
  1
AC1027
  9
$ACADMAINTVER
 70
     8
  9
$DWGCODEPAGE
  3
ANSI_1252
  9
$REQUIREDVERSIONS
160
                 0
  9
$COMMENTS
  1
File was created by Cadenas
  9
$CUSTOMPROPERTYTAG
  1
NN
  9
$CUSTOMPROPERTY
  1
Set Screw LFT Duty 2-Bolt Flange Metric Bore
  9
$CUSTOMPROPERTYTAG
  1
NT
  9
$CUSTOMPROPERTY
  1
SC 2 Bolt Flange Bearings -(Normal Duty) -Re-Lube and No-Lube
  9
$CUSTOMPROPERTYTAG
  1
NB
  9
$CUSTOMPROPERTY
  1
130366
  9
$CUSTOMPROPERTYTAG
  1
NBSYN
  9
$CUSTOMPROPERTY
  1
$PN.
  9
$CUSTOMPROPERTYTAG
  1
LINA
  9
$CUSTOMPROPERTY
  1
130366
  9
$CUSTOMPROPERTYTAG
  1
SERIES
  9
$CUSTOMPROPERTY
  1
207
  9
$CUSTOMPROPERTYTAG
  1
SS
  9
$CUSTOMPROPERTY
  1
35
  9
$CUSTOMPROPERTYTAG
  1
PN
  9
$CUSTOMPROPERTY
  1
130366
  9
$CUSTOMPROPERTYTAG
  1
DESCRIPTION
  9
$CUSTOMPROPERTY
  1
LFT-SC-35M
  9
$CUSTOMPROPERTYTAG
  1
W
  9
$CUSTOMPROPERTY
  1
0.81
  9
$CUSTOMPROPERTYTAG
  1
LF
  9
$CUSTOMPROPERTY
  1
RE-LUBE
  9
$CUSTOMPROPERTYTAG
  1
A
  9
$CUSTOMPROPERTY
  1
35.6
  9
$CUSTOMPROPERTYTAG
  1
B
  9
$CUSTOMPROPERTY
  1
122.4
  9
$CUSTOMPROPERTYTAG
  1
C
  9
$CUSTOMPROPERTY
  1
40.4
  9
$CUSTOMPROPERTYTAG
  1
D
  9
$CUSTOMPROPERTY
  1
100.1
  9
$CUSTOMPROPERTYTAG
  1
G
  9
$CUSTOMPROPERTY
  1
10.4
  9
$CUSTOMPROPERTYTAG
  1
H
  9
$CUSTOMPROPERTY
  1
12.7
  9
$CUSTOMPROPERTYTAG
  1
J
  9
$CUSTOMPROPERTY
  1
13.2
  9
$CUSTOMPROPERTYTAG
  1
L
  9
$CUSTOMPROPERTY
  1
46.7
  9
$CUSTOMPROPERTYTAG
  1
M
  9
$CUSTOMPROPERTY
  1
88.9
  9
$CUSTOMPROPERTYTAG
  1
N
  9
$CUSTOMPROPERTY
  1
46.5
  9
$CUSTOMPROPERTYTAG
  1
COMPANY
  9
$CUSTOMPROPERTY
  1
baldor
  9
$INSBASE
 10
0.0
 20
0.0
 30
0.0
  9
$EXTMIN
 10
1.000000000000000E+20
 20
1.000000000000000E+20
 30
1.000000000000000E+20
  9
$EXTMAX
 10
-1.000000000000000E+20
 20
-1.000000000000000E+20
 30
-1.000000000000000E+20
  9
$LIMMIN
 10
0.0
 20
0.0
  9
$LIMMAX
 10
420.0
 20
297.0
  9
$ORTHOMODE
 70
     0
  9
$REGENMODE
 70
     1
  9
$FILLMODE
 70
     1
  9
$QTEXTMODE
 70
     0
  9
$MIRRTEXT
 70
     1
  9
$LTSCALE
 40
1.0
  9
$ATTMODE
 70
     1
  9
$TEXTSIZE
 40
2.5
  9
$TRACEWID
 40
1.0
  9
$TEXTSTYLE
  7
Standard
  9
$CLAYER
  8
0
  9
$CELTYPE
  6
ByLayer
  9
$CECOLOR
 62
   256
  9
$CELTSCALE
 40
1.0
  9
$DISPSILH
 70
     0
  9
$DIMSCALE
 40
1.0
  9
$DIMASZ
 40
2.5
  9
$DIMEXO
 40
0.625
  9
$DIMDLI
 40
3.75
  9
$DIMRND
 40
0.0
  9
$DIMDLE
 40
0.0
  9
$DIMEXE
 40
1.25
  9
$DIMTP
 40
0.0
  9
$DIMTM
 40
0.0
  9
$DIMTXT
 40
2.5
  9
$DIMCEN
 40
2.5
  9
$DIMTSZ
 40
0.0
  9
$DIMTOL
 70
     0
  9
$DIMLIM
 70
     0
  9
$DIMTIH
 70
     0
  9
$DIMTOH
 70
     0
  9
$DIMSE1
 70
     0
  9
$DIMSE2
 70
     0
  9
$DIMTAD
 70
     1
  9
$DIMZIN
 70
     8
  9
$DIMBLK
  1

  9
$DIMASO
 70
     1
  9
$DIMSHO
 70
     1
  9
$DIMPOST
  1

  9
$DIMAPOST
  1

  9
$DIMALT
 70
     0
  9
$DIMALTD
 70
     3
  9
$DIMALTF
 40
0.03937007874016
  9
$DIMLFAC
 40
1.0
  9
$DIMTOFL
 70
     1
  9
$DIMTVP
 40
0.0
  9
$DIMTIX
 70
     0
  9
$DIMSOXD
 70
     0
  9
$DIMSAH
 70
     0
  9
$DIMBLK1
  1

  9
$DIMBLK2
  1

  9
$DIMSTYLE
  2
ISO-25
  9
$DIMCLRD
 70
     0
  9
$DIMCLRE
 70
     0
  9
$DIMCLRT
 70
     0
  9
$DIMTFAC
 40
1.0
  9
$DIMGAP
 40
0.625
  9
$DIMJUST
 70
     0
  9
$DIMSD1
 70
     0
  9
$DIMSD2
 70
     0
  9
$DIMTOLJ
 70
     0
  9
$DIMTZIN
 70
     8
  9
$DIMALTZ
 70
     0
  9
$DIMALTTZ
 70
     0
  9
$DIMUPT
 70
     0
  9
$DIMDEC
 70
     2
  9
$DIMTDEC
 70
     2
  9
$DIMALTU
 70
     2
  9
$DIMALTTD
 70
     3
  9
$DIMTXSTY
  7
Standard
  9
$DIMAUNIT
 70
     0
  9
$DIMADEC
 70
     0
  9
$DIMALTRND
 40
0.0
  9
$DIMAZIN
 70
     0
  9
$DIMDSEP
 70
    44
  9
$DIMATFIT
 70
     3
  9
$DIMFRAC
 70
     0
  9
$DIMLDRBLK
  1

  9
$DIMLUNIT
 70
     2
  9
$DIMLWD
 70
    -2
  9
$DIMLWE
 70
    -2
  9
$DIMTMOVE
 70
     0
  9
$DIMFXL
 40
1.0
  9
$DIMFXLON
 70
     0
  9
$DIMJOGANG
 40
0.7853981633974483
  9
$DIMTFILL
 70
     0
  9
$DIMTFILLCLR
 70
     0
  9
$DIMARCSYM
 70
     0
  9
$DIMLTYPE
  6

  9
$DIMLTEX1
  6

  9
$DIMLTEX2
  6

  9
$DIMTXTDIRECTION
 70
     0
  9
$LUNITS
 70
     2
  9
$LUPREC
 70
     4
  9
$SKETCHINC
 40
1.0
  9
$FILLETRAD
 40
10.0
  9
$AUNITS
 70
     0
  9
$AUPREC
 70
     0
  9
$MENU
  1
.
  9
$ELEVATION
 40
0.0
  9
$PELEVATION
 40
0.0
  9
$THICKNESS
 40
0.0
  9
$LIMCHECK
 70
     0
  9
$CHAMFERA
 40
0.0
  9
$CHAMFERB
 40
0.0
  9
$CHAMFERC
 40
0.0
  9
$CHAMFERD
 40
0.0
  9
$SKPOLY
 70
     0
  9
$TDCREATE
 40
2458168.986584271
  9
$TDUCREATE
 40
2458168.944917604
  9
$TDUPDATE
 40
2458168.986584445
  9
$TDUUPDATE
 40
2458168.944917778
  9
$TDINDWG
 40
0.0000000116
  9
$TDUSRTIMER
 40
0.0000000116
  9
$USRTIMER
 70
     1
  9
$ANGBASE
 50
0.0
  9
$ANGDIR
 70
     0
  9
$PDMODE
 70
     0
  9
$PDSIZE
 40
0.0
  9
$PLINEWID
 40
0.0
  9
$SPLFRAME
 70
     0
  9
$SPLINETYPE
 70
     6
  9
$SPLINESEGS
 70
     8
  9
$HANDSEED
  5
1AB
  9
$SURFTAB1
 70
     6
  9
$SURFTAB2
 70
     6
  9
$SURFTYPE
 70
     6
  9
$SURFU
 70
     6
  9
$SURFV
 70
     6
  9
$UCSBASE
  2

  9
$UCSNAME
  2

  9
$UCSORG
 10
0.0
 20
0.0
 30
0.0
  9
$UCSXDIR
 10
1.0
 20
0.0
 30
0.0
  9
$UCSYDIR
 10
0.0
 20
1.0
 30
0.0
  9
$UCSORTHOREF
  2

  9
$UCSORTHOVIEW
 70
     0
  9
$UCSORGTOP
 10
0.0
 20
0.0
 30
0.0
  9
$UCSORGBOTTOM
 10
0.0
 20
0.0
 30
0.0
  9
$UCSORGLEFT
 10
0.0
 20
0.0
 30
0.0
  9
$UCSORGRIGHT
 10
0.0
 20
0.0
 30
0.0
  9
$UCSORGFRONT
 10
0.0
 20
0.0
 30
0.0
  9
$UCSORGBACK
 10
0.0
 20
0.0
 30
0.0
  9
$PUCSBASE
  2

  9
$PUCSNAME
  2

  9
$PUCSORG
 10
0.0
 20
0.0
 30
0.0
  9
$PUCSXDIR
 10
1.0
 20
0.0
 30
0.0
  9
$PUCSYDIR
 10
0.0
 20
1.0
 30
0.0
  9
$PUCSORTHOREF
  2

  9
$PUCSORTHOVIEW
 70
     0
  9
$PUCSORGTOP
 10
0.0
 20
0.0
 30
0.0
  9
$PUCSORGBOTTOM
 10
0.0
 20
0.0
 30
0.0
  9
$PUCSORGLEFT
 10
0.0
 20
0.0
 30
0.0
  9
$PUCSORGRIGHT
 10
0.0
 20
0.0
 30
0.0
  9
$PUCSORGFRONT
 10
0.0
 20
0.0
 30
0.0
  9
$PUCSORGBACK
 10
0.0
 20
0.0
 30
0.0
  9
$USERI1
 70
     0
  9
$USERI2
 70
     0
  9
$USERI3
 70
     0
  9
$USERI4
 70
     0
  9
$USERI5
 70
     0
  9
$USERR1
 40
0.0
  9
$USERR2
 40
0.0
  9
$USERR3
 40
0.0
  9
$USERR4
 40
0.0
  9
$USERR5
 40
0.0
  9
$WORLDVIEW
 70
     1
  9
$SHADEDGE
 70
     3
  9
$SHADEDIF
 70
    70
  9
$TILEMODE
 70
     1
  9
$MAXACTVP
 70
    64
  9
$PINSBASE
 10
0.0
 20
0.0
 30
0.0
  9
$PLIMCHECK
 70
     0
  9
$PEXTMIN
 10
1.000000000000000E+20
 20
1.000000000000000E+20
 30
1.000000000000000E+20
  9
$PEXTMAX
 10
-1.000000000000000E+20
 20
-1.000000000000000E+20
 30
-1.000000000000000E+20
  9
$PLIMMIN
 10
0.0
 20
0.0
  9
$PLIMMAX
 10
420.0
 20
297.0
  9
$UNITMODE
 70
     0
  9
$VISRETAIN
 70
     1
  9
$PLINEGEN
 70
     0
  9
$PSLTSCALE
 70
     1
  9
$TREEDEPTH
 70
  3020
  9
$CMLSTYLE
  2
Standard
  9
$CMLJUST
 70
     0
  9
$CMLSCALE
 40
20.0
  9
$PROXYGRAPHICS
 70
     1
  9
$MEASUREMENT
 70
     1
  9
$CELWEIGHT
370
    -1
  9
$ENDCAPS
280
     0
  9
$JOINSTYLE
280
     0
  9
$LWDISPLAY
290
     0
  9
$INSUNITS
 70
     4
  9
$HYPERLINKBASE
  1

  9
$STYLESHEET
  1

  9
$XEDIT
290
     1
  9
$CEPSNTYPE
380
     0
  9
$PSTYLEMODE
290
     1
  9
$FINGERPRINTGUID
  2
{0875E43A-74B0-4EAD-A335-27131CFB17F3}
  9
$VERSIONGUID
  2
{FAEB1C32-E019-11D5-929B-00C0DF256EC4}
  9
$EXTNAMES
290
     1
  9
$PSVPSCALE
 40
0.0
  9
$OLESTARTUP
290
     0
  9
$SORTENTS
280
   127
  9
$INDEXCTL
280
     0
  9
$HIDETEXT
280
     1
  9
$XCLIPFRAME
280
     2
  9
$HALOGAP
280
     0
  9
$OBSCOLOR
 70
   257
  9
$OBSLTYPE
280
     0
  9
$INTERSECTIONDISPLAY
280
     0
  9
$INTERSECTIONCOLOR
 70
   257
  9
$DIMASSOC
280
     2
  9
$PROJECTNAME
  1

  9
$CAMERADISPLAY
290
     0
  9
$LENSLENGTH
 40
50.0
  9
$CAMERAHEIGHT
 40
0.0
  9
$STEPSPERSEC
 40
2.0
  9
$STEPSIZE
 40
6.0
  9
$3DDWFPREC
 40
2.0
  9
$PSOLWIDTH
 40
5.0
  9
$PSOLHEIGHT
 40
80.0
  9
$LOFTANG1
 40
1.570796326794897
  9
$LOFTANG2
 40
1.570796326794897
  9
$LOFTMAG1
 40
0.0
  9
$LOFTMAG2
 40
0.0
  9
$LOFTPARAM
 70
     7
  9
$LOFTNORMALS
280
     1
  9
$LATITUDE
 40
37.795
  9
$LONGITUDE
 40
-122.394
  9
$NORTHDIRECTION
 40
0.0
  9
$TIMEZONE
 70
 -8000
  9
$LIGHTGLYPHDISPLAY
280
     1
  9
$TILEMODELIGHTSYNCH
280
     1
  9
$CMATERIAL
347
44
  9
$SOLIDHIST
280
     0
  9
$SHOWHIST
280
     1
  9
$DWFFRAME
280
     2
  9
$DGNFRAME
280
     2
  9
$REALWORLDSCALE
290
     1
  9
$INTERFERECOLOR
 62
   256
  9
$CSHADOW
280
     0
  9
$SHADOWPLANELOCATION
 40
0.0
  0
ENDSEC
  0
SECTION
  2
CLASSES
  0
CLASS
  1
ACDBDICTIONARYWDFLT
  2
AcDbDictionaryWithDefault
  3
ObjectDBX Classes
 90
        0
 91
        4
280
     0
281
     0
  0
CLASS
  1
VISUALSTYLE
  2
AcDbVisualStyle
  3
ObjectDBX Classes
 90
     4095
 91
        4
280
     0
281
     0
  0
CLASS
  1
MATERIAL
  2
AcDbMaterial
  3
ObjectDBX Classes
 90
     1153
 91
        4
280
     0
281
     0
  0
CLASS
  1
SCALE
  2
AcDbScale
  3
ObjectDBX Classes
 90
     1153
 91
        4
280
     0
281
     0
  0
CLASS
  1
TABLESTYLE
  2
AcDbTableStyle
  3
ObjectDBX Classes
 90
     4095
 91
        4
280
     0
281
     0
  0
CLASS
  1
MLEADERSTYLE
  2
AcDbMLeaderStyle
  3
ACDB_MLEADERSTYLE_CLASS
 90
     4095
 91
        4
280
     0
281
     0
  0
CLASS
  1
SUN
  2
AcDbSun
  3
SCENEOE
 90
     1153
 91
        4
280
     0
281
     0
  0
CLASS
  1
DICTIONARYVAR
  2
AcDbDictionaryVar
  3
ObjectDBX Classes
 90
        0
 91
        4
280
     0
281
     0
  0
CLASS
  1
CELLSTYLEMAP
  2
AcDbCellStyleMap
  3
ObjectDBX Classes
 90
     1152
 91
        4
280
     0
281
     0
  0
ENDSEC
  0
SECTION
  2
TABLES
  0
TABLE
  2
VPORT
  5
8
330
0
100
AcDbSymbolTable
 70
     1
  0
VPORT
  5
29
330
8
100
AcDbSymbolTableRecord
100
AcDbViewportTableRecord
  2
*Active
 70
     0
 10
0.0
 20
0.0
 11
1.0
 21
1.0
 12
-20.41374999999999
 22
0.0
 13
0.0
 23
0.0
 14
10.0
 24
10.0
 15
10.0
 25
10.0
 16
0.0
 26
0.0
 36
1.0
 17
0.0
 27
0.0
 37
0.0
 40
124.848
 41
0.3557802287581701
 42
50.0
 43
0.0
 44
0.0
 50
0.0
 51
0.0
 71
     0
 72
   100
 73
     1
 74
     3
 75
     0
 76
     0
 77
     0
 78
     0
281
     0
 65
     1
110
0.0
120
0.0
130
0.0
111
1.0
121
0.0
131
0.0
112
0.0
122
1.0
132
0.0
 79
     0
146
0.0
348
2F
 60
     3
 61
     5
292
     1
282
     1
141
0.0
142
0.0
 63
   250
361
6D
  0
ENDTAB
  0
TABLE
  2
LTYPE
  5
5
330
0
100
AcDbSymbolTable
 70
     3
  0
LTYPE
  5
14
330
5
100
AcDbSymbolTableRecord
100
AcDbLinetypeTableRecord
  2
ByBlock
 70
     0
  3

 72
    65
 73
     0
 40
0.0
  0
LTYPE
  5
15
330
5
100
AcDbSymbolTableRecord
100
AcDbLinetypeTableRecord
  2
ByLayer
 70
     0
  3

 72
    65
 73
     0
 40
0.0
  0
LTYPE
  5
16
330
5
100
AcDbSymbolTableRecord
100
AcDbLinetypeTableRecord
  2
Continuous
 70
     0
  3
Solid line
 72
    65
 73
     0
 40
0.0
  0
LTYPE
  5
A0
330
5
100
AcDbSymbolTableRecord
100
AcDbLinetypeTableRecord
  2
Dashed
 70
     0
  3

 72
    65
 73
     2
 40
2.0
 49
1.0
 74
     0
 49
-1.0
 74
     0
  0
LTYPE
  5
DB
330
5
100
AcDbSymbolTableRecord
100
AcDbLinetypeTableRecord
  2
Center
 70
     0
  3

 72
    65
 73
     4
 40
1.5
 49
0.45
 74
     0
 49
-0.5
 74
     0
 49
0.05
 74
     0
 49
-0.5
 74
     0
  0
ENDTAB
  0
TABLE
  2
LAYER
  5
2
330
0
100
AcDbSymbolTable
 70
     7
  0
LAYER
  5
10
330
2
100
AcDbSymbolTableRecord
100
AcDbLayerTableRecord
  2
0
 70
     0
 62
     7
  6
Continuous
370
    -3
390
F
347
46
348
0
  0
LAYER
  5
72
330
2
100
AcDbSymbolTableRecord
100
AcDbLayerTableRecord
  2
AM_6
 70
     0
 62
    -2
  6
Continuous
370
    35
390
F
347
46
348
0
  0
LAYER
  5
A1
330
2
100
AcDbSymbolTableRecord
100
AcDbLayerTableRecord
  2
AM_9
 70
     0
 62
     6
  6
Dashed
370
    25
390
F
347
46
348
0
  0
LAYER
  5
D8
330
2
100
AcDbSymbolTableRecord
100
AcDbLayerTableRecord
  2
AM_5
 70
     0
 62
     3
  6
Continuous
370
    25
390
F
347
46
348
0
  0
LAYER
  5
DC
330
2
100
AcDbSymbolTableRecord
100
AcDbLayerTableRecord
  2
AM_7
 70
     0
 62
     7
  6
Center
370
    25
390
F
347
46
348
0
  0
LAYER
  5
DF
330
2
100
AcDbSymbolTableRecord
100
AcDbLayerTableRecord
  2
AM_4
 70
     0
 62
     7
  6
Continuous
370
    50
390
F
347
46
348
0
  0
LAYER
  5
19E
330
2
100
AcDbSymbolTableRecord
100
AcDbLayerTableRecord
  2
ConnectionPoints
 70
     0
 62
     7
  6
Continuous
370
    50
390
F
347
46
348
0
  0
ENDTAB
  0
TABLE
  2
STYLE
  5
3
330
0
100
AcDbSymbolTable
 70
     1
  0
STYLE
  5
11
330
3
100
AcDbSymbolTableRecord
100
AcDbTextStyleTableRecord
  2
Standard
 70
     0
 40
0.0
 41
1.0
 50
0.0
 71
     0
 42
2.5
  3
txt
  4

  0
ENDTAB
  0
TABLE
  2
VIEW
  5
6
330
0
100
AcDbSymbolTable
 70
     0
  0
ENDTAB
  0
TABLE
  2
UCS
  5
7
330
0
100
AcDbSymbolTable
 70
     0
  0
ENDTAB
  0
TABLE
  2
APPID
  5
9
330
0
100
AcDbSymbolTable
 70
     1
  0
APPID
  5
12
330
9
100
AcDbSymbolTableRecord
100
AcDbRegAppTableRecord
  2
ACAD
 70
     0
  0
ENDTAB
  0
TABLE
  2
DIMSTYLE
  5
A
330
0
100
AcDbSymbolTable
 70
     1
100
AcDbDimStyleTable
  0
DIMSTYLE
105
27
330
A
100
AcDbSymbolTableRecord
100
AcDbDimStyleTableRecord
  2
ISO-25
 70
     0
 41
2.5
 42
0.625
 43
3.75
 44
1.25
 73
     0
 74
     0
 77
     1
 78
     8
140
2.5
141
2.5
143
0.03937007874016
147
0.625
171
     3
172
     1
178
     0
271
     2
272
     2
274
     3
278
    44
283
     0
284
     8
340
11
  0
ENDTAB
  0
TABLE
  2
BLOCK_RECORD
  5
1
330
0
100
AcDbSymbolTable
 70
     5
  0
BLOCK_RECORD
  5
1F
330
1
100
AcDbSymbolTableRecord
100
AcDbBlockTableRecord
  2
*Model_Space
340
22
 70
     0
280
     1
281
     0
  0
BLOCK_RECORD
  5
1B
330
1
100
AcDbSymbolTableRecord
100
AcDbBlockTableRecord
  2
*Paper_Space
340
1E
 70
     0
280
     1
281
     0
  0
BLOCK_RECORD
  5
23
330
1
100
AcDbSymbolTableRecord
100
AcDbBlockTableRecord
  2
*Paper_Space0
340
26
 70
     0
280
     1
281
     0
  0
BLOCK_RECORD
  5
6E
330
1
100
AcDbSymbolTableRecord
100
AcDbBlockTableRecord
  2
1_130366_2
340
0
102
{BLKREFS
331
6F
102
}
 70
     0
280
     1
281
     0
  0
BLOCK_RECORD
  5
89
330
1
100
AcDbSymbolTableRecord
100
AcDbBlockTableRecord
  2
2_077996_0_in_130366_2
340
0
102
{BLKREFS
331
8A
102
}
 70
     0
280
     1
281
     0
  0
BLOCK_RECORD
  5
EF
330
1
100
AcDbSymbolTableRecord
100
AcDbBlockTableRecord
  2
3_405015E_Metric_0_in_130366_2
340
0
102
{BLKREFS
331
F0
102
}
 70
     0
280
     1
281
     0
  0
BLOCK_RECORD
  5
13B
330
1
100
AcDbSymbolTableRecord
100
AcDbBlockTableRecord
  2
4_130366H_0_in_130366_2
340
0
102
{BLKREFS
331
13C
102
}
 70
     0
280
     1
281
     0
  0
ENDTAB
  0
ENDSEC
  0
SECTION
  2
BLOCKS
  0
BLOCK
  5
20
330
1F
100
AcDbEntity
  8
0
100
AcDbBlockBegin
  2
*Model_Space
 70
     0
 10
0.0
 20
0.0
 30
0.0
  3
*Model_Space
  1

  0
ENDBLK
  5
21
330
1F
100
AcDbEntity
  8
0
100
AcDbBlockEnd
  0
BLOCK
  5
1C
330
1B
100
AcDbEntity
 67
     1
  8
0
100
AcDbBlockBegin
  2
*Paper_Space
 70
     0
 10
0.0
 20
0.0
 30
0.0
  3
*Paper_Space
  1

  0
ENDBLK
  5
1D
330
1B
100
AcDbEntity
 67
     1
  8
0
100
AcDbBlockEnd
  0
BLOCK
  5
24
330
23
100
AcDbEntity
  8
0
100
AcDbBlockBegin
  2
*Paper_Space0
 70
     0
 10
0.0
 20
0.0
 30
0.0
  3
*Paper_Space0
  1

  0
ENDBLK
  5
25
330
23
100
AcDbEntity
  8
0
100
AcDbBlockEnd
  0
BLOCK
  5
70
330
6E
100
AcDbEntity
  8
0
100
AcDbBlockBegin
  2
1_130366_2
 70
     2
 10
0.0
 20
0.0
 30
0.0
  3
1_130366_2
  1

  0
ATTDEF
  5
73
330
6E
100
AcDbEntity
  8
AM_6
100
AcDbText
 10
6.36
 20
61.2
 30
0.0
 40
0.5
  1
Set Screw LFT Duty 2-Bolt Flange Metric Bore
100
AcDbAttributeDefinition
  3

  2
NN
 70
     8
280
     0
  0
ATTDEF
  5
74
330
6E
100
AcDbEntity
  8
AM_6
100
AcDbText
 10
6.36
 20
60.7
 30
0.0
 40
0.5
  1
SC 2 Bolt Flange Bearings -(Normal Duty) -Re-Lube and No-Lube
100
AcDbAttributeDefinition
  3

  2
NT
 70
     8
280
     0
  0
ATTDEF
  5
75
330
6E
100
AcDbEntity
  8
AM_6
100
AcDbText
 10
6.36
 20
60.2
 30
0.0
 40
0.5
  1
130366
100
AcDbAttributeDefinition
  3

  2
NB
 70
     8
280
     0
  0
ATTDEF
  5
76
330
6E
100
AcDbEntity
  8
AM_6
100
AcDbText
 10
6.36
 20
59.7
 30
0.0
 40
0.5
  1
$PN.
100
AcDbAttributeDefinition
  3

  2
NBSYN
 70
     8
280
     0
  0
ATTDEF
  5
77
330
6E
100
AcDbEntity
  8
AM_6
100
AcDbText
 10
6.36
 20
59.2
 30
0.0
 40
0.5
  1
130366
100
AcDbAttributeDefinition
  3

  2
LINA
 70
     8
280
     0
  0
ATTDEF
  5
78
330
6E
100
AcDbEntity
  8
AM_6
100
AcDbText
 10
6.36
 20
58.7
 30
0.0
 40
0.5
  1
207
100
AcDbAttributeDefinition
  3

  2
SERIES
 70
     8
280
     0
  0
ATTDEF
  5
79
330
6E
100
AcDbEntity
  8
AM_6
100
AcDbText
 10
6.36
 20
58.2
 30
0.0
 40
0.5
  1
35
100
AcDbAttributeDefinition
  3

  2
SS
 70
     8
280
     0
  0
ATTDEF
  5
7A
330
6E
100
AcDbEntity
  8
AM_6
100
AcDbText
 10
6.36
 20
57.7
 30
0.0
 40
0.5
  1
130366
100
AcDbAttributeDefinition
  3

  2
PN
 70
     8
280
     0
  0
ATTDEF
  5
7B
330
6E
100
AcDbEntity
  8
AM_6
100
AcDbText
 10
6.36
 20
57.2
 30
0.0
 40
0.5
  1
LFT-SC-35M
100
AcDbAttributeDefinition
  3

  2
DESCRIPTION
 70
     8
280
     0
  0
ATTDEF
  5
7C
330
6E
100
AcDbEntity
  8
AM_6
100
AcDbText
 10
6.36
 20
56.7
 30
0.0
 40
0.5
  1
0.81
100
AcDbAttributeDefinition
  3

  2
W
 70
     8
280
     0
  0
ATTDEF
  5
7D
330
6E
100
AcDbEntity
  8
AM_6
100
AcDbText
 10
6.36
 20
56.2
 30
0.0
 40
0.5
  1
RE-LUBE
100
AcDbAttributeDefinition
  3

  2
LF
 70
     8
280
     0
  0
ATTDEF
  5
7E
330
6E
100
AcDbEntity
  8
AM_6
100
AcDbText
 10
6.36
 20
55.7
 30
0.0
 40
0.5
  1
35.6
100
AcDbAttributeDefinition
  3

  2
A
 70
     8
280
     0
  0
ATTDEF
  5
7F
330
6E
100
AcDbEntity
  8
AM_6
100
AcDbText
 10
6.36
 20
55.2
 30
0.0
 40
0.5
  1
122.4
100
AcDbAttributeDefinition
  3

  2
B
 70
     8
280
     0
  0
ATTDEF
  5
80
330
6E
100
AcDbEntity
  8
AM_6
100
AcDbText
 10
6.36
 20
54.7
 30
0.0
 40
0.5
  1
40.4
100
AcDbAttributeDefinition
  3

  2
C
 70
     8
280
     0
  0
ATTDEF
  5
81
330
6E
100
AcDbEntity
  8
AM_6
100
AcDbText
 10
6.36
 20
54.2
 30
0.0
 40
0.5
  1
100.1
100
AcDbAttributeDefinition
  3

  2
D
 70
     8
280
     0
  0
ATTDEF
  5
82
330
6E
100
AcDbEntity
  8
AM_6
100
AcDbText
 10
6.36
 20
53.7
 30
0.0
 40
0.5
  1
10.4
100
AcDbAttributeDefinition
  3

  2
G
 70
     8
280
     0
  0
ATTDEF
  5
83
330
6E
100
AcDbEntity
  8
AM_6
100
AcDbText
 10
6.36
 20
53.2
 30
0.0
 40
0.5
  1
12.7
100
AcDbAttributeDefinition
  3

  2
H
 70
     8
280
     0
  0
ATTDEF
  5
84
330
6E
100
AcDbEntity
  8
AM_6
100
AcDbText
 10
6.36
 20
52.7
 30
0.0
 40
0.5
  1
13.2
100
AcDbAttributeDefinition
  3

  2
J
 70
     8
280
     0
  0
ATTDEF
  5
85
330
6E
100
AcDbEntity
  8
AM_6
100
AcDbText
 10
6.36
 20
52.2
 30
0.0
 40
0.5
  1
46.7
100
AcDbAttributeDefinition
  3

  2
L
 70
     8
280
     0
  0
ATTDEF
  5
86
330
6E
100
AcDbEntity
  8
AM_6
100
AcDbText
 10
6.36
 20
51.7
 30
0.0
 40
0.5
  1
88.9
100
AcDbAttributeDefinition
  3

  2
M
 70
     8
280
     0
  0
ATTDEF
  5
87
330
6E
100
AcDbEntity
  8
AM_6
100
AcDbText
 10
6.36
 20
51.2
 30
0.0
 40
0.5
  1
46.5
100
AcDbAttributeDefinition
  3

  2
N
 70
     8
280
     0
  0
ATTDEF
  5
88
330
6E
100
AcDbEntity
  8
AM_6
100
AcDbText
 10
6.36
 20
50.7
 30
0.0
 40
0.5
  1
baldor
100
AcDbAttributeDefinition
  3

  2
COMPANY
 70
     8
280
     0
  0
INSERT
  5
8A
330
6E
100
AcDbEntity
  8
0
100
AcDbBlockReference
  2
2_077996_0_in_130366_2
 10
0.0
 20
0.0
 30
0.0
  0
INSERT
  5
F0
330
6E
100
AcDbEntity
  8
0
100
AcDbBlockReference
  2
3_405015E_Metric_0_in_130366_2
 10
0.0
 20
0.0
 30
0.0
  0
INSERT
  5
13C
330
6E
100
AcDbEntity
  8
0
100
AcDbBlockReference
  2
4_130366H_0_in_130366_2
 10
0.0
 20
0.0
 30
0.0
  0
ENDBLK
  5
71
330
6E
100
AcDbEntity
  8
0
100
AcDbBlockEnd
  0
BLOCK
  5
8B
330
89
100
AcDbEntity
  8
0
100
AcDbBlockBegin
  2
2_077996_0_in_130366_2
 70
     2
 10
0.0
 20
0.0
 30
0.0
  3
2_077996_0_in_130366_2
  1

  0
ATTDEF
  5
8D
330
89
100
AcDbEntity
  8
AM_6
100
AcDbText
 10
0.3500000000000023
 20
35.9833789089413
 30
0.0
 40
0.5
  1
Set Screw Light Duty Insert with Pin Metric Bore
100
AcDbAttributeDefinition
  3

  2
NN
 70
     8
280
     0
  0
ATTDEF
  5
8E
330
89
100
AcDbEntity
  8
AM_6
100
AcDbText
 10
0.3500000000000023
 20
35.4833789089413
 30
0.0
 40
0.5
  1
SCP Bearing Inserts
100
AcDbAttributeDefinition
  3

  2
NT
 70
     8
280
     0
  0
ATTDEF
  5
8F
330
89
100
AcDbEntity
  8
AM_6
100
AcDbText
 10
0.3500000000000023
 20
34.9833789089413
 30
0.0
 40
0.5
  1
077996
100
AcDbAttributeDefinition
  3

  2
NB
 70
     8
280
     0
  0
ATTDEF
  5
90
330
89
100
AcDbEntity
  8
AM_6
100
AcDbText
 10
0.3500000000000023
 20
34.4833789089413
 30
0.0
 40
0.5
  1
$PN.
100
AcDbAttributeDefinition
  3

  2
NBSYN
 70
     8
280
     0
  0
ATTDEF
  5
91
330
89
100
AcDbEntity
  8
AM_6
100
AcDbText
 10
0.3500000000000023
 20
33.9833789089413
 30
0.0
 40
0.5
  1
077996
100
AcDbAttributeDefinition
  3

  2
LINA
 70
     8
280
     0
  0
ATTDEF
  5
92
330
89
100
AcDbEntity
  8
AM_6
100
AcDbText
 10
0.3500000000000023
 20
33.4833789089413
 30
0.0
 40
0.5
  1
207
100
AcDbAttributeDefinition
  3

  2
SERIES
 70
     8
280
     0
  0
ATTDEF
  5
93
330
89
100
AcDbEntity
  8
AM_6
100
AcDbText
 10
0.3500000000000023
 20
32.9833789089413
 30
0.0
 40
0.5
  1
35
100
AcDbAttributeDefinition
  3

  2
SS
 70
     8
280
     0
  0
ATTDEF
  5
94
330
89
100
AcDbEntity
  8
AM_6
100
AcDbText
 10
0.3500000000000023
 20
32.4833789089413
 30
0.0
 40
0.5
  1
077996
100
AcDbAttributeDefinition
  3

  2
PN
 70
     8
280
     0
  0
ATTDEF
  5
95
330
89
100
AcDbEntity
  8
AM_6
100
AcDbText
 10
0.3500000000000023
 20
31.9833789089413
 30
0.0
 40
0.5
  1
INS-SCP-35M
100
AcDbAttributeDefinition
  3

  2
DESCRIPTION
 70
     8
280
     0
  0
ATTDEF
  5
96
330
89
100
AcDbEntity
  8
AM_6
100
AcDbText
 10
0.3500000000000023
 20
31.4833789089413
 30
0.0
 40
0.5
  1
0.38
100
AcDbAttributeDefinition
  3

  2
WEIGHT
 70
     8
280
     0
  0
ATTDEF
  5
97
330
89
100
AcDbEntity
  8
AM_6
100
AcDbText
 10
0.3500000000000023
 20
30.9833789089413
 30
0.0
 40
0.5
  1
35.6
100
AcDbAttributeDefinition
  3

  2
A
 70
     8
280
     0
  0
ATTDEF
  5
98
330
89
100
AcDbEntity
  8
AM_6
100
AcDbText
 10
0.3500000000000023
 20
30.4833789089413
 30
0.0
 40
0.5
  1
19.1
100
AcDbAttributeDefinition
  3

  2
C
 70
     8
280
     0
  0
ATTDEF
  5
99
330
89
100
AcDbEntity
  8
AM_6
100
AcDbText
 10
0.3500000000000023
 20
29.9833789089413
 30
0.0
 40
0.5
  1
72.000
100
AcDbAttributeDefinition
  3

  2
D
 70
     8
280
     0
  0
ATTDEF
  5
9A
330
89
100
AcDbEntity
  8
AM_6
100
AcDbText
 10
0.3500000000000023
 20
29.4833789089413
 30
0.0
 40
0.5
  1
5.1
100
AcDbAttributeDefinition
  3

  2
J
 70
     8
280
     0
  0
ATTDEF
  5
9B
330
89
100
AcDbEntity
  8
AM_6
100
AcDbText
 10
0.3500000000000023
 20
28.9833789089413
 30
0.0
 40
0.5
  1
46.7
100
AcDbAttributeDefinition
  3

  2
L
 70
     8
280
     0
  0
ATTDEF
  5
9C
330
89
100
AcDbEntity
  8
AM_6
100
AcDbText
 10
0.3500000000000023
 20
28.4833789089413
 30
0.0
 40
0.5
  1
M8x1.25
100
AcDbAttributeDefinition
  3

  2
N
 70
     8
280
     0
  0
ATTDEF
  5
9D
330
89
100
AcDbEntity
  8
AM_6
100
AcDbText
 10
0.3500000000000023
 20
27.9833789089413
 30
0.0
 40
0.5
  1
9.4
100
AcDbAttributeDefinition
  3

  2
W
 70
     8
280
     0
  0
ATTDEF
  5
9E
330
89
100
AcDbEntity
  8
AM_6
100
AcDbText
 10
0.3500000000000023
 20
27.4833789089413
 30
0.0
 40
0.5
  1
26.2
100
AcDbAttributeDefinition
  3

  2
Y
 70
     8
280
     0
  0
ATTDEF
  5
9F
330
89
100
AcDbEntity
  8
AM_6
100
AcDbText
 10
0.3500000000000023
 20
26.9833789089413
 30
0.0
 40
0.5
  1
baldor
100
AcDbAttributeDefinition
  3

  2
COMPANY
 70
     8
280
     0
  0
ARC
  5
A2
330
89
100
AcDbEntity
  8
AM_9
100
AcDbCircle
 10
-9.099999999997934
 20
-0.0000000000000588
 30
0.0
 40
2.666666639997735
100
AcDbArc
 50
357.0898956632469
 51
0.0
  0
ARC
  5
A3
330
89
100
AcDbEntity
  8
AM_9
100
AcDbCircle
 10
-9.099999999999984
 20
-0.0000000000000118
 30
0.0
 40
2.666666639999785
100
AcDbArc
 50
309.6758824801109
 51
319.4167496844615
  0
ARC
  5
A4
330
89
100
AcDbEntity
  8
AM_9
100
AcDbCircle
 10
-9.099999999999929
 20
-0.0000000000004974
 30
0.0
 40
2.6666666400003
100
AcDbArc
 50
90.0
 51
90.92917878312147
  0
CIRCLE
  5
A5
330
89
100
AcDbEntity
  8
AM_9
100
AcDbCircle
 10
-9.100000000000001
 20
-0.0000000000000023
 30
0.0
 40
0.9303030210002
  0
LINE
  5
A6
330
89
100
AcDbEntity
  8
AM_9
100
AcDbLine
 10
-33.5676253014977
 20
17.24622503740083
 30
0.0
 11
-30.5823746985023
 21
17.24622503740083
 31
0.0
  0
LINE
  5
A7
330
89
100
AcDbEntity
  8
AM_9
100
AcDbLine
 10
-28.7515
 20
17.49788539016939
 30
0.0
 11
-28.7515
 21
22.79533644801674
 31
0.0
  0
LINE
  5
A8
330
89
100
AcDbEntity
  8
AM_9
100
AcDbLine
 10
-35.3985
 20
22.79533644801674
 30
0.0
 11
-35.3985
 21
17.49788539016939
 31
0.0
  0
LINE
  5
A9
330
89
100
AcDbEntity
  8
AM_9
100
AcDbLine
 10
-28.7515
 20
22.79533644801674
 30
0.0
 11
-28.19683644801693
 21
23.34999999999982
 31
0.0
  0
LINE
  5
AA
330
89
100
AcDbEntity
  8
AM_9
100
AcDbLine
 10
-35.95316355198307
 20
23.34999999999982
 30
0.0
 11
-35.3985
 21
22.79533644801674
 31
0.0
  0
LINE
  5
AB
330
89
100
AcDbEntity
  8
AM_9
100
AcDbLine
 10
-35.3985
 20
22.79533644801674
 30
0.0
 11
-28.7515
 21
22.79533644801674
 31
0.0
  0
LWPOLYLINE
  5
AC
330
89
100
AcDbEntity
  8
AM_9
100
AcDbPolyline
 90
        8
 70
     0
 43
0.0
 10
-33.5676253014977
 20
17.24622503740083
 10
-33.32631321589859
 20
17.22240497648563
 10
-32.8387703370108
 20
17.18706040750115
 10
-32.3240131624223
 20
17.16800182783554
 10
-31.85407119359031
 20
17.16764581696923
 10
-31.39074194377565
 20
17.18273954827881
 10
-30.97310087572203
 20
17.20977878966005
 10
-30.5823746985023
 20
17.24622503740083
  0
LWPOLYLINE
  5
AD
330
89
100
AcDbEntity
  8
AM_9
100
AcDbPolyline
 90
        8
 70
     0
 43
0.0
 10
-30.5823746985023
 20
17.24622503740083
 10
-30.10995679913172
 20
17.29351735568212
 10
-29.68120149145902
 20
17.34746722289721
 10
-29.33179612935808
 20
17.39912397869229
 10
-29.05147738465185
 20
17.4455162364294
 10
-28.86435636573257
 20
17.47891816721681
 10
-28.76475296410499
 20
17.49748791080171
 10
-28.75150000000122
 20
17.49999999999977
  0
LWPOLYLINE
  5
AE
330
89
100
AcDbEntity
  8
AM_9
100
AcDbPolyline
 90
        8
 70
     0
 43
0.0
 10
-30.58237469850236
 20
9.979818834581785
 10
-30.85288117703068
 20
10.10416865097108
 10
-31.13788742543772
 20
10.20382951402572
 10
-31.63059600999216
 20
10.30927869440472
 10
-32.13870018739738
 20
10.33899728417482
 10
-32.59483466919705
 20
10.29831053712656
 10
-33.03636077737119
 20
10.19651204721267
 10
-33.56762530149765
 20
9.979818834581785
  0
LWPOLYLINE
  5
AF
330
89
100
AcDbEntity
  8
AM_9
100
AcDbPolyline
 90
        9
 70
     0
 43
0.0
 10
-33.56762530149764
 20
4.597320459208744
 10
-33.37168437076627
 20
4.487526186471143
 10
-32.87849330785939
 20
4.289003523524291
 10
-32.35577709818592
 20
4.183836873958161
 10
-31.88410389450395
 20
4.176536441854099
 10
-31.41819229199329
 20
4.248562326516599
 10
-30.98917226315486
 20
4.389854010871041
 10
-30.58803056381258
 20
4.593880861266319
 10
-30.58237469850236
 20
4.597320459208744
  0
LINE
  5
B0
330
89
100
AcDbEntity
  8
AM_9
100
AcDbLine
 10
-5.734000000000001
 20
17.5
 30
0.0
 11
-28.76265366696036
 21
17.5
 31
0.0
  0
LINE
  5
B1
330
89
100
AcDbEntity
  8
AM_9
100
AcDbLine
 10
-35.38734633303965
 20
17.5
 30
0.0
 11
-39.46599999999999
 21
17.5
 31
0.0
  0
LINE
  5
B2
330
89
100
AcDbEntity
  8
AM_9
100
AcDbLine
 10
-39.46599999999999
 20
-17.5
 30
0.0
 11
-5.734000000000001
 21
-17.5
 31
0.0
  0
LWPOLYLINE
  5
B3
330
89
100
AcDbEntity
  8
AM_9
100
AcDbPolyline
 90
        8
 70
     0
 43
0.0
 10
-35.39849999999878
 20
17.49999999999977
 10
-35.38911353387675
 20
17.49821980275208
 10
-35.29969146855644
 20
17.48150402046062
 10
-35.12600642096742
 20
17.45030051118847
 10
-34.86321882707192
 20
17.40627794727058
 10
-34.52836930862917
 20
17.35578775839701
 10
-34.11479260459868
 20
17.3021704308961
 10
-33.5676253014977
 20
17.24622503740083
  0
LINE
  5
B4
330
89
100
AcDbEntity
  8
AM_9
100
AcDbLine
 10
-39.46599999999999
 20
17.5
 30
0.0
 11
-40.40000000000001
 21
18.43399999999994
 31
0.0
  0
LINE
  5
B5
330
89
100
AcDbEntity
  8
AM_9
100
AcDbLine
 10
-40.40000000000001
 20
-18.43399999999994
 30
0.0
 11
-39.46599999999999
 21
-17.5
 31
0.0
  0
LINE
  5
B6
330
89
100
AcDbEntity
  8
AM_9
100
AcDbLine
 10
-5.734000000000001
 20
-17.5
 30
0.0
 11
-5.734000000000001
 21
17.5
 31
0.0
  0
LINE
  5
B7
330
89
100
AcDbEntity
  8
AM_9
100
AcDbLine
 10
-5.734000000000001
 20
-17.5
 30
0.0
 11
-4.799999999999997
 21
-18.43399999999994
 31
0.0
  0
LINE
  5
B8
330
89
100
AcDbEntity
  8
AM_9
100
AcDbLine
 10
-4.799999999999997
 20
18.43399999999994
 30
0.0
 11
-5.734000000000001
 21
17.5
 31
0.0
  0
LWPOLYLINE
  5
B9
330
89
100
AcDbEntity
  8
AM_9
100
AcDbPolyline
 90
        8
 70
     0
 43
0.0
 10
-30.58237469850236
 20
4.597320459208742
 10
-30.10995679913178
 20
4.879337320964035
 10
-29.68120149145907
 20
5.241853874997616
 10
-29.33179612935811
 20
5.652686316312281
 10
-29.05147738465188
 20
6.122232427575184
 10
-28.86435636573259
 20
6.608635012554919
 10
-28.764752964105
 20
7.126030695618196
 10
-28.75150000094462
 20
7.395891395975426
  0
ELLIPSE
  5
BA
330
89
100
AcDbEntity
  8
AM_9
100
AcDbEllipse
 10
-32.07500000000001
 20
7.288569646895279
 30
0.0
 11
3.323500000000009
 21
4.952400922775284E-8
 31
0.0
210
0.0
220
0.0
230
1.0
 40
0.9063077870366504
 41
4.246617218960212
 42
5.178160713614472
  0
LWPOLYLINE
  5
BB
330
89
100
AcDbEntity
  8
AM_9
100
AcDbPolyline
 90
        4
 70
     0
 43
0.0
 10
-35.15732061643895
 20
8.503646164804003
 10
-35.28564363426742
 20
8.165185013319274
 10
-35.38524703589501
 20
7.66348515576563
 10
-35.39849999905537
 20
7.395747764797423
  0
LINE
  5
BC
330
89
100
AcDbEntity
  8
AM_9
100
AcDbLine
 10
-28.7515
 20
7.394925907731368
 30
0.0
 11
-28.7515
 21
9.633725465455244
 31
0.0
  0
LINE
  5
BD
330
89
100
AcDbEntity
  8
AM_9
100
AcDbLine
 10
-35.3985
 20
9.633725465455244
 30
0.0
 11
-35.3985
 21
7.394925907731368
 31
0.0
  0
LWPOLYLINE
  5
BE
330
89
100
AcDbEntity
  8
AM_9
100
AcDbPolyline
 90
        4
 70
     0
 43
0.0
 10
-28.75150000094462
 20
7.395891395975426
 10
-28.76088646612325
 20
7.621288149860806
 10
-28.85030853144355
 20
8.117013064871843
 10
-28.99368382065389
 20
8.505826049091818
  0
LWPOLYLINE
  5
BF
330
89
100
AcDbEntity
  8
AM_9
100
AcDbPolyline
 90
        8
 70
     0
 43
0.0
 10
-35.39849999905537
 20
7.395747764797423
 10
-35.38911353387675
 20
7.168846323330721
 10
-35.29969146855645
 20
6.65899261860838
 10
-35.12600642096744
 20
6.180340490165714
 10
-34.86321882707195
 20
5.716948902139068
 10
-34.5283693086292
 20
5.302917195337523
 10
-34.11479260459873
 20
4.934144043042988
 10
-33.56762530149764
 20
4.597320459208744
  0
LINE
  5
C0
330
89
100
AcDbEntity
  8
AM_9
100
AcDbLine
 10
-23.75
 20
23.34999999999982
 30
0.0
 11
-27.2
 21
23.34999999999982
 31
0.0
  0
LINE
  5
C1
330
89
100
AcDbEntity
  8
AM_9
100
AcDbLine
 10
-27.2
 20
-23.34999999999982
 30
0.0
 11
-23.75
 21
-23.34999999999982
 31
0.0
  0
LINE
  5
C2
330
89
100
AcDbEntity
  8
AM_9
100
AcDbLine
 10
-29.42907216404128
 20
23.20156389705235
 30
0.0
 11
-29.34912414472557
 21
23.20953488489797
 31
0.0
  0
LINE
  5
C3
330
89
100
AcDbEntity
  8
AM_9
100
AcDbLine
 10
-4.799999999999997
 20
-23.34999999999983
 30
0.0
 11
-4.799999999999997
 21
23.34999999999983
 31
0.0
  0
LINE
  5
C4
330
89
100
AcDbEntity
  8
AM_9
100
AcDbLine
 10
-4.649999999999999
 20
23.34999999999983
 30
0.0
 11
-4.799999999999997
 21
23.34999999999983
 31
0.0
  0
LINE
  5
C5
330
89
100
AcDbEntity
  8
AM_9
100
AcDbLine
 10
-4.799999999999997
 20
-23.34999999999983
 30
0.0
 11
-4.649999999999999
 21
-23.34999999999983
 31
0.0
  0
LINE
  5
C6
330
89
100
AcDbEntity
  8
AM_9
100
AcDbLine
 10
-18.28
 20
34.30000001699955
 30
0.0
 11
-20.32
 21
34.30000001699955
 31
0.0
  0
LINE
  5
C7
330
89
100
AcDbEntity
  8
AM_9
100
AcDbLine
 10
-20.32
 20
-34.30000001699955
 30
0.0
 11
-18.28
 21
-34.30000001699955
 31
0.0
  0
LINE
  5
C8
330
89
100
AcDbEntity
  8
AM_9
100
AcDbLine
 10
-4.649999999999999
 20
-33.92402540972989
 30
0.0
 11
-4.649999999999999
 21
33.92402540972989
 31
0.0
  0
ARC
  5
C9
330
89
100
AcDbEntity
  8
AM_9
100
AcDbCircle
 10
-5.669999999999979
 20
33.92402540972992
 30
0.0
 40
1.019999999999981
100
AcDbArc
 50
0.0
 51
75.88590300988834
  0
ARC
  5
CA
330
89
100
AcDbEntity
  8
AM_9
100
AcDbCircle
 10
-5.66999999999998
 20
-33.92402540972992
 30
0.0
 40
1.019999999999982
100
AcDbArc
 50
284.1140969901117
 51
0.0
  0
LINE
  5
CB
330
89
100
AcDbEntity
  8
AM_9
100
AcDbLine
 10
-23.75
 20
-33.92402540972989
 30
0.0
 11
-23.75
 21
33.92402540972989
 31
0.0
  0
ARC
  5
CC
330
89
100
AcDbEntity
  8
AM_9
100
AcDbCircle
 10
-22.73
 20
33.92402540972991
 30
0.0
 40
1.019999999999994
100
AcDbArc
 50
104.1140969901128
 51
180.0
  0
ARC
  5
CD
330
89
100
AcDbEntity
  8
AM_9
100
AcDbCircle
 10
-22.73
 20
-33.92402540972991
 30
0.0
 40
1.02
100
AcDbArc
 50
180.0
 51
255.8859030098872
  0
LINE
  5
CE
330
89
100
AcDbEntity
  8
AM_9
100
AcDbLine
 10
-20.31999999999999
 20
27.33754992159448
 30
0.0
 11
-20.31999999999999
 21
35.47598624421877
 31
0.0
  0
ARC
  5
CF
330
89
100
AcDbEntity
  8
AM_9
100
AcDbCircle
 10
-14.20000000000275
 20
0.0000000000122213
 30
0.0
 40
35.99999999998748
100
AcDbArc
 50
99.78781905671296
 51
104.1140969901129
  0
ARC
  5
D0
330
89
100
AcDbEntity
  8
AM_9
100
AcDbCircle
 10
-14.1999999952464
 20
0.000000022475966
 30
0.0
 40
36.00000002294041
100
AcDbArc
 50
255.8859030112669
 51
260.2121809419072
  0
LINE
  5
D1
330
89
100
AcDbEntity
  8
AM_9
100
AcDbLine
 10
-20.31999999999999
 20
-35.47598624420203
 30
0.0
 11
-20.31999999999999
 21
27.30520080696138
 31
0.0
  0
LINE
  5
D2
330
89
100
AcDbEntity
  8
AM_9
100
AcDbLine
 10
-22.97873070325901
 20
-34.9132336978185
 30
0.0
 11
-22.97873070325901
 21
34.91323369783524
 31
0.0
  0
LWPOLYLINE
  5
D3
330
89
100
AcDbEntity
  8
AM_9
100
AcDbPolyline
 90
       38
 70
     0
 43
0.0
 10
-7.210378252799592
 20
-1.881605862394298
 10
-6.923194358618954
 20
-1.539873427255113
 10
-6.696277717871531
 20
-1.154655861842374
 10
-6.53720045268317
 20
-0.7360048401402524
 10
-6.449850320395495
 20
-0.2963404200914614
 10
-6.43779052880496
 20
0.1493504645006371
 10
-6.499605713040773
 20
0.590813440298759
 10
-6.634044099434231
 20
1.014281163483282
 10
-6.836183823161502
 20
1.409342856217806
 10
-7.10223503434522
 20
1.765974921400431
 10
-7.422957380384155
 20
2.073315948156446
 10
-7.793384930526813
 20
2.324326451963927
 10
-8.199769761423202
 20
2.510118819187609
 10
-8.635480183665873
 20
2.625630813019364
 10
-9.08413427649073
 20
2.666619441859931
 10
-9.536100401530735
 20
2.630493354917898
 10
-9.975787181612608
 20
2.518751234522951
 10
-10.39045097818302
 20
2.33331897712214
 10
-10.76843513187591
 20
2.080248826369108
 10
-11.09619360042556
 20
1.767719196864805
 10
-11.36717658000139
 20
1.403930669221621
 10
-11.57069931345152
 20
1.002631681942769
 10
-11.70449032465153
 20
0.5724867838513167
 10
-11.76324309419042
 20
0.1295768349360285
 10
-11.74775612346252
 20
-0.3170149516262821
 10
-11.65798133563862
 20
-0.7526110225876694
 10
-11.49772083684349
 20
-1.16706716064433
 10
-11.27022727026228
 20
-1.549140583546956
 10
-10.98328318826194
 20
-1.88795005275505
 10
-10.64166948862049
 20
-2.17554373225903
 10
-10.2577369717707
 20
-2.40223980340912
 10
-9.837597229574946
 20
-2.562357265329153
 10
-9.397030936280549
 20
-2.650072374819255
 10
-8.94459091022191
 20
-2.661868083550228
 10
-8.496527952464497
 20
-2.597485795289585
 10
-8.06456875341832
 20
-2.457139968184503
 10
-7.661991464572552
 20
-2.245716460492211
 10
-7.210378252799741
 20
-1.88160586239406
  0
ARC
  5
D4
330
89
100
AcDbEntity
  8
AM_9
100
AcDbCircle
 10
-14.20000000000001
 20
-0.0000000000007248
 30
0.0
 40
36.00000000000071
100
AcDbArc
 50
75.88590300988787
 51
96.50750359174461
  0
ARC
  5
D5
330
89
100
AcDbEntity
  8
AM_9
100
AcDbCircle
 10
-14.19999999999968
 20
-0.000000000004249
 30
0.0
 40
35.99999999999587
100
AcDbArc
 50
263.492496408254
 51
284.1140969901136
  0
LINE
  5
D6
330
89
100
AcDbEntity
  8
AM_9
100
AcDbLine
 10
-5.421269296740991
 20
-34.9132336978353
 30
0.0
 11
-5.421269296740991
 21
34.91323369783524
 31
0.0
  0
LINE
  5
D7
330
89
100
AcDbEntity
  8
AM_9
100
AcDbLine
 10
-18.28
 20
-35.76805278457305
 30
0.0
 11
-18.28
 21
35.76805278457299
 31
0.0
  0
LINE
  5
D9
330
89
100
AcDbEntity
  8
AM_5
100
AcDbLine
 10
-28.075
 20
17.5
 30
0.0
 11
-28.075
 21
23.34999999999982
 31
0.0
  0
LINE
  5
DA
330
89
100
AcDbEntity
  8
AM_5
100
AcDbLine
 10
-36.075
 20
17.5
 30
0.0
 11
-36.075
 21
23.34999999999982
 31
0.0
  0
LINE
  5
DD
330
89
100
AcDbEntity
  8
AM_7
100
AcDbLine
 10
-9.100000000000001
 20
-0.9768181720502124
 30
0.0
 11
-9.100000000000001
 21
0.9768181720502077
 31
0.0
  0
LINE
  5
DE
330
89
100
AcDbEntity
  8
AM_7
100
AcDbLine
 10
-32.075
 20
23.81694201854755
 30
0.0
 11
-32.075
 21
16.22461946687002
 31
0.0
  0
ELLIPSE
  5
E0
330
89
100
AcDbEntity
  8
AM_4
100
AcDbEllipse
 10
-32.075
 20
7.288569646895285
 30
0.0
 11
3.323499999999974
 21
4.952400922775231E-8
 31
0.0
210
0.0
220
0.0
230
1.0
 40
0.9063077870366518
 41
1.105024565370408
 42
2.036568060024687
  0
LWPOLYLINE
  5
E1
330
89
100
AcDbEntity
  8
AM_4
100
AcDbPolyline
 90
        6
 70
     0
 43
0.0
 10
-33.56762530149765
 20
9.979818834581781
 10
-34.04004320086824
 20
9.737775167517949
 10
-34.46879850854094
 20
9.420859011691531
 10
-34.81820387064189
 20
9.05368874705942
 10
-35.09852261534812
 20
8.623355066442688
 10
-35.15732061643895
 20
8.503646164804003
  0
LWPOLYLINE
  5
E2
330
89
100
AcDbEntity
  8
AM_4
100
AcDbPolyline
 90
        6
 70
     0
 43
0.0
 10
-28.99368382065389
 20
8.505826049091818
 10
-29.02399357903255
 20
8.5692908476169
 10
-29.28678117292804
 20
8.995472956762859
 10
-29.62163069137079
 20
9.366828511850986
 10
-30.03520739540126
 20
9.69028234065029
 10
-30.58237469850236
 20
9.979818834581783
  0
LINE
  5
E3
330
89
100
AcDbEntity
  8
AM_4
100
AcDbLine
 10
-40.40000000000001
 20
-22.41599999999988
 30
0.0
 11
-40.40000000000001
 21
22.41599999999988
 31
0.0
  0
LINE
  5
E4
330
89
100
AcDbEntity
  8
AM_4
100
AcDbLine
 10
-40.40000000000001
 20
-22.41599999999988
 30
0.0
 11
-39.466
 21
-23.34999999999982
 31
0.0
  0
LINE
  5
E5
330
89
100
AcDbEntity
  8
AM_4
100
AcDbLine
 10
-39.466
 20
23.34999999999982
 30
0.0
 11
-40.40000000000001
 21
22.41599999999988
 31
0.0
  0
LWPOLYLINE
  5
E6
330
89
100
AcDbEntity
  8
AM_4
100
AcDbPolyline
 90
       16
 70
     0
 43
0.0
 10
-29.41405376756634
 20
23.20304352086994
 10
-29.84960325576226
 20
23.16347726018652
 10
-30.3373476299962
 20
23.12744032625303
 10
-30.94583559832833
 20
23.09483481400243
 10
-31.60038592615781
 20
23.0751751596462
 10
-32.27503214211378
 20
23.07170289399899
 10
-32.96304293908436
 20
23.08572932627668
 10
-33.61395971841689
 20
23.115280871118
 10
-34.23877165225751
 20
23.1584403497854
 10
-34.77143630773115
 20
23.20657265192103
 10
-35.01672194775255
 20
23.23221656851987
 10
-35.23853833556284
 20
23.257276651907
 10
-35.57501708557394
 20
23.29866890869885
 10
-35.81710513937372
 20
23.33094752785619
 10
-35.93204259086876
 20
23.34699955905685
 10
-35.95316355197803
 20
23.34999999999909
  0
LINE
  5
E7
330
89
100
AcDbEntity
  8
AM_4
100
AcDbLine
 10
-39.466
 20
-23.34999999999982
 30
0.0
 11
-39.466
 21
23.34999999999982
 31
0.0
  0
LWPOLYLINE
  5
E8
330
89
100
AcDbEntity
  8
AM_4
100
AcDbPolyline
 90
       40
 70
     0
 43
0.0
 10
-29.08088010175071
 20
7.750312152256325
 10
-29.48105022092091
 20
7.381007809606976
 10
-29.93357784794086
 20
7.068685299619677
 10
-30.50582531864154
 20
6.788096048842334
 10
-31.11749075711668
 20
6.596964017643485
 10
-31.78644982155383
 20
6.498392324736757
 10
-32.46321969271884
 20
6.505948786362755
 10
-33.14363247704935
 20
6.624538685913329
 10
-33.79351155346343
 20
6.850643163732378
 10
-34.38870030190625
 20
7.177168132638013
 10
-34.91504249738173
 20
7.595097127171143
 10
-35.33584005642563
 20
8.071615833883255
 10
-35.65879396831723
 20
8.606786473952424
 10
-35.85568711758889
 20
9.139009710169807
 10
-35.94731681766567
 20
9.689122090168063
 10
-35.93229620376957
 20
10.2007589487385
 10
-35.82284359327981
 20
10.6972245498873
 10
-35.62580933449144
 20
11.15785661958573
 10
-35.34884148584992
 20
11.58041180428641
 10
-34.98270758650524
 20
11.97225238740155
 10
-34.55077784226054
 20
12.30707015849053
 10
-34.02617629784749
 20
12.5974749957885
 10
-33.45419498117271
 20
12.81307774240276
 10
-32.80962495793205
 20
12.95683151878364
 10
-32.14563608711789
 20
13.01160916121933
 10
-31.45833417233108
 20
12.97316789783431
 10
-30.7883749425637
 20
12.83972860023734
 10
-30.15396663750548
 20
12.61108709754726
 10
-29.57602155850588
 20
12.29163651713759
 10
-29.24215188855946
 20
12.03811932293158
 10
-28.94454821834099
 20
11.74950051049421
 10
-28.69069163927042
 20
11.43050832063674
 10
-28.41740647018229
 20
10.93617446620606
 10
-28.24959718287957
 20
10.40008271678465
 10
-28.19732143835966
 20
9.882456411531253
 10
-28.24413065106413
 20
9.358506752737355
 10
-28.38252036804237
 20
8.862843899213948
 10
-28.60559108499899
 20
8.38966590034906
 10
-28.82368800364134
 20
8.058076558402274
 10
-29.08088008436942
 20
7.750312127446177
  0
LINE
  5
E9
330
89
100
AcDbEntity
  8
AM_4
100
AcDbLine
 10
-27.2
 20
23.34999999999982
 30
0.0
 11
-28.20640638216899
 21
23.34999999999982
 31
0.0
  0
LINE
  5
EA
330
89
100
AcDbEntity
  8
AM_4
100
AcDbLine
 10
-35.94048719967093
 20
23.34999999999982
 30
0.0
 11
-39.466
 21
23.34999999999982
 31
0.0
  0
LINE
  5
EB
330
89
100
AcDbEntity
  8
AM_4
100
AcDbLine
 10
-39.466
 20
-23.34999999999982
 30
0.0
 11
-27.2
 21
-23.34999999999982
 31
0.0
  0
LINE
  5
EC
330
89
100
AcDbEntity
  8
AM_4
100
AcDbLine
 10
-28.2254301040778
 20
23.34594175548004
 30
0.0
 11
-28.19683644802395
 21
23.34999999999881
 31
0.0
  0
LWPOLYLINE
  5
ED
330
89
100
AcDbEntity
  8
AM_4
100
AcDbPolyline
 90
        7
 70
     0
 43
0.0
 10
-28.19683644802395
 20
23.34999999999881
 10
-28.22046467986788
 20
23.34664442074344
 10
-28.33698898394729
 20
23.33038435966383
 10
-28.53603479289829
 20
23.30372142511486
 10
-28.821433962821
 20
23.26795400265453
 10
-29.09569759528431
 20
23.23633554143933
 10
-29.41405376756634
 20
23.20304352086994
  0
ELLIPSE
  5
EE
330
89
100
AcDbEntity
  8
AM_4
100
AcDbEllipse
 10
-32.07500000000001
 20
9.633725465455239
 30
0.0
 11
3.323500000000009
 21
4.952400922775284E-8
 31
0.0
210
0.0
220
0.0
230
1.0
 40
0.9063077870366507
 41
0.0
 42
6.283185307179586
  0
ENDBLK
  5
8C
330
89
100
AcDbEntity
  8
0
100
AcDbBlockEnd
  0
BLOCK
  5
F1
330
EF
100
AcDbEntity
  8
0
100
AcDbBlockBegin
  2
3_405015E_Metric_0_in_130366_2
 70
     2
 10
0.0
 20
0.0
 30
0.0
  3
3_405015E_Metric_0_in_130366_2
  1

  0
ATTDEF
  5
F3
330
EF
100
AcDbEntity
  8
AM_6
100
AcDbText
 10
-7.533333333333305
 20
29.03733670627881
 30
0.0
 40
0.5
  1
405015E -Metric
100
AcDbAttributeDefinition
  3

  2
NN
 70
     8
280
     0
  0
ATTDEF
  5
F4
330
EF
100
AcDbEntity
  8
AM_6
100
AcDbText
 10
-7.533333333333305
 20
28.53733670627881
 30
0.0
 40
0.5
  1
Grease Fitting
100
AcDbAttributeDefinition
  3

  2
NT
 70
     8
280
     0
  0
ATTDEF
  5
F5
330
EF
100
AcDbEntity
  8
AM_6
100
AcDbText
 10
-7.533333333333305
 20
28.03733670627881
 30
0.0
 40
0.5
  1
405015E-Metric
100
AcDbAttributeDefinition
  3

  2
NB
 70
     8
280
     0
  0
ATTDEF
  5
F6
330
EF
100
AcDbEntity
  8
AM_6
100
AcDbText
 10
-7.533333333333305
 20
27.53733670627881
 30
0.0
 40
0.5
  1
$MN.-Metric
100
AcDbAttributeDefinition
  3

  2
NBSYN
 70
     8
280
     0
  0
ATTDEF
  5
F7
330
EF
100
AcDbEntity
  8
AM_6
100
AcDbText
 10
-7.533333333333305
 20
27.03733670627881
 30
0.0
 40
0.5
  1
405015E
100
AcDbAttributeDefinition
  3

  2
LINA
 70
     8
280
     0
  0
ATTDEF
  5
F8
330
EF
100
AcDbEntity
  8
AM_6
100
AcDbText
 10
-7.533333333333305
 20
26.53733670627881
 30
0.0
 40
0.5
  1
405015E
100
AcDbAttributeDefinition
  3

  2
MN
 70
     8
280
     0
  0
ATTDEF
  5
F9
330
EF
100
AcDbEntity
  8
AM_6
100
AcDbText
 10
-7.533333333333305
 20
26.03733670627881
 30
0.0
 40
0.5
  1
1/8 x 27PTF
100
AcDbAttributeDefinition
  3

  2
T
 70
     8
280
     0
  0
ATTDEF
  5
FA
330
EF
100
AcDbEntity
  8
AM_6
100
AcDbText
 10
-7.533333333333305
 20
25.53733670627881
 30
0.0
 40
0.5
  1
baldor
100
AcDbAttributeDefinition
  3

  2
COMPANY
 70
     8
280
     0
  0
ELLIPSE
  5
FB
330
EF
100
AcDbEntity
  8
AM_9
100
AcDbEllipse
 10
-17.53333333333333
 20
18.8595
 30
0.0
 11
-4.157993753183522
 21
5.092073740710890E-16
 31
0.0
210
0.0
220
0.0
230
1.0
 40
0.8660254037844384
 41
0.0
 42
6.283185307179586
  0
ELLIPSE
  5
FC
330
EF
100
AcDbEntity
  8
AM_9
100
AcDbEllipse
 10
-17.53333333333333
 20
22.22499999999997
 30
0.0
 11
5.000000000000023
 21
0.0
 31
0.0
210
0.0
220
0.0
230
1.0
 40
0.8660254037844399
 41
1.0471975511966
 42
2.094395102393193
  0
LWPOLYLINE
  5
FD
330
EF
100
AcDbEntity
  8
AM_9
100
AcDbPolyline
 90
        3
 70
     0
 43
0.0
 10
-20.03333333333333
 20
25.975
 10
-18.78333333333333
 20
26.62735292325754
 10
-17.53333333333333
 20
27.32862971081845
  0
LWPOLYLINE
  5
FE
330
EF
100
AcDbEntity
  8
AM_9
100
AcDbPolyline
 90
        3
 70
     0
 43
0.0
 10
-17.53333333333333
 20
27.32862971081845
 10
-16.28895366992419
 20
26.63040473914823
 10
-15.03333333333333
 20
25.975
  0
LWPOLYLINE
  5
FF
330
EF
100
AcDbEntity
  8
AM_9
100
AcDbPolyline
 90
        3
 70
     0
 43
0.0
 10
-22.53333333333333
 20
24.82862971081845
 10
-21.28895366992419
 20
25.37478440255736
 10
-20.03333333333333
 20
25.975
  0
ELLIPSE
  5
100
330
EF
100
AcDbEntity
  8
AM_9
100
AcDbEllipse
 10
-17.53333333333332
 20
22.225
 30
0.0
 11
4.999999999999996
 21
0.0
 31
0.0
210
0.0
220
0.0
230
1.0
 40
0.8660254037844388
 41
0.0
 42
1.0471975511966
  0
LWPOLYLINE
  5
101
330
EF
100
AcDbEntity
  8
AM_9
100
AcDbPolyline
 90
        3
 70
     0
 43
0.0
 10
-15.03333333333333
 20
25.975
 10
-13.78333333333333
 20
25.37735292325754
 10
-12.53333333333333
 20
24.82862971081845
  0
LWPOLYLINE
  5
102
330
EF
100
AcDbEntity
  8
AM_9
100
AcDbPolyline
 90
        3
 70
     0
 43
0.0
 10
-17.53333333333333
 20
28.62137028918155
 10
-18.77771299674246
 20
28.07521559744263
 10
-20.03333333333333
 20
27.475
  0
LWPOLYLINE
  5
103
330
EF
100
AcDbEntity
  8
AM_9
100
AcDbPolyline
 90
        3
 70
     0
 43
0.0
 10
-15.03333333333333
 20
27.475
 10
-16.28333333333333
 20
28.07264707674246
 10
-17.53333333333333
 20
28.62137028918155
  0
LINE
  5
104
330
EF
100
AcDbEntity
  8
AM_9
100
AcDbLine
 10
-17.53333333333333
 20
28.62137028918155
 30
0.0
 11
-17.53333333333333
 21
27.32862971081845
 31
0.0
  0
LINE
  5
105
330
EF
100
AcDbEntity
  8
AM_9
100
AcDbLine
 10
-12.78227945649864
 20
18.93647407493883
 30
0.0
 11
-12.59095814873669
 21
21.9929744208878
 31
0.0
  0
LINE
  5
106
330
EF
100
AcDbEntity
  8
AM_9
100
AcDbLine
 10
-22.47570851792996
 20
21.9929744208878
 30
0.0
 11
-22.28438721016801
 21
18.93647407493883
 31
0.0
  0
ELLIPSE
  5
107
330
EF
100
AcDbEntity
  8
AM_9
100
AcDbEllipse
 10
-17.53333333333333
 20
22.22500000000002
 30
0.0
 11
5.000000000000023
 21
0.0
 31
0.0
210
0.0
220
0.0
230
1.0
 40
0.8660254037844399
 41
2.094395102393199
 42
6.283185307179586
  0
LINE
  5
108
330
EF
100
AcDbEntity
  8
AM_9
100
AcDbLine
 10
-20.03333333333333
 20
27.475
 30
0.0
 11
-20.28093473368184
 21
27.35010505923632
 31
0.0
  0
LINE
  5
109
330
EF
100
AcDbEntity
  8
AM_9
100
AcDbLine
 10
-14.79200845018852
 20
27.35329804868544
 30
0.0
 11
-15.03333333333333
 21
27.475
 31
0.0
  0
ELLIPSE
  5
10A
330
EF
100
AcDbEntity
  8
AM_9
100
AcDbEllipse
 10
-17.5333333333328
 20
23.72499999999899
 30
0.0
 11
5.000000000000941
 21
0.0
 31
0.0
210
0.0
220
0.0
230
1.0
 40
0.8660254037844968
 41
-4.188790204786387
 42
-4.12488246632798
  0
ELLIPSE
  5
10B
330
EF
100
AcDbEntity
  8
AM_9
100
AcDbEllipse
 10
-17.53333333333435
 20
23.72499999999431
 30
0.0
 11
5.000000000001928
 21
7.450580596926703E-8
 31
0.0
210
0.0
220
0.0
230
1.0
 40
0.8660254037851672
 41
0.9832897985117315
 42
2.094395088412541
  0
ELLIPSE
  5
10C
330
EF
100
AcDbEntity
  8
AM_9
100
AcDbEllipse
 10
-17.53333333333333
 20
23.72500000000002
 30
0.0
 11
4.749999999999995
 21
0.0
 31
0.0
210
0.0
220
0.0
230
1.0
 40
0.8660254037844356
 41
0.8913493053575303
 42
2.250243348232342
  0
ELLIPSE
  5
10D
330
EF
100
AcDbEntity
  8
AM_9
100
AcDbEllipse
 10
-17.53333333333333
 20
24.16020613539005
 30
0.0
 11
3.607583894601117
 21
0.0
 31
0.0
210
0.0
220
0.0
230
1.0
 40
0.8660254037844385
 41
0.5065493178887968
 42
2.635043335700678
  0
LINE
  5
10E
330
EF
100
AcDbEntity
  8
AM_9
100
AcDbLine
 10
-19.55787136149755
 20
26.50165094339623
 30
0.0
 11
-19.79097325109814
 21
26.26789437408346
 31
0.0
  0
LINE
  5
10F
330
EF
100
AcDbEntity
  8
AM_9
100
AcDbLine
 10
-15.27569341556852
 20
26.26789437408345
 30
0.0
 11
-15.50879530516911
 21
26.50165094339623
 31
0.0
  0
ELLIPSE
  5
110
330
EF
100
AcDbEntity
  8
AM_9
100
AcDbEllipse
 10
-17.53333333333334
 20
24.98750000000001
 30
0.0
 11
2.674999999999985
 21
0.0
 31
0.0
210
0.0
220
0.0
230
1.0
 40
0.8660254037844383
 41
2.429255921504771
 42
3.402181230724542
  0
ELLIPSE
  5
111
330
EF
100
AcDbEntity
  8
AM_9
100
AcDbEllipse
 10
-17.5333333333333
 20
24.57940664810467
 30
0.0
 11
2.982994982562539
 21
0.0
 31
0.0
210
0.0
220
0.0
230
1.0
 40
0.8660254037844377
 41
0.1512180148594942
 42
2.990374638730501
  0
ELLIPSE
  5
112
330
EF
100
AcDbEntity
  8
AM_9
100
AcDbEllipse
 10
-17.53333333333331
 20
24.98750000000015
 30
0.0
 11
2.674999999999988
 21
0.0
 31
0.0
210
0.0
220
0.0
230
1.0
 40
0.8660254037844477
 41
6.022596730045906
 42
8.712441228684416
  0
LINE
  5
113
330
EF
100
AcDbEntity
  8
AM_9
100
AcDbLine
 10
-14.85833333333333
 20
24.9875
 30
0.0
 11
-14.85833333333333
 21
25.3375
 31
0.0
  0
LINE
  5
114
330
EF
100
AcDbEntity
  8
AM_9
100
AcDbLine
 10
-20.20833333333333
 20
25.3375
 30
0.0
 11
-20.20833333333333
 21
24.9875
 31
0.0
  0
ELLIPSE
  5
115
330
EF
100
AcDbEntity
  8
AM_9
100
AcDbEllipse
 10
-17.53333333333333
 20
25.3375
 30
0.0
 11
2.67500000000001
 21
0.0
 31
0.0
210
0.0
220
0.0
230
1.0
 40
0.8660254037844382
 41
0.0
 42
3.141592653589793
  0
ELLIPSE
  5
116
330
EF
100
AcDbEntity
  8
AM_9
100
AcDbEllipse
 10
-17.53333333333332
 20
25.33750000000002
 30
0.0
 11
2.675000000000013
 21
0.0
 31
0.0
210
0.0
220
0.0
230
1.0
 40
0.8660254037844423
 41
3.141592653589793
 42
3.870658702111361
  0
ELLIPSE
  5
117
330
EF
100
AcDbEntity
  8
AM_9
100
AcDbEllipse
 10
-17.53333333333335
 20
25.33750000000001
 30
0.0
 11
2.675000000000022
 21
0.0
 31
0.0
210
0.0
220
0.0
230
1.0
 40
0.8660254037844407
 41
5.554119258658026
 42
6.283185307179586
  0
ELLIPSE
  5
118
330
EF
100
AcDbEntity
  8
AM_9
100
AcDbEllipse
 10
-17.53333333333333
 20
25.98749999999999
 30
0.0
 11
3.174999999999994
 21
0.0
 31
0.0
210
0.0
220
0.0
230
1.0
 40
0.8660254037844407
 41
0.7751090107151208
 42
2.366483642874672
  0
ELLIPSE
  5
119
330
EF
100
AcDbEntity
  8
AM_9
100
AcDbEllipse
 10
-17.53333333333333
 20
19.15951785166412
 30
0.0
 11
4.758029456511764
 21
0.0
 31
0.0
210
0.0
220
0.0
230
1.0
 40
0.8660254037844385
 41
0.0
 42
6.283185307179586
  0
ELLIPSE
  5
11A
330
EF
100
AcDbEntity
  8
AM_9
100
AcDbEllipse
 10
-17.53333333333334
 20
22.22499999999999
 30
0.0
 11
4.949631665534948
 21
0.0
 31
0.0
210
0.0
220
0.0
230
1.0
 40
0.8660254037844386
 41
0.0
 42
6.283185307179586
  0
LWPOLYLINE
  5
11B
330
EF
100
AcDbEntity
  8
AM_4
100
AcDbPolyline
 90
        3
 70
     0
 43
0.0
 10
-20.28093473368184
 20
27.35010505923632
 10
-21.28333333333333
 20
26.82264707674246
 10
-22.53333333333333
 20
26.12137028918155
  0
LWPOLYLINE
  5
11C
330
EF
100
AcDbEntity
  8
AM_4
100
AcDbPolyline
 90
        3
 70
     0
 43
0.0
 10
-12.53333333333333
 20
26.12137028918155
 10
-13.77771299674246
 20
26.81959526085177
 10
-14.79200845018852
 20
27.35329804868544
  0
ELLIPSE
  5
11D
330
EF
100
AcDbEntity
  8
AM_4
100
AcDbEllipse
 10
-17.53333333333333
 20
23.72500000000002
 30
0.0
 11
5.000000000000003
 21
7.450580596923833E-8
 31
0.0
210
0.0
220
0.0
230
1.0
 40
0.8660254037844389
 41
5.235987742002805
 42
7.266475105691145
  0
ELLIPSE
  5
11E
330
EF
100
AcDbEntity
  8
AM_4
100
AcDbEllipse
 10
-17.53333333333333
 20
23.72500000000002
 30
0.0
 11
5.000000000000023
 21
0.0
 31
0.0
210
0.0
220
0.0
230
1.0
 40
0.8660254037844399
 41
2.15830284085162
 42
5.235987755982985
  0
LINE
  5
11F
330
EF
100
AcDbEntity
  8
AM_4
100
AcDbLine
 10
-12.53333333333333
 20
26.12137028918155
 30
0.0
 11
-12.53333333333333
 21
19.82862971081845
 31
0.0
  0
LWPOLYLINE
  5
120
330
EF
100
AcDbEntity
  8
AM_4
100
AcDbPolyline
 90
        3
 70
     0
 43
0.0
 10
-15.03333333333333
 20
19.975
 10
-13.78333333333333
 20
20.57264707674246
 10
-12.53333333333333
 20
21.12137028918155
  0
LWPOLYLINE
  5
121
330
EF
100
AcDbEntity
  8
AM_4
100
AcDbPolyline
 90
        3
 70
     0
 43
0.0
 10
-17.53333333333333
 20
18.62137028918155
 10
-16.28895366992419
 20
19.31959526085177
 10
-15.03333333333333
 20
19.975
  0
LWPOLYLINE
  5
122
330
EF
100
AcDbEntity
  8
AM_4
100
AcDbPolyline
 90
        3
 70
     0
 43
0.0
 10
-15.03333333333333
 20
18.475
 10
-16.28333333333333
 20
17.87735292325754
 10
-17.53333333333333
 20
17.32862971081845
  0
LWPOLYLINE
  5
123
330
EF
100
AcDbEntity
  8
AM_4
100
AcDbPolyline
 90
        3
 70
     0
 43
0.0
 10
-12.53333333333333
 20
19.82862971081845
 10
-13.77771299674246
 20
19.13040473914823
 10
-15.03333333333333
 20
18.475
  0
LINE
  5
124
330
EF
100
AcDbEntity
  8
AM_4
100
AcDbLine
 10
-17.53333333333333
 20
18.62137028918155
 30
0.0
 11
-17.53333333333333
 21
17.32862971081845
 31
0.0
  0
LWPOLYLINE
  5
125
330
EF
100
AcDbEntity
  8
AM_4
100
AcDbPolyline
 90
        3
 70
     0
 43
0.0
 10
-20.03333333333333
 20
19.975
 10
-18.78333333333332
 20
19.32264707674246
 10
-17.53333333333333
 20
18.62137028918155
  0
LWPOLYLINE
  5
126
330
EF
100
AcDbEntity
  8
AM_4
100
AcDbPolyline
 90
        3
 70
     0
 43
0.0
 10
-22.53333333333333
 20
21.12137028918155
 10
-21.28895366992419
 20
20.57521559744263
 10
-20.03333333333333
 20
19.975
  0
LINE
  5
127
330
EF
100
AcDbEntity
  8
AM_4
100
AcDbLine
 10
-22.53333333333333
 20
26.12137028918155
 30
0.0
 11
-22.53333333333333
 21
19.82862971081845
 31
0.0
  0
LWPOLYLINE
  5
128
330
EF
100
AcDbEntity
  8
AM_4
100
AcDbPolyline
 90
        3
 70
     0
 43
0.0
 10
-20.03333333333333
 20
18.475
 10
-21.28333333333333
 20
19.12735292325754
 10
-22.53333333333333
 20
19.82862971081845
  0
LWPOLYLINE
  5
129
330
EF
100
AcDbEntity
  8
AM_4
100
AcDbPolyline
 90
        3
 70
     0
 43
0.0
 10
-17.53333333333333
 20
17.32862971081845
 10
-18.77771299674246
 20
17.87478440255736
 10
-20.03333333333333
 20
18.475
  0
ELLIPSE
  5
12A
330
EF
100
AcDbEntity
  8
AM_4
100
AcDbEllipse
 10
-17.53333333333333
 20
23.72499999999999
 30
0.0
 11
4.749999999999996
 21
0.0
 31
0.0
210
0.0
220
0.0
230
1.0
 40
0.866025403784439
 41
2.250243348232339
 42
7.174534612537117
  0
ELLIPSE
  5
12B
330
EF
100
AcDbEntity
  8
AM_4
100
AcDbEllipse
 10
-17.53333333333333
 20
24.16020613539004
 30
0.0
 11
3.607583894601115
 21
0.0
 31
0.0
210
0.0
220
0.0
230
1.0
 40
0.866025403784439
 41
2.635043335700677
 42
4.71238898038469
  0
ELLIPSE
  5
12C
330
EF
100
AcDbEntity
  8
AM_4
100
AcDbEllipse
 10
-17.53333333333332
 20
24.16020613539005
 30
0.0
 11
3.607583894601111
 21
0.0
 31
0.0
210
0.0
220
0.0
230
1.0
 40
0.8660254037844388
 41
4.71238898038469
 42
6.789734625068383
  0
ELLIPSE
  5
12D
330
EF
100
AcDbEntity
  8
AM_4
100
AcDbEllipse
 10
-17.53333333333332
 20
24.57940664810467
 30
0.0
 11
2.982994982562509
 21
0.0
 31
0.0
210
0.0
220
0.0
230
1.0
 40
0.8660254037844395
 41
2.990374638730503
 42
6.434403322039076
  0
ELLIPSE
  5
12E
330
EF
100
AcDbEntity
  8
AM_4
100
AcDbEllipse
 10
-17.53333333333332
 20
24.98749999999999
 30
0.0
 11
2.67499999999999
 21
0.0
 31
0.0
210
0.0
220
0.0
230
1.0
 40
0.8660254037844392
 41
4.71238898038469
 42
6.022596730045973
  0
ELLIPSE
  5
12F
330
EF
100
AcDbEntity
  8
AM_4
100
AcDbEllipse
 10
-17.53333333333332
 20
24.9875
 30
0.0
 11
2.675
 21
3.986060619354249E-8
 31
0.0
210
0.0
220
0.0
230
1.0
 40
0.8660254037844397
 41
3.402181213803708
 42
4.712388967479903
  0
ELLIPSE
  5
130
330
EF
100
AcDbEntity
  8
AM_4
100
AcDbEllipse
 10
-17.53333333333335
 20
25.33750000000002
 30
0.0
 11
2.675000000000033
 21
0.0
 31
0.0
210
0.0
220
0.0
230
1.0
 40
0.8660254037844402
 41
4.71238898038469
 42
5.554119258658021
  0
LINE
  5
131
330
EF
100
AcDbEntity
  8
AM_4
100
AcDbLine
 10
-15.53832662278122
 20
23.79423076923077
 30
0.0
 11
-15.16542817221073
 21
24.15576923076923
 31
0.0
  0
LINE
  5
132
330
EF
100
AcDbEntity
  8
AM_4
100
AcDbLine
 10
-19.90123849445592
 20
24.15576923076923
 30
0.0
 11
-19.52834004388543
 21
23.79423076923077
 31
0.0
  0
ELLIPSE
  5
133
330
EF
100
AcDbEntity
  8
AM_4
100
AcDbEllipse
 10
-17.53333333333332
 20
25.9875
 30
0.0
 11
3.174999999999995
 21
4.731118679046625E-8
 31
0.0
210
0.0
220
0.0
230
1.0
 40
0.8660254037844379
 41
4.712388967479905
 42
7.058294302794868
  0
ELLIPSE
  5
134
330
EF
100
AcDbEntity
  8
AM_4
100
AcDbEllipse
 10
-17.53333333333331
 20
25.98750000000005
 30
0.0
 11
3.175000000000024
 21
0.0
 31
0.0
210
0.0
220
0.0
230
1.0
 40
0.8660254037844458
 41
3.870658702111363
 42
4.71238898038469
  0
ELLIPSE
  5
135
330
EF
100
AcDbEntity
  8
AM_4
100
AcDbEllipse
 10
-17.53333333333331
 20
25.33750000000003
 30
0.0
 11
2.675000000000033
 21
0.0
 31
0.0
210
0.0
220
0.0
230
1.0
 40
0.8660254037844402
 41
3.870658702111362
 42
4.71238898038469
  0
ELLIPSE
  5
136
330
EF
100
AcDbEntity
  8
AM_4
100
AcDbEllipse
 10
-17.53333333333333
 20
26.9875
 30
0.0
 11
2.366947548329692
 21
0.0
 31
0.0
210
0.0
220
0.0
230
1.0
 40
0.8660254037844393
 41
4.71238898038469
 42
8.64966895005426
  0
LINE
  5
137
330
EF
100
AcDbEntity
  8
AM_4
100
AcDbLine
 10
-19.22414989572775
 20
28.42196332705213
 30
0.0
 11
-19.80137792493851
 21
27.91167490053993
 31
0.0
  0
LINE
  5
138
330
EF
100
AcDbEntity
  8
AM_4
100
AcDbLine
 10
-15.26528874172815
 20
27.91167490053993
 30
0.0
 11
-15.84251677093891
 21
28.42196332705213
 31
0.0
  0
ELLIPSE
  5
139
330
EF
100
AcDbEntity
  8
AM_4
100
AcDbEllipse
 10
-17.53333333333333
 20
26.9875
 30
0.0
 11
2.366947548329691
 21
0.0
 31
0.0
210
0.0
220
0.0
230
1.0
 40
0.8660254037844385
 41
2.366483642874674
 42
4.71238898038469
  0
ELLIPSE
  5
13A
330
EF
100
AcDbEntity
  8
AM_4
100
AcDbEllipse
 10
-17.53333333333333
 20
25.9875
 30
0.0
 11
3.174999999999994
 21
0.0
 31
0.0
210
0.0
220
0.0
230
1.0
 40
0.8660254037844385
 41
2.366483642874671
 42
3.87065870211136
  0
ENDBLK
  5
F2
330
EF
100
AcDbEntity
  8
0
100
AcDbBlockEnd
  0
BLOCK
  5
13D
330
13B
100
AcDbEntity
  8
0
100
AcDbBlockBegin
  2
4_130366H_0_in_130366_2
 70
     2
 10
0.0
 20
0.0
 30
0.0
  3
4_130366H_0_in_130366_2
  1

  0
ATTDEF
  5
13F
330
13B
100
AcDbEntity
  8
AM_6
100
AcDbText
 10
6.36
 20
61.2
 30
0.0
 40
0.5
  1
LFT-SC and  LFT-SC-NL -Metric - housing
100
AcDbAttributeDefinition
  3

  2
NN
 70
     8
280
     0
  0
ATTDEF
  5
140
330
13B
100
AcDbEntity
  8
AM_6
100
AcDbText
 10
6.36
 20
60.7
 30
0.0
 40
0.5
  1
SC 2 Bolt Flange Bearings -(Normal Duty) -Re-Lube and No-Lube
100
AcDbAttributeDefinition
  3

  2
NT
 70
     8
280
     0
  0
ATTDEF
  5
141
330
13B
100
AcDbEntity
  8
AM_6
100
AcDbText
 10
6.36
 20
60.2
 30
0.0
 40
0.5
  1
130366H
100
AcDbAttributeDefinition
  3

  2
NB
 70
     8
280
     0
  0
ATTDEF
  5
142
330
13B
100
AcDbEntity
  8
AM_6
100
AcDbText
 10
6.36
 20
59.7
 30
0.0
 40
0.5
  1
$PN.H
100
AcDbAttributeDefinition
  3

  2
NBSYN
 70
     8
280
     0
  0
ATTDEF
  5
143
330
13B
100
AcDbEntity
  8
AM_6
100
AcDbText
 10
6.36
 20
59.2
 30
0.0
 40
0.5
  1
130366
100
AcDbAttributeDefinition
  3

  2
LINA
 70
     8
280
     0
  0
ATTDEF
  5
144
330
13B
100
AcDbEntity
  8
AM_6
100
AcDbText
 10
6.36
 20
58.7
 30
0.0
 40
0.5
  1
207
100
AcDbAttributeDefinition
  3

  2
SERIES
 70
     8
280
     0
  0
ATTDEF
  5
145
330
13B
100
AcDbEntity
  8
AM_6
100
AcDbText
 10
6.36
 20
58.2
 30
0.0
 40
0.5
  1
35
100
AcDbAttributeDefinition
  3

  2
SS
 70
     8
280
     0
  0
ATTDEF
  5
146
330
13B
100
AcDbEntity
  8
AM_6
100
AcDbText
 10
6.36
 20
57.7
 30
0.0
 40
0.5
  1
130366
100
AcDbAttributeDefinition
  3

  2
PN
 70
     8
280
     0
  0
ATTDEF
  5
147
330
13B
100
AcDbEntity
  8
AM_6
100
AcDbText
 10
6.36
 20
57.2
 30
0.0
 40
0.5
  1
LFT-SC-35M
100
AcDbAttributeDefinition
  3

  2
DESCRIPTION
 70
     8
280
     0
  0
ATTDEF
  5
148
330
13B
100
AcDbEntity
  8
AM_6
100
AcDbText
 10
6.36
 20
56.7
 30
0.0
 40
0.5
  1
0.81
100
AcDbAttributeDefinition
  3

  2
W
 70
     8
280
     0
  0
ATTDEF
  5
149
330
13B
100
AcDbEntity
  8
AM_6
100
AcDbText
 10
6.36
 20
56.2
 30
0.0
 40
0.5
  1
RE-LUBE
100
AcDbAttributeDefinition
  3

  2
LF
 70
     8
280
     0
  0
ATTDEF
  5
14A
330
13B
100
AcDbEntity
  8
AM_6
100
AcDbText
 10
6.36
 20
55.7
 30
0.0
 40
0.5
  1
35.6
100
AcDbAttributeDefinition
  3

  2
A
 70
     8
280
     0
  0
ATTDEF
  5
14B
330
13B
100
AcDbEntity
  8
AM_6
100
AcDbText
 10
6.36
 20
55.2
 30
0.0
 40
0.5
  1
122.4
100
AcDbAttributeDefinition
  3

  2
B
 70
     8
280
     0
  0
ATTDEF
  5
14C
330
13B
100
AcDbEntity
  8
AM_6
100
AcDbText
 10
6.36
 20
54.7
 30
0.0
 40
0.5
  1
40.4
100
AcDbAttributeDefinition
  3

  2
C
 70
     8
280
     0
  0
ATTDEF
  5
14D
330
13B
100
AcDbEntity
  8
AM_6
100
AcDbText
 10
6.36
 20
54.2
 30
0.0
 40
0.5
  1
100.1
100
AcDbAttributeDefinition
  3

  2
D
 70
     8
280
     0
  0
ATTDEF
  5
14E
330
13B
100
AcDbEntity
  8
AM_6
100
AcDbText
 10
6.36
 20
53.7
 30
0.0
 40
0.5
  1
10.4
100
AcDbAttributeDefinition
  3

  2
G
 70
     8
280
     0
  0
ATTDEF
  5
14F
330
13B
100
AcDbEntity
  8
AM_6
100
AcDbText
 10
6.36
 20
53.2
 30
0.0
 40
0.5
  1
12.7
100
AcDbAttributeDefinition
  3

  2
H
 70
     8
280
     0
  0
ATTDEF
  5
150
330
13B
100
AcDbEntity
  8
AM_6
100
AcDbText
 10
6.36
 20
52.7
 30
0.0
 40
0.5
  1
13.2
100
AcDbAttributeDefinition
  3

  2
J
 70
     8
280
     0
  0
ATTDEF
  5
151
330
13B
100
AcDbEntity
  8
AM_6
100
AcDbText
 10
6.36
 20
52.2
 30
0.0
 40
0.5
  1
46.7
100
AcDbAttributeDefinition
  3

  2
L
 70
     8
280
     0
  0
ATTDEF
  5
152
330
13B
100
AcDbEntity
  8
AM_6
100
AcDbText
 10
6.36
 20
51.7
 30
0.0
 40
0.5
  1
88.9
100
AcDbAttributeDefinition
  3

  2
M
 70
     8
280
     0
  0
ATTDEF
  5
153
330
13B
100
AcDbEntity
  8
AM_6
100
AcDbText
 10
6.36
 20
51.2
 30
0.0
 40
0.5
  1
46.5
100
AcDbAttributeDefinition
  3

  2
N
 70
     8
280
     0
  0
ATTDEF
  5
154
330
13B
100
AcDbEntity
  8
AM_6
100
AcDbText
 10
6.36
 20
50.7
 30
0.0
 40
0.5
  1
3065
100
AcDbAttributeDefinition
  3

  2
CAPS
 70
     8
280
     0
  0
ATTDEF
  5
155
330
13B
100
AcDbEntity
  8
AM_6
100
AcDbText
 10
6.36
 20
50.2
 30
0.0
 40
0.5
  1
5759
100
AcDbAttributeDefinition
  3

  2
CAPD
 70
     8
280
     0
  0
ATTDEF
  5
156
330
13B
100
AcDbEntity
  8
AM_6
100
AcDbText
 10
6.36
 20
49.7
 30
0.0
 40
0.5
  1
baldor
100
AcDbAttributeDefinition
  3

  2
COMPANY
 70
     8
280
     0
  0
LINE
  5
157
330
13B
100
AcDbEntity
  8
AM_9
100
AcDbLine
 10
-16.32
 20
36.02613921759681
 30
0.0
 11
-3.175000000000002
 21
36.02613921759681
 31
0.0
  0
LINE
  5
158
330
13B
100
AcDbEntity
  8
AM_9
100
AcDbLine
 10
-16.32
 20
11.27740187606764
 30
0.0
 11
-3.175000000000003
 21
11.27740187606764
 31
0.0
  0
LINE
  5
159
330
13B
100
AcDbEntity
  8
AM_9
100
AcDbLine
 10
-24.66000000000001
 20
11.83506615700722
 30
0.0
 11
-24.66000000000001
 21
31.18772641114889
 31
0.0
  0
LINE
  5
15A
330
13B
100
AcDbEntity
  8
AM_9
100
AcDbLine
 10
-12.7
 20
-55.24999999999999
 30
0.0
 11
0.0000000000000003
 21
-55.24999999999999
 31
0.0
  0
LINE
  5
15B
330
13B
100
AcDbEntity
  8
AM_9
100
AcDbLine
 10
-12.7
 20
-44.84999999999999
 30
0.0
 11
0.0000000000000003
 21
-44.84999999999999
 31
0.0
  0
LINE
  5
15C
330
13B
100
AcDbEntity
  8
AM_9
100
AcDbLine
 10
-12.7
 20
55.24999999999999
 30
0.0
 11
0.0000000000000003
 21
55.24999999999999
 31
0.0
  0
LINE
  5
15D
330
13B
100
AcDbEntity
  8
AM_9
100
AcDbLine
 10
-12.7
 20
44.84999999999999
 30
0.0
 11
0.0000000000000003
 21
44.84999999999999
 31
0.0
  0
LINE
  5
15E
330
13B
100
AcDbEntity
  8
AM_9
100
AcDbLine
 10
-12.7
 20
-41.06086342868389
 30
0.0
 11
-12.7
 21
-38.9
 31
0.0
  0
LINE
  5
15F
330
13B
100
AcDbEntity
  8
AM_9
100
AcDbLine
 10
-12.7
 20
-38.9
 30
0.0
 11
-27.2
 21
-38.9
 31
0.0
  0
LINE
  5
160
330
13B
100
AcDbEntity
  8
AM_9
100
AcDbLine
 10
-27.2
 20
38.9
 30
0.0
 11
-12.7
 21
38.9
 31
0.0
  0
LINE
  5
161
330
13B
100
AcDbEntity
  8
AM_9
100
AcDbLine
 10
-12.7
 20
38.9
 30
0.0
 11
-12.7
 21
41.06086342868389
 31
0.0
  0
LINE
  5
162
330
13B
100
AcDbEntity
  8
AM_9
100
AcDbLine
 10
-16.32
 20
-36.02613921759679
 30
0.0
 11
-3.175
 21
-36.02613921759679
 31
0.0
  0
LINE
  5
163
330
13B
100
AcDbEntity
  8
AM_9
100
AcDbLine
 10
-3.175
 20
-39.511110716
 30
0.0
 11
0.0
 21
-39.511110716
 31
0.0
  0
LINE
  5
164
330
13B
100
AcDbEntity
  8
AM_9
100
AcDbLine
 10
0.0
 20
39.511110716
 30
0.0
 11
-3.175
 21
39.511110716
 31
0.0
  0
LINE
  5
165
330
13B
100
AcDbEntity
  8
AM_9
100
AcDbLine
 10
-3.174999999999999
 20
-36.54177378110663
 30
0.0
 11
0.0000000000000009
 21
-36.54177378110663
 31
0.0
  0
LINE
  5
166
330
13B
100
AcDbEntity
  8
AM_9
100
AcDbLine
 10
-3.174999999999999
 20
36.54177378110664
 30
0.0
 11
0.0000000000000009
 21
36.54177378110664
 31
0.0
  0
LWPOLYLINE
  5
167
330
13B
100
AcDbEntity
  8
AM_9
100
AcDbPolyline
 90
        5
 70
     0
 43
0.0
 10
-27.2
 20
30.05929535556832
 10
-27.19102349504588
 20
30.17015328768077
 10
-27.11649013099681
 20
30.39479377225106
 10
-26.96238465441861
 20
30.61620629244695
 10
-26.68697001012628
 20
30.85367036525614
  0
LINE
  5
168
330
13B
100
AcDbEntity
  8
AM_9
100
AcDbLine
 10
-3.174999999999999
 20
31.18772641114889
 30
0.0
 11
-24.66
 21
31.18772641114889
 31
0.0
  0
LWPOLYLINE
  5
169
330
13B
100
AcDbEntity
  8
AM_9
100
AcDbPolyline
 90
        7
 70
     0
 43
0.0
 10
-26.68697001012628
 20
30.85367036525614
 10
-26.39989276120576
 20
31.00291591371985
 10
-26.05634993245377
 20
31.10100649401829
 10
-25.6831594560686
 20
31.15425225963311
 10
-25.26239019820168
 20
31.17941413787287
 10
-24.96465248741166
 20
31.18599599964145
 10
-24.66
 20
31.18772641114889
  0
LINE
  5
16A
330
13B
100
AcDbEntity
  8
AM_9
100
AcDbLine
 10
-27.2
 20
30.85367036525614
 30
0.0
 11
-26.68697001012628
 21
30.85367036525614
 31
0.0
  0
LINE
  5
16B
330
13B
100
AcDbEntity
  8
AM_9
100
AcDbLine
 10
-3.174999999999998
 20
-9.871417447060074
 30
0.0
 11
-16.32
 21
-9.871417447060065
 31
0.0
  0
LINE
  5
16C
330
13B
100
AcDbEntity
  8
AM_9
100
AcDbLine
 10
-3.175000000000003
 20
9.871417447060066
 30
0.0
 11
-16.32
 21
9.871417447060074
 31
0.0
  0
LINE
  5
16D
330
13B
100
AcDbEntity
  8
AM_9
100
AcDbLine
 10
-16.32
 20
36.02613921759681
 30
0.0
 11
-16.32
 21
9.871417447060074
 31
0.0
  0
LINE
  5
16E
330
13B
100
AcDbEntity
  8
AM_9
100
AcDbLine
 10
-16.32
 20
34.62015478858924
 30
0.0
 11
-3.175000000000001
 21
34.62015478858923
 31
0.0
  0
LINE
  5
16F
330
13B
100
AcDbEntity
  8
AM_9
100
AcDbLine
 10
-16.32
 20
-34.62015478858923
 30
0.0
 11
-3.175
 21
-34.62015478858923
 31
0.0
  0
LINE
  5
170
330
13B
100
AcDbEntity
  8
AM_9
100
AcDbLine
 10
-27.2
 20
-36.00000000000001
 30
0.0
 11
-3.175000000000001
 21
-36.00000000000001
 31
0.0
  0
LINE
  5
171
330
13B
100
AcDbEntity
  8
AM_9
100
AcDbLine
 10
-3.175000000000001
 20
36.00000000000001
 30
0.0
 11
-27.2
 21
36.00000000000001
 31
0.0
  0
LINE
  5
172
330
13B
100
AcDbEntity
  8
AM_9
100
AcDbLine
 10
-16.32
 20
-11.2774018760676
 30
0.0
 11
-3.174999999999998
 21
-11.2774018760676
 31
0.0
  0
LINE
  5
173
330
13B
100
AcDbEntity
  8
AM_9
100
AcDbLine
 10
-16.32
 20
-36.02613921759679
 30
0.0
 11
-16.32
 21
-9.871417447060065
 31
0.0
  0
LINE
  5
174
330
13B
100
AcDbEntity
  8
AM_9
100
AcDbLine
 10
-21.34333333333333
 20
22.225
 30
0.0
 11
-21.34333333333333
 21
19.725
 31
0.0
  0
LINE
  5
175
330
13B
100
AcDbEntity
  8
AM_9
100
AcDbLine
 10
-13.72333333333333
 20
19.725
 30
0.0
 11
-13.72333333333333
 21
22.225
 31
0.0
  0
ELLIPSE
  5
176
330
13B
100
AcDbEntity
  8
AM_9
100
AcDbEllipse
 10
-17.53333333333325
 20
19.7250000000001
 30
0.0
 11
-3.809999999999924
 21
4.665904304751323E-16
 31
0.0
210
0.0
220
0.0
230
1.0
 40
0.8660254037844357
 41
0.0
 42
6.283185307179586
  0
ELLIPSE
  5
177
330
13B
100
AcDbEntity
  8
AM_9
100
AcDbEllipse
 10
-17.53333333333332
 20
22.225
 30
0.0
 11
-3.810000000000013
 21
4.665904304751431E-16
 31
0.0
210
0.0
220
0.0
230
1.0
 40
0.8660254037844388
 41
0.0
 42
6.283185307179586
  0
LINE
  5
178
330
13B
100
AcDbEntity
  8
AM_7
100
AcDbLine
 10
1.36
 20
0.0
 30
0.0
 11
-42.18750000000001
 21
0.0
 31
0.0
  0
LINE
  5
179
330
13B
100
AcDbEntity
  8
AM_7
100
AcDbLine
 10
-11.975
 20
50.05
 30
0.0
 11
-27.925
 21
50.05
 31
0.0
  0
LINE
  5
17A
330
13B
100
AcDbEntity
  8
AM_7
100
AcDbLine
 10
-11.975
 20
-50.05
 30
0.0
 11
-27.925
 21
-50.05
 31
0.0
  0
LINE
  5
17B
330
13B
100
AcDbEntity
  8
AM_4
100
AcDbLine
 10
-12.7
 20
-61.20000000000001
 30
0.0
 11
0.0
 21
-61.20000000000001
 31
0.0
  0
LINE
  5
17C
330
13B
100
AcDbEntity
  8
AM_4
100
AcDbLine
 10
-12.7
 20
-61.20000000000001
 30
0.0
 11
-12.7
 21
-41.06086342868389
 31
0.0
  0
LINE
  5
17D
330
13B
100
AcDbEntity
  8
AM_4
100
AcDbLine
 10
-12.7
 20
41.06086342868389
 30
0.0
 11
-12.7
 21
61.2
 31
0.0
  0
LINE
  5
17E
330
13B
100
AcDbEntity
  8
AM_4
100
AcDbLine
 10
0.0
 20
61.2
 30
0.0
 11
-12.7
 21
61.2
 31
0.0
  0
LINE
  5
17F
330
13B
100
AcDbEntity
  8
AM_4
100
AcDbLine
 10
-3.174999999999997
 20
46.75224603406745
 30
0.0
 11
-3.174999999999997
 21
44.26445765065775
 31
0.0
  0
LINE
  5
180
330
13B
100
AcDbEntity
  8
AM_4
100
AcDbLine
 10
-3.174999999999997
 20
46.75224603406745
 30
0.0
 11
0.0000000000000008
 21
46.75224603406745
 31
0.0
  0
LINE
  5
181
330
13B
100
AcDbEntity
  8
AM_4
100
AcDbLine
 10
-12.7
 20
51.96431340368241
 30
0.0
 11
0.0000000000000007
 21
51.96431340368241
 31
0.0
  0
LINE
  5
182
330
13B
100
AcDbEntity
  8
AM_4
100
AcDbLine
 10
0.0000000000000009
 20
44.26445765065775
 30
0.0
 11
-3.174999999999997
 21
44.26445765065775
 31
0.0
  0
LINE
  5
183
330
13B
100
AcDbEntity
  8
AM_4
100
AcDbLine
 10
-3.174999999999997
 20
-44.26445765065738
 30
0.0
 11
-3.174999999999997
 21
-46.75224603406788
 31
0.0
  0
LINE
  5
184
330
13B
100
AcDbEntity
  8
AM_4
100
AcDbLine
 10
-3.174999999999997
 20
-44.26445765065738
 30
0.0
 11
0.0000000000000009
 21
-44.26445765065738
 31
0.0
  0
LINE
  5
185
330
13B
100
AcDbEntity
  8
AM_4
100
AcDbLine
 10
-12.7
 20
-51.96431340368242
 30
0.0
 11
0.0000000000000007
 21
-51.96431340368242
 31
0.0
  0
LINE
  5
186
330
13B
100
AcDbEntity
  8
AM_4
100
AcDbLine
 10
0.0000000000000008
 20
-46.75224603406788
 30
0.0
 11
-3.174999999999997
 21
-46.75224603406788
 31
0.0
  0
LINE
  5
187
330
13B
100
AcDbEntity
  8
AM_4
100
AcDbLine
 10
0.0
 20
-61.20000000000001
 30
0.0
 11
0.000000000000001
 21
-36.34637871650784
 31
0.0
  0
LINE
  5
188
330
13B
100
AcDbEntity
  8
AM_4
100
AcDbLine
 10
0.000000000000001
 20
-36.34637871650784
 30
0.0
 11
-3.174999999999999
 21
-36.34637871650784
 31
0.0
  0
LINE
  5
189
330
13B
100
AcDbEntity
  8
AM_4
100
AcDbLine
 10
-3.174999999999999
 20
36.34637871650784
 30
0.0
 11
0.000000000000001
 21
36.34637871650784
 31
0.0
  0
LINE
  5
18A
330
13B
100
AcDbEntity
  8
AM_4
100
AcDbLine
 10
0.000000000000001
 20
36.34637871650784
 30
0.0
 11
0.0
 21
61.2
 31
0.0
  0
LINE
  5
18B
330
13B
100
AcDbEntity
  8
AM_4
100
AcDbLine
 10
-24.66000000000001
 20
43.5213036963037
 30
0.0
 11
-12.7
 21
43.52130369630369
 31
0.0
  0
LINE
  5
18C
330
13B
100
AcDbEntity
  8
AM_4
100
AcDbLine
 10
-3.174999999999998
 20
40.65162861961935
 30
0.0
 11
0.0000000000000011
 21
40.65162861961953
 31
0.0
  0
LINE
  5
18D
330
13B
100
AcDbEntity
  8
AM_4
100
AcDbLine
 10
0.000000000000001
 20
41.06086342868392
 30
0.0
 11
-12.7
 21
41.06086342868389
 31
0.0
  0
LINE
  5
18E
330
13B
100
AcDbEntity
  8
AM_4
100
AcDbLine
 10
-24.66000000000001
 20
43.5213036963037
 30
0.0
 11
-24.66
 21
31.18772641114889
 31
0.0
  0
LWPOLYLINE
  5
18F
330
13B
100
AcDbEntity
  8
AM_4
100
AcDbPolyline
 90
       11
 70
     0
 43
0.0
 10
-24.66000000000001
 20
43.5213036963037
 10
-25.04817978709873
 20
43.49481367130385
 10
-25.43635957419745
 20
43.41349495878524
 10
-25.79167061391324
 20
43.28574282112223
 10
-26.12494503186479
 20
43.11047292249433
 10
-26.41561183158894
 20
42.90067445641479
 10
-26.66699798837671
 20
42.65775051878347
 10
-26.87645884486329
 20
42.38409673362364
 10
-27.03405880759179
 20
42.09425240051389
 10
-27.1595116465493
 20
41.71023413635572
 10
-27.2
 20
41.32995104895105
  0
LINE
  5
190
330
13B
100
AcDbEntity
  8
AM_4
100
AcDbLine
 10
-3.174999999999999
 20
31.19396583964366
 30
0.0
 11
-27.2
 21
31.19396583964366
 31
0.0
  0
LINE
  5
191
330
13B
100
AcDbEntity
  8
AM_4
100
AcDbLine
 10
-27.2
 20
-41.32995104895104
 30
0.0
 11
-27.2
 21
41.32995104895105
 31
0.0
  0
LINE
  5
192
330
13B
100
AcDbEntity
  8
AM_4
100
AcDbLine
 10
-27.2
 20
29.92396583964367
 30
0.0
 11
-3.174999999999998
 21
29.92396583964367
 31
0.0
  0
LINE
  5
193
330
13B
100
AcDbEntity
  8
AM_4
100
AcDbLine
 10
-27.2
 20
14.52603416035635
 30
0.0
 11
-3.174999999999998
 21
14.52603416035635
 31
0.0
  0
LINE
  5
194
330
13B
100
AcDbEntity
  8
AM_4
100
AcDbLine
 10
-27.2
 20
11.05632963474388
 30
0.0
 11
-26.68697001013652
 21
11.05632963474388
 31
0.0
  0
LWPOLYLINE
  5
195
330
13B
100
AcDbEntity
  8
AM_4
100
AcDbPolyline
 90
       11
 70
     0
 43
0.0
 10
-27.2
 20
-41.32995104895104
 10
-27.16945296731567
 20
-41.66035893798296
 10
-27.069469772562
 20
-42.00945690942086
 10
-26.90909420698734
 20
-42.33223182681092
 10
-26.67142582255512
 20
-42.65277871056433
 10
-26.36807827203569
 20
-42.93942438622729
 10
-25.98389313121327
 20
-43.19204101484616
 10
-25.61456772661693
 20
-43.35628850812918
 10
-25.20040604787089
 20
-43.469690532804
 10
-24.93394995626264
 20
-43.50814712911805
 10
-24.66000000000001
 20
-43.5213036963037
  0
LWPOLYLINE
  5
196
330
13B
100
AcDbEntity
  8
AM_4
100
AcDbPolyline
 90
        7
 70
     0
 43
0.0
 10
-24.66
 20
11.83506615700722
 10
-25.03390497927252
 20
11.80520503257774
 10
-25.40780995854503
 20
11.71740889956166
 10
-25.74970857047592
 20
11.59044370956223
 10
-26.06574534476924
 20
11.43787526258984
 10
-26.39482689584313
 20
11.24773591697904
 10
-26.68697001013652
 20
11.05632963474388
  0
LWPOLYLINE
  5
197
330
13B
100
AcDbEntity
  8
AM_4
100
AcDbPolyline
 90
        5
 70
     0
 43
0.0
 10
-26.68697001013652
 20
11.05632963474388
 10
-26.91792913508088
 20
10.86588822066679
 10
-27.08608301445717
 20
10.65256843736355
 10
-27.17081649988672
 20
10.46140958948927
 10
-27.2
 20
10.26195462505606
  0
LINE
  5
198
330
13B
100
AcDbEntity
  8
AM_4
100
AcDbLine
 10
-12.7
 20
-43.52130369630369
 30
0.0
 11
-24.66000000000001
 21
-43.5213036963037
 31
0.0
  0
LINE
  5
199
330
13B
100
AcDbEntity
  8
AM_4
100
AcDbLine
 10
-12.7
 20
-41.06086342868389
 30
0.0
 11
0.000000000000001
 21
-41.06086342868392
 31
0.0
  0
LINE
  5
19A
330
13B
100
AcDbEntity
  8
AM_4
100
AcDbLine
 10
0.0000000000000011
 20
-40.65162861961954
 30
0.0
 11
-3.174999999999998
 21
-40.65162861961935
 31
0.0
  0
LINE
  5
19B
330
13B
100
AcDbEntity
  8
AM_4
100
AcDbLine
 10
-3.174999999999998
 20
-40.65162861961935
 30
0.0
 11
-3.174999999999998
 21
40.65162861961935
 31
0.0
  0
LINE
  5
19C
330
13B
100
AcDbEntity
  8
AM_4
100
AcDbLine
 10
-24.66
 20
11.83506615700722
 30
0.0
 11
-3.174999999999998
 21
11.83506615700722
 31
0.0
  0
LINE
  5
19D
330
13B
100
AcDbEntity
  8
AM_4
100
AcDbLine
 10
-24.66
 20
11.83506615700722
 30
0.0
 11
-24.66000000000001
 21
-43.5213036963037
 31
0.0
  0
ENDBLK
  5
13E
330
13B
100
AcDbEntity
  8
0
100
AcDbBlockEnd
  0
ENDSEC
  0
SECTION
  2
ENTITIES
  0
INSERT
  5
6F
330
1F
100
AcDbEntity
  8
0
100
AcDbBlockReference
  2
1_130366_2
 10
0.0
 20
0.0
 30
0.0
  0
POINT
  5
19F
330
1F
100
AcDbEntity
  8
ConnectionPoints
100
AcDbPoint
 10
-17.53333333333333
 20
22.225
 30
38.49482919821831
  0
POINT
  5
1A0
330
1F
100
AcDbEntity
  8
ConnectionPoints
100
AcDbPoint
 10
-17.53333333333333
 20
22.225
 30
38.49482919821831
  0
POINT
  5
1A1
330
1F
100
AcDbEntity
  8
ConnectionPoints
100
AcDbPoint
 10
-40.4
 20
0.0
 30
0.0000000000000025
  0
ENDSEC
  0
SECTION
  2
OBJECTS
  0
DICTIONARY
  5
C
330
0
100
AcDbDictionary
281
     1
  3
ACAD_DETAILVIEWSTYLE
350
1A9
  3
ACAD_GROUP
350
D
  3
ACAD_LAYOUT
350
1A
  3
ACAD_MATERIAL
350
43
  3
ACAD_MLEADERSTYLE
350
6B
  3
ACAD_MLINESTYLE
350
17
  3
ACAD_PLOTSETTINGS
350
19
  3
ACAD_PLOTSTYLENAME
350
E
  3
ACAD_SCALELIST
350
47
  3
ACAD_SECTIONVIEWSTYLE
350
1AA
  3
ACAD_TABLESTYLE
350
69
  3
ACAD_VISUALSTYLE
350
2A
  3
ACDB_RECOMPOSE_DATA
350
1A6
  3
AcDbVariableDictionary
350
1A2
  0
SUN
  5
6D
330
29
100
AcDbSun
 90
        1
290
     0
 63
     7
421
 16777215
 40
1.0
291
     1
 91
  2455826
 92
 54000000
292
     0
 70
     2
 71
   256
280
     1
  0
DICTIONARY
  5
1A9
102
{ACAD_REACTORS
330
C
102
}
330
C
100
AcDbDictionary
281
     1
  0
DICTIONARY
  5
D
102
{ACAD_REACTORS
330
C
102
}
330
C
100
AcDbDictionary
281
     1
  0
DICTIONARY
  5
1A
102
{ACAD_REACTORS
330
C
102
}
330
C
100
AcDbDictionary
281
     1
  3
Layout1
350
1E
  3
Layout2
350
26
  3
Model
350
22
  0
DICTIONARY
  5
43
102
{ACAD_REACTORS
330
C
102
}
330
C
100
AcDbDictionary
281
     1
  3
ByBlock
350
45
  3
ByLayer
350
44
  3
Global
350
46
  0
DICTIONARY
  5
6B
102
{ACAD_REACTORS
330
C
102
}
330
C
100
AcDbDictionary
281
     1
  3
Standard
350
6C
  0
DICTIONARY
  5
17
102
{ACAD_REACTORS
330
C
102
}
330
C
100
AcDbDictionary
281
     1
  3
Standard
350
18
  0
DICTIONARY
  5
19
102
{ACAD_REACTORS
330
C
102
}
330
C
100
AcDbDictionary
281
     1
  0
ACDBDICTIONARYWDFLT
  5
E
102
{ACAD_REACTORS
330
C
102
}
330
C
100
AcDbDictionary
281
     1
  3
Normal
350
F
100
AcDbDictionaryWithDefault
340
F
  0
DICTIONARY
  5
47
102
{ACAD_REACTORS
330
C
102
}
330
C
100
AcDbDictionary
281
     1
  3
A0
350
48
  3
A1
350
49
  3
A2
350
4A
  3
A3
350
4B
  3
A4
350
4C
  3
A5
350
4D
  3
A6
350
4E
  3
A7
350
4F
  3
A8
350
50
  3
A9
350
51
  3
B0
350
52
  3
B1
350
53
  3
B2
350
54
  3
B3
350
55
  3
B4
350
56
  3
B5
350
57
  3
B6
350
58
  3
B7
350
59
  3
B8
350
5A
  3
B9
350
5B
  3
C0
350
5C
  3
C1
350
5D
  3
C2
350
5E
  3
C3
350
5F
  3
C4
350
60
  3
C5
350
61
  3
C6
350
62
  3
C7
350
63
  3
C8
350
64
  3
C9
350
65
  3
D0
350
66
  3
D1
350
67
  3
D2
350
68
  0
DICTIONARY
  5
1AA
102
{ACAD_REACTORS
330
C
102
}
330
C
100
AcDbDictionary
281
     1
  0
DICTIONARY
  5
69
102
{ACAD_REACTORS
330
C
102
}
330
C
100
AcDbDictionary
281
     1
  3
Standard
350
6A
  0
DICTIONARY
  5
2A
102
{ACAD_REACTORS
330
C
102
}
330
C
100
AcDbDictionary
281
     1
  3
2dWireframe
350
2F
  3
Basic
350
32
  3
Brighten
350
36
  3
ColorChange
350
3A
  3
Conceptual
350
34
  3
Dim
350
35
  3
EdgeColorOff
350
3D
  3
Facepattern
350
39
  3
Flat
350
2B
  3
FlatWithEdges
350
2C
  3
Gouraud
350
2D
  3
GouraudWithEdges
350
2E
  3
Hidden
350
31
  3
JitterOff
350
3B
  3
Linepattern
350
38
  3
OverhangOff
350
3C
  3
Realistic
350
33
  3
Shaded
350
42
  3
Shaded with edges
350
41
  3
Shades of Gray
350
3E
  3
Sketchy
350
3F
  3
Thicken
350
37
  3
Wireframe
350
30
  3
X-Ray
350
40
  0
XRECORD
  5
1A6
102
{ACAD_REACTORS
330
C
102
}
330
C
100
AcDbXrecord
280
     1
 90
        1
330
6A
  0
DICTIONARY
  5
1A2
102
{ACAD_REACTORS
330
C
102
}
330
C
100
AcDbDictionary
281
     1
  3
CANNOSCALE
350
1A3
  3
CMLEADERSTYLE
350
1A8
  3
CTABLESTYLE
350
1A7
  0
LAYOUT
  5
1E
102
{ACAD_REACTORS
330
1A
102
}
330
1A
100
AcDbPlotSettings
  1

  2
none_device
  4

  6

 40
0.0
 41
0.0
 42
0.0
 43
0.0
 44
0.0
 45
0.0
 46
0.0
 47
0.0
 48
0.0
 49
0.0
140
0.0
141
0.0
142
1.0
143
1.0
 70
   688
 72
     1
 73
     0
 74
     5
  7

 75
    16
 76
     0
 77
     2
 78
   300
147
1.0
148
0.0
149
0.0
100
AcDbLayout
  1
Layout1
 70
     1
 71
     1
 10
0.0
 20
0.0
 11
420.0
 21
297.0
 12
0.0
 22
0.0
 32
0.0
 14
1.000000000000000E+20
 24
1.000000000000000E+20
 34
1.000000000000000E+20
 15
-1.000000000000000E+20
 25
-1.000000000000000E+20
 35
-1.000000000000000E+20
146
0.0
 13
0.0
 23
0.0
 33
0.0
 16
1.0
 26
0.0
 36
0.0
 17
0.0
 27
1.0
 37
0.0
 76
     0
330
1B
  0
LAYOUT
  5
26
102
{ACAD_REACTORS
330
1A
102
}
330
1A
100
AcDbPlotSettings
  1

  2
none_device
  4

  6

 40
0.0
 41
0.0
 42
0.0
 43
0.0
 44
0.0
 45
0.0
 46
0.0
 47
0.0
 48
0.0
 49
0.0
140
0.0
141
0.0
142
1.0
143
1.0
 70
   688
 72
     1
 73
     0
 74
     5
  7

 75
    16
 76
     0
 77
     2
 78
   300
147
1.0
148
0.0
149
0.0
100
AcDbLayout
  1
Layout2
 70
     1
 71
     2
 10
0.0
 20
0.0
 11
0.0
 21
0.0
 12
0.0
 22
0.0
 32
0.0
 14
0.0
 24
0.0
 34
0.0
 15
0.0
 25
0.0
 35
0.0
146
0.0
 13
0.0
 23
0.0
 33
0.0
 16
1.0
 26
0.0
 36
0.0
 17
0.0
 27
1.0
 37
0.0
 76
     0
330
23
  0
LAYOUT
  5
22
102
{ACAD_REACTORS
330
1A
102
}
330
1A
100
AcDbPlotSettings
  1

  2
none_device
  4
Letter_(8.50_x_11.00_Inches)
  6

 40
6.35
 41
6.35
 42
6.35000508
 43
6.35000508
 44
215.9
 45
279.4
 46
0.0
 47
0.0
 48
0.0
 49
0.0
140
0.0
141
0.0
142
1.0
143
1.0
 70
  1712
 72
     1
 73
     0
 74
     0
  7

 75
     0
 76
     0
 77
     2
 78
   300
147
1.0
148
0.0
149
0.0
100
AcDbLayout
  1
Model
 70
     1
 71
     0
 10
0.0
 20
0.0
 11
420.0
 21
297.0
 12
0.0
 22
0.0
 32
0.0
 14
1.000000000000000E+20
 24
1.000000000000000E+20
 34
1.000000000000000E+20
 15
-1.000000000000000E+20
 25
-1.000000000000000E+20
 35
-1.000000000000000E+20
146
0.0
 13
0.0
 23
0.0
 33
0.0
 16
1.0
 26
0.0
 36
0.0
 17
0.0
 27
1.0
 37
0.0
 76
     0
330
1F
331
29
  0
MATERIAL
  5
45
102
{ACAD_REACTORS
330
43
102
}
330
43
100
AcDbMaterial
  1
ByBlock
 72
     1
 94
      127
  0
MATERIAL
  5
44
102
{ACAD_REACTORS
330
43
102
}
330
43
100
AcDbMaterial
  1
ByLayer
 72
     1
 94
      127
  0
MATERIAL
  5
46
102
{ACAD_REACTORS
330
43
102
}
330
43
100
AcDbMaterial
  1
Global
 72
     1
 94
      127
  0
MLEADERSTYLE
  5
6C
102
{ACAD_REACTORS
330
6B
102
}
330
6B
100
AcDbMLeaderStyle
179
     2
170
     2
171
     1
172
     0
 90
        2
 40
0.0
 41
0.0
173
     1
 91
-1056964608
340
14
 92
       -2
290
     1
 42
2.0
291
     1
 43
8.0
  3
Standard
341
0
 44
4.0
300

342
11
174
     1
178
     6
175
     1
176
     0
 93
-1056964608
 45
4.0
292
     0
297
     0
 46
4.0
343
0
 94
-1056964608
 47
1.0
 49
1.0
140
1.0
293
     1
141
0.0
294
     1
177
     0
142
1.0
295
     0
296
     0
143
3.75
271
     0
272
     9
273
     9
298
     0
  0
MLINESTYLE
  5
18
102
{ACAD_REACTORS
330
17
102
}
330
17
100
AcDbMlineStyle
  2
Standard
 70
     0
  3

 62
   256
 51
90.0
 52
90.0
 71
     2
 49
0.5
 62
   256
  6
BYLAYER
 49
-0.5
 62
   256
  6
BYLAYER
  0
ACDBPLACEHOLDER
  5
F
102
{ACAD_REACTORS
330
E
102
}
330
E
  0
SCALE
  5
48
102
{ACAD_REACTORS
330
47
102
}
330
47
100
AcDbScale
 70
     0
300
1:1
140
1.0
141
1.0
290
     1
  0
SCALE
  5
49
102
{ACAD_REACTORS
330
47
102
}
330
47
100
AcDbScale
 70
     0
300
1:2
140
1.0
141
2.0
290
     0
  0
SCALE
  5
4A
102
{ACAD_REACTORS
330
47
102
}
330
47
100
AcDbScale
 70
     0
300
1:4
140
1.0
141
4.0
290
     0
  0
SCALE
  5
4B
102
{ACAD_REACTORS
330
47
102
}
330
47
100
AcDbScale
 70
     0
300
1:5
140
1.0
141
5.0
290
     0
  0
SCALE
  5
4C
102
{ACAD_REACTORS
330
47
102
}
330
47
100
AcDbScale
 70
     0
300
1:8
140
1.0
141
8.0
290
     0
  0
SCALE
  5
4D
102
{ACAD_REACTORS
330
47
102
}
330
47
100
AcDbScale
 70
     0
300
1:10
140
1.0
141
10.0
290
     0
  0
SCALE
  5
4E
102
{ACAD_REACTORS
330
47
102
}
330
47
100
AcDbScale
 70
     0
300
1:16
140
1.0
141
16.0
290
     0
  0
SCALE
  5
4F
102
{ACAD_REACTORS
330
47
102
}
330
47
100
AcDbScale
 70
     0
300
1:20
140
1.0
141
20.0
290
     0
  0
SCALE
  5
50
102
{ACAD_REACTORS
330
47
102
}
330
47
100
AcDbScale
 70
     0
300
1:30
140
1.0
141
30.0
290
     0
  0
SCALE
  5
51
102
{ACAD_REACTORS
330
47
102
}
330
47
100
AcDbScale
 70
     0
300
1:40
140
1.0
141
40.0
290
     0
  0
SCALE
  5
52
102
{ACAD_REACTORS
330
47
102
}
330
47
100
AcDbScale
 70
     0
300
1:50
140
1.0
141
50.0
290
     0
  0
SCALE
  5
53
102
{ACAD_REACTORS
330
47
102
}
330
47
100
AcDbScale
 70
     0
300
1:100
140
1.0
141
100.0
290
     0
  0
SCALE
  5
54
102
{ACAD_REACTORS
330
47
102
}
330
47
100
AcDbScale
 70
     0
300
2:1
140
2.0
141
1.0
290
     0
  0
SCALE
  5
55
102
{ACAD_REACTORS
330
47
102
}
330
47
100
AcDbScale
 70
     0
300
4:1
140
4.0
141
1.0
290
     0
  0
SCALE
  5
56
102
{ACAD_REACTORS
330
47
102
}
330
47
100
AcDbScale
 70
     0
300
8:1
140
8.0
141
1.0
290
     0
  0
SCALE
  5
57
102
{ACAD_REACTORS
330
47
102
}
330
47
100
AcDbScale
 70
     0
300
10:1
140
10.0
141
1.0
290
     0
  0
SCALE
  5
58
102
{ACAD_REACTORS
330
47
102
}
330
47
100
AcDbScale
 70
     0
300
100:1
140
100.0
141
1.0
290
     0
  0
SCALE
  5
59
102
{ACAD_REACTORS
330
47
102
}
330
47
100
AcDbScale
 70
     0
300
1/128" = 1'-0"
140
0.0078125
141
12.0
290
     0
  0
SCALE
  5
5A
102
{ACAD_REACTORS
330
47
102
}
330
47
100
AcDbScale
 70
     0
300
1/64" = 1'-0"
140
0.015625
141
12.0
290
     0
  0
SCALE
  5
5B
102
{ACAD_REACTORS
330
47
102
}
330
47
100
AcDbScale
 70
     0
300
1/32" = 1'-0"
140
0.03125
141
12.0
290
     0
  0
SCALE
  5
5C
102
{ACAD_REACTORS
330
47
102
}
330
47
100
AcDbScale
 70
     0
300
1/16" = 1'-0"
140
0.0625
141
12.0
290
     0
  0
SCALE
  5
5D
102
{ACAD_REACTORS
330
47
102
}
330
47
100
AcDbScale
 70
     0
300
3/32" = 1'-0"
140
0.09375
141
12.0
290
     0
  0
SCALE
  5
5E
102
{ACAD_REACTORS
330
47
102
}
330
47
100
AcDbScale
 70
     0
300
1/8" = 1'-0"
140
0.125
141
12.0
290
     0
  0
SCALE
  5
5F
102
{ACAD_REACTORS
330
47
102
}
330
47
100
AcDbScale
 70
     0
300
3/16" = 1'-0"
140
0.1875
141
12.0
290
     0
  0
SCALE
  5
60
102
{ACAD_REACTORS
330
47
102
}
330
47
100
AcDbScale
 70
     0
300
1/4" = 1'-0"
140
0.25
141
12.0
290
     0
  0
SCALE
  5
61
102
{ACAD_REACTORS
330
47
102
}
330
47
100
AcDbScale
 70
     0
300
3/8" = 1'-0"
140
0.375
141
12.0
290
     0
  0
SCALE
  5
62
102
{ACAD_REACTORS
330
47
102
}
330
47
100
AcDbScale
 70
     0
300
1/2" = 1'-0"
140
0.5
141
12.0
290
     0
  0
SCALE
  5
63
102
{ACAD_REACTORS
330
47
102
}
330
47
100
AcDbScale
 70
     0
300
3/4" = 1'-0"
140
0.75
141
12.0
290
     0
  0
SCALE
  5
64
102
{ACAD_REACTORS
330
47
102
}
330
47
100
AcDbScale
 70
     0
300
1" = 1'-0"
140
1.0
141
12.0
290
     0
  0
SCALE
  5
65
102
{ACAD_REACTORS
330
47
102
}
330
47
100
AcDbScale
 70
     0
300
1-1/2" = 1'-0"
140
1.5
141
12.0
290
     0
  0
SCALE
  5
66
102
{ACAD_REACTORS
330
47
102
}
330
47
100
AcDbScale
 70
     0
300
3" = 1'-0"
140
3.0
141
12.0
290
     0
  0
SCALE
  5
67
102
{ACAD_REACTORS
330
47
102
}
330
47
100
AcDbScale
 70
     0
300
6" = 1'-0"
140
6.0
141
12.0
290
     0
  0
SCALE
  5
68
102
{ACAD_REACTORS
330
47
102
}
330
47
100
AcDbScale
 70
     0
300
1'-0" = 1'-0"
140
12.0
141
12.0
290
     0
  0
TABLESTYLE
  5
6A
102
{ACAD_REACTORS
330
69
102
}
102
{ACAD_XDICTIONARY
360
1A4
102
}
330
69
100
AcDbTableStyle
  3
Standard
 70
     0
 71
     0
 40
0.06
 41
0.06
280
     0
281
     0
  7
Standard
140
4.5
170
     2
 62
     0
 63
   257
283
     0
 90
        4
 91
        0
  1

274
    -2
284
     1
 64
     0
275
    -2
285
     1
 65
     0
276
    -2
286
     1
 66
     0
277
    -2
287
     1
 67
     0
278
    -2
288
     1
 68
     0
279
    -2
289
     1
 69
     0
  7
Standard
140
6.0
170
     5
 62
     0
 63
   257
283
     0
 90
        4
 91
        0
  1

274
    -2
284
     1
 64
     0
275
    -2
285
     1
 65
     0
276
    -2
286
     1
 66
     0
277
    -2
287
     1
 67
     0
278
    -2
288
     1
 68
     0
279
    -2
289
     1
 69
     0
  7
Standard
140
4.5
170
     5
 62
     0
 63
   257
283
     0
 90
        4
 91
        0
  1

274
    -2
284
     1
 64
     0
275
    -2
285
     1
 65
     0
276
    -2
286
     1
 66
     0
277
    -2
287
     1
 67
     0
278
    -2
288
     1
 68
     0
279
    -2
289
     1
 69
     0
  0
VISUALSTYLE
  5
2F
102
{ACAD_REACTORS
330
2A
102
}
330
2A
100
AcDbVisualStyle
  2
2dWireframe
 70
     4
177
     3
291
     0
 70
    58
 90
        0
176
     1
 90
        2
176
     1
 90
        0
176
     1
 90
        0
176
     1
 40
0.6
176
     1
 40
30.0
176
     1
 62
     7
420
 16777215
176
     1
 90
        1
176
     1
 90
        4
176
     1
 62
     7
176
     1
 62
   257
176
     1
 90
        1
176
     1
 90
        1
176
     1
 40
1.0
176
     1
 90
        0
176
     1
 62
   257
176
     1
 40
1.0
176
     1
 90
        1
176
     1
 90
        6
176
     1
 90
        2
176
     1
 62
     7
176
     1
 90
        5
176
     1
 90
        0
176
     1
 90
        0
176
     1
290
     0
176
     1
 90
        1
176
     1
 40
0.0
176
     1
 90
        0
176
     1
290
     1
176
     1
290
     1
176
     1
290
     0
176
     1
290
     0
176
     1
290
     0
176
     1
290
     0
176
     1
290
     0
176
     1
290
     0
176
     1
290
     0
176
     1
 90
       50
176
     1
 40
0.0
176
     1
 40
1.0
176
     1
 90
        0
176
     1
 62
    18
420
        0
176
     1
 90
       50
176
     1
 90
        3
176
     1
 62
     5
420
      255
176
     1
290
     0
176
     1
 90
       50
176
     1
 90
       50
176
     1
 90
       50
176
     1
290
     0
176
     1
 90
       50
176
     1
 62
   256
176
     0
 40
1.0
176
     0
 90
        2
176
     1
  1
strokes_ogs.tif
176
     1
290
     0
176
     1
 40
1.0
176
     1
 40
1.0
176
     1
  0
VISUALSTYLE
  5
32
102
{ACAD_REACTORS
330
2A
102
}
330
2A
100
AcDbVisualStyle
  2
Basic
 70
     7
177
     3
291
     1
 70
    58
 90
        1
176
     1
 90
        0
176
     1
 90
        1
176
     1
 90
        0
176
     1
 40
0.6
176
     1
 40
30.0
176
     1
 62
     7
420
 16777215
176
     1
 90
        0
176
     1
 90
        4
176
     1
 62
     7
176
     1
 62
   257
176
     1
 90
        1
176
     1
 90
        1
176
     1
 40
1.0
176
     1
 90
        8
176
     1
 62
     7
176
     1
 40
1.0
176
     1
 90
        1
176
     1
 90
        6
176
     1
 90
        2
176
     1
 62
     7
176
     1
 90
        5
176
     1
 90
        0
176
     1
 90
        0
176
     1
290
     0
176
     1
 90
        1
176
     1
 40
0.0
176
     1
 90
        0
176
     1
290
     0
176
     1
290
     1
176
     1
290
     1
176
     1
290
     0
176
     1
290
     0
176
     1
290
     0
176
     1
290
     0
176
     1
290
     0
176
     1
290
     0
176
     1
 90
       50
176
     1
 40
0.0
176
     1
 40
1.0
176
     1
 90
        0
176
     1
 62
    18
420
        0
176
     1
 90
       50
176
     1
 90
        3
176
     1
 62
     5
420
      255
176
     1
290
     0
176
     1
 90
       50
176
     1
 90
       50
176
     1
 90
       50
176
     1
290
     0
176
     1
 90
       50
176
     1
 62
   256
176
     0
 40
1.0
176
     0
 90
        2
176
     1
  1
strokes_ogs.tif
176
     1
290
     0
176
     1
 40
1.0
176
     1
 40
1.0
176
     1
  0
VISUALSTYLE
  5
36
102
{ACAD_REACTORS
330
2A
102
}
330
2A
100
AcDbVisualStyle
  2
Brighten
 70
    12
177
     3
291
     1
 70
    58
 90
        2
176
     1
 90
        2
176
     1
 90
        0
176
     1
 90
        0
176
     1
 40
0.6
176
     1
 40
30.0
176
     1
 62
     7
420
 16777215
176
     1
 90
        1
176
     1
 90
        4
176
     1
 62
     7
176
     1
 62
   257
176
     1
 90
        1
176
     1
 90
        1
176
     1
 40
1.0
176
     1
 90
        8
176
     1
 62
     7
176
     1
 40
1.0
176
     1
 90
        1
176
     1
 90
        6
176
     1
 90
        2
176
     1
 62
     7
176
     1
 90
        5
176
     1
 90
        0
176
     1
 90
        0
176
     1
290
     0
176
     1
 90
        1
176
     1
 40
50.0
176
     1
 90
        0
176
     1
290
     0
176
     1
290
     1
176
     1
290
     1
176
     1
290
     0
176
     1
290
     0
176
     1
290
     0
176
     1
290
     0
176
     1
290
     0
176
     1
290
     0
176
     1
 90
       50
176
     1
 40
0.0
176
     1
 40
1.0
176
     1
 90
        0
176
     1
 62
    18
420
        0
176
     1
 90
       50
176
     1
 90
        3
176
     1
 62
     5
420
      255
176
     1
290
     0
176
     1
 90
       50
176
     1
 90
       50
176
     1
 90
       50
176
     1
290
     0
176
     1
 90
       50
176
     1
 62
   256
176
     0
 40
1.0
176
     0
 90
        2
176
     1
  1
strokes_ogs.tif
176
     1
290
     0
176
     1
 40
1.0
176
     1
 40
1.0
176
     1
  0
VISUALSTYLE
  5
3A
102
{ACAD_REACTORS
330
2A
102
}
330
2A
100
AcDbVisualStyle
  2
ColorChange
 70
    16
177
     3
291
     1
 70
    58
 90
        2
176
     1
 90
        2
176
     1
 90
        3
176
     1
 90
        0
176
     1
 40
0.6
176
     1
 40
30.0
176
     1
 62
     8
420
  8421504
176
     1
 90
        1
176
     1
 90
        4
176
     1
 62
     7
176
     1
 62
   257
176
     1
 90
        1
176
     1
 90
        1
176
     1
 40
1.0
176
     1
 90
        8
176
     1
 62
     8
420
  8421504
176
     1
 40
1.0
176
     1
 90
        1
176
     1
 90
        6
176
     1
 90
        2
176
     1
 62
     7
176
     1
 90
        5
176
     1
 90
        0
176
     1
 90
        0
176
     1
290
     0
176
     1
 90
        1
176
     1
 40
0.0
176
     1
 90
        0
176
     1
290
     0
176
     1
290
     1
176
     1
290
     1
176
     1
290
     0
176
     1
290
     0
176
     1
290
     0
176
     1
290
     0
176
     1
290
     0
176
     1
290
     0
176
     1
 90
       50
176
     1
 40
0.0
176
     1
 40
1.0
176
     1
 90
        0
176
     1
 62
    18
420
        0
176
     1
 90
       50
176
     1
 90
        3
176
     1
 62
     5
420
      255
176
     1
290
     0
176
     1
 90
       50
176
     1
 90
       50
176
     1
 90
       50
176
     1
290
     0
176
     1
 90
       50
176
     1
 62
   256
176
     0
 40
1.0
176
     0
 90
        2
176
     1
  1
strokes_ogs.tif
176
     1
290
     0
176
     1
 40
1.0
176
     1
 40
1.0
176
     1
  0
VISUALSTYLE
  5
34
102
{ACAD_REACTORS
330
2A
102
}
330
2A
100
AcDbVisualStyle
  2
Conceptual
 70
     9
177
     3
291
     0
 70
    58
 90
        3
176
     1
 90
        2
176
     1
 90
        0
176
     1
 90
        0
176
     1
 40
0.6
176
     1
 40
30.0
176
     1
 62
     7
420
 16777215
176
     1
 90
        2
176
     1
 90
        2
176
     1
 62
     7
176
     1
 62
   257
176
     1
 90
        1
176
     1
 90
        1
176
     1
 40
179.0
176
     1
 90
        8
176
     1
 62
     7
176
     1
 40
1.0
176
     1
 90
        1
176
     1
 90
        6
176
     1
 90
        2
176
     1
 62
     7
176
     1
 90
        3
176
     1
 90
        0
176
     1
 90
        0
176
     1
290
     0
176
     1
 90
        1
176
     1
 40
0.0
176
     1
 90
        0
176
     1
290
     0
176
     1
290
     1
176
     1
290
     1
176
     1
290
     0
176
     1
290
     0
176
     1
290
     0
176
     1
290
     0
176
     1
290
     0
176
     1
290
     0
176
     1
 90
       50
176
     1
 40
0.0
176
     1
 40
1.0
176
     1
 90
        0
176
     1
 62
    18
420
        0
176
     1
 90
       50
176
     1
 90
        3
176
     1
 62
     5
420
      255
176
     1
290
     0
176
     1
 90
       50
176
     1
 90
       50
176
     1
 90
       50
176
     1
290
     0
176
     1
 90
       50
176
     1
 62
   256
176
     0
 40
1.0
176
     0
 90
        2
176
     1
  1
strokes_ogs.tif
176
     1
290
     0
176
     1
 40
1.0
176
     1
 40
1.0
176
     1
  0
VISUALSTYLE
  5
35
102
{ACAD_REACTORS
330
2A
102
}
330
2A
100
AcDbVisualStyle
  2
Dim
 70
    11
177
     3
291
     1
 70
    58
 90
        2
176
     1
 90
        2
176
     1
 90
        0
176
     1
 90
        0
176
     1
 40
0.6
176
     1
 40
30.0
176
     1
 62
     7
420
 16777215
176
     1
 90
        1
176
     1
 90
        4
176
     1
 62
     7
176
     1
 62
   257
176
     1
 90
        1
176
     1
 90
        1
176
     1
 40
1.0
176
     1
 90
        8
176
     1
 62
     7
176
     1
 40
1.0
176
     1
 90
        1
176
     1
 90
        6
176
     1
 90
        2
176
     1
 62
     7
176
     1
 90
        5
176
     1
 90
        0
176
     1
 90
        0
176
     1
290
     0
176
     1
 90
        1
176
     1
 40
-50.0
176
     1
 90
        0
176
     1
290
     0
176
     1
290
     1
176
     1
290
     1
176
     1
290
     0
176
     1
290
     0
176
     1
290
     0
176
     1
290
     0
176
     1
290
     0
176
     1
290
     0
176
     1
 90
       50
176
     1
 40
0.0
176
     1
 40
1.0
176
     1
 90
        0
176
     1
 62
    18
420
        0
176
     1
 90
       50
176
     1
 90
        3
176
     1
 62
     5
420
      255
176
     1
290
     0
176
     1
 90
       50
176
     1
 90
       50
176
     1
 90
       50
176
     1
290
     0
176
     1
 90
       50
176
     1
 62
   256
176
     0
 40
1.0
176
     0
 90
        2
176
     1
  1
strokes_ogs.tif
176
     1
290
     0
176
     1
 40
1.0
176
     1
 40
1.0
176
     1
  0
VISUALSTYLE
  5
3D
102
{ACAD_REACTORS
330
2A
102
}
330
2A
100
AcDbVisualStyle
  2
EdgeColorOff
 70
    22
177
     3
291
     1
 70
    58
 90
        2
176
     0
 90
        2
176
     0
 90
        0
176
     0
 90
        0
176
     0
 40
0.6
176
     0
 40
30.0
176
     0
 62
     7
420
 16777215
176
     0
 90
        1
176
     0
 90
        4
176
     0
 62
     7
176
     0
 62
   257
176
     0
 90
        1
176
     0
 90
        1
176
     0
 40
1.0
176
     0
 90
        8
176
     2
 62
     7
176
     0
 40
1.0
176
     0
 90
        1
176
     0
 90
        6
176
     0
 90
        2
176
     0
 62
     7
176
     0
 90
        5
176
     0
 90
        0
176
     0
 90
        0
176
     0
290
     0
176
     0
 90
        1
176
     0
 40
0.0
176
     0
 90
        0
176
     0
290
     0
176
     0
290
     1
176
     0
290
     1
176
     0
290
     0
176
     0
290
     0
176
     0
290
     0
176
     0
290
     0
176
     0
290
     0
176
     0
290
     0
176
     0
 90
       50
176
     0
 40
0.0
176
     0
 40
1.0
176
     0
 90
        0
176
     0
 62
    18
420
        0
176
     0
 90
       50
176
     0
 90
        3
176
     0
 62
     5
420
      255
176
     0
290
     0
176
     0
 90
       50
176
     0
 90
       50
176
     0
 90
       50
176
     0
290
     0
176
     0
 90
       50
176
     0
 62
   256
176
     0
 40
1.0
176
     0
 90
        2
176
     0
  1
strokes_ogs.tif
176
     0
290
     0
176
     0
 40
1.0
176
     0
 40
1.0
176
     0
  0
VISUALSTYLE
  5
39
102
{ACAD_REACTORS
330
2A
102
}
330
2A
100
AcDbVisualStyle
  2
Facepattern
 70
    15
177
     3
291
     1
 70
    58
 90
        2
176
     1
 90
        2
176
     1
 90
        0
176
     1
 90
        0
176
     1
 40
0.6
176
     1
 40
30.0
176
     1
 62
     7
420
 16777215
176
     1
 90
        1
176
     1
 90
        4
176
     1
 62
     7
176
     1
 62
   257
176
     1
 90
        1
176
     1
 90
        1
176
     1
 40
1.0
176
     1
 90
        8
176
     1
 62
     7
176
     1
 40
1.0
176
     1
 90
        1
176
     1
 90
        6
176
     1
 90
        2
176
     1
 62
     7
176
     1
 90
        5
176
     1
 90
        0
176
     1
 90
        0
176
     1
290
     0
176
     1
 90
        1
176
     1
 40
0.0
176
     1
 90
        0
176
     1
290
     0
176
     1
290
     1
176
     1
290
     1
176
     1
290
     0
176
     1
290
     0
176
     1
290
     0
176
     1
290
     0
176
     1
290
     0
176
     1
290
     0
176
     1
 90
       50
176
     1
 40
0.0
176
     1
 40
1.0
176
     1
 90
        0
176
     1
 62
    18
420
        0
176
     1
 90
       50
176
     1
 90
        3
176
     1
 62
     5
420
      255
176
     1
290
     0
176
     1
 90
       50
176
     1
 90
       50
176
     1
 90
       50
176
     1
290
     0
176
     1
 90
       50
176
     1
 62
   256
176
     0
 40
1.0
176
     0
 90
        2
176
     1
  1
strokes_ogs.tif
176
     1
290
     0
176
     1
 40
1.0
176
     1
 40
1.0
176
     1
  0
VISUALSTYLE
  5
2B
102
{ACAD_REACTORS
330
2A
102
}
330
2A
100
AcDbVisualStyle
  2
Flat
 70
     0
177
     3
291
     1
 70
    58
 90
        2
176
     1
 90
        1
176
     1
 90
        1
176
     1
 90
        2
176
     1
 40
0.6
176
     1
 40
30.0
176
     1
 62
     7
420
 16777215
176
     1
 90
        0
176
     1
 90
        0
176
     1
 62
     7
176
     1
 62
   257
176
     1
 90
        1
176
     1
 90
        1
176
     1
 40
1.0
176
     1
 90
        8
176
     1
 62
     7
176
     1
 40
1.0
176
     1
 90
        1
176
     1
 90
        6
176
     1
 90
        2
176
     1
 62
     7
176
     1
 90
        5
176
     1
 90
        0
176
     1
 90
        0
176
     1
290
     0
176
     1
 90
       13
176
     1
 40
0.0
176
     1
 90
        0
176
     1
290
     0
176
     1
290
     1
176
     1
290
     1
176
     1
290
     0
176
     1
290
     0
176
     1
290
     0
176
     1
290
     0
176
     1
290
     0
176
     1
290
     0
176
     1
 90
       50
176
     1
 40
0.0
176
     1
 40
1.0
176
     1
 90
        0
176
     1
 62
    18
420
        0
176
     1
 90
       50
176
     1
 90
        3
176
     1
 62
     5
420
      255
176
     1
290
     0
176
     1
 90
       50
176
     1
 90
       50
176
     1
 90
       50
176
     1
290
     0
176
     1
 90
       50
176
     1
 62
   256
176
     0
 40
1.0
176
     0
 90
        2
176
     1
  1
strokes_ogs.tif
176
     1
290
     0
176
     1
 40
1.0
176
     1
 40
1.0
176
     1
  0
VISUALSTYLE
  5
2C
102
{ACAD_REACTORS
330
2A
102
}
330
2A
100
AcDbVisualStyle
  2
FlatWithEdges
 70
     1
177
     3
291
     1
 70
    58
 90
        2
176
     1
 90
        1
176
     1
 90
        1
176
     1
 90
        2
176
     1
 40
0.6
176
     1
 40
30.0
176
     1
 62
     7
420
 16777215
176
     1
 90
        1
176
     1
 90
        0
176
     1
 62
     7
176
     1
 62
   257
176
     1
 90
        1
176
     1
 90
        1
176
     1
 40
1.0
176
     1
 90
        0
176
     1
 62
   257
176
     1
 40
1.0
176
     1
 90
        1
176
     1
 90
        6
176
     1
 90
        2
176
     1
 62
     7
176
     1
 90
        5
176
     1
 90
        0
176
     1
 90
        0
176
     1
290
     0
176
     1
 90
       13
176
     1
 40
0.0
176
     1
 90
        0
176
     1
290
     0
176
     1
290
     1
176
     1
290
     1
176
     1
290
     0
176
     1
290
     0
176
     1
290
     0
176
     1
290
     0
176
     1
290
     0
176
     1
290
     0
176
     1
 90
       50
176
     1
 40
0.0
176
     1
 40
1.0
176
     1
 90
        0
176
     1
 62
    18
420
        0
176
     1
 90
       50
176
     1
 90
        3
176
     1
 62
     5
420
      255
176
     1
290
     0
176
     1
 90
       50
176
     1
 90
       50
176
     1
 90
       50
176
     1
290
     0
176
     1
 90
       50
176
     1
 62
   256
176
     0
 40
1.0
176
     0
 90
        2
176
     1
  1
strokes_ogs.tif
176
     1
290
     0
176
     1
 40
1.0
176
     1
 40
1.0
176
     1
  0
VISUALSTYLE
  5
2D
102
{ACAD_REACTORS
330
2A
102
}
330
2A
100
AcDbVisualStyle
  2
Gouraud
 70
     2
177
     3
291
     1
 70
    58
 90
        2
176
     1
 90
        2
176
     1
 90
        1
176
     1
 90
        2
176
     1
 40
0.6
176
     1
 40
30.0
176
     1
 62
     7
420
 16777215
176
     1
 90
        0
176
     1
 90
        0
176
     1
 62
     7
176
     1
 62
   257
176
     1
 90
        1
176
     1
 90
        1
176
     1
 40
1.0
176
     1
 90
        0
176
     1
 62
     7
176
     1
 40
1.0
176
     1
 90
        1
176
     1
 90
        6
176
     1
 90
        2
176
     1
 62
     7
176
     1
 90
        5
176
     1
 90
        0
176
     1
 90
        0
176
     1
290
     0
176
     1
 90
       13
176
     1
 40
0.0
176
     1
 90
        0
176
     1
290
     0
176
     1
290
     1
176
     1
290
     1
176
     1
290
     0
176
     1
290
     0
176
     1
290
     0
176
     1
290
     0
176
     1
290
     0
176
     1
290
     0
176
     1
 90
       50
176
     1
 40
0.0
176
     1
 40
1.0
176
     1
 90
        0
176
     1
 62
    18
420
        0
176
     1
 90
       50
176
     1
 90
        3
176
     1
 62
     5
420
      255
176
     1
290
     0
176
     1
 90
       50
176
     1
 90
       50
176
     1
 90
       50
176
     1
290
     0
176
     1
 90
       50
176
     1
 62
   256
176
     0
 40
1.0
176
     0
 90
        2
176
     1
  1
strokes_ogs.tif
176
     1
290
     0
176
     1
 40
1.0
176
     1
 40
1.0
176
     1
  0
VISUALSTYLE
  5
2E
102
{ACAD_REACTORS
330
2A
102
}
330
2A
100
AcDbVisualStyle
  2
GouraudWithEdges
 70
     3
177
     3
291
     1
 70
    58
 90
        2
176
     1
 90
        2
176
     1
 90
        1
176
     1
 90
        2
176
     1
 40
0.6
176
     1
 40
30.0
176
     1
 62
     7
420
 16777215
176
     1
 90
        1
176
     1
 90
        0
176
     1
 62
     7
176
     1
 62
   257
176
     1
 90
        1
176
     1
 90
        1
176
     1
 40
1.0
176
     1
 90
        0
176
     1
 62
   257
176
     1
 40
1.0
176
     1
 90
        1
176
     1
 90
        6
176
     1
 90
        2
176
     1
 62
     7
176
     1
 90
        5
176
     1
 90
        0
176
     1
 90
        0
176
     1
290
     0
176
     1
 90
       13
176
     1
 40
0.0
176
     1
 90
        0
176
     1
290
     0
176
     1
290
     1
176
     1
290
     1
176
     1
290
     0
176
     1
290
     0
176
     1
290
     0
176
     1
290
     0
176
     1
290
     0
176
     1
290
     0
176
     1
 90
       50
176
     1
 40
0.0
176
     1
 40
1.0
176
     1
 90
        0
176
     1
 62
    18
420
        0
176
     1
 90
       50
176
     1
 90
        3
176
     1
 62
     5
420
      255
176
     1
290
     0
176
     1
 90
       50
176
     1
 90
       50
176
     1
 90
       50
176
     1
290
     0
176
     1
 90
       50
176
     1
 62
   256
176
     0
 40
1.0
176
     0
 90
        2
176
     1
  1
strokes_ogs.tif
176
     1
290
     0
176
     1
 40
1.0
176
     1
 40
1.0
176
     1
  0
VISUALSTYLE
  5
31
102
{ACAD_REACTORS
330
2A
102
}
330
2A
100
AcDbVisualStyle
  2
Hidden
 70
     6
177
     3
291
     0
 70
    58
 90
        1
176
     1
 90
        2
176
     1
 90
        2
176
     1
 90
        0
176
     1
 40
0.6
176
     1
 40
30.0
176
     1
 62
     7
420
 16777215
176
     1
 90
        2
176
     1
 90
        2
176
     1
 62
     7
176
     1
 62
   257
176
     1
 90
        2
176
     1
 90
        1
176
     1
 40
40.0
176
     1
 90
        0
176
     1
 62
   257
176
     1
 40
1.0
176
     1
 90
        1
176
     1
 90
        6
176
     1
 90
        2
176
     1
 62
     7
176
     1
 90
        3
176
     1
 90
        0
176
     1
 90
        0
176
     1
290
     0
176
     1
 90
        1
176
     1
 40
0.0
176
     1
 90
        0
176
     1
290
     0
176
     1
290
     1
176
     1
290
     1
176
     1
290
     0
176
     1
290
     0
176
     1
290
     0
176
     1
290
     0
176
     1
290
     0
176
     1
290
     0
176
     1
 90
       50
176
     1
 40
0.0
176
     1
 40
1.0
176
     1
 90
        0
176
     1
 62
    18
420
        0
176
     1
 90
       50
176
     1
 90
        3
176
     1
 62
     5
420
      255
176
     1
290
     0
176
     1
 90
       50
176
     1
 90
       50
176
     1
 90
       50
176
     1
290
     0
176
     1
 90
       50
176
     1
 62
   256
176
     0
 40
1.0
176
     0
 90
        2
176
     1
  1
strokes_ogs.tif
176
     1
290
     0
176
     1
 40
1.0
176
     1
 40
1.0
176
     1
  0
VISUALSTYLE
  5
3B
102
{ACAD_REACTORS
330
2A
102
}
330
2A
100
AcDbVisualStyle
  2
JitterOff
 70
    20
177
     3
291
     1
 70
    58
 90
        2
176
     0
 90
        2
176
     0
 90
        0
176
     0
 90
        0
176
     0
 40
0.6
176
     0
 40
30.0
176
     0
 62
     7
420
 16777215
176
     0
 90
        1
176
     0
 90
        4
176
     0
 62
     7
176
     0
 62
   257
176
     0
 90
        1
176
     0
 90
        1
176
     0
 40
1.0
176
     0
 90
       10
176
     2
 62
     7
176
     0
 40
1.0
176
     0
 90
        1
176
     0
 90
        6
176
     0
 90
        2
176
     0
 62
     7
176
     0
 90
        5
176
     0
 90
        0
176
     0
 90
        0
176
     0
290
     0
176
     0
 90
        1
176
     0
 40
0.0
176
     0
 90
        0
176
     0
290
     0
176
     0
290
     1
176
     0
290
     1
176
     0
290
     0
176
     0
290
     0
176
     0
290
     0
176
     0
290
     0
176
     0
290
     0
176
     0
290
     0
176
     0
 90
       50
176
     0
 40
0.0
176
     0
 40
1.0
176
     0
 90
        0
176
     0
 62
    18
420
        0
176
     0
 90
       50
176
     0
 90
        3
176
     0
 62
     5
420
      255
176
     0
290
     0
176
     0
 90
       50
176
     0
 90
       50
176
     0
 90
       50
176
     0
290
     0
176
     0
 90
       50
176
     0
 62
   256
176
     0
 40
1.0
176
     0
 90
        2
176
     0
  1
strokes_ogs.tif
176
     0
290
     0
176
     0
 40
1.0
176
     0
 40
1.0
176
     0
  0
VISUALSTYLE
  5
38
102
{ACAD_REACTORS
330
2A
102
}
330
2A
100
AcDbVisualStyle
  2
Linepattern
 70
    14
177
     3
291
     1
 70
    58
 90
        2
176
     1
 90
        2
176
     1
 90
        0
176
     1
 90
        0
176
     1
 40
0.6
176
     1
 40
30.0
176
     1
 62
     7
420
 16777215
176
     1
 90
        1
176
     1
 90
        4
176
     1
 62
     7
176
     1
 62
   257
176
     1
 90
        7
176
     1
 90
        7
176
     1
 40
1.0
176
     1
 90
        8
176
     1
 62
     7
176
     1
 40
1.0
176
     1
 90
        1
176
     1
 90
        6
176
     1
 90
        2
176
     1
 62
     7
176
     1
 90
        5
176
     1
 90
        0
176
     1
 90
        0
176
     1
290
     0
176
     1
 90
        1
176
     1
 40
0.0
176
     1
 90
        0
176
     1
290
     0
176
     1
290
     1
176
     1
290
     1
176
     1
290
     0
176
     1
290
     0
176
     1
290
     0
176
     1
290
     0
176
     1
290
     0
176
     1
290
     0
176
     1
 90
       50
176
     1
 40
0.0
176
     1
 40
1.0
176
     1
 90
        0
176
     1
 62
    18
420
        0
176
     1
 90
       50
176
     1
 90
        3
176
     1
 62
     5
420
      255
176
     1
290
     0
176
     1
 90
       50
176
     1
 90
       50
176
     1
 90
       50
176
     1
290
     0
176
     1
 90
       50
176
     1
 62
   256
176
     0
 40
1.0
176
     0
 90
        2
176
     1
  1
strokes_ogs.tif
176
     1
290
     0
176
     1
 40
1.0
176
     1
 40
1.0
176
     1
  0
VISUALSTYLE
  5
3C
102
{ACAD_REACTORS
330
2A
102
}
330
2A
100
AcDbVisualStyle
  2
OverhangOff
 70
    21
177
     3
291
     1
 70
    58
 90
        2
176
     0
 90
        2
176
     0
 90
        0
176
     0
 90
        0
176
     0
 40
0.6
176
     0
 40
30.0
176
     0
 62
     7
420
 16777215
176
     0
 90
        1
176
     0
 90
        4
176
     0
 62
     7
176
     0
 62
   257
176
     0
 90
        1
176
     0
 90
        1
176
     0
 40
1.0
176
     0
 90
        9
176
     2
 62
     7
176
     0
 40
1.0
176
     0
 90
        1
176
     0
 90
        6
176
     0
 90
        2
176
     0
 62
     7
176
     0
 90
        5
176
     0
 90
        0
176
     0
 90
        0
176
     0
290
     0
176
     0
 90
        1
176
     0
 40
0.0
176
     0
 90
        0
176
     0
290
     0
176
     0
290
     1
176
     0
290
     1
176
     0
290
     0
176
     0
290
     0
176
     0
290
     0
176
     0
290
     0
176
     0
290
     0
176
     0
290
     0
176
     0
 90
       50
176
     0
 40
0.0
176
     0
 40
1.0
176
     0
 90
        0
176
     0
 62
    18
420
        0
176
     0
 90
       50
176
     0
 90
        3
176
     0
 62
     5
420
      255
176
     0
290
     0
176
     0
 90
       50
176
     0
 90
       50
176
     0
 90
       50
176
     0
290
     0
176
     0
 90
       50
176
     0
 62
   256
176
     0
 40
1.0
176
     0
 90
        2
176
     0
  1
strokes_ogs.tif
176
     0
290
     0
176
     0
 40
1.0
176
     0
 40
1.0
176
     0
  0
VISUALSTYLE
  5
33
102
{ACAD_REACTORS
330
2A
102
}
330
2A
100
AcDbVisualStyle
  2
Realistic
 70
     8
177
     3
291
     0
 70
    58
 90
        2
176
     1
 90
        3
176
     1
 90
        0
176
     1
 90
        2
176
     1
 40
0.6
176
     1
 40
30.0
176
     1
 62
     7
420
 16777215
176
     1
 90
        0
176
     1
 90
        0
176
     1
 62
     7
176
     1
 62
   257
176
     1
 90
        1
176
     1
 90
        1
176
     1
 40
1.0
176
     1
 90
        8
176
     1
 62
   257
176
     1
 40
1.0
176
     1
 90
        1
176
     1
 90
        6
176
     1
 90
        2
176
     1
 62
     7
176
     1
 90
        3
176
     1
 90
        0
176
     1
 90
        0
176
     1
290
     0
176
     1
 90
       13
176
     1
 40
0.0
176
     1
 90
        0
176
     1
290
     0
176
     1
290
     1
176
     1
290
     1
176
     1
290
     0
176
     1
290
     0
176
     1
290
     0
176
     1
290
     0
176
     1
290
     0
176
     1
290
     0
176
     1
 90
       50
176
     1
 40
0.0
176
     1
 40
1.0
176
     1
 90
        0
176
     1
 62
    18
420
        0
176
     1
 90
       50
176
     1
 90
        3
176
     1
 62
     5
420
      255
176
     1
290
     0
176
     1
 90
       50
176
     1
 90
       50
176
     1
 90
       50
176
     1
290
     0
176
     1
 90
       50
176
     1
 62
   256
176
     0
 40
1.0
176
     0
 90
        2
176
     1
  1
strokes_ogs.tif
176
     1
290
     0
176
     1
 40
1.0
176
     1
 40
1.0
176
     1
  0
VISUALSTYLE
  5
42
102
{ACAD_REACTORS
330
2A
102
}
330
2A
100
AcDbVisualStyle
  2
Shaded
 70
    27
177
     3
291
     0
 70
    58
 90
        2
176
     1
 90
        2
176
     1
 90
        1
176
     1
 90
        2
176
     1
 40
0.6
176
     1
 40
30.0
176
     1
 62
     7
420
 16777215
176
     1
 90
        0
176
     1
 90
        4
176
     1
 62
     7
176
     1
 62
   257
176
     1
 90
        1
176
     1
 90
        1
176
     1
 40
1.0
176
     1
 90
        8
176
     1
 62
   257
176
     1
 40
1.0
176
     1
 90
        1
176
     1
 90
        6
176
     1
 90
        2
176
     1
 62
     8
420
  7895160
176
     1
 90
        3
176
     1
 90
        0
176
     1
 90
        0
176
     1
290
     0
176
     1
 90
        5
176
     1
 40
0.0
176
     1
 90
        0
176
     1
290
     0
176
     1
290
     1
176
     1
290
     1
176
     1
290
     0
176
     1
290
     0
176
     1
290
     0
176
     1
290
     0
176
     1
290
     0
176
     1
290
     0
176
     1
 90
       50
176
     1
 40
0.0
176
     1
 40
1.0
176
     1
 90
        0
176
     1
 62
    18
420
        0
176
     1
 90
       50
176
     1
 90
        3
176
     1
 62
     5
420
      255
176
     1
290
     0
176
     1
 90
       50
176
     1
 90
       50
176
     1
 90
       50
176
     1
290
     0
176
     1
 90
       50
176
     1
 62
   256
176
     0
 40
1.0
176
     0
 90
        2
176
     1
  1
strokes_ogs.tif
176
     1
290
     0
176
     1
 40
1.0
176
     1
 40
1.0
176
     1
  0
VISUALSTYLE
  5
41
102
{ACAD_REACTORS
330
2A
102
}
330
2A
100
AcDbVisualStyle
  2
Shaded with edges
 70
    26
177
     3
291
     0
 70
    58
 90
        2
176
     1
 90
        2
176
     1
 90
        1
176
     1
 90
        2
176
     1
 40
0.6
176
     1
 40
30.0
176
     1
 62
     7
420
 16777215
176
     1
 90
        1
176
     1
 90
       10
176
     1
 62
     7
176
     1
 62
   257
176
     1
 90
        2
176
     1
 90
        1
176
     1
 40
1.0
176
     1
 90
        8
176
     1
 62
   257
176
     1
 40
1.0
176
     1
 90
        1
176
     1
 90
        6
176
     1
 90
        2
176
     1
 62
     7
176
     1
 90
        3
176
     1
 90
        0
176
     1
 90
        0
176
     1
290
     0
176
     1
 90
        5
176
     1
 40
0.0
176
     1
 90
        0
176
     1
290
     0
176
     1
290
     1
176
     1
290
     1
176
     1
290
     0
176
     1
290
     0
176
     1
290
     0
176
     1
290
     0
176
     1
290
     0
176
     1
290
     0
176
     1
 90
       50
176
     1
 40
0.0
176
     1
 40
1.0
176
     1
 90
        0
176
     1
 62
    18
420
        0
176
     1
 90
       50
176
     1
 90
        3
176
     1
 62
     5
420
      255
176
     1
290
     0
176
     1
 90
       50
176
     1
 90
       50
176
     1
 90
       50
176
     1
290
     0
176
     1
 90
       50
176
     1
 62
   256
176
     0
 40
1.0
176
     0
 90
        2
176
     1
  1
strokes_ogs.tif
176
     1
290
     0
176
     1
 40
1.0
176
     1
 40
1.0
176
     1
  0
VISUALSTYLE
  5
3E
102
{ACAD_REACTORS
330
2A
102
}
330
2A
100
AcDbVisualStyle
  2
Shades of Gray
 70
    23
177
     3
291
     0
 70
    58
 90
        2
176
     1
 90
        2
176
     1
 90
        3
176
     1
 90
        0
176
     1
 40
0.6
176
     1
 40
30.0
176
     1
 62
     7
420
 16777215
176
     1
 90
        2
176
     1
 90
        2
176
     1
 62
     7
176
     1
 62
     7
176
     1
 90
        1
176
     1
 90
        1
176
     1
 40
40.0
176
     1
 90
        8
176
     1
 62
     7
176
     1
 40
1.0
176
     1
 90
        1
176
     1
 90
        6
176
     1
 90
        2
176
     1
 62
     7
176
     1
 90
        3
176
     1
 90
        0
176
     1
 90
        0
176
     1
290
     0
176
     1
 90
        1
176
     1
 40
0.0
176
     1
 90
        0
176
     1
290
     0
176
     1
290
     1
176
     1
290
     1
176
     1
290
     0
176
     1
290
     0
176
     1
290
     0
176
     1
290
     0
176
     1
290
     0
176
     1
290
     0
176
     1
 90
       50
176
     1
 40
0.0
176
     1
 40
1.0
176
     1
 90
        0
176
     1
 62
    18
420
        0
176
     1
 90
       50
176
     1
 90
        3
176
     1
 62
     5
420
      255
176
     1
290
     0
176
     1
 90
       50
176
     1
 90
       50
176
     1
 90
       50
176
     1
290
     0
176
     1
 90
       50
176
     1
 62
   256
176
     0
 40
1.0
176
     0
 90
        2
176
     1
  1
strokes_ogs.tif
176
     1
290
     0
176
     1
 40
1.0
176
     1
 40
1.0
176
     1
  0
VISUALSTYLE
  5
3F
102
{ACAD_REACTORS
330
2A
102
}
330
2A
100
AcDbVisualStyle
  2
Sketchy
 70
    24
177
     3
291
     0
 70
    58
 90
        1
176
     1
 90
        2
176
     1
 90
        2
176
     1
 90
        0
176
     1
 40
0.6
176
     1
 40
30.0
176
     1
 62
     7
420
 16777215
176
     1
 90
        2
176
     1
 90
        2
176
     1
 62
     7
176
     1
 62
     7
176
     1
 90
        1
176
     1
 90
        1
176
     1
 40
40.0
176
     1
 90
       11
176
     1
 62
     7
176
     1
 40
1.0
176
     1
 90
        1
176
     1
 90
        6
176
     1
 90
        2
176
     1
 62
     7
176
     1
 90
        6
176
     1
 90
        0
176
     1
 90
        0
176
     1
290
     0
176
     1
 90
        1
176
     1
 40
0.0
176
     1
 90
        0
176
     1
290
     0
176
     1
290
     1
176
     1
290
     1
176
     1
290
     0
176
     1
290
     0
176
     1
290
     0
176
     1
290
     0
176
     1
290
     0
176
     1
290
     0
176
     1
 90
       50
176
     1
 40
0.0
176
     1
 40
1.0
176
     1
 90
        0
176
     1
 62
    18
420
        0
176
     1
 90
       50
176
     1
 90
        3
176
     1
 62
     5
420
      255
176
     1
290
     0
176
     1
 90
       50
176
     1
 90
       50
176
     1
 90
       50
176
     1
290
     0
176
     1
 90
       50
176
     1
 62
   256
176
     0
 40
1.0
176
     0
 90
        2
176
     1
  1
strokes_ogs.tif
176
     1
290
     0
176
     1
 40
1.0
176
     1
 40
1.0
176
     1
  0
VISUALSTYLE
  5
37
102
{ACAD_REACTORS
330
2A
102
}
330
2A
100
AcDbVisualStyle
  2
Thicken
 70
    13
177
     3
291
     1
 70
    58
 90
        2
176
     1
 90
        2
176
     1
 90
        0
176
     1
 90
        0
176
     1
 40
0.6
176
     1
 40
30.0
176
     1
 62
     7
420
 16777215
176
     1
 90
        1
176
     1
 90
        4
176
     1
 62
     7
176
     1
 62
   257
176
     1
 90
        1
176
     1
 90
        1
176
     1
 40
1.0
176
     1
 90
       12
176
     1
 62
     7
176
     1
 40
1.0
176
     1
 90
        1
176
     1
 90
        6
176
     1
 90
        2
176
     1
 62
     7
176
     1
 90
        5
176
     1
 90
        0
176
     1
 90
        0
176
     1
290
     0
176
     1
 90
        1
176
     1
 40
0.0
176
     1
 90
        0
176
     1
290
     0
176
     1
290
     1
176
     1
290
     1
176
     1
290
     0
176
     1
290
     0
176
     1
290
     0
176
     1
290
     0
176
     1
290
     0
176
     1
290
     0
176
     1
 90
       50
176
     1
 40
0.0
176
     1
 40
1.0
176
     1
 90
        0
176
     1
 62
    18
420
        0
176
     1
 90
       50
176
     1
 90
        3
176
     1
 62
     5
420
      255
176
     1
290
     0
176
     1
 90
       50
176
     1
 90
       50
176
     1
 90
       50
176
     1
290
     0
176
     1
 90
       50
176
     1
 62
   256
176
     0
 40
1.0
176
     0
 90
        2
176
     1
  1
strokes_ogs.tif
176
     1
290
     0
176
     1
 40
1.0
176
     1
 40
1.0
176
     1
  0
VISUALSTYLE
  5
30
102
{ACAD_REACTORS
330
2A
102
}
330
2A
100
AcDbVisualStyle
  2
Wireframe
 70
     5
177
     3
291
     0
 70
    58
 90
        0
176
     1
 90
        2
176
     1
 90
        0
176
     1
 90
        0
176
     1
 40
0.6
176
     1
 40
30.0
176
     1
 62
     7
420
 16777215
176
     1
 90
        1
176
     1
 90
        4
176
     1
 62
     7
176
     1
 62
   257
176
     1
 90
        1
176
     1
 90
        1
176
     1
 40
1.0
176
     1
 90
        0
176
     1
 62
   257
176
     1
 40
1.0
176
     1
 90
        1
176
     1
 90
        6
176
     1
 90
        2
176
     1
 62
     7
176
     1
 90
        3
176
     1
 90
        0
176
     1
 90
        0
176
     1
290
     0
176
     1
 90
        1
176
     1
 40
0.0
176
     1
 90
        0
176
     1
290
     0
176
     1
290
     1
176
     1
290
     1
176
     1
290
     0
176
     1
290
     0
176
     1
290
     0
176
     1
290
     0
176
     1
290
     0
176
     1
290
     0
176
     1
 90
       50
176
     1
 40
0.0
176
     1
 40
1.0
176
     1
 90
        0
176
     1
 62
    18
420
        0
176
     1
 90
       50
176
     1
 90
        3
176
     1
 62
     5
420
      255
176
     1
290
     0
176
     1
 90
       50
176
     1
 90
       50
176
     1
 90
       50
176
     1
290
     0
176
     1
 90
       50
176
     1
 62
   256
176
     0
 40
1.0
176
     0
 90
        2
176
     1
  1
strokes_ogs.tif
176
     1
290
     0
176
     1
 40
1.0
176
     1
 40
1.0
176
     1
  0
VISUALSTYLE
  5
40
102
{ACAD_REACTORS
330
2A
102
}
330
2A
100
AcDbVisualStyle
  2
X-Ray
 70
    25
177
     3
291
     0
 70
    58
 90
        2
176
     1
 90
        2
176
     1
 90
        1
176
     1
 90
        1
176
     1
 40
0.5
176
     1
 40
30.0
176
     1
 62
     7
420
 16777215
176
     1
 90
        1
176
     1
 90
        0
176
     1
 62
     7
176
     1
 62
   257
176
     1
 90
        1
176
     1
 90
        1
176
     1
 40
1.0
176
     1
 90
        8
176
     1
 62
     7
176
     1
 40
1.0
176
     1
 90
        1
176
     1
 90
        6
176
     1
 90
        2
176
     1
 62
     7
176
     1
 90
        3
176
     1
 90
        0
176
     1
 90
        0
176
     1
290
     0
176
     1
 90
       13
176
     1
 40
0.0
176
     1
 90
        0
176
     1
290
     0
176
     1
290
     1
176
     1
290
     1
176
     1
290
     0
176
     1
290
     0
176
     1
290
     0
176
     1
290
     0
176
     1
290
     0
176
     1
290
     0
176
     1
 90
       50
176
     1
 40
0.0
176
     1
 40
1.0
176
     1
 90
        0
176
     1
 62
    18
420
        0
176
     1
 90
       50
176
     1
 90
        3
176
     1
 62
     5
420
      255
176
     1
290
     0
176
     1
 90
       50
176
     1
 90
       50
176
     1
 90
       50
176
     1
290
     0
176
     1
 90
       50
176
     1
 62
   256
176
     0
 40
1.0
176
     0
 90
        2
176
     1
  1
strokes_ogs.tif
176
     1
290
     0
176
     1
 40
1.0
176
     1
 40
1.0
176
     1
  0
DICTIONARYVAR
  5
1A3
102
{ACAD_REACTORS
330
1A2
102
}
330
1A2
100
DictionaryVariables
280
     0
  1
1:1
  0
DICTIONARYVAR
  5
1A8
102
{ACAD_REACTORS
330
1A2
102
}
330
1A2
100
DictionaryVariables
280
     0
  1
Standard
  0
DICTIONARYVAR
  5
1A7
102
{ACAD_REACTORS
330
1A2
102
}
330
1A2
100
DictionaryVariables
280
     0
  1
Standard
  0
DICTIONARY
  5
1A4
330
6A
100
AcDbDictionary
280
     1
281
     1
  3
ACAD_ROUNDTRIP_2008_TABLESTYLE_CELLSTYLEMAP
360
1A5
  0
CELLSTYLEMAP
  5
1A5
102
{ACAD_REACTORS
330
1A4
102
}
330
1A4
100
AcDbCellStyleMap
 90
        3
300
CELLSTYLE
  1
TABLEFORMAT_BEGIN
 90
        5
170
     1
 91
        0
 92
    32768
 62
   257
 93
        1
300
CONTENTFORMAT
  1
CONTENTFORMAT_BEGIN
 90
        0
 91
        0
 92
        4
 93
        0
300

 40
0.0
140
1.0
 94
        5
 62
     0
340
11
144
6.0
309
CONTENTFORMAT_END
171
     1
301
MARGIN
  1
CELLMARGIN_BEGIN
 40
1.5
 40
1.5
 40
1.5
 40
1.5
 40
1.5
 40
1.5
309
CELLMARGIN_END
 94
        6
 95
        1
302
GRIDFORMAT
  1
GRIDFORMAT_BEGIN
 90
        0
 91
        1
 62
     0
 92
       -2
340
14
 93
        0
 40
0.045
309
GRIDFORMAT_END
 95
        2
302
GRIDFORMAT
  1
GRIDFORMAT_BEGIN
 90
        0
 91
        1
 62
     0
 92
       -2
340
14
 93
        0
 40
0.045
309
GRIDFORMAT_END
 95
        4
302
GRIDFORMAT
  1
GRIDFORMAT_BEGIN
 90
        0
 91
        1
 62
     0
 92
       -2
340
14
 93
        0
 40
0.045
309
GRIDFORMAT_END
 95
        8
302
GRIDFORMAT
  1
GRIDFORMAT_BEGIN
 90
        0
 91
        1
 62
     0
 92
       -2
340
14
 93
        0
 40
0.045
309
GRIDFORMAT_END
 95
       16
302
GRIDFORMAT
  1
GRIDFORMAT_BEGIN
 90
        0
 91
        1
 62
     0
 92
       -2
340
14
 93
        0
 40
0.045
309
GRIDFORMAT_END
 95
       32
302
GRIDFORMAT
  1
GRIDFORMAT_BEGIN
 90
        0
 91
        1
 62
     0
 92
       -2
340
14
 93
        0
 40
0.045
309
GRIDFORMAT_END
309
TABLEFORMAT_END
  1
CELLSTYLE_BEGIN
 90
        1
 91
        1
300
_TITLE
309
CELLSTYLE_END
300
CELLSTYLE
  1
TABLEFORMAT_BEGIN
 90
        5
170
     1
 91
        0
 92
        0
 62
   257
 93
        1
300
CONTENTFORMAT
  1
CONTENTFORMAT_BEGIN
 90
        0
 91
        0
 92
        4
 93
        0
300

 40
0.0
140
1.0
 94
        5
 62
     0
340
11
144
4.5
309
CONTENTFORMAT_END
171
     1
301
MARGIN
  1
CELLMARGIN_BEGIN
 40
1.5
 40
1.5
 40
1.5
 40
1.5
 40
1.5
 40
1.5
309
CELLMARGIN_END
 94
        6
 95
        1
302
GRIDFORMAT
  1
GRIDFORMAT_BEGIN
 90
        0
 91
        1
 62
     0
 92
       -2
340
14
 93
        0
 40
0.045
309
GRIDFORMAT_END
 95
        2
302
GRIDFORMAT
  1
GRIDFORMAT_BEGIN
 90
        0
 91
        1
 62
     0
 92
       -2
340
14
 93
        0
 40
0.045
309
GRIDFORMAT_END
 95
        4
302
GRIDFORMAT
  1
GRIDFORMAT_BEGIN
 90
        0
 91
        1
 62
     0
 92
       -2
340
14
 93
        0
 40
0.045
309
GRIDFORMAT_END
 95
        8
302
GRIDFORMAT
  1
GRIDFORMAT_BEGIN
 90
        0
 91
        1
 62
     0
 92
       -2
340
14
 93
        0
 40
0.045
309
GRIDFORMAT_END
 95
       16
302
GRIDFORMAT
  1
GRIDFORMAT_BEGIN
 90
        0
 91
        1
 62
     0
 92
       -2
340
14
 93
        0
 40
0.045
309
GRIDFORMAT_END
 95
       32
302
GRIDFORMAT
  1
GRIDFORMAT_BEGIN
 90
        0
 91
        1
 62
     0
 92
       -2
340
14
 93
        0
 40
0.045
309
GRIDFORMAT_END
309
TABLEFORMAT_END
  1
CELLSTYLE_BEGIN
 90
        2
 91
        1
300
_HEADER
309
CELLSTYLE_END
300
CELLSTYLE
  1
TABLEFORMAT_BEGIN
 90
        5
170
     1
 91
        0
 92
        0
 62
   257
 93
        1
300
CONTENTFORMAT
  1
CONTENTFORMAT_BEGIN
 90
        0
 91
        0
 92
        4
 93
        0
300

 40
0.0
140
1.0
 94
        2
 62
     0
340
11
144
4.5
309
CONTENTFORMAT_END
171
     1
301
MARGIN
  1
CELLMARGIN_BEGIN
 40
1.5
 40
1.5
 40
1.5
 40
1.5
 40
1.5
 40
1.5
309
CELLMARGIN_END
 94
        6
 95
        1
302
GRIDFORMAT
  1
GRIDFORMAT_BEGIN
 90
        0
 91
        1
 62
     0
 92
       -2
340
14
 93
        0
 40
0.045
309
GRIDFORMAT_END
 95
        2
302
GRIDFORMAT
  1
GRIDFORMAT_BEGIN
 90
        0
 91
        1
 62
     0
 92
       -2
340
14
 93
        0
 40
0.045
309
GRIDFORMAT_END
 95
        4
302
GRIDFORMAT
  1
GRIDFORMAT_BEGIN
 90
        0
 91
        1
 62
     0
 92
       -2
340
14
 93
        0
 40
0.045
309
GRIDFORMAT_END
 95
        8
302
GRIDFORMAT
  1
GRIDFORMAT_BEGIN
 90
        0
 91
        1
 62
     0
 92
       -2
340
14
 93
        0
 40
0.045
309
GRIDFORMAT_END
 95
       16
302
GRIDFORMAT
  1
GRIDFORMAT_BEGIN
 90
        0
 91
        1
 62
     0
 92
       -2
340
14
 93
        0
 40
0.045
309
GRIDFORMAT_END
 95
       32
302
GRIDFORMAT
  1
GRIDFORMAT_BEGIN
 90
        0
 91
        1
 62
     0
 92
       -2
340
14
 93
        0
 40
0.045
309
GRIDFORMAT_END
309
TABLEFORMAT_END
  1
CELLSTYLE_BEGIN
 90
        3
 91
        2
300
_DATA
309
CELLSTYLE_END
  0
ENDSEC
  0
EOF