0
SECTION
  2
HEADER
  9
$ACADVER
  1
AC1027
  9
$ACADMAINTVER
 70
     8
  9
$DWGCODEPAGE
  3
ANSI_1252
  9
$REQUIREDVERSIONS
160
                 0
  9
$COMMENTS
  1
File was created by Cadenas
  9
$CUSTOMPROPERTYTAG
  1
NN
  9
$CUSTOMPROPERTY
  1
Set Screw Tapped Base Metric Bore
  9
$CUSTOMPROPERTYTAG
  1
NT
  9
$CUSTOMPROPERTY
  1
SC Pillow Block Bearings -(Normal Duty) -Tapped Base Housing
  9
$CUSTOMPROPERTYTAG
  1
NB
  9
$CUSTOMPROPERTY
  1
130359
  9
$CUSTOMPROPERTYTAG
  1
NBSYN
  9
$CUSTOMPROPERTY
  1
$PN.
  9
$CUSTOMPROPERTYTAG
  1
LINA
  9
$CUSTOMPROPERTY
  1
130359
  9
$CUSTOMPROPERTYTAG
  1
SERIES
  9
$CUSTOMPROPERTY
  1
209
  9
$CUSTOMPROPERTYTAG
  1
SS
  9
$CUSTOMPROPERTY
  1
45
  9
$CUSTOMPROPERTYTAG
  1
PN
  9
$CUSTOMPROPERTY
  1
130359
  9
$CUSTOMPROPERTYTAG
  1
DESCRIPTION
  9
$CUSTOMPROPERTY
  1
TB-SC-45M
  9
$CUSTOMPROPERTYTAG
  1
WEIGHT
  9
$CUSTOMPROPERTY
  1
0.20
  9
$CUSTOMPROPERTYTAG
  1
A
  9
$CUSTOMPROPERTY
  1
49.3
  9
$CUSTOMPROPERTYTAG
  1
B
  9
$CUSTOMPROPERTY
  1
127.0
  9
$CUSTOMPROPERTYTAG
  1
C
  9
$CUSTOMPROPERTY
  1
50.8
  9
$CUSTOMPROPERTYTAG
  1
D
  9
$CUSTOMPROPERTY
  1
95.3
  9
$CUSTOMPROPERTYTAG
  1
J
  9
$CUSTOMPROPERTY
  1
108.0
  9
$CUSTOMPROPERTYTAG
  1
L
  9
$CUSTOMPROPERTY
  1
56.4
  9
$CUSTOMPROPERTYTAG
  1
M
  9
$CUSTOMPROPERTY
  1
54.0
  9
$CUSTOMPROPERTYTAG
  1
N
  9
$CUSTOMPROPERTY
  1
19.1
  9
$CUSTOMPROPERTYTAG
  1
R
  9
$CUSTOMPROPERTY
  1
M12x1.75
  9
$CUSTOMPROPERTYTAG
  1
S
  9
$CUSTOMPROPERTY
  1
30.2
  9
$CUSTOMPROPERTYTAG
  1
COMPANY
  9
$CUSTOMPROPERTY
  1
baldor
  9
$INSBASE
 10
0.0
 20
0.0
 30
0.0
  9
$EXTMIN
 10
1.000000000000000E+20
 20
1.000000000000000E+20
 30
1.000000000000000E+20
  9
$EXTMAX
 10
-1.000000000000000E+20
 20
-1.000000000000000E+20
 30
-1.000000000000000E+20
  9
$LIMMIN
 10
0.0
 20
0.0
  9
$LIMMAX
 10
420.0
 20
297.0
  9
$ORTHOMODE
 70
     0
  9
$REGENMODE
 70
     1
  9
$FILLMODE
 70
     1
  9
$QTEXTMODE
 70
     0
  9
$MIRRTEXT
 70
     1
  9
$LTSCALE
 40
1.0
  9
$ATTMODE
 70
     1
  9
$TEXTSIZE
 40
2.5
  9
$TRACEWID
 40
1.0
  9
$TEXTSTYLE
  7
Standard
  9
$CLAYER
  8
0
  9
$CELTYPE
  6
ByLayer
  9
$CECOLOR
 62
   256
  9
$CELTSCALE
 40
1.0
  9
$DISPSILH
 70
     0
  9
$DIMSCALE
 40
1.0
  9
$DIMASZ
 40
2.5
  9
$DIMEXO
 40
0.625
  9
$DIMDLI
 40
3.75
  9
$DIMRND
 40
0.0
  9
$DIMDLE
 40
0.0
  9
$DIMEXE
 40
1.25
  9
$DIMTP
 40
0.0
  9
$DIMTM
 40
0.0
  9
$DIMTXT
 40
2.5
  9
$DIMCEN
 40
2.5
  9
$DIMTSZ
 40
0.0
  9
$DIMTOL
 70
     0
  9
$DIMLIM
 70
     0
  9
$DIMTIH
 70
     0
  9
$DIMTOH
 70
     0
  9
$DIMSE1
 70
     0
  9
$DIMSE2
 70
     0
  9
$DIMTAD
 70
     1
  9
$DIMZIN
 70
     8
  9
$DIMBLK
  1

  9
$DIMASO
 70
     1
  9
$DIMSHO
 70
     1
  9
$DIMPOST
  1

  9
$DIMAPOST
  1

  9
$DIMALT
 70
     0
  9
$DIMALTD
 70
     3
  9
$DIMALTF
 40
0.03937007874016
  9
$DIMLFAC
 40
1.0
  9
$DIMTOFL
 70
     1
  9
$DIMTVP
 40
0.0
  9
$DIMTIX
 70
     0
  9
$DIMSOXD
 70
     0
  9
$DIMSAH
 70
     0
  9
$DIMBLK1
  1

  9
$DIMBLK2
  1

  9
$DIMSTYLE
  2
ISO-25
  9
$DIMCLRD
 70
     0
  9
$DIMCLRE
 70
     0
  9
$DIMCLRT
 70
     0
  9
$DIMTFAC
 40
1.0
  9
$DIMGAP
 40
0.625
  9
$DIMJUST
 70
     0
  9
$DIMSD1
 70
     0
  9
$DIMSD2
 70
     0
  9
$DIMTOLJ
 70
     0
  9
$DIMTZIN
 70
     8
  9
$DIMALTZ
 70
     0
  9
$DIMALTTZ
 70
     0
  9
$DIMUPT
 70
     0
  9
$DIMDEC
 70
     2
  9
$DIMTDEC
 70
     2
  9
$DIMALTU
 70
     2
  9
$DIMALTTD
 70
     3
  9
$DIMTXSTY
  7
Standard
  9
$DIMAUNIT
 70
     0
  9
$DIMADEC
 70
     0
  9
$DIMALTRND
 40
0.0
  9
$DIMAZIN
 70
     0
  9
$DIMDSEP
 70
    44
  9
$DIMATFIT
 70
     3
  9
$DIMFRAC
 70
     0
  9
$DIMLDRBLK
  1

  9
$DIMLUNIT
 70
     2
  9
$DIMLWD
 70
    -2
  9
$DIMLWE
 70
    -2
  9
$DIMTMOVE
 70
     0
  9
$DIMFXL
 40
1.0
  9
$DIMFXLON
 70
     0
  9
$DIMJOGANG
 40
0.7853981633974483
  9
$DIMTFILL
 70
     0
  9
$DIMTFILLCLR
 70
     0
  9
$DIMARCSYM
 70
     0
  9
$DIMLTYPE
  6

  9
$DIMLTEX1
  6

  9
$DIMLTEX2
  6

  9
$DIMTXTDIRECTION
 70
     0
  9
$LUNITS
 70
     2
  9
$LUPREC
 70
     4
  9
$SKETCHINC
 40
1.0
  9
$FILLETRAD
 40
10.0
  9
$AUNITS
 70
     0
  9
$AUPREC
 70
     0
  9
$MENU
  1
.
  9
$ELEVATION
 40
0.0
  9
$PELEVATION
 40
0.0
  9
$THICKNESS
 40
0.0
  9
$LIMCHECK
 70
     0
  9
$CHAMFERA
 40
0.0
  9
$CHAMFERB
 40
0.0
  9
$CHAMFERC
 40
0.0
  9
$CHAMFERD
 40
0.0
  9
$SKPOLY
 70
     0
  9
$TDCREATE
 40
2458168.976519456
  9
$TDUCREATE
 40
2458168.934852789
  9
$TDUPDATE
 40
2458168.976519641
  9
$TDUUPDATE
 40
2458168.934852974
  9
$TDINDWG
 40
0.0000000116
  9
$TDUSRTIMER
 40
0.0000000116
  9
$USRTIMER
 70
     1
  9
$ANGBASE
 50
0.0
  9
$ANGDIR
 70
     0
  9
$PDMODE
 70
     0
  9
$PDSIZE
 40
0.0
  9
$PLINEWID
 40
0.0
  9
$SPLFRAME
 70
     0
  9
$SPLINETYPE
 70
     6
  9
$SPLINESEGS
 70
     8
  9
$HANDSEED
  5
19B
  9
$SURFTAB1
 70
     6
  9
$SURFTAB2
 70
     6
  9
$SURFTYPE
 70
     6
  9
$SURFU
 70
     6
  9
$SURFV
 70
     6
  9
$UCSBASE
  2

  9
$UCSNAME
  2

  9
$UCSORG
 10
0.0
 20
0.0
 30
0.0
  9
$UCSXDIR
 10
1.0
 20
0.0
 30
0.0
  9
$UCSYDIR
 10
0.0
 20
1.0
 30
0.0
  9
$UCSORTHOREF
  2

  9
$UCSORTHOVIEW
 70
     0
  9
$UCSORGTOP
 10
0.0
 20
0.0
 30
0.0
  9
$UCSORGBOTTOM
 10
0.0
 20
0.0
 30
0.0
  9
$UCSORGLEFT
 10
0.0
 20
0.0
 30
0.0
  9
$UCSORGRIGHT
 10
0.0
 20
0.0
 30
0.0
  9
$UCSORGFRONT
 10
0.0
 20
0.0
 30
0.0
  9
$UCSORGBACK
 10
0.0
 20
0.0
 30
0.0
  9
$PUCSBASE
  2

  9
$PUCSNAME
  2

  9
$PUCSORG
 10
0.0
 20
0.0
 30
0.0
  9
$PUCSXDIR
 10
1.0
 20
0.0
 30
0.0
  9
$PUCSYDIR
 10
0.0
 20
1.0
 30
0.0
  9
$PUCSORTHOREF
  2

  9
$PUCSORTHOVIEW
 70
     0
  9
$PUCSORGTOP
 10
0.0
 20
0.0
 30
0.0
  9
$PUCSORGBOTTOM
 10
0.0
 20
0.0
 30
0.0
  9
$PUCSORGLEFT
 10
0.0
 20
0.0
 30
0.0
  9
$PUCSORGRIGHT
 10
0.0
 20
0.0
 30
0.0
  9
$PUCSORGFRONT
 10
0.0
 20
0.0
 30
0.0
  9
$PUCSORGBACK
 10
0.0
 20
0.0
 30
0.0
  9
$USERI1
 70
     0
  9
$USERI2
 70
     0
  9
$USERI3
 70
     0
  9
$USERI4
 70
     0
  9
$USERI5
 70
     0
  9
$USERR1
 40
0.0
  9
$USERR2
 40
0.0
  9
$USERR3
 40
0.0
  9
$USERR4
 40
0.0
  9
$USERR5
 40
0.0
  9
$WORLDVIEW
 70
     1
  9
$SHADEDGE
 70
     3
  9
$SHADEDIF
 70
    70
  9
$TILEMODE
 70
     1
  9
$MAXACTVP
 70
    64
  9
$PINSBASE
 10
0.0
 20
0.0
 30
0.0
  9
$PLIMCHECK
 70
     0
  9
$PEXTMIN
 10
1.000000000000000E+20
 20
1.000000000000000E+20
 30
1.000000000000000E+20
  9
$PEXTMAX
 10
-1.000000000000000E+20
 20
-1.000000000000000E+20
 30
-1.000000000000000E+20
  9
$PLIMMIN
 10
0.0
 20
0.0
  9
$PLIMMAX
 10
420.0
 20
297.0
  9
$UNITMODE
 70
     0
  9
$VISRETAIN
 70
     1
  9
$PLINEGEN
 70
     0
  9
$PSLTSCALE
 70
     1
  9
$TREEDEPTH
 70
  3020
  9
$CMLSTYLE
  2
Standard
  9
$CMLJUST
 70
     0
  9
$CMLSCALE
 40
20.0
  9
$PROXYGRAPHICS
 70
     1
  9
$MEASUREMENT
 70
     1
  9
$CELWEIGHT
370
    -1
  9
$ENDCAPS
280
     0
  9
$JOINSTYLE
280
     0
  9
$LWDISPLAY
290
     0
  9
$INSUNITS
 70
     4
  9
$HYPERLINKBASE
  1

  9
$STYLESHEET
  1

  9
$XEDIT
290
     1
  9
$CEPSNTYPE
380
     0
  9
$PSTYLEMODE
290
     1
  9
$FINGERPRINTGUID
  2
{4FDD7AB9-2A3B-4841-B93E-55C9BE765BB4}
  9
$VERSIONGUID
  2
{FAEB1C32-E019-11D5-929B-00C0DF256EC4}
  9
$EXTNAMES
290
     1
  9
$PSVPSCALE
 40
0.0
  9
$OLESTARTUP
290
     0
  9
$SORTENTS
280
   127
  9
$INDEXCTL
280
     0
  9
$HIDETEXT
280
     1
  9
$XCLIPFRAME
280
     2
  9
$HALOGAP
280
     0
  9
$OBSCOLOR
 70
   257
  9
$OBSLTYPE
280
     0
  9
$INTERSECTIONDISPLAY
280
     0
  9
$INTERSECTIONCOLOR
 70
   257
  9
$DIMASSOC
280
     2
  9
$PROJECTNAME
  1

  9
$CAMERADISPLAY
290
     0
  9
$LENSLENGTH
 40
50.0
  9
$CAMERAHEIGHT
 40
0.0
  9
$STEPSPERSEC
 40
2.0
  9
$STEPSIZE
 40
6.0
  9
$3DDWFPREC
 40
2.0
  9
$PSOLWIDTH
 40
5.0
  9
$PSOLHEIGHT
 40
80.0
  9
$LOFTANG1
 40
1.570796326794897
  9
$LOFTANG2
 40
1.570796326794897
  9
$LOFTMAG1
 40
0.0
  9
$LOFTMAG2
 40
0.0
  9
$LOFTPARAM
 70
     7
  9
$LOFTNORMALS
280
     1
  9
$LATITUDE
 40
37.795
  9
$LONGITUDE
 40
-122.394
  9
$NORTHDIRECTION
 40
0.0
  9
$TIMEZONE
 70
 -8000
  9
$LIGHTGLYPHDISPLAY
280
     1
  9
$TILEMODELIGHTSYNCH
280
     1
  9
$CMATERIAL
347
44
  9
$SOLIDHIST
280
     0
  9
$SHOWHIST
280
     1
  9
$DWFFRAME
280
     2
  9
$DGNFRAME
280
     2
  9
$REALWORLDSCALE
290
     1
  9
$INTERFERECOLOR
 62
   256
  9
$CSHADOW
280
     0
  9
$SHADOWPLANELOCATION
 40
0.0
  0
ENDSEC
  0
SECTION
  2
CLASSES
  0
CLASS
  1
ACDBDICTIONARYWDFLT
  2
AcDbDictionaryWithDefault
  3
ObjectDBX Classes
 90
        0
 91
        4
280
     0
281
     0
  0
CLASS
  1
VISUALSTYLE
  2
AcDbVisualStyle
  3
ObjectDBX Classes
 90
     4095
 91
        4
280
     0
281
     0
  0
CLASS
  1
MATERIAL
  2
AcDbMaterial
  3
ObjectDBX Classes
 90
     1153
 91
        4
280
     0
281
     0
  0
CLASS
  1
SCALE
  2
AcDbScale
  3
ObjectDBX Classes
 90
     1153
 91
        4
280
     0
281
     0
  0
CLASS
  1
TABLESTYLE
  2
AcDbTableStyle
  3
ObjectDBX Classes
 90
     4095
 91
        4
280
     0
281
     0
  0
CLASS
  1
MLEADERSTYLE
  2
AcDbMLeaderStyle
  3
ACDB_MLEADERSTYLE_CLASS
 90
     4095
 91
        4
280
     0
281
     0
  0
CLASS
  1
SUN
  2
AcDbSun
  3
SCENEOE
 90
     1153
 91
        4
280
     0
281
     0
  0
CLASS
  1
DICTIONARYVAR
  2
AcDbDictionaryVar
  3
ObjectDBX Classes
 90
        0
 91
        4
280
     0
281
     0
  0
CLASS
  1
CELLSTYLEMAP
  2
AcDbCellStyleMap
  3
ObjectDBX Classes
 90
     1152
 91
        4
280
     0
281
     0
  0
ENDSEC
  0
SECTION
  2
TABLES
  0
TABLE
  2
VPORT
  5
8
330
0
100
AcDbSymbolTable
 70
     1
  0
VPORT
  5
29
330
8
100
AcDbSymbolTableRecord
100
AcDbViewportTableRecord
  2
*Active
 70
     0
 10
0.0
 20
0.0
 11
1.0
 21
1.0
 12
-2.362499999999955
 22
-0.693683772755378
 13
0.0
 23
0.0
 14
10.0
 24
10.0
 15
10.0
 25
10.0
 16
0.0
 26
0.0
 36
1.0
 17
0.0
 27
0.0
 37
0.0
 40
111.575114896421
 41
0.5540402092114074
 42
50.0
 43
0.0
 44
0.0
 50
0.0
 51
0.0
 71
     0
 72
   100
 73
     1
 74
     3
 75
     0
 76
     0
 77
     0
 78
     0
281
     0
 65
     1
110
0.0
120
0.0
130
0.0
111
1.0
121
0.0
131
0.0
112
0.0
122
1.0
132
0.0
 79
     0
146
0.0
348
2F
 60
     3
 61
     5
292
     1
282
     1
141
0.0
142
0.0
 63
   250
361
6D
  0
ENDTAB
  0
TABLE
  2
LTYPE
  5
5
330
0
100
AcDbSymbolTable
 70
     3
  0
LTYPE
  5
14
330
5
100
AcDbSymbolTableRecord
100
AcDbLinetypeTableRecord
  2
ByBlock
 70
     0
  3

 72
    65
 73
     0
 40
0.0
  0
LTYPE
  5
15
330
5
100
AcDbSymbolTableRecord
100
AcDbLinetypeTableRecord
  2
ByLayer
 70
     0
  3

 72
    65
 73
     0
 40
0.0
  0
LTYPE
  5
16
330
5
100
AcDbSymbolTableRecord
100
AcDbLinetypeTableRecord
  2
Continuous
 70
     0
  3
Solid line
 72
    65
 73
     0
 40
0.0
  0
LTYPE
  5
94
330
5
100
AcDbSymbolTableRecord
100
AcDbLinetypeTableRecord
  2
Dashed
 70
     0
  3

 72
    65
 73
     2
 40
2.0
 49
1.0
 74
     0
 49
-1.0
 74
     0
  0
LTYPE
  5
137
330
5
100
AcDbSymbolTableRecord
100
AcDbLinetypeTableRecord
  2
Center
 70
     0
  3

 72
    65
 73
     4
 40
1.5
 49
0.45
 74
     0
 49
-0.5
 74
     0
 49
0.05
 74
     0
 49
-0.5
 74
     0
  0
ENDTAB
  0
TABLE
  2
LAYER
  5
2
330
0
100
AcDbSymbolTable
 70
     7
  0
LAYER
  5
10
330
2
100
AcDbSymbolTableRecord
100
AcDbLayerTableRecord
  2
0
 70
     0
 62
     7
  6
Continuous
370
    -3
390
F
347
46
348
0
  0
LAYER
  5
72
330
2
100
AcDbSymbolTableRecord
100
AcDbLayerTableRecord
  2
AM_6
 70
     0
 62
    -2
  6
Continuous
370
    35
390
F
347
46
348
0
  0
LAYER
  5
95
330
2
100
AcDbSymbolTableRecord
100
AcDbLayerTableRecord
  2
AM_9
 70
     0
 62
     6
  6
Dashed
370
    25
390
F
347
46
348
0
  0
LAYER
  5
BC
330
2
100
AcDbSymbolTableRecord
100
AcDbLayerTableRecord
  2
AM_4
 70
     0
 62
     7
  6
Continuous
370
    50
390
F
347
46
348
0
  0
LAYER
  5
134
330
2
100
AcDbSymbolTableRecord
100
AcDbLayerTableRecord
  2
AM_5
 70
     0
 62
     3
  6
Continuous
370
    25
390
F
347
46
348
0
  0
LAYER
  5
138
330
2
100
AcDbSymbolTableRecord
100
AcDbLayerTableRecord
  2
AM_7
 70
     0
 62
     7
  6
Center
370
    25
390
F
347
46
348
0
  0
LAYER
  5
18E
330
2
100
AcDbSymbolTableRecord
100
AcDbLayerTableRecord
  2
ConnectionPoints
 70
     0
 62
     7
  6
Continuous
370
    50
390
F
347
46
348
0
  0
ENDTAB
  0
TABLE
  2
STYLE
  5
3
330
0
100
AcDbSymbolTable
 70
     1
  0
STYLE
  5
11
330
3
100
AcDbSymbolTableRecord
100
AcDbTextStyleTableRecord
  2
Standard
 70
     0
 40
0.0
 41
1.0
 50
0.0
 71
     0
 42
2.5
  3
txt
  4

  0
ENDTAB
  0
TABLE
  2
VIEW
  5
6
330
0
100
AcDbSymbolTable
 70
     0
  0
ENDTAB
  0
TABLE
  2
UCS
  5
7
330
0
100
AcDbSymbolTable
 70
     0
  0
ENDTAB
  0
TABLE
  2
APPID
  5
9
330
0
100
AcDbSymbolTable
 70
     1
  0
APPID
  5
12
330
9
100
AcDbSymbolTableRecord
100
AcDbRegAppTableRecord
  2
ACAD
 70
     0
  0
ENDTAB
  0
TABLE
  2
DIMSTYLE
  5
A
330
0
100
AcDbSymbolTable
 70
     1
100
AcDbDimStyleTable
  0
DIMSTYLE
105
27
330
A
100
AcDbSymbolTableRecord
100
AcDbDimStyleTableRecord
  2
ISO-25
 70
     0
 41
2.5
 42
0.625
 43
3.75
 44
1.25
 73
     0
 74
     0
 77
     1
 78
     8
140
2.5
141
2.5
143
0.03937007874016
147
0.625
171
     3
172
     1
178
     0
271
     2
272
     2
274
     3
278
    44
283
     0
284
     8
340
11
  0
ENDTAB
  0
TABLE
  2
BLOCK_RECORD
  5
1
330
0
100
AcDbSymbolTable
 70
     5
  0
BLOCK_RECORD
  5
1F
330
1
100
AcDbSymbolTableRecord
100
AcDbBlockTableRecord
  2
*Model_Space
340
22
 70
     0
280
     1
281
     0
  0
BLOCK_RECORD
  5
1B
330
1
100
AcDbSymbolTableRecord
100
AcDbBlockTableRecord
  2
*Paper_Space
340
1E
 70
     0
280
     1
281
     0
  0
BLOCK_RECORD
  5
23
330
1
100
AcDbSymbolTableRecord
100
AcDbBlockTableRecord
  2
*Paper_Space0
340
26
 70
     0
280
     1
281
     0
  0
BLOCK_RECORD
  5
6E
330
1
100
AcDbSymbolTableRecord
100
AcDbBlockTableRecord
  2
1_130359_2
340
0
102
{BLKREFS
331
6F
102
}
 70
     0
280
     1
281
     0
  0
BLOCK_RECORD
  5
88
330
1
100
AcDbSymbolTableRecord
100
AcDbBlockTableRecord
  2
2_405015E_Metric_0_in_130359_2
340
0
102
{BLKREFS
331
89
102
}
 70
     0
280
     1
281
     0
  0
BLOCK_RECORD
  5
E8
330
1
100
AcDbSymbolTableRecord
100
AcDbBlockTableRecord
  2
3_125812_0_in_130359_2
340
0
102
{BLKREFS
331
E9
102
}
 70
     0
280
     1
281
     0
  0
BLOCK_RECORD
  5
14B
330
1
100
AcDbSymbolTableRecord
100
AcDbBlockTableRecord
  2
4_130359H_0_in_130359_2
340
0
102
{BLKREFS
331
14C
102
}
 70
     0
280
     1
281
     0
  0
ENDTAB
  0
ENDSEC
  0
SECTION
  2
BLOCKS
  0
BLOCK
  5
20
330
1F
100
AcDbEntity
  8
0
100
AcDbBlockBegin
  2
*Model_Space
 70
     0
 10
0.0
 20
0.0
 30
0.0
  3
*Model_Space
  1

  0
ENDBLK
  5
21
330
1F
100
AcDbEntity
  8
0
100
AcDbBlockEnd
  0
BLOCK
  5
1C
330
1B
100
AcDbEntity
 67
     1
  8
0
100
AcDbBlockBegin
  2
*Paper_Space
 70
     0
 10
0.0
 20
0.0
 30
0.0
  3
*Paper_Space
  1

  0
ENDBLK
  5
1D
330
1B
100
AcDbEntity
 67
     1
  8
0
100
AcDbBlockEnd
  0
BLOCK
  5
24
330
23
100
AcDbEntity
  8
0
100
AcDbBlockBegin
  2
*Paper_Space0
 70
     0
 10
0.0
 20
0.0
 30
0.0
  3
*Paper_Space0
  1

  0
ENDBLK
  5
25
330
23
100
AcDbEntity
  8
0
100
AcDbBlockEnd
  0
BLOCK
  5
70
330
6E
100
AcDbEntity
  8
0
100
AcDbBlockBegin
  2
1_130359_2
 70
     2
 10
0.0
 20
0.0
 30
0.0
  3
1_130359_2
  1

  0
ATTDEF
  5
73
330
6E
100
AcDbEntity
  8
AM_6
100
AcDbText
 10
32.94
 20
54.00000000000003
 30
0.0
 40
0.5
  1
Set Screw Tapped Base Metric Bore
100
AcDbAttributeDefinition
  3

  2
NN
 70
     8
280
     0
  0
ATTDEF
  5
74
330
6E
100
AcDbEntity
  8
AM_6
100
AcDbText
 10
32.94
 20
53.50000000000003
 30
0.0
 40
0.5
  1
SC Pillow Block Bearings -(Normal Duty) -Tapped Base Housing
100
AcDbAttributeDefinition
  3

  2
NT
 70
     8
280
     0
  0
ATTDEF
  5
75
330
6E
100
AcDbEntity
  8
AM_6
100
AcDbText
 10
32.94
 20
53.00000000000003
 30
0.0
 40
0.5
  1
130359
100
AcDbAttributeDefinition
  3

  2
NB
 70
     8
280
     0
  0
ATTDEF
  5
76
330
6E
100
AcDbEntity
  8
AM_6
100
AcDbText
 10
32.94
 20
52.50000000000003
 30
0.0
 40
0.5
  1
$PN.
100
AcDbAttributeDefinition
  3

  2
NBSYN
 70
     8
280
     0
  0
ATTDEF
  5
77
330
6E
100
AcDbEntity
  8
AM_6
100
AcDbText
 10
32.94
 20
52.00000000000003
 30
0.0
 40
0.5
  1
130359
100
AcDbAttributeDefinition
  3

  2
LINA
 70
     8
280
     0
  0
ATTDEF
  5
78
330
6E
100
AcDbEntity
  8
AM_6
100
AcDbText
 10
32.94
 20
51.50000000000003
 30
0.0
 40
0.5
  1
209
100
AcDbAttributeDefinition
  3

  2
SERIES
 70
     8
280
     0
  0
ATTDEF
  5
79
330
6E
100
AcDbEntity
  8
AM_6
100
AcDbText
 10
32.94
 20
51.00000000000003
 30
0.0
 40
0.5
  1
45
100
AcDbAttributeDefinition
  3

  2
SS
 70
     8
280
     0
  0
ATTDEF
  5
7A
330
6E
100
AcDbEntity
  8
AM_6
100
AcDbText
 10
32.94
 20
50.50000000000003
 30
0.0
 40
0.5
  1
130359
100
AcDbAttributeDefinition
  3

  2
PN
 70
     8
280
     0
  0
ATTDEF
  5
7B
330
6E
100
AcDbEntity
  8
AM_6
100
AcDbText
 10
32.94
 20
50.00000000000003
 30
0.0
 40
0.5
  1
TB-SC-45M
100
AcDbAttributeDefinition
  3

  2
DESCRIPTION
 70
     8
280
     0
  0
ATTDEF
  5
7C
330
6E
100
AcDbEntity
  8
AM_6
100
AcDbText
 10
32.94
 20
49.50000000000003
 30
0.0
 40
0.5
  1
0.20
100
AcDbAttributeDefinition
  3

  2
WEIGHT
 70
     8
280
     0
  0
ATTDEF
  5
7D
330
6E
100
AcDbEntity
  8
AM_6
100
AcDbText
 10
32.94
 20
49.00000000000003
 30
0.0
 40
0.5
  1
49.3
100
AcDbAttributeDefinition
  3

  2
A
 70
     8
280
     0
  0
ATTDEF
  5
7E
330
6E
100
AcDbEntity
  8
AM_6
100
AcDbText
 10
32.94
 20
48.50000000000003
 30
0.0
 40
0.5
  1
127.0
100
AcDbAttributeDefinition
  3

  2
B
 70
     8
280
     0
  0
ATTDEF
  5
7F
330
6E
100
AcDbEntity
  8
AM_6
100
AcDbText
 10
32.94
 20
48.00000000000003
 30
0.0
 40
0.5
  1
50.8
100
AcDbAttributeDefinition
  3

  2
C
 70
     8
280
     0
  0
ATTDEF
  5
80
330
6E
100
AcDbEntity
  8
AM_6
100
AcDbText
 10
32.94
 20
47.50000000000003
 30
0.0
 40
0.5
  1
95.3
100
AcDbAttributeDefinition
  3

  2
D
 70
     8
280
     0
  0
ATTDEF
  5
81
330
6E
100
AcDbEntity
  8
AM_6
100
AcDbText
 10
32.94
 20
47.00000000000003
 30
0.0
 40
0.5
  1
108.0
100
AcDbAttributeDefinition
  3

  2
J
 70
     8
280
     0
  0
ATTDEF
  5
82
330
6E
100
AcDbEntity
  8
AM_6
100
AcDbText
 10
32.94
 20
46.50000000000003
 30
0.0
 40
0.5
  1
56.4
100
AcDbAttributeDefinition
  3

  2
L
 70
     8
280
     0
  0
ATTDEF
  5
83
330
6E
100
AcDbEntity
  8
AM_6
100
AcDbText
 10
32.94
 20
46.00000000000003
 30
0.0
 40
0.5
  1
54.0
100
AcDbAttributeDefinition
  3

  2
M
 70
     8
280
     0
  0
ATTDEF
  5
84
330
6E
100
AcDbEntity
  8
AM_6
100
AcDbText
 10
32.94
 20
45.50000000000003
 30
0.0
 40
0.5
  1
19.1
100
AcDbAttributeDefinition
  3

  2
N
 70
     8
280
     0
  0
ATTDEF
  5
85
330
6E
100
AcDbEntity
  8
AM_6
100
AcDbText
 10
32.94
 20
45.00000000000003
 30
0.0
 40
0.5
  1
M12x1.75
100
AcDbAttributeDefinition
  3

  2
R
 70
     8
280
     0
  0
ATTDEF
  5
86
330
6E
100
AcDbEntity
  8
AM_6
100
AcDbText
 10
32.94
 20
44.50000000000003
 30
0.0
 40
0.5
  1
30.2
100
AcDbAttributeDefinition
  3

  2
S
 70
     8
280
     0
  0
ATTDEF
  5
87
330
6E
100
AcDbEntity
  8
AM_6
100
AcDbText
 10
32.94
 20
44.00000000000003
 30
0.0
 40
0.5
  1
baldor
100
AcDbAttributeDefinition
  3

  2
COMPANY
 70
     8
280
     0
  0
INSERT
  5
89
330
6E
100
AcDbEntity
  8
0
100
AcDbBlockReference
  2
2_405015E_Metric_0_in_130359_2
 10
0.0
 20
0.0
 30
0.0
  0
INSERT
  5
E9
330
6E
100
AcDbEntity
  8
0
100
AcDbBlockReference
  2
3_125812_0_in_130359_2
 10
0.0
 20
0.0
 30
0.0
  0
INSERT
  5
14C
330
6E
100
AcDbEntity
  8
0
100
AcDbBlockReference
  2
4_130359H_0_in_130359_2
 10
0.0
 20
0.0
 30
0.0
  0
ENDBLK
  5
71
330
6E
100
AcDbEntity
  8
0
100
AcDbBlockEnd
  0
BLOCK
  5
8A
330
88
100
AcDbEntity
  8
0
100
AcDbBlockBegin
  2
2_405015E_Metric_0_in_130359_2
 70
     2
 10
0.0
 20
0.0
 30
0.0
  3
2_405015E_Metric_0_in_130359_2
  1

  0
ATTDEF
  5
8C
330
88
100
AcDbEntity
  8
AM_6
100
AcDbText
 10
10.77350269189626
 20
43.80980848633686
 30
0.0
 40
0.5
  1
405015E -Metric
100
AcDbAttributeDefinition
  3

  2
NN
 70
     8
280
     0
  0
ATTDEF
  5
8D
330
88
100
AcDbEntity
  8
AM_6
100
AcDbText
 10
10.77350269189626
 20
43.30980848633686
 30
0.0
 40
0.5
  1
Grease Fitting
100
AcDbAttributeDefinition
  3

  2
NT
 70
     8
280
     0
  0
ATTDEF
  5
8E
330
88
100
AcDbEntity
  8
AM_6
100
AcDbText
 10
10.77350269189626
 20
42.80980848633686
 30
0.0
 40
0.5
  1
405015E-Metric
100
AcDbAttributeDefinition
  3

  2
NB
 70
     8
280
     0
  0
ATTDEF
  5
8F
330
88
100
AcDbEntity
  8
AM_6
100
AcDbText
 10
10.77350269189626
 20
42.30980848633686
 30
0.0
 40
0.5
  1
$MN.-Metric
100
AcDbAttributeDefinition
  3

  2
NBSYN
 70
     8
280
     0
  0
ATTDEF
  5
90
330
88
100
AcDbEntity
  8
AM_6
100
AcDbText
 10
10.77350269189626
 20
41.80980848633686
 30
0.0
 40
0.5
  1
405015E
100
AcDbAttributeDefinition
  3

  2
LINA
 70
     8
280
     0
  0
ATTDEF
  5
91
330
88
100
AcDbEntity
  8
AM_6
100
AcDbText
 10
10.77350269189626
 20
41.30980848633686
 30
0.0
 40
0.5
  1
405015E
100
AcDbAttributeDefinition
  3

  2
MN
 70
     8
280
     0
  0
ATTDEF
  5
92
330
88
100
AcDbEntity
  8
AM_6
100
AcDbText
 10
10.77350269189626
 20
40.80980848633686
 30
0.0
 40
0.5
  1
1/8 x 27PTF
100
AcDbAttributeDefinition
  3

  2
T
 70
     8
280
     0
  0
ATTDEF
  5
93
330
88
100
AcDbEntity
  8
AM_6
100
AcDbText
 10
10.77350269189626
 20
40.30980848633686
 30
0.0
 40
0.5
  1
baldor
100
AcDbAttributeDefinition
  3

  2
COMPANY
 70
     8
280
     0
  0
ELLIPSE
  5
96
330
88
100
AcDbEntity
  8
AM_9
100
AcDbEllipse
 10
0.0000000000000025
 20
30.64174486117911
 30
0.0
 11
-4.15799375318352
 21
5.092073740710888E-16
 31
0.0
210
0.0
220
0.0
230
1.0
 40
0.7071067811865485
 41
0.0
 42
6.283185307179586
  0
LWPOLYLINE
  5
97
330
88
100
AcDbEntity
  8
AM_9
100
AcDbPolyline
 90
        3
 70
     0
 43
0.0
 10
2.886751345948132
 20
39.08336905378275
 10
3.605194279591491
 20
38.09592982925916
 10
4.330127018922196
 20
37.16904755831213
  0
LWPOLYLINE
  5
98
330
88
100
AcDbEntity
  8
AM_9
100
AcDbPolyline
 90
        4
 70
     0
 43
0.0
 10
0.0000000000000025
 20
38.9368145112785
 10
1.115679522391565
 20
38.96011198159988
 10
2.231359044783128
 20
39.02686989878816
 10
2.886751345948132
 20
39.08336905378275
  0
LWPOLYLINE
  5
99
330
88
100
AcDbEntity
  8
AM_9
100
AcDbPolyline
 90
        3
 70
     0
 43
0.0
 10
-4.330127018922192
 20
37.16904755831213
 10
-3.608439182435159
 20
38.09161390983667
 10
-2.886751345948126
 20
39.08336905378275
  0
LWPOLYLINE
  5
9A
330
88
100
AcDbEntity
  8
AM_9
100
AcDbPolyline
 90
        3
 70
     0
 43
0.0
 10
-2.886751345948126
 20
39.08336905378275
 10
-1.449865478661408
 20
38.97583912762639
 10
0.0000000000000025
 20
38.9368145112785
  0
LINE
  5
9B
330
88
100
AcDbEntity
  8
AM_9
100
AcDbLine
 10
-2.886751345948126
 20
40.91158031233388
 30
0.0
 11
-2.886751345948126
 21
39.08336905378275
 31
0.0
  0
LINE
  5
9C
330
88
100
AcDbEntity
  8
AM_9
100
AcDbLine
 10
2.886751345948132
 20
40.91158031233388
 30
0.0
 11
2.886751345948132
 21
39.08336905378275
 31
0.0
  0
LINE
  5
9D
330
88
100
AcDbEntity
  8
AM_9
100
AcDbLine
 10
3.166002008070938
 20
40.61845279244613
 30
0.0
 11
2.886751345948132
 21
40.91158031233388
 31
0.0
  0
LWPOLYLINE
  5
9E
330
88
100
AcDbEntity
  8
AM_9
100
AcDbPolyline
 90
        4
 70
     0
 43
0.0
 10
2.886751345948132
 20
40.91158031233388
 10
2.231359044783126
 20
40.96807946732849
 10
1.119014019014616
 20
41.0346995989436
 10
0.0000000000000027
 20
41.05813485483814
  0
LINE
  5
9F
330
88
100
AcDbEntity
  8
AM_9
100
AcDbLine
 10
-2.886751345948126
 20
40.91158031233388
 30
0.0
 11
-3.157263606473069
 21
40.62775300231874
 31
0.0
  0
LWPOLYLINE
  5
A0
330
88
100
AcDbEntity
  8
AM_9
100
AcDbPolyline
 90
        3
 70
     0
 43
0.0
 10
0.0000000000000027
 20
41.05813485483814
 10
-1.443375672974062
 20
41.01945197979678
 10
-2.886751345948126
 20
40.91158031233388
  0
LWPOLYLINE
  5
A1
330
88
100
AcDbEntity
  8
AM_9
100
AcDbPolyline
 90
        3
 70
     0
 43
0.0
 10
-5.773502691896255
 20
35.54783514785002
 10
-5.055059758252896
 20
36.32021452006089
 10
-4.330127018922192
 20
37.16904755831213
  0
LWPOLYLINE
  5
A2
330
88
100
AcDbEntity
  8
AM_9
100
AcDbPolyline
 90
        3
 70
     0
 43
0.0
 10
4.330127018922196
 20
37.16904755831213
 10
5.051814855409228
 20
36.32384695687031
 10
5.77350269189626
 20
35.54783514785002
  0
ELLIPSE
  5
A3
330
88
100
AcDbEntity
  8
AM_9
100
AcDbEllipse
 10
-0.0000000000021343
 20
35.40128060534572
 30
0.0
 11
4.949631665532828
 21
0.0
 31
0.0
210
0.0
220
0.0
230
1.0
 40
0.7071067811865482
 41
3.141592653589793
 42
3.172849304556558
  0
ELLIPSE
  5
A4
330
88
100
AcDbEntity
  8
AM_9
100
AcDbEllipse
 10
0.0000000000020366
 20
31.06603417594203
 30
0.0
 11
4.758029456513806
 21
0.0
 31
0.0
210
0.0
220
0.0
230
1.0
 40
0.7071067811864761
 41
3.141592653589793
 42
3.172849304552228
  0
LINE
  5
A5
330
88
100
AcDbEntity
  8
AM_9
100
AcDbLine
 10
4.755705400136183
 20
30.96089033127394
 30
0.0
 11
4.947208136210411
 21
35.2917696083168
 31
0.0
  0
LINE
  5
A6
330
88
100
AcDbEntity
  8
AM_9
100
AcDbLine
 10
-4.947208136210405
 20
35.2917696083168
 30
0.0
 11
-4.755705400136177
 21
30.96089033127394
 31
0.0
  0
ELLIPSE
  5
A7
330
88
100
AcDbEntity
  8
AM_9
100
AcDbEllipse
 10
0.0000000000000018
 20
35.40128060534576
 30
0.0
 11
4.949631665534971
 21
0.0
 31
0.0
210
0.0
220
0.0
230
1.0
 40
0.7071067811865478
 41
3.172849304556555
 42
9.42477796076938
  0
ELLIPSE
  5
A8
330
88
100
AcDbEntity
  8
AM_9
100
AcDbEllipse
 10
0.0000000000000018
 20
31.06603417595656
 30
0.0
 11
4.758029456511776
 21
0.0
 31
0.0
210
0.0
220
0.0
230
1.0
 40
0.7071067811865486
 41
3.172849304556552
 42
9.42477796076938
  0
ELLIPSE
  5
A9
330
88
100
AcDbEntity
  8
AM_9
100
AcDbEllipse
 10
-0.0000000000000452
 20
37.52260094890537
 30
0.0
 11
5.000000000000121
 21
0.0
 31
0.0
210
0.0
220
0.0
230
1.0
 40
0.7071067811865361
 41
0.8982051386272545
 42
1.570796326794897
  0
ELLIPSE
  5
AA
330
88
100
AcDbEntity
  8
AM_9
100
AcDbEllipse
 10
0.0000000000000506
 20
37.52260094890538
 30
0.0
 11
5.000000000000115
 21
0.0
 31
0.0
210
0.0
220
0.0
230
1.0
 40
0.7071067811865355
 41
1.570796326794897
 42
2.243387514962538
  0
LINE
  5
AB
330
88
100
AcDbEntity
  8
AM_9
100
AcDbLine
 10
-1.98992883273251
 20
40.30228997931535
 30
0.0
 11
-2.406586417453943
 21
40.03847050742846
 31
0.0
  0
LINE
  5
AC
330
88
100
AcDbEntity
  8
AM_9
100
AcDbLine
 10
2.406586417453949
 20
40.03847050742846
 30
0.0
 11
1.989928832732516
 21
40.30228997931535
 31
0.0
  0
ELLIPSE
  5
AD
330
88
100
AcDbEntity
  8
AM_9
100
AcDbEllipse
 10
0.0000000000000029
 20
38.73091441843677
 30
0.0
 11
2.982994982562498
 21
0.0
 31
0.0
210
0.0
220
0.0
230
1.0
 40
0.7071067811865522
 41
0.3869422381883867
 42
2.754650415401407
  0
ELLIPSE
  5
AE
330
88
100
AcDbEntity
  8
AM_9
100
AcDbEllipse
 10
0.0000000000000033
 20
38.138075368002
 30
0.0
 11
3.607583894601104
 21
0.0
 31
0.0
210
0.0
220
0.0
230
1.0
 40
0.7071067811865477
 41
0.8404993455406213
 42
2.338287027841791
  0
ELLIPSE
  5
AF
330
88
100
AcDbEntity
  8
AM_9
100
AcDbEllipse
 10
0.0000000000009845
 20
38.13807536800067
 30
0.0
 11
3.607583894602414
 21
5.375718913379930E-8
 31
0.0
210
0.0
220
0.0
230
1.0
 40
0.7071067811866868
 41
-3.944898294954286
 42
-3.804975985856843
  0
LINE
  5
B0
330
88
100
AcDbEntity
  8
AM_9
100
AcDbLine
 10
-2.477229919855578
 20
40.02182317127842
 30
0.0
 11
-2.748977116714933
 21
39.55026152041344
 31
0.0
  0
LINE
  5
B1
330
88
100
AcDbEntity
  8
AM_9
100
AcDbLine
 10
2.748977116714939
 20
39.55026152041344
 30
0.0
 11
2.477229919855584
 21
40.02182317127842
 31
0.0
  0
ELLIPSE
  5
B2
330
88
100
AcDbEntity
  8
AM_9
100
AcDbEllipse
 10
0.0000000000000027
 20
39.30804557140144
 30
0.0
 11
2.675000000000003
 21
0.0
 31
0.0
210
0.0
220
0.0
230
1.0
 40
0.7071067811865449
 41
0.0
 42
3.141592653589793
  0
ELLIPSE
  5
B3
330
88
100
AcDbEntity
  8
AM_9
100
AcDbEllipse
 10
0.0000000000179297
 20
38.13807536800525
 30
0.0
 11
3.607583894574909
 21
0.0
 31
0.0
210
0.0
220
0.0
230
1.0
 40
0.7071067811886155
 41
0.8033056257492337
 42
0.8404993455420192
  0
ELLIPSE
  5
B4
330
88
100
AcDbEntity
  8
AM_9
100
AcDbEllipse
 10
-0.0000000000010254
 20
38.13807536800063
 30
0.0
 11
3.60758389460248
 21
0.0
 31
0.0
210
0.0
220
0.0
230
1.0
 40
0.7071067811866878
 41
0.6633833151890762
 42
0.8033056257480736
  0
ELLIPSE
  5
B5
330
88
100
AcDbEntity
  8
AM_9
100
AcDbEllipse
 10
0.0000000000000036
 20
37.52260094890541
 30
0.0
 11
4.749999999999988
 21
0.0
 31
0.0
210
0.0
220
0.0
230
1.0
 40
0.7071067811865475
 41
0.8736482899485631
 42
2.26794436364123
  0
LINE
  5
B6
330
88
100
AcDbEntity
  8
AM_9
100
AcDbLine
 10
2.675000000000003
 20
39.42471819029721
 30
0.0
 11
2.675000000000003
 21
39.80302031823202
 31
0.0
  0
LINE
  5
B7
330
88
100
AcDbEntity
  8
AM_9
100
AcDbLine
 10
-2.674999999999997
 20
39.80302031823202
 30
0.0
 11
-2.674999999999997
 21
39.42471819029721
 31
0.0
  0
ELLIPSE
  5
B8
330
88
100
AcDbEntity
  8
AM_9
100
AcDbEllipse
 10
0.0000000000000033
 20
39.80302031823202
 30
0.0
 11
2.675000000000003
 21
0.0
 31
0.0
210
0.0
220
0.0
230
1.0
 40
0.7071067811865476
 41
5.888394187479829
 42
9.42477796076938
  0
ELLIPSE
  5
B9
330
88
100
AcDbEntity
  8
AM_9
100
AcDbEllipse
 10
0.0000000000000298
 20
39.80302031823212
 30
0.0
 11
2.675000000000027
 21
3.986060619354289E-8
 31
0.0
210
0.0
220
0.0
230
1.0
 40
0.7071067811865518
 41
3.141592638688632
 42
3.536383753774859
  0
ELLIPSE
  5
BA
330
88
100
AcDbEntity
  8
AM_9
100
AcDbEllipse
 10
0.0000000000000022
 20
40.72225913377453
 30
0.0
 11
3.175000000000002
 21
0.0
 31
0.0
210
0.0
220
0.0
230
1.0
 40
0.7071067811865465
 41
0.4159140521025479
 42
2.725678601487245
  0
ELLIPSE
  5
BB
330
88
100
AcDbEntity
  8
AM_9
100
AcDbEllipse
 10
0.0000000000000102
 20
35.40128060534575
 30
0.0
 11
4.99999999999999
 21
7.450580596923815E-8
 31
0.0
210
0.0
220
0.0
230
1.0
 40
0.7071067811865459
 41
0.0
 42
6.283185307179586
  0
LWPOLYLINE
  5
BD
330
88
100
AcDbEntity
  8
AM_4
100
AcDbPolyline
 90
        3
 70
     0
 43
0.0
 10
4.330127018922196
 20
39.29036790187177
 10
3.608439182435164
 20
40.13556850331359
 10
3.166002008070938
 20
40.61845279244613
  0
LWPOLYLINE
  5
BE
330
88
100
AcDbEntity
  8
AM_4
100
AcDbPolyline
 90
        3
 70
     0
 43
0.0
 10
-3.157263606473069
 20
40.62775300231874
 10
-3.605194279591486
 20
40.13920094012301
 10
-4.330127018922192
 20
39.29036790187177
  0
LWPOLYLINE
  5
BF
330
88
100
AcDbEntity
  8
AM_4
100
AcDbPolyline
 90
        3
 70
     0
 43
0.0
 10
-4.330127018922192
 20
39.29036790187177
 10
-5.051814855409224
 20
38.36780155034722
 10
-5.773502691896255
 20
37.37604640640114
  0
LWPOLYLINE
  5
C0
330
88
100
AcDbEntity
  8
AM_4
100
AcDbPolyline
 90
        3
 70
     0
 43
0.0
 10
5.77350269189626
 20
37.37604640640114
 10
5.055059758252901
 20
38.36348563092474
 10
4.330127018922196
 20
39.29036790187177
  0
LINE
  5
C1
330
88
100
AcDbEntity
  8
AM_4
100
AcDbLine
 10
5.77350269189626
 20
37.37604640640114
 30
0.0
 11
5.77350269189626
 21
35.54783514785002
 31
0.0
  0
LWPOLYLINE
  5
C2
330
88
100
AcDbEntity
  8
AM_4
100
AcDbPolyline
 90
        3
 70
     0
 43
0.0
 10
4.330127018922195
 20
35.75483399593903
 10
5.051814855409228
 20
36.60003459738085
 10
5.77350269189626
 20
37.37604640640114
  0
LWPOLYLINE
  5
C3
330
88
100
AcDbEntity
  8
AM_4
100
AcDbPolyline
 90
        3
 70
     0
 43
0.0
 10
4.330127018922196
 20
33.63351365237939
 10
3.608439182435164
 20
32.78831305093757
 10
2.886751345948132
 20
32.01230124191728
  0
LWPOLYLINE
  5
C4
330
88
100
AcDbEntity
  8
AM_4
100
AcDbPolyline
 90
        3
 70
     0
 43
0.0
 10
5.77350269189626
 20
35.54783514785002
 10
5.055059758252901
 20
34.56039592332642
 10
4.330127018922196
 20
33.63351365237939
  0
LINE
  5
C5
330
88
100
AcDbEntity
  8
AM_4
100
AcDbLine
 10
2.886751345948132
 20
33.84051250046841
 30
0.0
 11
2.886751345948132
 21
32.01230124191728
 31
0.0
  0
LWPOLYLINE
  5
C6
330
88
100
AcDbEntity
  8
AM_4
100
AcDbPolyline
 90
        3
 70
     0
 43
0.0
 10
0.000000000000003
 20
31.86574669941302
 10
-1.443375672974061
 20
31.90442957445438
 10
-2.886751345948126
 20
32.01230124191728
  0
LWPOLYLINE
  5
C7
330
88
100
AcDbEntity
  8
AM_4
100
AcDbPolyline
 90
        4
 70
     0
 43
0.0
 10
2.886751345948132
 20
32.01230124191728
 10
2.231359044783129
 20
31.95580208692268
 10
1.119014019014617
 20
31.88918195530756
 10
0.000000000000003
 20
31.86574669941302
  0
LWPOLYLINE
  5
C8
330
88
100
AcDbEntity
  8
AM_4
100
AcDbPolyline
 90
        3
 70
     0
 43
0.0
 10
-2.886751345948126
 20
33.84051250046841
 10
-1.449865478661407
 20
33.94804242662477
 10
0.0000000000000031
 20
33.98706704297266
  0
LINE
  5
C9
330
88
100
AcDbEntity
  8
AM_4
100
AcDbLine
 10
-2.886751345948126
 20
33.84051250046841
 30
0.0
 11
-2.886751345948126
 21
32.01230124191728
 31
0.0
  0
LWPOLYLINE
  5
CA
330
88
100
AcDbEntity
  8
AM_4
100
AcDbPolyline
 90
        3
 70
     0
 43
0.0
 10
-4.33012701892219
 20
35.75483399593903
 10
-3.608439182435158
 20
34.83226764441449
 10
-2.886751345948126
 20
33.84051250046841
  0
LWPOLYLINE
  5
CB
330
88
100
AcDbEntity
  8
AM_4
100
AcDbPolyline
 90
        3
 70
     0
 43
0.0
 10
-5.773502691896255
 20
37.37604640640114
 10
-5.055059758252895
 20
36.60366703419027
 10
-4.33012701892219
 20
35.75483399593903
  0
LINE
  5
CC
330
88
100
AcDbEntity
  8
AM_4
100
AcDbLine
 10
-5.773502691896255
 20
37.37604640640114
 30
0.0
 11
-5.773502691896255
 21
35.54783514785002
 31
0.0
  0
LWPOLYLINE
  5
CD
330
88
100
AcDbEntity
  8
AM_4
100
AcDbPolyline
 90
        3
 70
     0
 43
0.0
 10
-4.330127018922192
 20
33.63351365237939
 10
-5.051814855409223
 20
34.55608000390394
 10
-5.773502691896255
 20
35.54783514785002
  0
LWPOLYLINE
  5
CE
330
88
100
AcDbEntity
  8
AM_4
100
AcDbPolyline
 90
        3
 70
     0
 43
0.0
 10
-2.886751345948126
 20
32.01230124191728
 10
-3.605194279591486
 20
32.78468061412815
 10
-4.330127018922192
 20
33.63351365237939
  0
ELLIPSE
  5
CF
330
88
100
AcDbEntity
  8
AM_4
100
AcDbEllipse
 10
0.0000000000000711
 20
37.52260094890544
 30
0.0
 11
4.999999999999913
 21
0.0
 31
0.0
210
0.0
220
0.0
230
1.0
 40
0.707106781186547
 41
5.759586531581268
 42
7.181390445806841
  0
ELLIPSE
  5
D0
330
88
100
AcDbEntity
  8
AM_4
100
AcDbEllipse
 10
-0.0000000000000524
 20
37.52260094890543
 30
0.0
 11
4.999999999999929
 21
0.0
 31
0.0
210
0.0
220
0.0
230
1.0
 40
0.7071067811865477
 41
2.24338751496254
 42
3.665191429188106
  0
ELLIPSE
  5
D1
330
88
100
AcDbEntity
  8
AM_4
100
AcDbEllipse
 10
0.0000000000000235
 20
37.52260094890541
 30
0.0
 11
5.000000000000023
 21
0.0
 31
0.0
210
0.0
220
0.0
230
1.0
 40
0.7071067811865471
 41
3.665191429188095
 42
5.759586531581283
  0
LWPOLYLINE
  5
D2
330
88
100
AcDbEntity
  8
AM_4
100
AcDbPolyline
 90
        4
 70
     0
 43
0.0
 10
0.0000000000000031
 20
33.98706704297266
 10
1.115679522391565
 20
33.96376957265129
 10
2.231359044783127
 20
33.89701165546301
 10
2.886751345948132
 20
33.84051250046841
  0
LWPOLYLINE
  5
D3
330
88
100
AcDbEntity
  8
AM_4
100
AcDbPolyline
 90
        3
 70
     0
 43
0.0
 10
2.886751345948132
 20
33.84051250046841
 10
3.60519427959149
 20
34.827951724992
 10
4.330127018922195
 20
35.75483399593903
  0
ELLIPSE
  5
D4
330
88
100
AcDbEntity
  8
AM_4
100
AcDbEllipse
 10
0.0000000000000218
 20
38.13807536800201
 30
0.0
 11
3.607583894601136
 21
0.0
 31
0.0
210
0.0
220
0.0
230
1.0
 40
0.7071067811865434
 41
2.478209338400874
 42
3.141592653589793
  0
ELLIPSE
  5
D5
330
88
100
AcDbEntity
  8
AM_4
100
AcDbEllipse
 10
0.0000000000000011
 20
38.73091441843676
 30
0.0
 11
2.982994982562511
 21
0.0
 31
0.0
210
0.0
220
0.0
230
1.0
 40
0.7071067811865468
 41
2.754650415401402
 42
6.670127545367977
  0
LINE
  5
D6
330
88
100
AcDbEntity
  8
AM_4
100
AcDbLine
 10
-2.748977116714933
 20
39.55026152041344
 30
0.0
 11
-2.762453989376793
 21
39.52687516576334
 31
0.0
  0
LINE
  5
D7
330
88
100
AcDbEntity
  8
AM_4
100
AcDbLine
 10
2.762453989376799
 20
39.52687516576334
 30
0.0
 11
2.748977116714939
 21
39.55026152041344
 31
0.0
  0
ELLIPSE
  5
D8
330
88
100
AcDbEntity
  8
AM_4
100
AcDbEllipse
 10
0.0000000000000013
 20
38.13807536800199
 30
0.0
 11
3.607583894601107
 21
0.0
 31
0.0
210
0.0
220
0.0
230
1.0
 40
0.7071067811865471
 41
3.141592653589793
 42
6.946568622368511
  0
ELLIPSE
  5
D9
330
88
100
AcDbEntity
  8
AM_4
100
AcDbEllipse
 10
0.0000000000000755
 20
37.52260094890538
 30
0.0
 11
4.750000000000078
 21
0.0
 31
0.0
210
0.0
220
0.0
230
1.0
 40
0.7071067811865476
 41
2.267944363641236
 42
3.141592653589793
  0
ELLIPSE
  5
DA
330
88
100
AcDbEntity
  8
AM_4
100
AcDbEllipse
 10
0.0000000000000089
 20
37.5226009489054
 30
0.0
 11
4.75
 21
0.0
 31
0.0
210
0.0
220
0.0
230
1.0
 40
0.7071067811865472
 41
3.141592653589793
 42
7.156833597128154
  0
ELLIPSE
  5
DB
330
88
100
AcDbEntity
  8
AM_4
100
AcDbEllipse
 10
0.0000000000000033
 20
39.30804557140144
 30
0.0
 11
2.674999999999998
 21
0.0
 31
0.0
210
0.0
220
0.0
230
1.0
 40
0.7071067811865489
 41
3.141592653589793
 42
6.283185307179586
  0
LINE
  5
DC
330
88
100
AcDbEntity
  8
AM_4
100
AcDbLine
 10
2.675000000000003
 20
39.30804557140144
 30
0.0
 11
2.675000000000003
 21
39.42471819029721
 31
0.0
  0
LINE
  5
DD
330
88
100
AcDbEntity
  8
AM_4
100
AcDbLine
 10
-2.674999999999997
 20
39.42471819029721
 30
0.0
 11
-2.674999999999997
 21
39.30804557140144
 31
0.0
  0
LINE
  5
DE
330
88
100
AcDbEntity
  8
AM_4
100
AcDbLine
 10
2.469230769230772
 20
39.07551622604971
 30
0.0
 11
2.930769230769234
 21
39.85877296828711
 31
0.0
  0
LINE
  5
DF
330
88
100
AcDbEntity
  8
AM_4
100
AcDbLine
 10
-2.930769230769227
 20
39.85877296828711
 30
0.0
 11
-2.469230769230766
 21
39.07551622604971
 31
0.0
  0
ELLIPSE
  5
E0
330
88
100
AcDbEntity
  8
AM_4
100
AcDbEllipse
 10
0.0000000000000027
 20
40.72225913377454
 30
0.0
 11
3.175000000000002
 21
0.0
 31
0.0
210
0.0
220
0.0
230
1.0
 40
0.7071067811865487
 41
3.141592653589793
 42
6.699099359282126
  0
ELLIPSE
  5
E1
330
88
100
AcDbEntity
  8
AM_4
100
AcDbEllipse
 10
0.0000000000000031
 20
39.80302031823204
 30
0.0
 11
2.675000000000009
 21
0.0
 31
0.0
210
0.0
220
0.0
230
1.0
 40
0.7071067811865488
 41
3.536383773289561
 42
5.888394187479818
  0
ELLIPSE
  5
E2
330
88
100
AcDbEntity
  8
AM_4
100
AcDbEllipse
 10
0.0000000000000009
 20
42.13647269614762
 30
0.0
 11
2.366947548329685
 21
0.0
 31
0.0
210
0.0
220
0.0
230
1.0
 40
0.7071067811865501
 41
3.141592653589793
 42
6.699099359282132
  0
LINE
  5
E3
330
88
100
AcDbEntity
  8
AM_4
100
AcDbLine
 10
-2.165159119691904
 20
42.81268519342894
 30
0.0
 11
-2.904323000259524
 21
41.62932388068169
 31
0.0
  0
LINE
  5
E4
330
88
100
AcDbEntity
  8
AM_4
100
AcDbLine
 10
2.90432300025953
 20
41.62932388068169
 30
0.0
 11
2.165159119691911
 21
42.81268519342894
 31
0.0
  0
ELLIPSE
  5
E5
330
88
100
AcDbEntity
  8
AM_4
100
AcDbEllipse
 10
0.0000000000000033
 20
42.13647269614763
 30
0.0
 11
2.366947548329679
 21
0.0
 31
0.0
210
0.0
220
0.0
230
1.0
 40
0.707106781186552
 41
0.4159140521025417
 42
2.725678601487251
  0
ELLIPSE
  5
E6
330
88
100
AcDbEntity
  8
AM_4
100
AcDbEllipse
 10
-0.0000000000000049
 20
42.1364726961477
 30
0.0
 11
2.36694754832968
 21
0.0
 31
0.0
210
0.0
220
0.0
230
1.0
 40
0.7071067811865429
 41
2.725678601487284
 42
3.141592653589793
  0
ELLIPSE
  5
E7
330
88
100
AcDbEntity
  8
AM_4
100
AcDbEllipse
 10
0.0000000000000662
 20
40.72225913377452
 30
0.0
 11
3.175000000000063
 21
0.0
 31
0.0
210
0.0
220
0.0
230
1.0
 40
0.7071067811865486
 41
2.725678601487251
 42
3.141592653589793
  0
ENDBLK
  5
8B
330
88
100
AcDbEntity
  8
0
100
AcDbBlockEnd
  0
BLOCK
  5
EA
330
E8
100
AcDbEntity
  8
0
100
AcDbBlockBegin
  2
3_125812_0_in_130359_2
 70
     2
 10
0.0
 20
0.0
 30
0.0
  3
3_125812_0_in_130359_2
  1

  0
ATTDEF
  5
EC
330
E8
100
AcDbEntity
  8
AM_6
100
AcDbText
 10
24.09999999999999
 20
42.49121541230437
 30
0.0
 40
0.5
  1
Set Screw Insert Metric Bore - Stainless Steel
100
AcDbAttributeDefinition
  3

  2
NN
 70
     8
280
     0
  0
ATTDEF
  5
ED
330
E8
100
AcDbEntity
  8
AM_6
100
AcDbText
 10
24.09999999999999
 20
41.99121541230437
 30
0.0
 40
0.5
  1
SC Bearing Insert -Metric
100
AcDbAttributeDefinition
  3

  2
NT
 70
     8
280
     0
  0
ATTDEF
  5
EE
330
E8
100
AcDbEntity
  8
AM_6
100
AcDbText
 10
24.09999999999999
 20
41.49121541230437
 30
0.0
 40
0.5
  1
125812
100
AcDbAttributeDefinition
  3

  2
NB
 70
     8
280
     0
  0
ATTDEF
  5
EF
330
E8
100
AcDbEntity
  8
AM_6
100
AcDbText
 10
24.09999999999999
 20
40.99121541230437
 30
0.0
 40
0.5
  1
$PN.
100
AcDbAttributeDefinition
  3

  2
NBSYN
 70
     8
280
     0
  0
ATTDEF
  5
F0
330
E8
100
AcDbEntity
  8
AM_6
100
AcDbText
 10
24.09999999999999
 20
40.49121541230437
 30
0.0
 40
0.5
  1
125812
100
AcDbAttributeDefinition
  3

  2
LINA
 70
     8
280
     0
  0
ATTDEF
  5
F1
330
E8
100
AcDbEntity
  8
AM_6
100
AcDbText
 10
24.09999999999999
 20
39.99121541230437
 30
0.0
 40
0.5
  1
209
100
AcDbAttributeDefinition
  3

  2
SERIES
 70
     8
280
     0
  0
ATTDEF
  5
F2
330
E8
100
AcDbEntity
  8
AM_6
100
AcDbText
 10
24.09999999999999
 20
39.49121541230437
 30
0.0
 40
0.5
  1
45
100
AcDbAttributeDefinition
  3

  2
SS
 70
     8
280
     0
  0
ATTDEF
  5
F3
330
E8
100
AcDbEntity
  8
AM_6
100
AcDbText
 10
24.09999999999999
 20
38.99121541230437
 30
0.0
 40
0.5
  1
125812
100
AcDbAttributeDefinition
  3

  2
PN
 70
     8
280
     0
  0
ATTDEF
  5
F4
330
E8
100
AcDbEntity
  8
AM_6
100
AcDbText
 10
24.09999999999999
 20
38.49121541230437
 30
0.0
 40
0.5
  1
INS-SC-45
100
AcDbAttributeDefinition
  3

  2
DESCRIPTION
 70
     8
280
     0
  0
ATTDEF
  5
F5
330
E8
100
AcDbEntity
  8
AM_6
100
AcDbText
 10
24.09999999999999
 20
37.99121541230437
 30
0.0
 40
0.5
  1
0.62
100
AcDbAttributeDefinition
  3

  2
WEIGHT
 70
     8
280
     0
  0
ATTDEF
  5
F6
330
E8
100
AcDbEntity
  8
AM_6
100
AcDbText
 10
24.09999999999999
 20
37.49121541230437
 30
0.0
 40
0.5
  1
49.3
100
AcDbAttributeDefinition
  3

  2
A
 70
     8
280
     0
  0
ATTDEF
  5
F7
330
E8
100
AcDbEntity
  8
AM_6
100
AcDbText
 10
24.09999999999999
 20
36.99121541230437
 30
0.0
 40
0.5
  1
22.1
100
AcDbAttributeDefinition
  3

  2
C
 70
     8
280
     0
  0
ATTDEF
  5
F8
330
E8
100
AcDbEntity
  8
AM_6
100
AcDbText
 10
24.09999999999999
 20
36.49121541230437
 30
0.0
 40
0.5
  1
85
100
AcDbAttributeDefinition
  3

  2
D
 70
     8
280
     0
  0
ATTDEF
  5
F9
330
E8
100
AcDbEntity
  8
AM_6
100
AcDbText
 10
24.09999999999999
 20
35.99121541230437
 30
0.0
 40
0.5
  1
6.4
100
AcDbAttributeDefinition
  3

  2
J
 70
     8
280
     0
  0
ATTDEF
  5
FA
330
E8
100
AcDbEntity
  8
AM_6
100
AcDbText
 10
24.09999999999999
 20
35.49121541230437
 30
0.0
 40
0.5
  1
56.4
100
AcDbAttributeDefinition
  3

  2
L
 70
     8
280
     0
  0
ATTDEF
  5
FB
330
E8
100
AcDbEntity
  8
AM_6
100
AcDbText
 10
24.09999999999999
 20
34.99121541230437
 30
0.0
 40
0.5
  1
M8 x 1.25
100
AcDbAttributeDefinition
  3

  2
N
 70
     8
280
     0
  0
ATTDEF
  5
FC
330
E8
100
AcDbEntity
  8
AM_6
100
AcDbText
 10
24.09999999999999
 20
34.49121541230437
 30
0.0
 40
0.5
  1
19.1
100
AcDbAttributeDefinition
  3

  2
W
 70
     8
280
     0
  0
ATTDEF
  5
FD
330
E8
100
AcDbEntity
  8
AM_6
100
AcDbText
 10
24.09999999999999
 20
33.99121541230437
 30
0.0
 40
0.5
  1
30.2
100
AcDbAttributeDefinition
  3

  2
Y
 70
     8
280
     0
  0
ATTDEF
  5
FE
330
E8
100
AcDbEntity
  8
AM_6
100
AcDbText
 10
24.09999999999999
 20
33.49121541230437
 30
0.0
 40
0.5
  1
baldor
100
AcDbAttributeDefinition
  3

  2
COMPANY
 70
     8
280
     0
  0
ARC
  5
FF
330
E8
100
AcDbEntity
  8
AM_9
100
AcDbCircle
 10
6.400000000000286
 20
-0.0000000000000286
 30
0.0
 40
2.209999999999715
100
AcDbArc
 50
350.9708898897049
 51
0.0
  0
ARC
  5
100
330
E8
100
AcDbEntity
  8
AM_9
100
AcDbCircle
 10
6.400000000000003
 20
-0.000000000000014
 30
0.0
 40
2.209999999999992
100
AcDbArc
 50
304.0765406170743
 51
319.3185009722494
  0
ARC
  5
101
330
E8
100
AcDbEntity
  8
AM_9
100
AcDbCircle
 10
6.399999999999991
 20
-0.0000000000009965
 30
0.0
 40
2.210000000000998
100
AcDbArc
 50
90.0
 51
91.71142650277649
  0
CIRCLE
  5
102
330
E8
100
AcDbEntity
  8
AM_9
100
AcDbCircle
 10
6.399999999999998
 20
-0.0000000000000027
 30
0.0
 40
0.2009090909090882
  0
LINE
  5
103
330
E8
100
AcDbEntity
  8
AM_9
100
AcDbLine
 10
-17.3015
 20
22.5
 30
0.0
 11
-17.3015
 21
27.91487058898896
 31
0.0
  0
LINE
  5
104
330
E8
100
AcDbEntity
  8
AM_9
100
AcDbLine
 10
-23.9485
 20
27.91487058898896
 30
0.0
 11
-23.9485
 21
22.49837472131965
 31
0.0
  0
LINE
  5
105
330
E8
100
AcDbEntity
  8
AM_9
100
AcDbLine
 10
-17.3015
 20
27.91487058898896
 30
0.0
 11
-17.01637058898896
 21
28.2
 31
0.0
  0
LINE
  5
106
330
E8
100
AcDbEntity
  8
AM_9
100
AcDbLine
 10
-24.23362941101105
 20
28.2
 30
0.0
 11
-23.9485
 21
27.91487058898896
 31
0.0
  0
LINE
  5
107
330
E8
100
AcDbEntity
  8
AM_9
100
AcDbLine
 10
-23.9485
 20
27.91487058898896
 30
0.0
 11
-17.3015
 21
27.91487058898896
 31
0.0
  0
LINE
  5
108
330
E8
100
AcDbEntity
  8
AM_9
100
AcDbLine
 10
-29.072
 20
-22.5
 30
0.0
 11
17.972
 21
-22.5
 31
0.0
  0
LINE
  5
109
330
E8
100
AcDbEntity
  8
AM_9
100
AcDbLine
 10
17.972
 20
22.5
 30
0.0
 11
-17.30318074824481
 21
22.5
 31
0.0
  0
LINE
  5
10A
330
E8
100
AcDbEntity
  8
AM_9
100
AcDbLine
 10
-23.93746508142473
 20
22.5
 30
0.0
 11
-29.072
 21
22.5
 31
0.0
  0
LWPOLYLINE
  5
10B
330
E8
100
AcDbEntity
  8
AM_9
100
AcDbPolyline
 90
       21
 70
     0
 43
0.0
 10
-23.94849999999439
 20
22.49999999999917
 10
-23.92812318952443
 20
22.49699914555659
 10
-23.82331478419681
 20
22.48184968388526
 10
-23.62553915623038
 20
22.45456708507362
 10
-23.35021644036746
 20
22.4194369330911
 10
-22.99021684492602
 20
22.37852985505352
 10
-22.57095184794132
 20
22.33810816395395
 10
-22.08329207572872
 20
22.30091844584284
 10
-21.56767086090375
 20
22.27314472861874
 10
-21.00917175535972
 20
22.25650322237561
 10
-20.46070982161424
 20
22.2537938116788
 10
-19.9010748547087
 20
22.26495936142676
 10
-19.37992239256597
 20
22.28799152006599
 10
-18.87943154753774
 20
22.32154468159028
 10
-18.43768560114932
 20
22.36042691965919
 10
-18.04575513114144
 20
22.40216176719411
 10
-17.73376420775491
 20
22.44022264052563
 10
-17.49624821385143
 20
22.47205899532412
 10
-17.35384391773786
 20
22.49232780004152
 10
-17.30156743794991
 20
22.49999003876435
 10
-17.30150000000115
 20
22.49999999999983
  0
LINE
  5
10C
330
E8
100
AcDbEntity
  8
AM_9
100
AcDbLine
 10
-20.52144742990565
 20
22.25342829509137
 30
0.0
 11
-20.625
 21
22.25318736158935
 31
0.0
  0
LINE
  5
10D
330
E8
100
AcDbEntity
  8
AM_9
100
AcDbLine
 10
-17.30150000000115
 20
22.49999999999983
 30
0.0
 11
-17.55073684269517
 21
22.46453742480271
 31
0.0
  0
LINE
  5
10E
330
E8
100
AcDbEntity
  8
AM_9
100
AcDbLine
 10
17.972
 20
-22.5
 30
0.0
 11
19.09999999999999
 21
-23.62799999999997
 31
0.0
  0
LINE
  5
10F
330
E8
100
AcDbEntity
  8
AM_9
100
AcDbLine
 10
19.09999999999999
 20
23.62799999999997
 30
0.0
 11
17.972
 21
22.5
 31
0.0
  0
LINE
  5
110
330
E8
100
AcDbEntity
  8
AM_9
100
AcDbLine
 10
-29.072
 20
22.5
 30
0.0
 11
-30.2
 21
23.62799999999997
 31
0.0
  0
LINE
  5
111
330
E8
100
AcDbEntity
  8
AM_9
100
AcDbLine
 10
-30.2
 20
-23.62799999999997
 30
0.0
 11
-29.072
 21
-22.5
 31
0.0
  0
LWPOLYLINE
  5
112
330
E8
100
AcDbEntity
  8
AM_9
100
AcDbPolyline
 90
        5
 70
     0
 43
0.0
 10
-23.68411367148866
 20
10.67036961032109
 10
-23.68920737699809
 20
10.65973179935203
 10
-23.86415173122116
 20
10.17801130151101
 10
-23.9425278096201
 20
9.689031325267472
 10
-23.9484999880947
 20
9.509165840575562
  0
LINE
  5
113
330
E8
100
AcDbEntity
  8
AM_9
100
AcDbLine
 10
-17.3015
 20
9.508807175532795
 30
0.0
 11
-17.3015
 21
11.79733408503509
 31
0.0
  0
LINE
  5
114
330
E8
100
AcDbEntity
  8
AM_9
100
AcDbLine
 10
-23.9485
 20
11.79733408503509
 30
0.0
 11
-23.9485
 21
9.508224016715001
 31
0.0
  0
ELLIPSE
  5
115
330
E8
100
AcDbEntity
  8
AM_9
100
AcDbEllipse
 10
-20.62500000000005
 20
11.79733408503509
 30
0.0
 11
3.323500000000049
 21
0.0
 31
0.0
210
0.0
220
0.0
230
1.0
 40
0.9063077870366485
 41
5.695495206513224
 42
6.658526791810444
  0
LWPOLYLINE
  5
116
330
E8
100
AcDbEntity
  8
AM_9
100
AcDbPolyline
 90
       21
 70
     0
 43
0.0
 10
-23.9484999880947
 20
9.509165840575562
 10
-23.92812318952443
 20
9.17460761588605
 10
-23.82331478419681
 20
8.682329689834738
 10
-23.62553915623038
 20
8.19447704615893
 10
-23.35021644036746
 20
7.750769790367913
 10
-22.99021684492602
 20
7.341506522622003
 10
-22.57095184794132
 20
6.998682679463364
 10
-22.08329207572872
 20
6.718109302422658
 10
-21.56767086090375
 20
6.52462698558267
 10
-21.00917175535972
 20
6.414081825752643
 10
-20.46070982161425
 20
6.396428193987227
 10
-19.9010748547087
 20
6.469788560577937
 10
-19.37992239256597
 20
6.626555412568636
 10
-18.87943154753775
 20
6.87028429977656
 10
-18.43768560114933
 20
7.182106514896439
 10
-18.04575513114145
 20
7.567956211442925
 10
-17.73376420775491
 20
7.998185411956228
 10
-17.49624821385143
 20
8.481162401644916
 10
-17.35384391773786
 20
8.9731865163693
 10
-17.30156743794991
 20
9.489718289779487
 10
-17.30150000244303
 20
9.50879539682874
  0
LWPOLYLINE
  5
117
330
E8
100
AcDbEntity
  8
AM_9
100
AcDbPolyline
 90
        3
 70
     0
 43
0.0
 10
-17.56087019582059
 20
10.65989470569283
 10
-17.69671740643875
 20
10.91028679931842
 10
-17.75095300294667
 20
10.9953274701055
  0
LWPOLYLINE
  5
118
330
E8
100
AcDbEntity
  8
AM_9
100
AcDbPolyline
 90
        4
 70
     0
 43
0.0
 10
-17.30150000244303
 20
9.50879539682874
 10
-17.34315763850147
 20
9.981738954943928
 10
-17.47876113812567
 20
10.46870202280541
 10
-17.56087019582059
 20
10.65989470569283
  0
LINE
  5
119
330
E8
100
AcDbEntity
  8
AM_9
100
AcDbLine
 10
17.97199999999999
 20
-28.20000000000001
 30
0.0
 11
19.09999999999999
 21
-27.07200000000001
 31
0.0
  0
LINE
  5
11A
330
E8
100
AcDbEntity
  8
AM_9
100
AcDbLine
 10
19.09999999999999
 20
-0.4251968503937164
 30
0.0
 11
19.09999999999999
 21
-27.07200000000001
 31
0.0
  0
LINE
  5
11B
330
E8
100
AcDbEntity
  8
AM_9
100
AcDbLine
 10
11.05
 20
-28.20000000000001
 30
0.0
 11
17.97199999999999
 21
-28.20000000000001
 31
0.0
  0
LINE
  5
11C
330
E8
100
AcDbEntity
  8
AM_9
100
AcDbLine
 10
15.73388888888888
 20
28.20000000000001
 30
0.0
 11
11.05
 21
28.20000000000001
 31
0.0
  0
LINE
  5
11D
330
E8
100
AcDbEntity
  8
AM_9
100
AcDbLine
 10
17.97199999999999
 20
9.16724409448818
 30
0.0
 11
17.97199999999999
 21
-28.20000000000001
 31
0.0
  0
LWPOLYLINE
  5
11E
330
E8
100
AcDbEntity
  8
AM_9
100
AcDbPolyline
 90
        4
 70
     0
 43
0.0
 10
-17.47432721866563
 20
13.39912288305577
 10
-17.22191624695042
 20
12.93168406140537
 10
-17.06650316836522
 20
12.42698475681518
 10
-17.02043264092341
 20
11.77156957424858
  0
LWPOLYLINE
  5
11F
330
E8
100
AcDbEntity
  8
AM_9
100
AcDbPolyline
 90
        6
 70
     0
 43
0.0
 10
-17.02043264092341
 20
11.77156957424858
 10
-17.09279507745524
 20
11.28521372267172
 10
-17.25185760593594
 20
10.81251647346486
 10
-17.49467095486156
 20
10.36429907937317
 10
-17.81119775398682
 20
9.954741772120004
 10
-17.88257455039377
 20
9.878472724137293
  0
LINE
  5
120
330
E8
100
AcDbEntity
  8
AM_9
100
AcDbLine
 10
-22.36611111111111
 20
-28.2
 30
0.0
 11
-11.05
 21
-28.2
 31
0.0
  0
LINE
  5
121
330
E8
100
AcDbEntity
  8
AM_9
100
AcDbLine
 10
-11.05
 20
28.2
 30
0.0
 11
-15.73388888888889
 21
28.2
 31
0.0
  0
LINE
  5
122
330
E8
100
AcDbEntity
  8
AM_9
100
AcDbLine
 10
-7.233333333333334
 20
-40.29000000000001
 30
0.0
 11
-4.286666666666664
 21
-40.29000000000001
 31
0.0
  0
LINE
  5
123
330
E8
100
AcDbEntity
  8
AM_9
100
AcDbLine
 10
-4.286666666666664
 20
40.29000000000001
 30
0.0
 11
-7.233333333333334
 21
40.29000000000001
 31
0.0
  0
LINE
  5
124
330
E8
100
AcDbEntity
  8
AM_9
100
AcDbLine
 10
11.05
 20
39.69396883195166
 30
0.0
 11
11.05
 21
-39.69396883195166
 31
0.0
  0
ARC
  5
125
330
E8
100
AcDbEntity
  8
AM_9
100
AcDbCircle
 10
10.16600000000001
 20
-39.69396883195168
 30
0.0
 40
0.8839999999999867
100
AcDbArc
 50
291.4124811754265
 51
0.0
  0
ARC
  5
126
330
E8
100
AcDbEntity
  8
AM_9
100
AcDbCircle
 10
10.16600000000001
 20
39.69396883195168
 30
0.0
 40
0.8839999999999932
100
AcDbArc
 50
0.0
 51
68.58751882457351
  0
LINE
  5
127
330
E8
100
AcDbEntity
  8
AM_9
100
AcDbLine
 10
-11.05
 20
39.69396884512427
 30
0.0
 11
-11.05
 21
-39.69396884512427
 31
0.0
  0
ARC
  5
128
330
E8
100
AcDbEntity
  8
AM_9
100
AcDbCircle
 10
-10.16599999999998
 20
-39.69396883195164
 30
0.0
 40
0.8840000000000199
100
AcDbArc
 50
180.0
 51
248.587532953115
  0
ARC
  5
129
330
E8
100
AcDbEntity
  8
AM_9
100
AcDbCircle
 10
-10.16599999999998
 20
39.69396883195164
 30
0.0
 40
0.8840000000000182
100
AcDbArc
 50
111.412467046885
 51
180.0
  0
ARC
  5
12A
330
E8
100
AcDbEntity
  8
AM_9
100
AcDbCircle
 10
-0.0000000000014015
 20
-13.77000000000459
 30
0.0
 40
28.72999999999522
100
AcDbArc
 50
248.5875329531152
 51
255.4177622541457
  0
ARC
  5
12B
330
E8
100
AcDbEntity
  8
AM_9
100
AcDbCircle
 10
-0.0000000000016112
 20
13.77000000000517
 30
0.0
 40
28.7299999999946
100
AcDbArc
 50
104.5822377458542
 51
111.4124670468848
  0
LINE
  5
12C
330
E8
100
AcDbEntity
  8
AM_9
100
AcDbLine
 10
-10.48873015873016
 20
40.51695196947392
 30
0.0
 11
-10.48873015873016
 21
-40.51695196947392
 31
0.0
  0
LINE
  5
12D
330
E8
100
AcDbEntity
  8
AM_9
100
AcDbLine
 10
-7.233333333333334
 20
41.57452820834926
 30
0.0
 11
-7.233333333333334
 21
-41.57452820834926
 31
0.0
  0
LWPOLYLINE
  5
12E
330
E8
100
AcDbEntity
  8
AM_9
100
AcDbPolyline
 90
       38
 70
     0
 43
0.0
 10
7.930830563328321
 20
-1.593944097634143
 10
8.172873761128832
 20
-1.319119981607404
 10
8.36732826609003
 20
-1.006836378684841
 10
8.507474233755984
 20
-0.6645243153088878
 10
8.58918185989995
 20
-0.3026264765102396
 10
8.608920315138024
 20
0.0612298499321718
 10
8.569076603692706
 20
0.4233281083426
 10
8.471482624507754
 20
0.7695021471836033
 10
8.319995095148139
 20
1.094403414928466
 10
8.115831873897914
 20
1.392535432994546
 10
7.867306277540616
 20
1.652607723535716
 10
7.572534762681483
 20
1.873071593937557
 10
7.246604761986834
 20
2.041411368877232
 10
6.887985165451603
 20
2.155238189064573
 10
6.515622754074343
 20
2.206973352521563
 10
6.134013623180707
 20
2.193707332425496
 10
5.759561120693502
 20
2.115168561101607
 10
5.404409750360485
 20
1.972773669604277
 10
5.077745010286844
 20
1.770802570073432
 10
4.794718881446575
 20
1.518581175857309
 10
4.557782479525637
 20
1.220792614352375
 10
4.378701107586162
 20
0.8929667809055335
 10
4.256711534254496
 20
0.5389012456863536
 10
4.197198280667638
 20
0.1753478869024712
 10
4.198463703371193
 20
-0.1932302632248381
 10
4.260554763947708
 20
-0.5530837706755773
 10
4.380410796610022
 20
-0.8974182132933698
 10
4.555609810212877
 20
-1.217123438277609
 10
4.779865418543907
 20
-1.503084807311325
 10
5.050838672199442
 20
-1.7501290600113
 10
5.357473498297315
 20
-1.948650428693559
 10
5.698366759350329
 20
-2.095448122946063
 10
6.057787114093128
 20
-2.183343843905333
 10
6.433747271390214
 20
-2.209531724450811
 10
6.808383083511337
 20
-2.171939975483161
 10
7.175959680144828
 20
-2.069058076793789
 10
7.521211329842591
 20
-1.904464532049003
 10
7.930830563328004
 20
-1.593944097633566
  0
ARC
  5
12F
330
E8
100
AcDbEntity
  8
AM_9
100
AcDbCircle
 10
-0.0000000000000339
 20
-13.7700000000001
 30
0.0
 40
28.72999999999992
100
AcDbArc
 50
261.4191278814027
 51
291.4124674816085
  0
ARC
  5
130
330
E8
100
AcDbEntity
  8
AM_9
100
AcDbCircle
 10
-0.0000000000000515
 20
13.76999999999994
 30
0.0
 40
28.73000000000008
100
AcDbArc
 50
68.58753251839153
 51
98.58087211859721
  0
LINE
  5
131
330
E8
100
AcDbEntity
  8
AM_9
100
AcDbLine
 10
-4.286666666666666
 20
33.59308225059247
 30
0.0
 11
-4.286666666666668
 21
-42.17840349067315
 31
0.0
  0
LINE
  5
132
330
E8
100
AcDbEntity
  8
AM_9
100
AcDbLine
 10
-4.286666666666668
 20
42.17840349067315
 30
0.0
 11
-4.286666666666666
 21
33.65792938489957
 31
0.0
  0
LINE
  5
133
330
E8
100
AcDbEntity
  8
AM_9
100
AcDbLine
 10
10.48873036166922
 20
40.51695188989202
 30
0.0
 11
10.48873036166922
 21
-40.51695188989202
 31
0.0
  0
LINE
  5
135
330
E8
100
AcDbEntity
  8
AM_5
100
AcDbLine
 10
-16.625
 20
22.5
 30
0.0
 11
-16.625
 21
28.2
 31
0.0
  0
LINE
  5
136
330
E8
100
AcDbEntity
  8
AM_5
100
AcDbLine
 10
-24.625
 20
22.5
 30
0.0
 11
-24.625
 21
28.2
 31
0.0
  0
LINE
  5
139
330
E8
100
AcDbEntity
  8
AM_7
100
AcDbLine
 10
6.399999999999998
 20
-0.2109545454545453
 30
0.0
 11
6.399999999999998
 21
0.2109545454545398
 31
0.0
  0
LINE
  5
13A
330
E8
100
AcDbEntity
  8
AM_7
100
AcDbLine
 10
-20.625
 20
29.47268462716419
 30
0.0
 11
-20.625
 21
21.0837757873093
 31
0.0
  0
LWPOLYLINE
  5
13B
330
E8
100
AcDbEntity
  8
AM_4
100
AcDbPolyline
 90
        8
 70
     0
 43
0.0
 10
-20.625
 20
12.4167172911613
 10
-21.1716390802566
 20
12.37853211754501
 10
-21.7182781605132
 20
12.26042402290736
 10
-22.21888340382113
 20
12.07182073125904
 10
-22.68820121963835
 20
11.80636174346122
 10
-23.09018231024168
 20
11.48231164650069
 10
-23.43304226458532
 20
11.09041043847129
 10
-23.68411367148866
 20
10.67036961032109
  0
ELLIPSE
  5
13C
330
E8
100
AcDbEntity
  8
AM_4
100
AcDbEllipse
 10
-20.625
 20
11.79733408503508
 30
0.0
 11
3.323499999999999
 21
0.0
 31
0.0
210
0.0
220
0.0
230
1.0
 40
0.9063077870366504
 41
0.3753414846308658
 42
5.69549520651322
  0
LWPOLYLINE
  5
13D
330
E8
100
AcDbEntity
  8
AM_4
100
AcDbPolyline
 90
        8
 70
     0
 43
0.0
 10
-17.75095300294667
 20
10.9953274701055
 10
-18.00309180004966
 20
11.32066565936628
 10
-18.37628232797667
 20
11.67043958885343
 10
-18.82457605866275
 20
11.96718290423412
 10
-19.31332127193977
 20
12.18852862392565
 10
-19.85484947305771
 20
12.34035937689505
 10
-20.23452123447212
 20
12.39730323700978
 10
-20.625
 20
12.4167172911613
  0
LINE
  5
13E
330
E8
100
AcDbEntity
  8
AM_4
100
AcDbLine
 10
-30.2
 20
-27.07200000000001
 30
0.0
 11
-29.072
 21
-28.19999999999998
 31
0.0
  0
LINE
  5
13F
330
E8
100
AcDbEntity
  8
AM_4
100
AcDbLine
 10
-29.072
 20
28.19999999999998
 30
0.0
 11
-30.2
 21
27.07200000000001
 31
0.0
  0
LINE
  5
140
330
E8
100
AcDbEntity
  8
AM_4
100
AcDbLine
 10
-30.2
 20
27.07200000000001
 30
0.0
 11
-30.2
 21
-27.07200000000001
 31
0.0
  0
LINE
  5
141
330
E8
100
AcDbEntity
  8
AM_4
100
AcDbLine
 10
19.09999999999999
 20
27.07200000000001
 30
0.0
 11
17.97199999999999
 21
28.20000000000001
 31
0.0
  0
LINE
  5
142
330
E8
100
AcDbEntity
  8
AM_4
100
AcDbLine
 10
19.09999999999999
 20
27.07200000000001
 30
0.0
 11
19.09999999999999
 21
-0.4251968503937164
 31
0.0
  0
LINE
  5
143
330
E8
100
AcDbEntity
  8
AM_4
100
AcDbLine
 10
17.97199999999999
 20
28.20000000000001
 30
0.0
 11
15.73388888888888
 21
28.20000000000001
 31
0.0
  0
LINE
  5
144
330
E8
100
AcDbEntity
  8
AM_4
100
AcDbLine
 10
17.97199999999999
 20
28.20000000000001
 30
0.0
 11
17.97199999999999
 21
9.16724409448818
 31
0.0
  0
LWPOLYLINE
  5
145
330
E8
100
AcDbEntity
  8
AM_4
100
AcDbPolyline
 90
       32
 70
     0
 43
0.0
 10
-17.88257455039377
 20
9.878472724137293
 10
-18.21129624189749
 20
9.579214966946779
 10
-18.6694358739414
 20
9.265806974701038
 10
-19.20445963671913
 20
9.010445984253135
 10
-19.77578799492785
 20
8.838656489143068
 10
-20.39521666053312
 20
8.753918137500895
 10
-21.02090416510911
 20
8.766683769529937
 10
-21.64690482384298
 20
8.880925675686452
 10
-22.24371132094526
 20
9.093022859029187
 10
-22.78909743386179
 20
9.396200469287455
 10
-23.27060891959828
 20
9.782066739238424
 10
-23.65746232164664
 20
10.22313938536355
 10
-23.95472396139136
 20
10.71762697626934
 10
-24.1399674132244
 20
11.21798456545579
 10
-24.22735385651683
 20
11.73600234924265
 10
-24.21479776894054
 20
12.22794853226274
 10
-24.11143081950772
 20
12.70672952800947
 10
-23.92264585343932
 20
13.15379174885123
 10
-23.65566706533287
 20
13.56461250696852
 10
-23.30538347493493
 20
13.94171869362493
 10
-22.89147880239477
 20
14.26357035967541
 10
-22.39655382295125
 20
14.53728335911092
 10
-21.85733377355804
 20
14.73890434298979
 10
-21.25793533631085
 20
14.86907275854365
 10
-20.64162711622513
 20
14.9145334872147
 10
-20.00825032321385
 20
14.87134733716501
 10
-19.39225114508619
 20
14.73878200866145
 10
-18.81111962654662
 20
14.51745754248333
 10
-18.28306319277116
 20
14.21232975426965
 10
-17.83742015746282
 20
13.83895656759672
 10
-17.47457857724963
 20
13.39949676621333
 10
-17.47432721866563
 20
13.39912288305577
  0
LINE
  5
146
330
E8
100
AcDbEntity
  8
AM_4
100
AcDbLine
 10
-29.072
 20
-28.2
 30
0.0
 11
-22.36611111111111
 21
-28.2
 31
0.0
  0
LINE
  5
147
330
E8
100
AcDbEntity
  8
AM_4
100
AcDbLine
 10
-15.73388888888889
 20
28.2
 30
0.0
 11
-17.01637058898896
 21
28.2
 31
0.0
  0
LINE
  5
148
330
E8
100
AcDbEntity
  8
AM_4
100
AcDbLine
 10
-24.22210219552656
 20
28.2
 30
0.0
 11
-29.072
 21
28.2
 31
0.0
  0
LINE
  5
149
330
E8
100
AcDbEntity
  8
AM_4
100
AcDbLine
 10
-29.072
 20
28.2
 30
0.0
 11
-29.072
 21
-28.2
 31
0.0
  0
LWPOLYLINE
  5
14A
330
E8
100
AcDbEntity
  8
AM_4
100
AcDbPolyline
 90
       20
 70
     0
 43
0.0
 10
-17.01637058898903
 20
28.19999999999999
 10
-17.06396069471441
 20
28.19463568770115
 10
-17.19705643164087
 20
28.18000214139348
 10
-17.41794500449903
 20
28.15691866428121
 10
-17.71461960609227
 20
28.12828710712696
 10
-18.08884679583437
 20
28.0960700896902
 10
-18.5352355560409
 20
28.06336365417603
 10
-19.04529779813616
 20
28.03366015347932
 10
-19.61046690850603
 20
28.01035238723368
 10
-20.21786479364518
 20
27.99660891945613
 10
-20.84070055142454
 20
27.99471031207741
 10
-21.47503776294602
 20
28.0054722197831
 10
-22.07324982670351
 20
28.02733609531718
 10
-22.6465089579975
 20
28.05891378273204
 10
-23.13533281652439
 20
28.09400826130371
 10
-23.56347679456355
 20
28.13088172759396
 10
-23.87569130794269
 20
28.16135956722929
 10
-24.10116001470245
 20
28.18524058602672
 10
-24.21201746572496
 20
28.19755531938338
 10
-24.23362941100852
 20
28.19999999999972
  0
ENDBLK
  5
EB
330
E8
100
AcDbEntity
  8
0
100
AcDbBlockEnd
  0
BLOCK
  5
14D
330
14B
100
AcDbEntity
  8
0
100
AcDbBlockBegin
  2
4_130359H_0_in_130359_2
 70
     2
 10
0.0
 20
0.0
 30
0.0
  3
4_130359H_0_in_130359_2
  1

  0
ATTDEF
  5
14F
330
14B
100
AcDbEntity
  8
AM_6
100
AcDbText
 10
32.94
 20
54.00000000000003
 30
0.0
 40
0.5
  1
TB-SC -M-Housing
100
AcDbAttributeDefinition
  3

  2
NN
 70
     8
280
     0
  0
ATTDEF
  5
150
330
14B
100
AcDbEntity
  8
AM_6
100
AcDbText
 10
32.94
 20
53.50000000000003
 30
0.0
 40
0.5
  1
SC Pillow Block Bearings -(Normal Duty) -Tapped Base Housing
100
AcDbAttributeDefinition
  3

  2
NT
 70
     8
280
     0
  0
ATTDEF
  5
151
330
14B
100
AcDbEntity
  8
AM_6
100
AcDbText
 10
32.94
 20
53.00000000000003
 30
0.0
 40
0.5
  1
130359H
100
AcDbAttributeDefinition
  3

  2
NB
 70
     8
280
     0
  0
ATTDEF
  5
152
330
14B
100
AcDbEntity
  8
AM_6
100
AcDbText
 10
32.94
 20
52.50000000000003
 30
0.0
 40
0.5
  1
$PN.H
100
AcDbAttributeDefinition
  3

  2
NBSYN
 70
     8
280
     0
  0
ATTDEF
  5
153
330
14B
100
AcDbEntity
  8
AM_6
100
AcDbText
 10
32.94
 20
52.00000000000003
 30
0.0
 40
0.5
  1
130359
100
AcDbAttributeDefinition
  3

  2
LINA
 70
     8
280
     0
  0
ATTDEF
  5
154
330
14B
100
AcDbEntity
  8
AM_6
100
AcDbText
 10
32.94
 20
51.50000000000003
 30
0.0
 40
0.5
  1
209
100
AcDbAttributeDefinition
  3

  2
SERIES
 70
     8
280
     0
  0
ATTDEF
  5
155
330
14B
100
AcDbEntity
  8
AM_6
100
AcDbText
 10
32.94
 20
51.00000000000003
 30
0.0
 40
0.5
  1
45
100
AcDbAttributeDefinition
  3

  2
SS
 70
     8
280
     0
  0
ATTDEF
  5
156
330
14B
100
AcDbEntity
  8
AM_6
100
AcDbText
 10
32.94
 20
50.50000000000003
 30
0.0
 40
0.5
  1
130359
100
AcDbAttributeDefinition
  3

  2
PN
 70
     8
280
     0
  0
ATTDEF
  5
157
330
14B
100
AcDbEntity
  8
AM_6
100
AcDbText
 10
32.94
 20
50.00000000000003
 30
0.0
 40
0.5
  1
TB-SC-45M
100
AcDbAttributeDefinition
  3

  2
DESCRIPTION
 70
     8
280
     0
  0
ATTDEF
  5
158
330
14B
100
AcDbEntity
  8
AM_6
100
AcDbText
 10
32.94
 20
49.50000000000003
 30
0.0
 40
0.5
  1
49.3
100
AcDbAttributeDefinition
  3

  2
A
 70
     8
280
     0
  0
ATTDEF
  5
159
330
14B
100
AcDbEntity
  8
AM_6
100
AcDbText
 10
32.94
 20
49.00000000000003
 30
0.0
 40
0.5
  1
127.0
100
AcDbAttributeDefinition
  3

  2
B
 70
     8
280
     0
  0
ATTDEF
  5
15A
330
14B
100
AcDbEntity
  8
AM_6
100
AcDbText
 10
32.94
 20
48.50000000000003
 30
0.0
 40
0.5
  1
50.8
100
AcDbAttributeDefinition
  3

  2
C
 70
     8
280
     0
  0
ATTDEF
  5
15B
330
14B
100
AcDbEntity
  8
AM_6
100
AcDbText
 10
32.94
 20
48.00000000000003
 30
0.0
 40
0.5
  1
95.3
100
AcDbAttributeDefinition
  3

  2
D
 70
     8
280
     0
  0
ATTDEF
  5
15C
330
14B
100
AcDbEntity
  8
AM_6
100
AcDbText
 10
32.94
 20
47.50000000000003
 30
0.0
 40
0.5
  1
108.0
100
AcDbAttributeDefinition
  3

  2
J
 70
     8
280
     0
  0
ATTDEF
  5
15D
330
14B
100
AcDbEntity
  8
AM_6
100
AcDbText
 10
32.94
 20
47.00000000000003
 30
0.0
 40
0.5
  1
56.4
100
AcDbAttributeDefinition
  3

  2
L
 70
     8
280
     0
  0
ATTDEF
  5
15E
330
14B
100
AcDbEntity
  8
AM_6
100
AcDbText
 10
32.94
 20
46.50000000000003
 30
0.0
 40
0.5
  1
54.0
100
AcDbAttributeDefinition
  3

  2
M
 70
     8
280
     0
  0
ATTDEF
  5
15F
330
14B
100
AcDbEntity
  8
AM_6
100
AcDbText
 10
32.94
 20
46.00000000000003
 30
0.0
 40
0.5
  1
19.1
100
AcDbAttributeDefinition
  3

  2
N
 70
     8
280
     0
  0
ATTDEF
  5
160
330
14B
100
AcDbEntity
  8
AM_6
100
AcDbText
 10
32.94
 20
45.50000000000003
 30
0.0
 40
0.5
  1
M12x1.75
100
AcDbAttributeDefinition
  3

  2
R
 70
     8
280
     0
  0
ATTDEF
  5
161
330
14B
100
AcDbEntity
  8
AM_6
100
AcDbText
 10
32.94
 20
45.00000000000003
 30
0.0
 40
0.5
  1
30.2
100
AcDbAttributeDefinition
  3

  2
S
 70
     8
280
     0
  0
ATTDEF
  5
162
330
14B
100
AcDbEntity
  8
AM_6
100
AcDbText
 10
32.94
 20
44.50000000000003
 30
0.0
 40
0.5
  1
baldor
100
AcDbAttributeDefinition
  3

  2
COMPANY
 70
     8
280
     0
  0
LINE
  5
163
330
14B
100
AcDbEntity
  8
AM_9
100
AcDbLine
 10
-19.04999999999999
 20
-53.681666603
 30
0.0
 11
19.04999999999999
 21
-53.68166657928232
 31
0.0
  0
LINE
  5
164
330
14B
100
AcDbEntity
  8
AM_9
100
AcDbLine
 10
-19.04999999999999
 20
-52.09
 30
0.0
 11
19.04999999999999
 21
-52.09
 31
0.0
  0
LINE
  5
165
330
14B
100
AcDbEntity
  8
AM_9
100
AcDbLine
 10
22.225
 20
-36.81
 30
0.0
 11
22.22500004731119
 21
-54.0
 31
0.0
  0
LINE
  5
166
330
14B
100
AcDbEntity
  8
AM_9
100
AcDbLine
 10
-22.2250000000001
 20
-36.81
 30
0.0
 11
-22.2250000000001
 21
-54.0
 31
0.0
  0
LWPOLYLINE
  5
167
330
14B
100
AcDbEntity
  8
AM_9
100
AcDbPolyline
 90
       12
 70
     0
 43
0.0
 10
25.4
 20
-33.04484728065381
 10
25.36498124501379
 20
-33.15608057882569
 10
25.26659384957997
 20
-33.32112190771236
 10
25.11537980200162
 20
-33.53048948750734
 10
24.92143927789014
 20
-33.77616377929827
 10
24.56603959051318
 20
-34.20056797037312
 10
24.15743776172019
 20
-34.66983344182204
 10
23.75175058124507
 20
-35.12614242230767
 10
23.32434366417676
 20
-35.60096197624417
 10
22.88497293229785
 20
-36.08541320787982
 10
22.23332797951853
 20
-36.80086518981371
 10
22.225
 20
-36.81
  0
LINE
  5
168
330
14B
100
AcDbEntity
  8
AM_9
100
AcDbLine
 10
19.04999999999999
 20
-36.81
 30
0.0
 11
22.225
 21
-36.81
 31
0.0
  0
LINE
  5
169
330
14B
100
AcDbEntity
  8
AM_9
100
AcDbLine
 10
-22.2250000000001
 20
-36.81
 30
0.0
 11
-19.04999999999999
 21
-36.81
 31
0.0
  0
LWPOLYLINE
  5
16A
330
14B
100
AcDbEntity
  8
AM_9
100
AcDbPolyline
 90
       12
 70
     0
 43
0.0
 10
-22.2250000000001
 20
-36.81
 10
-22.23332797951934
 20
-36.80086518981447
 10
-22.88497293229787
 20
-36.0854132078798
 10
-23.53152569396602
 20
-35.37129900586676
 10
-23.85090177549657
 20
-35.01519528846978
 10
-24.15743776172019
 20
-34.66983344182204
 10
-24.56097600425587
 20
-34.20641946746898
 10
-24.92143927789014
 20
-33.77616377929827
 10
-25.11537980200162
 20
-33.53048948750734
 10
-25.26659384957996
 20
-33.32112190771235
 10
-25.36416414627116
 20
-33.15808658032019
 10
-25.4
 20
-33.04484728065381
  0
LINE
  5
16B
330
14B
100
AcDbEntity
  8
AM_9
100
AcDbLine
 10
-5.079999999999995
 20
-21.25
 30
0.0
 11
19.05
 21
-21.25
 31
0.0
  0
LINE
  5
16C
330
14B
100
AcDbEntity
  8
AM_9
100
AcDbLine
 10
-5.079999999999995
 20
21.25
 30
0.0
 11
16.55115740740741
 21
21.25
 31
0.0
  0
LINE
  5
16D
330
14B
100
AcDbEntity
  8
AM_9
100
AcDbLine
 10
-19.05
 20
-42.5
 30
0.0
 11
19.04999999999999
 21
-42.5
 31
0.0
  0
LINE
  5
16E
330
14B
100
AcDbEntity
  8
AM_9
100
AcDbLine
 10
14.05231481481482
 20
42.5
 30
0.0
 11
-14.05231481481481
 21
42.5
 31
0.0
  0
LINE
  5
16F
330
14B
100
AcDbEntity
  8
AM_9
100
AcDbLine
 10
19.05
 20
0.0
 30
0.0
 11
19.04999999999999
 21
-53.68166657928232
 31
0.0
  0
LINE
  5
170
330
14B
100
AcDbEntity
  8
AM_9
100
AcDbLine
 10
-19.04999999999999
 20
-53.681666603
 30
0.0
 11
-19.04999999999999
 21
0.0
 31
0.0
  0
LINE
  5
171
330
14B
100
AcDbEntity
  8
AM_9
100
AcDbLine
 10
-5.079999999999995
 20
-21.25
 30
0.0
 11
-5.079999999999995
 21
21.25
 31
0.0
  0
LINE
  5
172
330
14B
100
AcDbEntity
  8
AM_9
100
AcDbLine
 10
-22.92937962962963
 20
-32.99
 30
0.0
 11
-19.04999999999999
 21
-32.99
 31
0.0
  0
LINE
  5
173
330
14B
100
AcDbEntity
  8
AM_9
100
AcDbLine
 10
19.05
 20
-32.99
 30
0.0
 11
22.92937962962963
 21
-32.99
 31
0.0
  0
LINE
  5
174
330
14B
100
AcDbEntity
  8
AM_9
100
AcDbLine
 10
0.0000000000000029
 20
-26.25264908978482
 30
0.0
 11
-5.052999999999993
 21
-29.17
 31
0.0
  0
LINE
  5
175
330
14B
100
AcDbEntity
  8
AM_9
100
AcDbLine
 10
5.052999999999997
 20
-29.17
 30
0.0
 11
0.0000000000000029
 21
-26.25264908978482
 31
0.0
  0
LINE
  5
176
330
14B
100
AcDbEntity
  8
AM_9
100
AcDbLine
 10
-5.052999999999993
 20
-29.17
 30
0.0
 11
5.052999999999997
 21
-29.17
 31
0.0
  0
LINE
  5
177
330
14B
100
AcDbEntity
  8
AM_9
100
AcDbLine
 10
5.052999999999997
 20
-53.053
 30
0.0
 11
5.052999999999997
 21
-29.17
 31
0.0
  0
LINE
  5
178
330
14B
100
AcDbEntity
  8
AM_9
100
AcDbLine
 10
-5.052999999999993
 20
-29.17
 30
0.0
 11
-5.052999999999993
 21
-53.053
 31
0.0
  0
LINE
  5
179
330
14B
100
AcDbEntity
  8
AM_9
100
AcDbLine
 10
-5.052999999999993
 20
-53.053
 30
0.0
 11
5.052999999999997
 21
-53.053
 31
0.0
  0
LINE
  5
17A
330
14B
100
AcDbEntity
  8
AM_9
100
AcDbLine
 10
-5.052999999999993
 20
-53.053
 30
0.0
 11
-5.999999999999996
 21
-54.0
 31
0.0
  0
LINE
  5
17B
330
14B
100
AcDbEntity
  8
AM_9
100
AcDbLine
 10
6.000000000000001
 20
-54.0
 30
0.0
 11
5.052999999999997
 21
-53.053
 31
0.0
  0
LINE
  5
17C
330
14B
100
AcDbEntity
  8
AM_5
100
AcDbLine
 10
-5.999999999999998
 20
-54.0
 30
0.0
 11
-5.999999999999998
 21
-34.9
 31
0.0
  0
LINE
  5
17D
330
14B
100
AcDbEntity
  8
AM_5
100
AcDbLine
 10
-5.052999999999994
 20
-32.94264150943397
 30
0.0
 11
-5.999999999999998
 21
-34.9
 31
0.0
  0
LINE
  5
17E
330
14B
100
AcDbEntity
  8
AM_5
100
AcDbLine
 10
-5.999999999999998
 20
-34.9
 30
0.0
 11
5.999999999999998
 21
-34.9
 31
0.0
  0
LINE
  5
17F
330
14B
100
AcDbEntity
  8
AM_5
100
AcDbLine
 10
5.999999999999998
 20
-54.0
 30
0.0
 11
5.999999999999998
 21
-34.9
 31
0.0
  0
LINE
  5
180
330
14B
100
AcDbEntity
  8
AM_5
100
AcDbLine
 10
5.052999999999994
 20
-32.94264150943395
 30
0.0
 11
5.999999999999998
 21
-34.9
 31
0.0
  0
LINE
  5
181
330
14B
100
AcDbEntity
  8
AM_7
100
AcDbLine
 10
27.94
 20
0.0
 30
0.0
 11
-32.66500000000001
 21
0.0
 31
0.0
  0
LINE
  5
182
330
14B
100
AcDbEntity
  8
AM_7
100
AcDbLine
 10
-0.0000000000000029
 20
-24.86528154427406
 30
0.0
 11
-0.0000000000000029
 21
-55.38736754551076
 31
0.0
  0
LINE
  5
183
330
14B
100
AcDbEntity
  8
AM_4
100
AcDbLine
 10
25.4
 20
-32.99
 30
0.0
 11
25.4
 21
-54.0
 31
0.0
  0
LINE
  5
184
330
14B
100
AcDbEntity
  8
AM_4
100
AcDbLine
 10
22.92937962962963
 20
-32.99
 30
0.0
 11
25.4
 21
-32.99
 31
0.0
  0
LINE
  5
185
330
14B
100
AcDbEntity
  8
AM_4
100
AcDbLine
 10
21.58
 20
-21.51496062992086
 30
0.0
 11
21.58
 21
-54.0
 31
0.0
  0
LINE
  5
186
330
14B
100
AcDbEntity
  8
AM_4
100
AcDbLine
 10
-22.92937962962963
 20
-32.99
 30
0.0
 11
-12.7
 21
54.00000000000001
 31
0.0
  0
LINE
  5
187
330
14B
100
AcDbEntity
  8
AM_4
100
AcDbLine
 10
-25.4
 20
-32.99
 30
0.0
 11
-22.92937962962963
 21
-32.99
 31
0.0
  0
LINE
  5
188
330
14B
100
AcDbEntity
  8
AM_4
100
AcDbLine
 10
-25.4
 20
-54.0
 30
0.0
 11
-25.4
 21
-32.99
 31
0.0
  0
LINE
  5
189
330
14B
100
AcDbEntity
  8
AM_4
100
AcDbLine
 10
-25.4
 20
-54.0
 30
0.0
 11
25.4
 21
-54.0
 31
0.0
  0
LINE
  5
18A
330
14B
100
AcDbEntity
  8
AM_4
100
AcDbLine
 10
-21.58000000000001
 20
-21.51496062992133
 30
0.0
 11
-21.58000000000001
 21
-54.0
 31
0.0
  0
LINE
  5
18B
330
14B
100
AcDbEntity
  8
AM_4
100
AcDbLine
 10
22.92937962962963
 20
-32.98999999999999
 30
0.0
 11
12.69999999999999
 21
54.00000000000003
 31
0.0
  0
LINE
  5
18C
330
14B
100
AcDbEntity
  8
AM_4
100
AcDbLine
 10
-20.16712962962963
 20
-9.500000000000016
 30
0.0
 11
20.16712962962963
 21
-9.500000000000016
 31
0.0
  0
LINE
  5
18D
330
14B
100
AcDbEntity
  8
AM_4
100
AcDbLine
 10
12.69999999999999
 20
54.00000000000001
 30
0.0
 11
-12.7
 21
54.00000000000002
 31
0.0
  0
ENDBLK
  5
14E
330
14B
100
AcDbEntity
  8
0
100
AcDbBlockEnd
  0
ENDSEC
  0
SECTION
  2
ENTITIES
  0
INSERT
  5
6F
330
1F
100
AcDbEntity
  8
0
100
AcDbBlockReference
  2
1_130359_2
 10
0.0
 20
0.0
 30
0.0
  0
POINT
  5
18F
330
1F
100
AcDbEntity
  8
ConnectionPoints
100
AcDbPoint
 10
-30.2
 20
0.0
 30
0.0000000000000018
  0
POINT
  5
190
330
1F
100
AcDbEntity
  8
ConnectionPoints
100
AcDbPoint
 10
0.0000000000000027
 20
35.40128060534576
 30
44.90128060534577
  0
POINT
  5
191
330
1F
100
AcDbEntity
  8
ConnectionPoints
100
AcDbPoint
 10
-30.2
 20
0.0
 30
0.0000000000000018
  0
ENDSEC
  0
SECTION
  2
OBJECTS
  0
DICTIONARY
  5
C
330
0
100
AcDbDictionary
281
     1
  3
ACAD_DETAILVIEWSTYLE
350
199
  3
ACAD_GROUP
350
D
  3
ACAD_LAYOUT
350
1A
  3
ACAD_MATERIAL
350
43
  3
ACAD_MLEADERSTYLE
350
6B
  3
ACAD_MLINESTYLE
350
17
  3
ACAD_PLOTSETTINGS
350
19
  3
ACAD_PLOTSTYLENAME
350
E
  3
ACAD_SCALELIST
350
47
  3
ACAD_SECTIONVIEWSTYLE
350
19A
  3
ACAD_TABLESTYLE
350
69
  3
ACAD_VISUALSTYLE
350
2A
  3
ACDB_RECOMPOSE_DATA
350
196
  3
AcDbVariableDictionary
350
192
  0
SUN
  5
6D
330
29
100
AcDbSun
 90
        1
290
     0
 63
     7
421
 16777215
 40
1.0
291
     1
 91
  2455826
 92
 54000000
292
     0
 70
     2
 71
   256
280
     1
  0
DICTIONARY
  5
199
102
{ACAD_REACTORS
330
C
102
}
330
C
100
AcDbDictionary
281
     1
  0
DICTIONARY
  5
D
102
{ACAD_REACTORS
330
C
102
}
330
C
100
AcDbDictionary
281
     1
  0
DICTIONARY
  5
1A
102
{ACAD_REACTORS
330
C
102
}
330
C
100
AcDbDictionary
281
     1
  3
Layout1
350
1E
  3
Layout2
350
26
  3
Model
350
22
  0
DICTIONARY
  5
43
102
{ACAD_REACTORS
330
C
102
}
330
C
100
AcDbDictionary
281
     1
  3
ByBlock
350
45
  3
ByLayer
350
44
  3
Global
350
46
  0
DICTIONARY
  5
6B
102
{ACAD_REACTORS
330
C
102
}
330
C
100
AcDbDictionary
281
     1
  3
Standard
350
6C
  0
DICTIONARY
  5
17
102
{ACAD_REACTORS
330
C
102
}
330
C
100
AcDbDictionary
281
     1
  3
Standard
350
18
  0
DICTIONARY
  5
19
102
{ACAD_REACTORS
330
C
102
}
330
C
100
AcDbDictionary
281
     1
  0
ACDBDICTIONARYWDFLT
  5
E
102
{ACAD_REACTORS
330
C
102
}
330
C
100
AcDbDictionary
281
     1
  3
Normal
350
F
100
AcDbDictionaryWithDefault
340
F
  0
DICTIONARY
  5
47
102
{ACAD_REACTORS
330
C
102
}
330
C
100
AcDbDictionary
281
     1
  3
A0
350
48
  3
A1
350
49
  3
A2
350
4A
  3
A3
350
4B
  3
A4
350
4C
  3
A5
350
4D
  3
A6
350
4E
  3
A7
350
4F
  3
A8
350
50
  3
A9
350
51
  3
B0
350
52
  3
B1
350
53
  3
B2
350
54
  3
B3
350
55
  3
B4
350
56
  3
B5
350
57
  3
B6
350
58
  3
B7
350
59
  3
B8
350
5A
  3
B9
350
5B
  3
C0
350
5C
  3
C1
350
5D
  3
C2
350
5E
  3
C3
350
5F
  3
C4
350
60
  3
C5
350
61
  3
C6
350
62
  3
C7
350
63
  3
C8
350
64
  3
C9
350
65
  3
D0
350
66
  3
D1
350
67
  3
D2
350
68
  0
DICTIONARY
  5
19A
102
{ACAD_REACTORS
330
C
102
}
330
C
100
AcDbDictionary
281
     1
  0
DICTIONARY
  5
69
102
{ACAD_REACTORS
330
C
102
}
330
C
100
AcDbDictionary
281
     1
  3
Standard
350
6A
  0
DICTIONARY
  5
2A
102
{ACAD_REACTORS
330
C
102
}
330
C
100
AcDbDictionary
281
     1
  3
2dWireframe
350
2F
  3
Basic
350
32
  3
Brighten
350
36
  3
ColorChange
350
3A
  3
Conceptual
350
34
  3
Dim
350
35
  3
EdgeColorOff
350
3D
  3
Facepattern
350
39
  3
Flat
350
2B
  3
FlatWithEdges
350
2C
  3
Gouraud
350
2D
  3
GouraudWithEdges
350
2E
  3
Hidden
350
31
  3
JitterOff
350
3B
  3
Linepattern
350
38
  3
OverhangOff
350
3C
  3
Realistic
350
33
  3
Shaded
350
42
  3
Shaded with edges
350
41
  3
Shades of Gray
350
3E
  3
Sketchy
350
3F
  3
Thicken
350
37
  3
Wireframe
350
30
  3
X-Ray
350
40
  0
XRECORD
  5
196
102
{ACAD_REACTORS
330
C
102
}
330
C
100
AcDbXrecord
280
     1
 90
        1
330
6A
  0
DICTIONARY
  5
192
102
{ACAD_REACTORS
330
C
102
}
330
C
100
AcDbDictionary
281
     1
  3
CANNOSCALE
350
193
  3
CMLEADERSTYLE
350
198
  3
CTABLESTYLE
350
197
  0
LAYOUT
  5
1E
102
{ACAD_REACTORS
330
1A
102
}
330
1A
100
AcDbPlotSettings
  1

  2
none_device
  4

  6

 40
0.0
 41
0.0
 42
0.0
 43
0.0
 44
0.0
 45
0.0
 46
0.0
 47
0.0
 48
0.0
 49
0.0
140
0.0
141
0.0
142
1.0
143
1.0
 70
   688
 72
     1
 73
     0
 74
     5
  7

 75
    16
 76
     0
 77
     2
 78
   300
147
1.0
148
0.0
149
0.0
100
AcDbLayout
  1
Layout1
 70
     1
 71
     1
 10
0.0
 20
0.0
 11
420.0
 21
297.0
 12
0.0
 22
0.0
 32
0.0
 14
1.000000000000000E+20
 24
1.000000000000000E+20
 34
1.000000000000000E+20
 15
-1.000000000000000E+20
 25
-1.000000000000000E+20
 35
-1.000000000000000E+20
146
0.0
 13
0.0
 23
0.0
 33
0.0
 16
1.0
 26
0.0
 36
0.0
 17
0.0
 27
1.0
 37
0.0
 76
     0
330
1B
  0
LAYOUT
  5
26
102
{ACAD_REACTORS
330
1A
102
}
330
1A
100
AcDbPlotSettings
  1

  2
none_device
  4

  6

 40
0.0
 41
0.0
 42
0.0
 43
0.0
 44
0.0
 45
0.0
 46
0.0
 47
0.0
 48
0.0
 49
0.0
140
0.0
141
0.0
142
1.0
143
1.0
 70
   688
 72
     1
 73
     0
 74
     5
  7

 75
    16
 76
     0
 77
     2
 78
   300
147
1.0
148
0.0
149
0.0
100
AcDbLayout
  1
Layout2
 70
     1
 71
     2
 10
0.0
 20
0.0
 11
0.0
 21
0.0
 12
0.0
 22
0.0
 32
0.0
 14
0.0
 24
0.0
 34
0.0
 15
0.0
 25
0.0
 35
0.0
146
0.0
 13
0.0
 23
0.0
 33
0.0
 16
1.0
 26
0.0
 36
0.0
 17
0.0
 27
1.0
 37
0.0
 76
     0
330
23
  0
LAYOUT
  5
22
102
{ACAD_REACTORS
330
1A
102
}
330
1A
100
AcDbPlotSettings
  1

  2
none_device
  4
Letter_(8.50_x_11.00_Inches)
  6

 40
6.35
 41
6.35
 42
6.35000508
 43
6.35000508
 44
215.9
 45
279.4
 46
0.0
 47
0.0
 48
0.0
 49
0.0
140
0.0
141
0.0
142
1.0
143
1.0
 70
  1712
 72
     1
 73
     0
 74
     0
  7

 75
     0
 76
     0
 77
     2
 78
   300
147
1.0
148
0.0
149
0.0
100
AcDbLayout
  1
Model
 70
     1
 71
     0
 10
0.0
 20
0.0
 11
420.0
 21
297.0
 12
0.0
 22
0.0
 32
0.0
 14
1.000000000000000E+20
 24
1.000000000000000E+20
 34
1.000000000000000E+20
 15
-1.000000000000000E+20
 25
-1.000000000000000E+20
 35
-1.000000000000000E+20
146
0.0
 13
0.0
 23
0.0
 33
0.0
 16
1.0
 26
0.0
 36
0.0
 17
0.0
 27
1.0
 37
0.0
 76
     0
330
1F
331
29
  0
MATERIAL
  5
45
102
{ACAD_REACTORS
330
43
102
}
330
43
100
AcDbMaterial
  1
ByBlock
 72
     1
 94
      127
  0
MATERIAL
  5
44
102
{ACAD_REACTORS
330
43
102
}
330
43
100
AcDbMaterial
  1
ByLayer
 72
     1
 94
      127
  0
MATERIAL
  5
46
102
{ACAD_REACTORS
330
43
102
}
330
43
100
AcDbMaterial
  1
Global
 72
     1
 94
      127
  0
MLEADERSTYLE
  5
6C
102
{ACAD_REACTORS
330
6B
102
}
330
6B
100
AcDbMLeaderStyle
179
     2
170
     2
171
     1
172
     0
 90
        2
 40
0.0
 41
0.0
173
     1
 91
-1056964608
340
14
 92
       -2
290
     1
 42
2.0
291
     1
 43
8.0
  3
Standard
341
0
 44
4.0
300

342
11
174
     1
178
     6
175
     1
176
     0
 93
-1056964608
 45
4.0
292
     0
297
     0
 46
4.0
343
0
 94
-1056964608
 47
1.0
 49
1.0
140
1.0
293
     1
141
0.0
294
     1
177
     0
142
1.0
295
     0
296
     0
143
3.75
271
     0
272
     9
273
     9
298
     0
  0
MLINESTYLE
  5
18
102
{ACAD_REACTORS
330
17
102
}
330
17
100
AcDbMlineStyle
  2
Standard
 70
     0
  3

 62
   256
 51
90.0
 52
90.0
 71
     2
 49
0.5
 62
   256
  6
BYLAYER
 49
-0.5
 62
   256
  6
BYLAYER
  0
ACDBPLACEHOLDER
  5
F
102
{ACAD_REACTORS
330
E
102
}
330
E
  0
SCALE
  5
48
102
{ACAD_REACTORS
330
47
102
}
330
47
100
AcDbScale
 70
     0
300
1:1
140
1.0
141
1.0
290
     1
  0
SCALE
  5
49
102
{ACAD_REACTORS
330
47
102
}
330
47
100
AcDbScale
 70
     0
300
1:2
140
1.0
141
2.0
290
     0
  0
SCALE
  5
4A
102
{ACAD_REACTORS
330
47
102
}
330
47
100
AcDbScale
 70
     0
300
1:4
140
1.0
141
4.0
290
     0
  0
SCALE
  5
4B
102
{ACAD_REACTORS
330
47
102
}
330
47
100
AcDbScale
 70
     0
300
1:5
140
1.0
141
5.0
290
     0
  0
SCALE
  5
4C
102
{ACAD_REACTORS
330
47
102
}
330
47
100
AcDbScale
 70
     0
300
1:8
140
1.0
141
8.0
290
     0
  0
SCALE
  5
4D
102
{ACAD_REACTORS
330
47
102
}
330
47
100
AcDbScale
 70
     0
300
1:10
140
1.0
141
10.0
290
     0
  0
SCALE
  5
4E
102
{ACAD_REACTORS
330
47
102
}
330
47
100
AcDbScale
 70
     0
300
1:16
140
1.0
141
16.0
290
     0
  0
SCALE
  5
4F
102
{ACAD_REACTORS
330
47
102
}
330
47
100
AcDbScale
 70
     0
300
1:20
140
1.0
141
20.0
290
     0
  0
SCALE
  5
50
102
{ACAD_REACTORS
330
47
102
}
330
47
100
AcDbScale
 70
     0
300
1:30
140
1.0
141
30.0
290
     0
  0
SCALE
  5
51
102
{ACAD_REACTORS
330
47
102
}
330
47
100
AcDbScale
 70
     0
300
1:40
140
1.0
141
40.0
290
     0
  0
SCALE
  5
52
102
{ACAD_REACTORS
330
47
102
}
330
47
100
AcDbScale
 70
     0
300
1:50
140
1.0
141
50.0
290
     0
  0
SCALE
  5
53
102
{ACAD_REACTORS
330
47
102
}
330
47
100
AcDbScale
 70
     0
300
1:100
140
1.0
141
100.0
290
     0
  0
SCALE
  5
54
102
{ACAD_REACTORS
330
47
102
}
330
47
100
AcDbScale
 70
     0
300
2:1
140
2.0
141
1.0
290
     0
  0
SCALE
  5
55
102
{ACAD_REACTORS
330
47
102
}
330
47
100
AcDbScale
 70
     0
300
4:1
140
4.0
141
1.0
290
     0
  0
SCALE
  5
56
102
{ACAD_REACTORS
330
47
102
}
330
47
100
AcDbScale
 70
     0
300
8:1
140
8.0
141
1.0
290
     0
  0
SCALE
  5
57
102
{ACAD_REACTORS
330
47
102
}
330
47
100
AcDbScale
 70
     0
300
10:1
140
10.0
141
1.0
290
     0
  0
SCALE
  5
58
102
{ACAD_REACTORS
330
47
102
}
330
47
100
AcDbScale
 70
     0
300
100:1
140
100.0
141
1.0
290
     0
  0
SCALE
  5
59
102
{ACAD_REACTORS
330
47
102
}
330
47
100
AcDbScale
 70
     0
300
1/128" = 1'-0"
140
0.0078125
141
12.0
290
     0
  0
SCALE
  5
5A
102
{ACAD_REACTORS
330
47
102
}
330
47
100
AcDbScale
 70
     0
300
1/64" = 1'-0"
140
0.015625
141
12.0
290
     0
  0
SCALE
  5
5B
102
{ACAD_REACTORS
330
47
102
}
330
47
100
AcDbScale
 70
     0
300
1/32" = 1'-0"
140
0.03125
141
12.0
290
     0
  0
SCALE
  5
5C
102
{ACAD_REACTORS
330
47
102
}
330
47
100
AcDbScale
 70
     0
300
1/16" = 1'-0"
140
0.0625
141
12.0
290
     0
  0
SCALE
  5
5D
102
{ACAD_REACTORS
330
47
102
}
330
47
100
AcDbScale
 70
     0
300
3/32" = 1'-0"
140
0.09375
141
12.0
290
     0
  0
SCALE
  5
5E
102
{ACAD_REACTORS
330
47
102
}
330
47
100
AcDbScale
 70
     0
300
1/8" = 1'-0"
140
0.125
141
12.0
290
     0
  0
SCALE
  5
5F
102
{ACAD_REACTORS
330
47
102
}
330
47
100
AcDbScale
 70
     0
300
3/16" = 1'-0"
140
0.1875
141
12.0
290
     0
  0
SCALE
  5
60
102
{ACAD_REACTORS
330
47
102
}
330
47
100
AcDbScale
 70
     0
300
1/4" = 1'-0"
140
0.25
141
12.0
290
     0
  0
SCALE
  5
61
102
{ACAD_REACTORS
330
47
102
}
330
47
100
AcDbScale
 70
     0
300
3/8" = 1'-0"
140
0.375
141
12.0
290
     0
  0
SCALE
  5
62
102
{ACAD_REACTORS
330
47
102
}
330
47
100
AcDbScale
 70
     0
300
1/2" = 1'-0"
140
0.5
141
12.0
290
     0
  0
SCALE
  5
63
102
{ACAD_REACTORS
330
47
102
}
330
47
100
AcDbScale
 70
     0
300
3/4" = 1'-0"
140
0.75
141
12.0
290
     0
  0
SCALE
  5
64
102
{ACAD_REACTORS
330
47
102
}
330
47
100
AcDbScale
 70
     0
300
1" = 1'-0"
140
1.0
141
12.0
290
     0
  0
SCALE
  5
65
102
{ACAD_REACTORS
330
47
102
}
330
47
100
AcDbScale
 70
     0
300
1-1/2" = 1'-0"
140
1.5
141
12.0
290
     0
  0
SCALE
  5
66
102
{ACAD_REACTORS
330
47
102
}
330
47
100
AcDbScale
 70
     0
300
3" = 1'-0"
140
3.0
141
12.0
290
     0
  0
SCALE
  5
67
102
{ACAD_REACTORS
330
47
102
}
330
47
100
AcDbScale
 70
     0
300
6" = 1'-0"
140
6.0
141
12.0
290
     0
  0
SCALE
  5
68
102
{ACAD_REACTORS
330
47
102
}
330
47
100
AcDbScale
 70
     0
300
1'-0" = 1'-0"
140
12.0
141
12.0
290
     0
  0
TABLESTYLE
  5
6A
102
{ACAD_REACTORS
330
69
102
}
102
{ACAD_XDICTIONARY
360
194
102
}
330
69
100
AcDbTableStyle
  3
Standard
 70
     0
 71
     0
 40
0.06
 41
0.06
280
     0
281
     0
  7
Standard
140
4.5
170
     2
 62
     0
 63
   257
283
     0
 90
        4
 91
        0
  1

274
    -2
284
     1
 64
     0
275
    -2
285
     1
 65
     0
276
    -2
286
     1
 66
     0
277
    -2
287
     1
 67
     0
278
    -2
288
     1
 68
     0
279
    -2
289
     1
 69
     0
  7
Standard
140
6.0
170
     5
 62
     0
 63
   257
283
     0
 90
        4
 91
        0
  1

274
    -2
284
     1
 64
     0
275
    -2
285
     1
 65
     0
276
    -2
286
     1
 66
     0
277
    -2
287
     1
 67
     0
278
    -2
288
     1
 68
     0
279
    -2
289
     1
 69
     0
  7
Standard
140
4.5
170
     5
 62
     0
 63
   257
283
     0
 90
        4
 91
        0
  1

274
    -2
284
     1
 64
     0
275
    -2
285
     1
 65
     0
276
    -2
286
     1
 66
     0
277
    -2
287
     1
 67
     0
278
    -2
288
     1
 68
     0
279
    -2
289
     1
 69
     0
  0
VISUALSTYLE
  5
2F
102
{ACAD_REACTORS
330
2A
102
}
330
2A
100
AcDbVisualStyle
  2
2dWireframe
 70
     4
177
     3
291
     0
 70
    58
 90
        0
176
     1
 90
        2
176
     1
 90
        0
176
     1
 90
        0
176
     1
 40
0.6
176
     1
 40
30.0
176
     1
 62
     7
420
 16777215
176
     1
 90
        1
176
     1
 90
        4
176
     1
 62
     7
176
     1
 62
   257
176
     1
 90
        1
176
     1
 90
        1
176
     1
 40
1.0
176
     1
 90
        0
176
     1
 62
   257
176
     1
 40
1.0
176
     1
 90
        1
176
     1
 90
        6
176
     1
 90
        2
176
     1
 62
     7
176
     1
 90
        5
176
     1
 90
        0
176
     1
 90
        0
176
     1
290
     0
176
     1
 90
        1
176
     1
 40
0.0
176
     1
 90
        0
176
     1
290
     1
176
     1
290
     1
176
     1
290
     0
176
     1
290
     0
176
     1
290
     0
176
     1
290
     0
176
     1
290
     0
176
     1
290
     0
176
     1
290
     0
176
     1
 90
       50
176
     1
 40
0.0
176
     1
 40
1.0
176
     1
 90
        0
176
     1
 62
    18
420
        0
176
     1
 90
       50
176
     1
 90
        3
176
     1
 62
     5
420
      255
176
     1
290
     0
176
     1
 90
       50
176
     1
 90
       50
176
     1
 90
       50
176
     1
290
     0
176
     1
 90
       50
176
     1
 62
   256
176
     0
 40
1.0
176
     0
 90
        2
176
     1
  1
strokes_ogs.tif
176
     1
290
     0
176
     1
 40
1.0
176
     1
 40
1.0
176
     1
  0
VISUALSTYLE
  5
32
102
{ACAD_REACTORS
330
2A
102
}
330
2A
100
AcDbVisualStyle
  2
Basic
 70
     7
177
     3
291
     1
 70
    58
 90
        1
176
     1
 90
        0
176
     1
 90
        1
176
     1
 90
        0
176
     1
 40
0.6
176
     1
 40
30.0
176
     1
 62
     7
420
 16777215
176
     1
 90
        0
176
     1
 90
        4
176
     1
 62
     7
176
     1
 62
   257
176
     1
 90
        1
176
     1
 90
        1
176
     1
 40
1.0
176
     1
 90
        8
176
     1
 62
     7
176
     1
 40
1.0
176
     1
 90
        1
176
     1
 90
        6
176
     1
 90
        2
176
     1
 62
     7
176
     1
 90
        5
176
     1
 90
        0
176
     1
 90
        0
176
     1
290
     0
176
     1
 90
        1
176
     1
 40
0.0
176
     1
 90
        0
176
     1
290
     0
176
     1
290
     1
176
     1
290
     1
176
     1
290
     0
176
     1
290
     0
176
     1
290
     0
176
     1
290
     0
176
     1
290
     0
176
     1
290
     0
176
     1
 90
       50
176
     1
 40
0.0
176
     1
 40
1.0
176
     1
 90
        0
176
     1
 62
    18
420
        0
176
     1
 90
       50
176
     1
 90
        3
176
     1
 62
     5
420
      255
176
     1
290
     0
176
     1
 90
       50
176
     1
 90
       50
176
     1
 90
       50
176
     1
290
     0
176
     1
 90
       50
176
     1
 62
   256
176
     0
 40
1.0
176
     0
 90
        2
176
     1
  1
strokes_ogs.tif
176
     1
290
     0
176
     1
 40
1.0
176
     1
 40
1.0
176
     1
  0
VISUALSTYLE
  5
36
102
{ACAD_REACTORS
330
2A
102
}
330
2A
100
AcDbVisualStyle
  2
Brighten
 70
    12
177
     3
291
     1
 70
    58
 90
        2
176
     1
 90
        2
176
     1
 90
        0
176
     1
 90
        0
176
     1
 40
0.6
176
     1
 40
30.0
176
     1
 62
     7
420
 16777215
176
     1
 90
        1
176
     1
 90
        4
176
     1
 62
     7
176
     1
 62
   257
176
     1
 90
        1
176
     1
 90
        1
176
     1
 40
1.0
176
     1
 90
        8
176
     1
 62
     7
176
     1
 40
1.0
176
     1
 90
        1
176
     1
 90
        6
176
     1
 90
        2
176
     1
 62
     7
176
     1
 90
        5
176
     1
 90
        0
176
     1
 90
        0
176
     1
290
     0
176
     1
 90
        1
176
     1
 40
50.0
176
     1
 90
        0
176
     1
290
     0
176
     1
290
     1
176
     1
290
     1
176
     1
290
     0
176
     1
290
     0
176
     1
290
     0
176
     1
290
     0
176
     1
290
     0
176
     1
290
     0
176
     1
 90
       50
176
     1
 40
0.0
176
     1
 40
1.0
176
     1
 90
        0
176
     1
 62
    18
420
        0
176
     1
 90
       50
176
     1
 90
        3
176
     1
 62
     5
420
      255
176
     1
290
     0
176
     1
 90
       50
176
     1
 90
       50
176
     1
 90
       50
176
     1
290
     0
176
     1
 90
       50
176
     1
 62
   256
176
     0
 40
1.0
176
     0
 90
        2
176
     1
  1
strokes_ogs.tif
176
     1
290
     0
176
     1
 40
1.0
176
     1
 40
1.0
176
     1
  0
VISUALSTYLE
  5
3A
102
{ACAD_REACTORS
330
2A
102
}
330
2A
100
AcDbVisualStyle
  2
ColorChange
 70
    16
177
     3
291
     1
 70
    58
 90
        2
176
     1
 90
        2
176
     1
 90
        3
176
     1
 90
        0
176
     1
 40
0.6
176
     1
 40
30.0
176
     1
 62
     8
420
  8421504
176
     1
 90
        1
176
     1
 90
        4
176
     1
 62
     7
176
     1
 62
   257
176
     1
 90
        1
176
     1
 90
        1
176
     1
 40
1.0
176
     1
 90
        8
176
     1
 62
     8
420
  8421504
176
     1
 40
1.0
176
     1
 90
        1
176
     1
 90
        6
176
     1
 90
        2
176
     1
 62
     7
176
     1
 90
        5
176
     1
 90
        0
176
     1
 90
        0
176
     1
290
     0
176
     1
 90
        1
176
     1
 40
0.0
176
     1
 90
        0
176
     1
290
     0
176
     1
290
     1
176
     1
290
     1
176
     1
290
     0
176
     1
290
     0
176
     1
290
     0
176
     1
290
     0
176
     1
290
     0
176
     1
290
     0
176
     1
 90
       50
176
     1
 40
0.0
176
     1
 40
1.0
176
     1
 90
        0
176
     1
 62
    18
420
        0
176
     1
 90
       50
176
     1
 90
        3
176
     1
 62
     5
420
      255
176
     1
290
     0
176
     1
 90
       50
176
     1
 90
       50
176
     1
 90
       50
176
     1
290
     0
176
     1
 90
       50
176
     1
 62
   256
176
     0
 40
1.0
176
     0
 90
        2
176
     1
  1
strokes_ogs.tif
176
     1
290
     0
176
     1
 40
1.0
176
     1
 40
1.0
176
     1
  0
VISUALSTYLE
  5
34
102
{ACAD_REACTORS
330
2A
102
}
330
2A
100
AcDbVisualStyle
  2
Conceptual
 70
     9
177
     3
291
     0
 70
    58
 90
        3
176
     1
 90
        2
176
     1
 90
        0
176
     1
 90
        0
176
     1
 40
0.6
176
     1
 40
30.0
176
     1
 62
     7
420
 16777215
176
     1
 90
        2
176
     1
 90
        2
176
     1
 62
     7
176
     1
 62
   257
176
     1
 90
        1
176
     1
 90
        1
176
     1
 40
179.0
176
     1
 90
        8
176
     1
 62
     7
176
     1
 40
1.0
176
     1
 90
        1
176
     1
 90
        6
176
     1
 90
        2
176
     1
 62
     7
176
     1
 90
        3
176
     1
 90
        0
176
     1
 90
        0
176
     1
290
     0
176
     1
 90
        1
176
     1
 40
0.0
176
     1
 90
        0
176
     1
290
     0
176
     1
290
     1
176
     1
290
     1
176
     1
290
     0
176
     1
290
     0
176
     1
290
     0
176
     1
290
     0
176
     1
290
     0
176
     1
290
     0
176
     1
 90
       50
176
     1
 40
0.0
176
     1
 40
1.0
176
     1
 90
        0
176
     1
 62
    18
420
        0
176
     1
 90
       50
176
     1
 90
        3
176
     1
 62
     5
420
      255
176
     1
290
     0
176
     1
 90
       50
176
     1
 90
       50
176
     1
 90
       50
176
     1
290
     0
176
     1
 90
       50
176
     1
 62
   256
176
     0
 40
1.0
176
     0
 90
        2
176
     1
  1
strokes_ogs.tif
176
     1
290
     0
176
     1
 40
1.0
176
     1
 40
1.0
176
     1
  0
VISUALSTYLE
  5
35
102
{ACAD_REACTORS
330
2A
102
}
330
2A
100
AcDbVisualStyle
  2
Dim
 70
    11
177
     3
291
     1
 70
    58
 90
        2
176
     1
 90
        2
176
     1
 90
        0
176
     1
 90
        0
176
     1
 40
0.6
176
     1
 40
30.0
176
     1
 62
     7
420
 16777215
176
     1
 90
        1
176
     1
 90
        4
176
     1
 62
     7
176
     1
 62
   257
176
     1
 90
        1
176
     1
 90
        1
176
     1
 40
1.0
176
     1
 90
        8
176
     1
 62
     7
176
     1
 40
1.0
176
     1
 90
        1
176
     1
 90
        6
176
     1
 90
        2
176
     1
 62
     7
176
     1
 90
        5
176
     1
 90
        0
176
     1
 90
        0
176
     1
290
     0
176
     1
 90
        1
176
     1
 40
-50.0
176
     1
 90
        0
176
     1
290
     0
176
     1
290
     1
176
     1
290
     1
176
     1
290
     0
176
     1
290
     0
176
     1
290
     0
176
     1
290
     0
176
     1
290
     0
176
     1
290
     0
176
     1
 90
       50
176
     1
 40
0.0
176
     1
 40
1.0
176
     1
 90
        0
176
     1
 62
    18
420
        0
176
     1
 90
       50
176
     1
 90
        3
176
     1
 62
     5
420
      255
176
     1
290
     0
176
     1
 90
       50
176
     1
 90
       50
176
     1
 90
       50
176
     1
290
     0
176
     1
 90
       50
176
     1
 62
   256
176
     0
 40
1.0
176
     0
 90
        2
176
     1
  1
strokes_ogs.tif
176
     1
290
     0
176
     1
 40
1.0
176
     1
 40
1.0
176
     1
  0
VISUALSTYLE
  5
3D
102
{ACAD_REACTORS
330
2A
102
}
330
2A
100
AcDbVisualStyle
  2
EdgeColorOff
 70
    22
177
     3
291
     1
 70
    58
 90
        2
176
     0
 90
        2
176
     0
 90
        0
176
     0
 90
        0
176
     0
 40
0.6
176
     0
 40
30.0
176
     0
 62
     7
420
 16777215
176
     0
 90
        1
176
     0
 90
        4
176
     0
 62
     7
176
     0
 62
   257
176
     0
 90
        1
176
     0
 90
        1
176
     0
 40
1.0
176
     0
 90
        8
176
     2
 62
     7
176
     0
 40
1.0
176
     0
 90
        1
176
     0
 90
        6
176
     0
 90
        2
176
     0
 62
     7
176
     0
 90
        5
176
     0
 90
        0
176
     0
 90
        0
176
     0
290
     0
176
     0
 90
        1
176
     0
 40
0.0
176
     0
 90
        0
176
     0
290
     0
176
     0
290
     1
176
     0
290
     1
176
     0
290
     0
176
     0
290
     0
176
     0
290
     0
176
     0
290
     0
176
     0
290
     0
176
     0
290
     0
176
     0
 90
       50
176
     0
 40
0.0
176
     0
 40
1.0
176
     0
 90
        0
176
     0
 62
    18
420
        0
176
     0
 90
       50
176
     0
 90
        3
176
     0
 62
     5
420
      255
176
     0
290
     0
176
     0
 90
       50
176
     0
 90
       50
176
     0
 90
       50
176
     0
290
     0
176
     0
 90
       50
176
     0
 62
   256
176
     0
 40
1.0
176
     0
 90
        2
176
     0
  1
strokes_ogs.tif
176
     0
290
     0
176
     0
 40
1.0
176
     0
 40
1.0
176
     0
  0
VISUALSTYLE
  5
39
102
{ACAD_REACTORS
330
2A
102
}
330
2A
100
AcDbVisualStyle
  2
Facepattern
 70
    15
177
     3
291
     1
 70
    58
 90
        2
176
     1
 90
        2
176
     1
 90
        0
176
     1
 90
        0
176
     1
 40
0.6
176
     1
 40
30.0
176
     1
 62
     7
420
 16777215
176
     1
 90
        1
176
     1
 90
        4
176
     1
 62
     7
176
     1
 62
   257
176
     1
 90
        1
176
     1
 90
        1
176
     1
 40
1.0
176
     1
 90
        8
176
     1
 62
     7
176
     1
 40
1.0
176
     1
 90
        1
176
     1
 90
        6
176
     1
 90
        2
176
     1
 62
     7
176
     1
 90
        5
176
     1
 90
        0
176
     1
 90
        0
176
     1
290
     0
176
     1
 90
        1
176
     1
 40
0.0
176
     1
 90
        0
176
     1
290
     0
176
     1
290
     1
176
     1
290
     1
176
     1
290
     0
176
     1
290
     0
176
     1
290
     0
176
     1
290
     0
176
     1
290
     0
176
     1
290
     0
176
     1
 90
       50
176
     1
 40
0.0
176
     1
 40
1.0
176
     1
 90
        0
176
     1
 62
    18
420
        0
176
     1
 90
       50
176
     1
 90
        3
176
     1
 62
     5
420
      255
176
     1
290
     0
176
     1
 90
       50
176
     1
 90
       50
176
     1
 90
       50
176
     1
290
     0
176
     1
 90
       50
176
     1
 62
   256
176
     0
 40
1.0
176
     0
 90
        2
176
     1
  1
strokes_ogs.tif
176
     1
290
     0
176
     1
 40
1.0
176
     1
 40
1.0
176
     1
  0
VISUALSTYLE
  5
2B
102
{ACAD_REACTORS
330
2A
102
}
330
2A
100
AcDbVisualStyle
  2
Flat
 70
     0
177
     3
291
     1
 70
    58
 90
        2
176
     1
 90
        1
176
     1
 90
        1
176
     1
 90
        2
176
     1
 40
0.6
176
     1
 40
30.0
176
     1
 62
     7
420
 16777215
176
     1
 90
        0
176
     1
 90
        0
176
     1
 62
     7
176
     1
 62
   257
176
     1
 90
        1
176
     1
 90
        1
176
     1
 40
1.0
176
     1
 90
        8
176
     1
 62
     7
176
     1
 40
1.0
176
     1
 90
        1
176
     1
 90
        6
176
     1
 90
        2
176
     1
 62
     7
176
     1
 90
        5
176
     1
 90
        0
176
     1
 90
        0
176
     1
290
     0
176
     1
 90
       13
176
     1
 40
0.0
176
     1
 90
        0
176
     1
290
     0
176
     1
290
     1
176
     1
290
     1
176
     1
290
     0
176
     1
290
     0
176
     1
290
     0
176
     1
290
     0
176
     1
290
     0
176
     1
290
     0
176
     1
 90
       50
176
     1
 40
0.0
176
     1
 40
1.0
176
     1
 90
        0
176
     1
 62
    18
420
        0
176
     1
 90
       50
176
     1
 90
        3
176
     1
 62
     5
420
      255
176
     1
290
     0
176
     1
 90
       50
176
     1
 90
       50
176
     1
 90
       50
176
     1
290
     0
176
     1
 90
       50
176
     1
 62
   256
176
     0
 40
1.0
176
     0
 90
        2
176
     1
  1
strokes_ogs.tif
176
     1
290
     0
176
     1
 40
1.0
176
     1
 40
1.0
176
     1
  0
VISUALSTYLE
  5
2C
102
{ACAD_REACTORS
330
2A
102
}
330
2A
100
AcDbVisualStyle
  2
FlatWithEdges
 70
     1
177
     3
291
     1
 70
    58
 90
        2
176
     1
 90
        1
176
     1
 90
        1
176
     1
 90
        2
176
     1
 40
0.6
176
     1
 40
30.0
176
     1
 62
     7
420
 16777215
176
     1
 90
        1
176
     1
 90
        0
176
     1
 62
     7
176
     1
 62
   257
176
     1
 90
        1
176
     1
 90
        1
176
     1
 40
1.0
176
     1
 90
        0
176
     1
 62
   257
176
     1
 40
1.0
176
     1
 90
        1
176
     1
 90
        6
176
     1
 90
        2
176
     1
 62
     7
176
     1
 90
        5
176
     1
 90
        0
176
     1
 90
        0
176
     1
290
     0
176
     1
 90
       13
176
     1
 40
0.0
176
     1
 90
        0
176
     1
290
     0
176
     1
290
     1
176
     1
290
     1
176
     1
290
     0
176
     1
290
     0
176
     1
290
     0
176
     1
290
     0
176
     1
290
     0
176
     1
290
     0
176
     1
 90
       50
176
     1
 40
0.0
176
     1
 40
1.0
176
     1
 90
        0
176
     1
 62
    18
420
        0
176
     1
 90
       50
176
     1
 90
        3
176
     1
 62
     5
420
      255
176
     1
290
     0
176
     1
 90
       50
176
     1
 90
       50
176
     1
 90
       50
176
     1
290
     0
176
     1
 90
       50
176
     1
 62
   256
176
     0
 40
1.0
176
     0
 90
        2
176
     1
  1
strokes_ogs.tif
176
     1
290
     0
176
     1
 40
1.0
176
     1
 40
1.0
176
     1
  0
VISUALSTYLE
  5
2D
102
{ACAD_REACTORS
330
2A
102
}
330
2A
100
AcDbVisualStyle
  2
Gouraud
 70
     2
177
     3
291
     1
 70
    58
 90
        2
176
     1
 90
        2
176
     1
 90
        1
176
     1
 90
        2
176
     1
 40
0.6
176
     1
 40
30.0
176
     1
 62
     7
420
 16777215
176
     1
 90
        0
176
     1
 90
        0
176
     1
 62
     7
176
     1
 62
   257
176
     1
 90
        1
176
     1
 90
        1
176
     1
 40
1.0
176
     1
 90
        0
176
     1
 62
     7
176
     1
 40
1.0
176
     1
 90
        1
176
     1
 90
        6
176
     1
 90
        2
176
     1
 62
     7
176
     1
 90
        5
176
     1
 90
        0
176
     1
 90
        0
176
     1
290
     0
176
     1
 90
       13
176
     1
 40
0.0
176
     1
 90
        0
176
     1
290
     0
176
     1
290
     1
176
     1
290
     1
176
     1
290
     0
176
     1
290
     0
176
     1
290
     0
176
     1
290
     0
176
     1
290
     0
176
     1
290
     0
176
     1
 90
       50
176
     1
 40
0.0
176
     1
 40
1.0
176
     1
 90
        0
176
     1
 62
    18
420
        0
176
     1
 90
       50
176
     1
 90
        3
176
     1
 62
     5
420
      255
176
     1
290
     0
176
     1
 90
       50
176
     1
 90
       50
176
     1
 90
       50
176
     1
290
     0
176
     1
 90
       50
176
     1
 62
   256
176
     0
 40
1.0
176
     0
 90
        2
176
     1
  1
strokes_ogs.tif
176
     1
290
     0
176
     1
 40
1.0
176
     1
 40
1.0
176
     1
  0
VISUALSTYLE
  5
2E
102
{ACAD_REACTORS
330
2A
102
}
330
2A
100
AcDbVisualStyle
  2
GouraudWithEdges
 70
     3
177
     3
291
     1
 70
    58
 90
        2
176
     1
 90
        2
176
     1
 90
        1
176
     1
 90
        2
176
     1
 40
0.6
176
     1
 40
30.0
176
     1
 62
     7
420
 16777215
176
     1
 90
        1
176
     1
 90
        0
176
     1
 62
     7
176
     1
 62
   257
176
     1
 90
        1
176
     1
 90
        1
176
     1
 40
1.0
176
     1
 90
        0
176
     1
 62
   257
176
     1
 40
1.0
176
     1
 90
        1
176
     1
 90
        6
176
     1
 90
        2
176
     1
 62
     7
176
     1
 90
        5
176
     1
 90
        0
176
     1
 90
        0
176
     1
290
     0
176
     1
 90
       13
176
     1
 40
0.0
176
     1
 90
        0
176
     1
290
     0
176
     1
290
     1
176
     1
290
     1
176
     1
290
     0
176
     1
290
     0
176
     1
290
     0
176
     1
290
     0
176
     1
290
     0
176
     1
290
     0
176
     1
 90
       50
176
     1
 40
0.0
176
     1
 40
1.0
176
     1
 90
        0
176
     1
 62
    18
420
        0
176
     1
 90
       50
176
     1
 90
        3
176
     1
 62
     5
420
      255
176
     1
290
     0
176
     1
 90
       50
176
     1
 90
       50
176
     1
 90
       50
176
     1
290
     0
176
     1
 90
       50
176
     1
 62
   256
176
     0
 40
1.0
176
     0
 90
        2
176
     1
  1
strokes_ogs.tif
176
     1
290
     0
176
     1
 40
1.0
176
     1
 40
1.0
176
     1
  0
VISUALSTYLE
  5
31
102
{ACAD_REACTORS
330
2A
102
}
330
2A
100
AcDbVisualStyle
  2
Hidden
 70
     6
177
     3
291
     0
 70
    58
 90
        1
176
     1
 90
        2
176
     1
 90
        2
176
     1
 90
        0
176
     1
 40
0.6
176
     1
 40
30.0
176
     1
 62
     7
420
 16777215
176
     1
 90
        2
176
     1
 90
        2
176
     1
 62
     7
176
     1
 62
   257
176
     1
 90
        2
176
     1
 90
        1
176
     1
 40
40.0
176
     1
 90
        0
176
     1
 62
   257
176
     1
 40
1.0
176
     1
 90
        1
176
     1
 90
        6
176
     1
 90
        2
176
     1
 62
     7
176
     1
 90
        3
176
     1
 90
        0
176
     1
 90
        0
176
     1
290
     0
176
     1
 90
        1
176
     1
 40
0.0
176
     1
 90
        0
176
     1
290
     0
176
     1
290
     1
176
     1
290
     1
176
     1
290
     0
176
     1
290
     0
176
     1
290
     0
176
     1
290
     0
176
     1
290
     0
176
     1
290
     0
176
     1
 90
       50
176
     1
 40
0.0
176
     1
 40
1.0
176
     1
 90
        0
176
     1
 62
    18
420
        0
176
     1
 90
       50
176
     1
 90
        3
176
     1
 62
     5
420
      255
176
     1
290
     0
176
     1
 90
       50
176
     1
 90
       50
176
     1
 90
       50
176
     1
290
     0
176
     1
 90
       50
176
     1
 62
   256
176
     0
 40
1.0
176
     0
 90
        2
176
     1
  1
strokes_ogs.tif
176
     1
290
     0
176
     1
 40
1.0
176
     1
 40
1.0
176
     1
  0
VISUALSTYLE
  5
3B
102
{ACAD_REACTORS
330
2A
102
}
330
2A
100
AcDbVisualStyle
  2
JitterOff
 70
    20
177
     3
291
     1
 70
    58
 90
        2
176
     0
 90
        2
176
     0
 90
        0
176
     0
 90
        0
176
     0
 40
0.6
176
     0
 40
30.0
176
     0
 62
     7
420
 16777215
176
     0
 90
        1
176
     0
 90
        4
176
     0
 62
     7
176
     0
 62
   257
176
     0
 90
        1
176
     0
 90
        1
176
     0
 40
1.0
176
     0
 90
       10
176
     2
 62
     7
176
     0
 40
1.0
176
     0
 90
        1
176
     0
 90
        6
176
     0
 90
        2
176
     0
 62
     7
176
     0
 90
        5
176
     0
 90
        0
176
     0
 90
        0
176
     0
290
     0
176
     0
 90
        1
176
     0
 40
0.0
176
     0
 90
        0
176
     0
290
     0
176
     0
290
     1
176
     0
290
     1
176
     0
290
     0
176
     0
290
     0
176
     0
290
     0
176
     0
290
     0
176
     0
290
     0
176
     0
290
     0
176
     0
 90
       50
176
     0
 40
0.0
176
     0
 40
1.0
176
     0
 90
        0
176
     0
 62
    18
420
        0
176
     0
 90
       50
176
     0
 90
        3
176
     0
 62
     5
420
      255
176
     0
290
     0
176
     0
 90
       50
176
     0
 90
       50
176
     0
 90
       50
176
     0
290
     0
176
     0
 90
       50
176
     0
 62
   256
176
     0
 40
1.0
176
     0
 90
        2
176
     0
  1
strokes_ogs.tif
176
     0
290
     0
176
     0
 40
1.0
176
     0
 40
1.0
176
     0
  0
VISUALSTYLE
  5
38
102
{ACAD_REACTORS
330
2A
102
}
330
2A
100
AcDbVisualStyle
  2
Linepattern
 70
    14
177
     3
291
     1
 70
    58
 90
        2
176
     1
 90
        2
176
     1
 90
        0
176
     1
 90
        0
176
     1
 40
0.6
176
     1
 40
30.0
176
     1
 62
     7
420
 16777215
176
     1
 90
        1
176
     1
 90
        4
176
     1
 62
     7
176
     1
 62
   257
176
     1
 90
        7
176
     1
 90
        7
176
     1
 40
1.0
176
     1
 90
        8
176
     1
 62
     7
176
     1
 40
1.0
176
     1
 90
        1
176
     1
 90
        6
176
     1
 90
        2
176
     1
 62
     7
176
     1
 90
        5
176
     1
 90
        0
176
     1
 90
        0
176
     1
290
     0
176
     1
 90
        1
176
     1
 40
0.0
176
     1
 90
        0
176
     1
290
     0
176
     1
290
     1
176
     1
290
     1
176
     1
290
     0
176
     1
290
     0
176
     1
290
     0
176
     1
290
     0
176
     1
290
     0
176
     1
290
     0
176
     1
 90
       50
176
     1
 40
0.0
176
     1
 40
1.0
176
     1
 90
        0
176
     1
 62
    18
420
        0
176
     1
 90
       50
176
     1
 90
        3
176
     1
 62
     5
420
      255
176
     1
290
     0
176
     1
 90
       50
176
     1
 90
       50
176
     1
 90
       50
176
     1
290
     0
176
     1
 90
       50
176
     1
 62
   256
176
     0
 40
1.0
176
     0
 90
        2
176
     1
  1
strokes_ogs.tif
176
     1
290
     0
176
     1
 40
1.0
176
     1
 40
1.0
176
     1
  0
VISUALSTYLE
  5
3C
102
{ACAD_REACTORS
330
2A
102
}
330
2A
100
AcDbVisualStyle
  2
OverhangOff
 70
    21
177
     3
291
     1
 70
    58
 90
        2
176
     0
 90
        2
176
     0
 90
        0
176
     0
 90
        0
176
     0
 40
0.6
176
     0
 40
30.0
176
     0
 62
     7
420
 16777215
176
     0
 90
        1
176
     0
 90
        4
176
     0
 62
     7
176
     0
 62
   257
176
     0
 90
        1
176
     0
 90
        1
176
     0
 40
1.0
176
     0
 90
        9
176
     2
 62
     7
176
     0
 40
1.0
176
     0
 90
        1
176
     0
 90
        6
176
     0
 90
        2
176
     0
 62
     7
176
     0
 90
        5
176
     0
 90
        0
176
     0
 90
        0
176
     0
290
     0
176
     0
 90
        1
176
     0
 40
0.0
176
     0
 90
        0
176
     0
290
     0
176
     0
290
     1
176
     0
290
     1
176
     0
290
     0
176
     0
290
     0
176
     0
290
     0
176
     0
290
     0
176
     0
290
     0
176
     0
290
     0
176
     0
 90
       50
176
     0
 40
0.0
176
     0
 40
1.0
176
     0
 90
        0
176
     0
 62
    18
420
        0
176
     0
 90
       50
176
     0
 90
        3
176
     0
 62
     5
420
      255
176
     0
290
     0
176
     0
 90
       50
176
     0
 90
       50
176
     0
 90
       50
176
     0
290
     0
176
     0
 90
       50
176
     0
 62
   256
176
     0
 40
1.0
176
     0
 90
        2
176
     0
  1
strokes_ogs.tif
176
     0
290
     0
176
     0
 40
1.0
176
     0
 40
1.0
176
     0
  0
VISUALSTYLE
  5
33
102
{ACAD_REACTORS
330
2A
102
}
330
2A
100
AcDbVisualStyle
  2
Realistic
 70
     8
177
     3
291
     0
 70
    58
 90
        2
176
     1
 90
        3
176
     1
 90
        0
176
     1
 90
        2
176
     1
 40
0.6
176
     1
 40
30.0
176
     1
 62
     7
420
 16777215
176
     1
 90
        0
176
     1
 90
        0
176
     1
 62
     7
176
     1
 62
   257
176
     1
 90
        1
176
     1
 90
        1
176
     1
 40
1.0
176
     1
 90
        8
176
     1
 62
   257
176
     1
 40
1.0
176
     1
 90
        1
176
     1
 90
        6
176
     1
 90
        2
176
     1
 62
     7
176
     1
 90
        3
176
     1
 90
        0
176
     1
 90
        0
176
     1
290
     0
176
     1
 90
       13
176
     1
 40
0.0
176
     1
 90
        0
176
     1
290
     0
176
     1
290
     1
176
     1
290
     1
176
     1
290
     0
176
     1
290
     0
176
     1
290
     0
176
     1
290
     0
176
     1
290
     0
176
     1
290
     0
176
     1
 90
       50
176
     1
 40
0.0
176
     1
 40
1.0
176
     1
 90
        0
176
     1
 62
    18
420
        0
176
     1
 90
       50
176
     1
 90
        3
176
     1
 62
     5
420
      255
176
     1
290
     0
176
     1
 90
       50
176
     1
 90
       50
176
     1
 90
       50
176
     1
290
     0
176
     1
 90
       50
176
     1
 62
   256
176
     0
 40
1.0
176
     0
 90
        2
176
     1
  1
strokes_ogs.tif
176
     1
290
     0
176
     1
 40
1.0
176
     1
 40
1.0
176
     1
  0
VISUALSTYLE
  5
42
102
{ACAD_REACTORS
330
2A
102
}
330
2A
100
AcDbVisualStyle
  2
Shaded
 70
    27
177
     3
291
     0
 70
    58
 90
        2
176
     1
 90
        2
176
     1
 90
        1
176
     1
 90
        2
176
     1
 40
0.6
176
     1
 40
30.0
176
     1
 62
     7
420
 16777215
176
     1
 90
        0
176
     1
 90
        4
176
     1
 62
     7
176
     1
 62
   257
176
     1
 90
        1
176
     1
 90
        1
176
     1
 40
1.0
176
     1
 90
        8
176
     1
 62
   257
176
     1
 40
1.0
176
     1
 90
        1
176
     1
 90
        6
176
     1
 90
        2
176
     1
 62
     8
420
  7895160
176
     1
 90
        3
176
     1
 90
        0
176
     1
 90
        0
176
     1
290
     0
176
     1
 90
        5
176
     1
 40
0.0
176
     1
 90
        0
176
     1
290
     0
176
     1
290
     1
176
     1
290
     1
176
     1
290
     0
176
     1
290
     0
176
     1
290
     0
176
     1
290
     0
176
     1
290
     0
176
     1
290
     0
176
     1
 90
       50
176
     1
 40
0.0
176
     1
 40
1.0
176
     1
 90
        0
176
     1
 62
    18
420
        0
176
     1
 90
       50
176
     1
 90
        3
176
     1
 62
     5
420
      255
176
     1
290
     0
176
     1
 90
       50
176
     1
 90
       50
176
     1
 90
       50
176
     1
290
     0
176
     1
 90
       50
176
     1
 62
   256
176
     0
 40
1.0
176
     0
 90
        2
176
     1
  1
strokes_ogs.tif
176
     1
290
     0
176
     1
 40
1.0
176
     1
 40
1.0
176
     1
  0
VISUALSTYLE
  5
41
102
{ACAD_REACTORS
330
2A
102
}
330
2A
100
AcDbVisualStyle
  2
Shaded with edges
 70
    26
177
     3
291
     0
 70
    58
 90
        2
176
     1
 90
        2
176
     1
 90
        1
176
     1
 90
        2
176
     1
 40
0.6
176
     1
 40
30.0
176
     1
 62
     7
420
 16777215
176
     1
 90
        1
176
     1
 90
       10
176
     1
 62
     7
176
     1
 62
   257
176
     1
 90
        2
176
     1
 90
        1
176
     1
 40
1.0
176
     1
 90
        8
176
     1
 62
   257
176
     1
 40
1.0
176
     1
 90
        1
176
     1
 90
        6
176
     1
 90
        2
176
     1
 62
     7
176
     1
 90
        3
176
     1
 90
        0
176
     1
 90
        0
176
     1
290
     0
176
     1
 90
        5
176
     1
 40
0.0
176
     1
 90
        0
176
     1
290
     0
176
     1
290
     1
176
     1
290
     1
176
     1
290
     0
176
     1
290
     0
176
     1
290
     0
176
     1
290
     0
176
     1
290
     0
176
     1
290
     0
176
     1
 90
       50
176
     1
 40
0.0
176
     1
 40
1.0
176
     1
 90
        0
176
     1
 62
    18
420
        0
176
     1
 90
       50
176
     1
 90
        3
176
     1
 62
     5
420
      255
176
     1
290
     0
176
     1
 90
       50
176
     1
 90
       50
176
     1
 90
       50
176
     1
290
     0
176
     1
 90
       50
176
     1
 62
   256
176
     0
 40
1.0
176
     0
 90
        2
176
     1
  1
strokes_ogs.tif
176
     1
290
     0
176
     1
 40
1.0
176
     1
 40
1.0
176
     1
  0
VISUALSTYLE
  5
3E
102
{ACAD_REACTORS
330
2A
102
}
330
2A
100
AcDbVisualStyle
  2
Shades of Gray
 70
    23
177
     3
291
     0
 70
    58
 90
        2
176
     1
 90
        2
176
     1
 90
        3
176
     1
 90
        0
176
     1
 40
0.6
176
     1
 40
30.0
176
     1
 62
     7
420
 16777215
176
     1
 90
        2
176
     1
 90
        2
176
     1
 62
     7
176
     1
 62
     7
176
     1
 90
        1
176
     1
 90
        1
176
     1
 40
40.0
176
     1
 90
        8
176
     1
 62
     7
176
     1
 40
1.0
176
     1
 90
        1
176
     1
 90
        6
176
     1
 90
        2
176
     1
 62
     7
176
     1
 90
        3
176
     1
 90
        0
176
     1
 90
        0
176
     1
290
     0
176
     1
 90
        1
176
     1
 40
0.0
176
     1
 90
        0
176
     1
290
     0
176
     1
290
     1
176
     1
290
     1
176
     1
290
     0
176
     1
290
     0
176
     1
290
     0
176
     1
290
     0
176
     1
290
     0
176
     1
290
     0
176
     1
 90
       50
176
     1
 40
0.0
176
     1
 40
1.0
176
     1
 90
        0
176
     1
 62
    18
420
        0
176
     1
 90
       50
176
     1
 90
        3
176
     1
 62
     5
420
      255
176
     1
290
     0
176
     1
 90
       50
176
     1
 90
       50
176
     1
 90
       50
176
     1
290
     0
176
     1
 90
       50
176
     1
 62
   256
176
     0
 40
1.0
176
     0
 90
        2
176
     1
  1
strokes_ogs.tif
176
     1
290
     0
176
     1
 40
1.0
176
     1
 40
1.0
176
     1
  0
VISUALSTYLE
  5
3F
102
{ACAD_REACTORS
330
2A
102
}
330
2A
100
AcDbVisualStyle
  2
Sketchy
 70
    24
177
     3
291
     0
 70
    58
 90
        1
176
     1
 90
        2
176
     1
 90
        2
176
     1
 90
        0
176
     1
 40
0.6
176
     1
 40
30.0
176
     1
 62
     7
420
 16777215
176
     1
 90
        2
176
     1
 90
        2
176
     1
 62
     7
176
     1
 62
     7
176
     1
 90
        1
176
     1
 90
        1
176
     1
 40
40.0
176
     1
 90
       11
176
     1
 62
     7
176
     1
 40
1.0
176
     1
 90
        1
176
     1
 90
        6
176
     1
 90
        2
176
     1
 62
     7
176
     1
 90
        6
176
     1
 90
        0
176
     1
 90
        0
176
     1
290
     0
176
     1
 90
        1
176
     1
 40
0.0
176
     1
 90
        0
176
     1
290
     0
176
     1
290
     1
176
     1
290
     1
176
     1
290
     0
176
     1
290
     0
176
     1
290
     0
176
     1
290
     0
176
     1
290
     0
176
     1
290
     0
176
     1
 90
       50
176
     1
 40
0.0
176
     1
 40
1.0
176
     1
 90
        0
176
     1
 62
    18
420
        0
176
     1
 90
       50
176
     1
 90
        3
176
     1
 62
     5
420
      255
176
     1
290
     0
176
     1
 90
       50
176
     1
 90
       50
176
     1
 90
       50
176
     1
290
     0
176
     1
 90
       50
176
     1
 62
   256
176
     0
 40
1.0
176
     0
 90
        2
176
     1
  1
strokes_ogs.tif
176
     1
290
     0
176
     1
 40
1.0
176
     1
 40
1.0
176
     1
  0
VISUALSTYLE
  5
37
102
{ACAD_REACTORS
330
2A
102
}
330
2A
100
AcDbVisualStyle
  2
Thicken
 70
    13
177
     3
291
     1
 70
    58
 90
        2
176
     1
 90
        2
176
     1
 90
        0
176
     1
 90
        0
176
     1
 40
0.6
176
     1
 40
30.0
176
     1
 62
     7
420
 16777215
176
     1
 90
        1
176
     1
 90
        4
176
     1
 62
     7
176
     1
 62
   257
176
     1
 90
        1
176
     1
 90
        1
176
     1
 40
1.0
176
     1
 90
       12
176
     1
 62
     7
176
     1
 40
1.0
176
     1
 90
        1
176
     1
 90
        6
176
     1
 90
        2
176
     1
 62
     7
176
     1
 90
        5
176
     1
 90
        0
176
     1
 90
        0
176
     1
290
     0
176
     1
 90
        1
176
     1
 40
0.0
176
     1
 90
        0
176
     1
290
     0
176
     1
290
     1
176
     1
290
     1
176
     1
290
     0
176
     1
290
     0
176
     1
290
     0
176
     1
290
     0
176
     1
290
     0
176
     1
290
     0
176
     1
 90
       50
176
     1
 40
0.0
176
     1
 40
1.0
176
     1
 90
        0
176
     1
 62
    18
420
        0
176
     1
 90
       50
176
     1
 90
        3
176
     1
 62
     5
420
      255
176
     1
290
     0
176
     1
 90
       50
176
     1
 90
       50
176
     1
 90
       50
176
     1
290
     0
176
     1
 90
       50
176
     1
 62
   256
176
     0
 40
1.0
176
     0
 90
        2
176
     1
  1
strokes_ogs.tif
176
     1
290
     0
176
     1
 40
1.0
176
     1
 40
1.0
176
     1
  0
VISUALSTYLE
  5
30
102
{ACAD_REACTORS
330
2A
102
}
330
2A
100
AcDbVisualStyle
  2
Wireframe
 70
     5
177
     3
291
     0
 70
    58
 90
        0
176
     1
 90
        2
176
     1
 90
        0
176
     1
 90
        0
176
     1
 40
0.6
176
     1
 40
30.0
176
     1
 62
     7
420
 16777215
176
     1
 90
        1
176
     1
 90
        4
176
     1
 62
     7
176
     1
 62
   257
176
     1
 90
        1
176
     1
 90
        1
176
     1
 40
1.0
176
     1
 90
        0
176
     1
 62
   257
176
     1
 40
1.0
176
     1
 90
        1
176
     1
 90
        6
176
     1
 90
        2
176
     1
 62
     7
176
     1
 90
        3
176
     1
 90
        0
176
     1
 90
        0
176
     1
290
     0
176
     1
 90
        1
176
     1
 40
0.0
176
     1
 90
        0
176
     1
290
     0
176
     1
290
     1
176
     1
290
     1
176
     1
290
     0
176
     1
290
     0
176
     1
290
     0
176
     1
290
     0
176
     1
290
     0
176
     1
290
     0
176
     1
 90
       50
176
     1
 40
0.0
176
     1
 40
1.0
176
     1
 90
        0
176
     1
 62
    18
420
        0
176
     1
 90
       50
176
     1
 90
        3
176
     1
 62
     5
420
      255
176
     1
290
     0
176
     1
 90
       50
176
     1
 90
       50
176
     1
 90
       50
176
     1
290
     0
176
     1
 90
       50
176
     1
 62
   256
176
     0
 40
1.0
176
     0
 90
        2
176
     1
  1
strokes_ogs.tif
176
     1
290
     0
176
     1
 40
1.0
176
     1
 40
1.0
176
     1
  0
VISUALSTYLE
  5
40
102
{ACAD_REACTORS
330
2A
102
}
330
2A
100
AcDbVisualStyle
  2
X-Ray
 70
    25
177
     3
291
     0
 70
    58
 90
        2
176
     1
 90
        2
176
     1
 90
        1
176
     1
 90
        1
176
     1
 40
0.5
176
     1
 40
30.0
176
     1
 62
     7
420
 16777215
176
     1
 90
        1
176
     1
 90
        0
176
     1
 62
     7
176
     1
 62
   257
176
     1
 90
        1
176
     1
 90
        1
176
     1
 40
1.0
176
     1
 90
        8
176
     1
 62
     7
176
     1
 40
1.0
176
     1
 90
        1
176
     1
 90
        6
176
     1
 90
        2
176
     1
 62
     7
176
     1
 90
        3
176
     1
 90
        0
176
     1
 90
        0
176
     1
290
     0
176
     1
 90
       13
176
     1
 40
0.0
176
     1
 90
        0
176
     1
290
     0
176
     1
290
     1
176
     1
290
     1
176
     1
290
     0
176
     1
290
     0
176
     1
290
     0
176
     1
290
     0
176
     1
290
     0
176
     1
290
     0
176
     1
 90
       50
176
     1
 40
0.0
176
     1
 40
1.0
176
     1
 90
        0
176
     1
 62
    18
420
        0
176
     1
 90
       50
176
     1
 90
        3
176
     1
 62
     5
420
      255
176
     1
290
     0
176
     1
 90
       50
176
     1
 90
       50
176
     1
 90
       50
176
     1
290
     0
176
     1
 90
       50
176
     1
 62
   256
176
     0
 40
1.0
176
     0
 90
        2
176
     1
  1
strokes_ogs.tif
176
     1
290
     0
176
     1
 40
1.0
176
     1
 40
1.0
176
     1
  0
DICTIONARYVAR
  5
193
102
{ACAD_REACTORS
330
192
102
}
330
192
100
DictionaryVariables
280
     0
  1
1:1
  0
DICTIONARYVAR
  5
198
102
{ACAD_REACTORS
330
192
102
}
330
192
100
DictionaryVariables
280
     0
  1
Standard
  0
DICTIONARYVAR
  5
197
102
{ACAD_REACTORS
330
192
102
}
330
192
100
DictionaryVariables
280
     0
  1
Standard
  0
DICTIONARY
  5
194
330
6A
100
AcDbDictionary
280
     1
281
     1
  3
ACAD_ROUNDTRIP_2008_TABLESTYLE_CELLSTYLEMAP
360
195
  0
CELLSTYLEMAP
  5
195
102
{ACAD_REACTORS
330
194
102
}
330
194
100
AcDbCellStyleMap
 90
        3
300
CELLSTYLE
  1
TABLEFORMAT_BEGIN
 90
        5
170
     1
 91
        0
 92
    32768
 62
   257
 93
        1
300
CONTENTFORMAT
  1
CONTENTFORMAT_BEGIN
 90
        0
 91
        0
 92
        4
 93
        0
300

 40
0.0
140
1.0
 94
        5
 62
     0
340
11
144
6.0
309
CONTENTFORMAT_END
171
     1
301
MARGIN
  1
CELLMARGIN_BEGIN
 40
1.5
 40
1.5
 40
1.5
 40
1.5
 40
1.5
 40
1.5
309
CELLMARGIN_END
 94
        6
 95
        1
302
GRIDFORMAT
  1
GRIDFORMAT_BEGIN
 90
        0
 91
        1
 62
     0
 92
       -2
340
14
 93
        0
 40
0.045
309
GRIDFORMAT_END
 95
        2
302
GRIDFORMAT
  1
GRIDFORMAT_BEGIN
 90
        0
 91
        1
 62
     0
 92
       -2
340
14
 93
        0
 40
0.045
309
GRIDFORMAT_END
 95
        4
302
GRIDFORMAT
  1
GRIDFORMAT_BEGIN
 90
        0
 91
        1
 62
     0
 92
       -2
340
14
 93
        0
 40
0.045
309
GRIDFORMAT_END
 95
        8
302
GRIDFORMAT
  1
GRIDFORMAT_BEGIN
 90
        0
 91
        1
 62
     0
 92
       -2
340
14
 93
        0
 40
0.045
309
GRIDFORMAT_END
 95
       16
302
GRIDFORMAT
  1
GRIDFORMAT_BEGIN
 90
        0
 91
        1
 62
     0
 92
       -2
340
14
 93
        0
 40
0.045
309
GRIDFORMAT_END
 95
       32
302
GRIDFORMAT
  1
GRIDFORMAT_BEGIN
 90
        0
 91
        1
 62
     0
 92
       -2
340
14
 93
        0
 40
0.045
309
GRIDFORMAT_END
309
TABLEFORMAT_END
  1
CELLSTYLE_BEGIN
 90
        1
 91
        1
300
_TITLE
309
CELLSTYLE_END
300
CELLSTYLE
  1
TABLEFORMAT_BEGIN
 90
        5
170
     1
 91
        0
 92
        0
 62
   257
 93
        1
300
CONTENTFORMAT
  1
CONTENTFORMAT_BEGIN
 90
        0
 91
        0
 92
        4
 93
        0
300

 40
0.0
140
1.0
 94
        5
 62
     0
340
11
144
4.5
309
CONTENTFORMAT_END
171
     1
301
MARGIN
  1
CELLMARGIN_BEGIN
 40
1.5
 40
1.5
 40
1.5
 40
1.5
 40
1.5
 40
1.5
309
CELLMARGIN_END
 94
        6
 95
        1
302
GRIDFORMAT
  1
GRIDFORMAT_BEGIN
 90
        0
 91
        1
 62
     0
 92
       -2
340
14
 93
        0
 40
0.045
309
GRIDFORMAT_END
 95
        2
302
GRIDFORMAT
  1
GRIDFORMAT_BEGIN
 90
        0
 91
        1
 62
     0
 92
       -2
340
14
 93
        0
 40
0.045
309
GRIDFORMAT_END
 95
        4
302
GRIDFORMAT
  1
GRIDFORMAT_BEGIN
 90
        0
 91
        1
 62
     0
 92
       -2
340
14
 93
        0
 40
0.045
309
GRIDFORMAT_END
 95
        8
302
GRIDFORMAT
  1
GRIDFORMAT_BEGIN
 90
        0
 91
        1
 62
     0
 92
       -2
340
14
 93
        0
 40
0.045
309
GRIDFORMAT_END
 95
       16
302
GRIDFORMAT
  1
GRIDFORMAT_BEGIN
 90
        0
 91
        1
 62
     0
 92
       -2
340
14
 93
        0
 40
0.045
309
GRIDFORMAT_END
 95
       32
302
GRIDFORMAT
  1
GRIDFORMAT_BEGIN
 90
        0
 91
        1
 62
     0
 92
       -2
340
14
 93
        0
 40
0.045
309
GRIDFORMAT_END
309
TABLEFORMAT_END
  1
CELLSTYLE_BEGIN
 90
        2
 91
        1
300
_HEADER
309
CELLSTYLE_END
300
CELLSTYLE
  1
TABLEFORMAT_BEGIN
 90
        5
170
     1
 91
        0
 92
        0
 62
   257
 93
        1
300
CONTENTFORMAT
  1
CONTENTFORMAT_BEGIN
 90
        0
 91
        0
 92
        4
 93
        0
300

 40
0.0
140
1.0
 94
        2
 62
     0
340
11
144
4.5
309
CONTENTFORMAT_END
171
     1
301
MARGIN
  1
CELLMARGIN_BEGIN
 40
1.5
 40
1.5
 40
1.5
 40
1.5
 40
1.5
 40
1.5
309
CELLMARGIN_END
 94
        6
 95
        1
302
GRIDFORMAT
  1
GRIDFORMAT_BEGIN
 90
        0
 91
        1
 62
     0
 92
       -2
340
14
 93
        0
 40
0.045
309
GRIDFORMAT_END
 95
        2
302
GRIDFORMAT
  1
GRIDFORMAT_BEGIN
 90
        0
 91
        1
 62
     0
 92
       -2
340
14
 93
        0
 40
0.045
309
GRIDFORMAT_END
 95
        4
302
GRIDFORMAT
  1
GRIDFORMAT_BEGIN
 90
        0
 91
        1
 62
     0
 92
       -2
340
14
 93
        0
 40
0.045
309
GRIDFORMAT_END
 95
        8
302
GRIDFORMAT
  1
GRIDFORMAT_BEGIN
 90
        0
 91
        1
 62
     0
 92
       -2
340
14
 93
        0
 40
0.045
309
GRIDFORMAT_END
 95
       16
302
GRIDFORMAT
  1
GRIDFORMAT_BEGIN
 90
        0
 91
        1
 62
     0
 92
       -2
340
14
 93
        0
 40
0.045
309
GRIDFORMAT_END
 95
       32
302
GRIDFORMAT
  1
GRIDFORMAT_BEGIN
 90
        0
 91
        1
 62
     0
 92
       -2
340
14
 93
        0
 40
0.045
309
GRIDFORMAT_END
309
TABLEFORMAT_END
  1
CELLSTYLE_BEGIN
 90
        3
 91
        2
300
_DATA
309
CELLSTYLE_END
  0
ENDSEC
  0
EOF