0
SECTION
  2
HEADER
  9
$ACADVER
  1
AC1027
  9
$ACADMAINTVER
 70
     8
  9
$DWGCODEPAGE
  3
ANSI_1252
  9
$REQUIREDVERSIONS
160
                 0
  9
$COMMENTS
  1
File was created by Cadenas
  9
$CUSTOMPROPERTYTAG
  1
NN
  9
$CUSTOMPROPERTY
  1
Eccentric Collar Intermediate Duty Wide Slot Take Up Inch Bore
  9
$CUSTOMPROPERTYTAG
  1
NT
  9
$CUSTOMPROPERTY
  1
Eccentric Collar Take-Up Bearings -(Intermediate Duty) -Wide Slot
  9
$CUSTOMPROPERTYTAG
  1
NB
  9
$CUSTOMPROPERTY
  1
130348
  9
$CUSTOMPROPERTYTAG
  1
NBSYN
  9
$CUSTOMPROPERTY
  1
$PN.
  9
$CUSTOMPROPERTYTAG
  1
LINA
  9
$CUSTOMPROPERTY
  1
130348
  9
$CUSTOMPROPERTYTAG
  1
SERIES
  9
$CUSTOMPROPERTY
  1
210
  9
$CUSTOMPROPERTYTAG
  1
SS
  9
$CUSTOMPROPERTY
  1
1-15/16
  9
$CUSTOMPROPERTYTAG
  1
PN
  9
$CUSTOMPROPERTY
  1
130348
  9
$CUSTOMPROPERTYTAG
  1
DESCRIPTION
  9
$CUSTOMPROPERTY
  1
WSTU-SXV-115
  9
$CUSTOMPROPERTYTAG
  1
W
  9
$CUSTOMPROPERTY
  1
4.9
  9
$CUSTOMPROPERTYTAG
  1
FS
  9
$CUSTOMPROPERTY
  1
WS400
  9
$CUSTOMPROPERTYTAG
  1
A
  9
$CUSTOMPROPERTY
  1
1.72
  9
$CUSTOMPROPERTYTAG
  1
B
  9
$CUSTOMPROPERTY
  1
5.82
  9
$CUSTOMPROPERTYTAG
  1
C
  9
$CUSTOMPROPERTY
  1
0.688
  9
$CUSTOMPROPERTYTAG
  1
D
  9
$CUSTOMPROPERTY
  1
3.38
  9
$CUSTOMPROPERTYTAG
  1
E
  9
$CUSTOMPROPERTY
  1
3.56
  9
$CUSTOMPROPERTYTAG
  1
F
  9
$CUSTOMPROPERTY
  1
1
  9
$CUSTOMPROPERTYTAG
  1
G
  9
$CUSTOMPROPERTY
  1
0.63
  9
$CUSTOMPROPERTYTAG
  1
H
  9
$CUSTOMPROPERTY
  1
0.75
  9
$CUSTOMPROPERTYTAG
  1
J
  9
$CUSTOMPROPERTY
  1
3.25
  9
$CUSTOMPROPERTYTAG
  1
K
  9
$CUSTOMPROPERTY
  1
1.94
  9
$CUSTOMPROPERTYTAG
  1
L
  9
$CUSTOMPROPERTY
  1
2.75
  9
$CUSTOMPROPERTYTAG
  1
M
  9
$CUSTOMPROPERTY
  1
3.985 / 4.015
  9
$CUSTOMPROPERTYTAG
  1
N
  9
$CUSTOMPROPERTY
  1
4.75
  9
$CUSTOMPROPERTYTAG
  1
R
  9
$CUSTOMPROPERTY
  1
0.43
  9
$CUSTOMPROPERTYTAG
  1
S
  9
$CUSTOMPROPERTY
  1
1.29
  9
$CUSTOMPROPERTYTAG
  1
T
  9
$CUSTOMPROPERTY
  1
1.94
  9
$CUSTOMPROPERTYTAG
  1
COMPANY
  9
$CUSTOMPROPERTY
  1
baldor
  9
$INSBASE
 10
0.0
 20
0.0
 30
0.0
  9
$EXTMIN
 10
1.000000000000000E+20
 20
1.000000000000000E+20
 30
1.000000000000000E+20
  9
$EXTMAX
 10
-1.000000000000000E+20
 20
-1.000000000000000E+20
 30
-1.000000000000000E+20
  9
$LIMMIN
 10
0.0
 20
0.0
  9
$LIMMAX
 10
12.0
 20
9.0
  9
$ORTHOMODE
 70
     0
  9
$REGENMODE
 70
     1
  9
$FILLMODE
 70
     1
  9
$QTEXTMODE
 70
     0
  9
$MIRRTEXT
 70
     1
  9
$LTSCALE
 40
1.0
  9
$ATTMODE
 70
     1
  9
$TEXTSIZE
 40
0.2
  9
$TRACEWID
 40
0.05
  9
$TEXTSTYLE
  7
Standard
  9
$CLAYER
  8
0
  9
$CELTYPE
  6
ByLayer
  9
$CECOLOR
 62
   256
  9
$CELTSCALE
 40
1.0
  9
$DISPSILH
 70
     0
  9
$DIMSCALE
 40
1.0
  9
$DIMASZ
 40
0.18
  9
$DIMEXO
 40
0.0625
  9
$DIMDLI
 40
0.38
  9
$DIMRND
 40
0.0
  9
$DIMDLE
 40
0.0
  9
$DIMEXE
 40
0.18
  9
$DIMTP
 40
0.0
  9
$DIMTM
 40
0.0
  9
$DIMTXT
 40
0.18
  9
$DIMCEN
 40
0.09
  9
$DIMTSZ
 40
0.0
  9
$DIMTOL
 70
     0
  9
$DIMLIM
 70
     0
  9
$DIMTIH
 70
     1
  9
$DIMTOH
 70
     1
  9
$DIMSE1
 70
     0
  9
$DIMSE2
 70
     0
  9
$DIMTAD
 70
     0
  9
$DIMZIN
 70
     0
  9
$DIMBLK
  1

  9
$DIMASO
 70
     1
  9
$DIMSHO
 70
     1
  9
$DIMPOST
  1

  9
$DIMAPOST
  1

  9
$DIMALT
 70
     0
  9
$DIMALTD
 70
     2
  9
$DIMALTF
 40
25.4
  9
$DIMLFAC
 40
1.0
  9
$DIMTOFL
 70
     0
  9
$DIMTVP
 40
0.0
  9
$DIMTIX
 70
     0
  9
$DIMSOXD
 70
     0
  9
$DIMSAH
 70
     0
  9
$DIMBLK1
  1

  9
$DIMBLK2
  1

  9
$DIMSTYLE
  2
Standard
  9
$DIMCLRD
 70
     0
  9
$DIMCLRE
 70
     0
  9
$DIMCLRT
 70
     0
  9
$DIMTFAC
 40
1.0
  9
$DIMGAP
 40
0.09
  9
$DIMJUST
 70
     0
  9
$DIMSD1
 70
     0
  9
$DIMSD2
 70
     0
  9
$DIMTOLJ
 70
     1
  9
$DIMTZIN
 70
     0
  9
$DIMALTZ
 70
     0
  9
$DIMALTTZ
 70
     0
  9
$DIMUPT
 70
     0
  9
$DIMDEC
 70
     4
  9
$DIMTDEC
 70
     4
  9
$DIMALTU
 70
     2
  9
$DIMALTTD
 70
     2
  9
$DIMTXSTY
  7
Standard
  9
$DIMAUNIT
 70
     0
  9
$DIMADEC
 70
     0
  9
$DIMALTRND
 40
0.0
  9
$DIMAZIN
 70
     0
  9
$DIMDSEP
 70
    46
  9
$DIMATFIT
 70
     3
  9
$DIMFRAC
 70
     0
  9
$DIMLDRBLK
  1

  9
$DIMLUNIT
 70
     2
  9
$DIMLWD
 70
    -2
  9
$DIMLWE
 70
    -2
  9
$DIMTMOVE
 70
     0
  9
$DIMFXL
 40
1.0
  9
$DIMFXLON
 70
     0
  9
$DIMJOGANG
 40
0.7853981633974483
  9
$DIMTFILL
 70
     0
  9
$DIMTFILLCLR
 70
     0
  9
$DIMARCSYM
 70
     0
  9
$DIMLTYPE
  6

  9
$DIMLTEX1
  6

  9
$DIMLTEX2
  6

  9
$DIMTXTDIRECTION
 70
     0
  9
$LUNITS
 70
     2
  9
$LUPREC
 70
     4
  9
$SKETCHINC
 40
0.1
  9
$FILLETRAD
 40
0.5
  9
$AUNITS
 70
     0
  9
$AUPREC
 70
     0
  9
$MENU
  1
.
  9
$ELEVATION
 40
0.0
  9
$PELEVATION
 40
0.0
  9
$THICKNESS
 40
0.0
  9
$LIMCHECK
 70
     0
  9
$CHAMFERA
 40
0.0
  9
$CHAMFERB
 40
0.0
  9
$CHAMFERC
 40
0.0
  9
$CHAMFERD
 40
0.0
  9
$SKPOLY
 70
     0
  9
$TDCREATE
 40
2458169.003357604
  9
$TDUCREATE
 40
2458168.961690938
  9
$TDUPDATE
 40
2458169.003357778
  9
$TDUUPDATE
 40
2458168.961691111
  9
$TDINDWG
 40
0.0000000116
  9
$TDUSRTIMER
 40
0.0000000116
  9
$USRTIMER
 70
     1
  9
$ANGBASE
 50
0.0
  9
$ANGDIR
 70
     0
  9
$PDMODE
 70
     0
  9
$PDSIZE
 40
0.0
  9
$PLINEWID
 40
0.0
  9
$SPLFRAME
 70
     0
  9
$SPLINETYPE
 70
     6
  9
$SPLINESEGS
 70
     8
  9
$HANDSEED
  5
1E0
  9
$SURFTAB1
 70
     6
  9
$SURFTAB2
 70
     6
  9
$SURFTYPE
 70
     6
  9
$SURFU
 70
     6
  9
$SURFV
 70
     6
  9
$UCSBASE
  2

  9
$UCSNAME
  2

  9
$UCSORG
 10
0.0
 20
0.0
 30
0.0
  9
$UCSXDIR
 10
1.0
 20
0.0
 30
0.0
  9
$UCSYDIR
 10
0.0
 20
1.0
 30
0.0
  9
$UCSORTHOREF
  2

  9
$UCSORTHOVIEW
 70
     0
  9
$UCSORGTOP
 10
0.0
 20
0.0
 30
0.0
  9
$UCSORGBOTTOM
 10
0.0
 20
0.0
 30
0.0
  9
$UCSORGLEFT
 10
0.0
 20
0.0
 30
0.0
  9
$UCSORGRIGHT
 10
0.0
 20
0.0
 30
0.0
  9
$UCSORGFRONT
 10
0.0
 20
0.0
 30
0.0
  9
$UCSORGBACK
 10
0.0
 20
0.0
 30
0.0
  9
$PUCSBASE
  2

  9
$PUCSNAME
  2

  9
$PUCSORG
 10
0.0
 20
0.0
 30
0.0
  9
$PUCSXDIR
 10
1.0
 20
0.0
 30
0.0
  9
$PUCSYDIR
 10
0.0
 20
1.0
 30
0.0
  9
$PUCSORTHOREF
  2

  9
$PUCSORTHOVIEW
 70
     0
  9
$PUCSORGTOP
 10
0.0
 20
0.0
 30
0.0
  9
$PUCSORGBOTTOM
 10
0.0
 20
0.0
 30
0.0
  9
$PUCSORGLEFT
 10
0.0
 20
0.0
 30
0.0
  9
$PUCSORGRIGHT
 10
0.0
 20
0.0
 30
0.0
  9
$PUCSORGFRONT
 10
0.0
 20
0.0
 30
0.0
  9
$PUCSORGBACK
 10
0.0
 20
0.0
 30
0.0
  9
$USERI1
 70
     0
  9
$USERI2
 70
     0
  9
$USERI3
 70
     0
  9
$USERI4
 70
     0
  9
$USERI5
 70
     0
  9
$USERR1
 40
0.0
  9
$USERR2
 40
0.0
  9
$USERR3
 40
0.0
  9
$USERR4
 40
0.0
  9
$USERR5
 40
0.0
  9
$WORLDVIEW
 70
     1
  9
$SHADEDGE
 70
     3
  9
$SHADEDIF
 70
    70
  9
$TILEMODE
 70
     1
  9
$MAXACTVP
 70
    64
  9
$PINSBASE
 10
0.0
 20
0.0
 30
0.0
  9
$PLIMCHECK
 70
     0
  9
$PEXTMIN
 10
1.000000000000000E+20
 20
1.000000000000000E+20
 30
1.000000000000000E+20
  9
$PEXTMAX
 10
-1.000000000000000E+20
 20
-1.000000000000000E+20
 30
-1.000000000000000E+20
  9
$PLIMMIN
 10
0.0
 20
0.0
  9
$PLIMMAX
 10
12.0
 20
9.0
  9
$UNITMODE
 70
     0
  9
$VISRETAIN
 70
     1
  9
$PLINEGEN
 70
     0
  9
$PSLTSCALE
 70
     1
  9
$TREEDEPTH
 70
  3020
  9
$CMLSTYLE
  2
Standard
  9
$CMLJUST
 70
     0
  9
$CMLSCALE
 40
1.0
  9
$PROXYGRAPHICS
 70
     1
  9
$MEASUREMENT
 70
     0
  9
$CELWEIGHT
370
    -1
  9
$ENDCAPS
280
     0
  9
$JOINSTYLE
280
     0
  9
$LWDISPLAY
290
     0
  9
$INSUNITS
 70
     1
  9
$HYPERLINKBASE
  1

  9
$STYLESHEET
  1

  9
$XEDIT
290
     1
  9
$CEPSNTYPE
380
     0
  9
$PSTYLEMODE
290
     1
  9
$FINGERPRINTGUID
  2
{DC2665EE-0C87-41CE-AB63-532FEA095EB7}
  9
$VERSIONGUID
  2
{FAEB1C32-E019-11D5-929B-00C0DF256EC4}
  9
$EXTNAMES
290
     1
  9
$PSVPSCALE
 40
0.0
  9
$OLESTARTUP
290
     0
  9
$SORTENTS
280
   127
  9
$INDEXCTL
280
     0
  9
$HIDETEXT
280
     1
  9
$XCLIPFRAME
280
     2
  9
$HALOGAP
280
     0
  9
$OBSCOLOR
 70
   257
  9
$OBSLTYPE
280
     0
  9
$INTERSECTIONDISPLAY
280
     0
  9
$INTERSECTIONCOLOR
 70
   257
  9
$DIMASSOC
280
     2
  9
$PROJECTNAME
  1

  9
$CAMERADISPLAY
290
     0
  9
$LENSLENGTH
 40
50.0
  9
$CAMERAHEIGHT
 40
0.0
  9
$STEPSPERSEC
 40
2.0
  9
$STEPSIZE
 40
6.0
  9
$3DDWFPREC
 40
2.0
  9
$PSOLWIDTH
 40
0.25
  9
$PSOLHEIGHT
 40
4.0
  9
$LOFTANG1
 40
1.570796326794897
  9
$LOFTANG2
 40
1.570796326794897
  9
$LOFTMAG1
 40
0.0
  9
$LOFTMAG2
 40
0.0
  9
$LOFTPARAM
 70
     7
  9
$LOFTNORMALS
280
     1
  9
$LATITUDE
 40
37.795
  9
$LONGITUDE
 40
-122.394
  9
$NORTHDIRECTION
 40
0.0
  9
$TIMEZONE
 70
 -8000
  9
$LIGHTGLYPHDISPLAY
280
     1
  9
$TILEMODELIGHTSYNCH
280
     1
  9
$CMATERIAL
347
44
  9
$SOLIDHIST
280
     0
  9
$SHOWHIST
280
     1
  9
$DWFFRAME
280
     2
  9
$DGNFRAME
280
     2
  9
$REALWORLDSCALE
290
     1
  9
$INTERFERECOLOR
 62
   256
  9
$CSHADOW
280
     0
  9
$SHADOWPLANELOCATION
 40
0.0
  0
ENDSEC
  0
SECTION
  2
CLASSES
  0
CLASS
  1
ACDBDICTIONARYWDFLT
  2
AcDbDictionaryWithDefault
  3
ObjectDBX Classes
 90
        0
 91
        4
280
     0
281
     0
  0
CLASS
  1
VISUALSTYLE
  2
AcDbVisualStyle
  3
ObjectDBX Classes
 90
     4095
 91
        4
280
     0
281
     0
  0
CLASS
  1
MATERIAL
  2
AcDbMaterial
  3
ObjectDBX Classes
 90
     1153
 91
        4
280
     0
281
     0
  0
CLASS
  1
SCALE
  2
AcDbScale
  3
ObjectDBX Classes
 90
     1153
 91
        4
280
     0
281
     0
  0
CLASS
  1
TABLESTYLE
  2
AcDbTableStyle
  3
ObjectDBX Classes
 90
     4095
 91
        4
280
     0
281
     0
  0
CLASS
  1
MLEADERSTYLE
  2
AcDbMLeaderStyle
  3
ACDB_MLEADERSTYLE_CLASS
 90
     4095
 91
        4
280
     0
281
     0
  0
CLASS
  1
SUN
  2
AcDbSun
  3
SCENEOE
 90
     1153
 91
        4
280
     0
281
     0
  0
CLASS
  1
DICTIONARYVAR
  2
AcDbDictionaryVar
  3
ObjectDBX Classes
 90
        0
 91
        4
280
     0
281
     0
  0
CLASS
  1
CELLSTYLEMAP
  2
AcDbCellStyleMap
  3
ObjectDBX Classes
 90
     1152
 91
        4
280
     0
281
     0
  0
ENDSEC
  0
SECTION
  2
TABLES
  0
TABLE
  2
VPORT
  5
8
330
0
100
AcDbSymbolTable
 70
     1
  0
VPORT
  5
29
330
8
100
AcDbSymbolTableRecord
100
AcDbViewportTableRecord
  2
*Active
 70
     0
 10
0.0
 20
0.0
 11
1.0
 21
1.0
 12
-0.203125
 22
0.0
 13
0.0
 23
0.0
 14
0.5
 24
0.5
 15
0.5
 25
0.5
 16
0.0
 26
0.0
 36
1.0
 17
0.0
 27
0.0
 37
0.0
 40
4.845
 41
0.4939473684210522
 42
50.0
 43
0.0
 44
0.0
 50
0.0
 51
0.0
 71
     0
 72
   100
 73
     1
 74
     3
 75
     0
 76
     0
 77
     0
 78
     0
281
     0
 65
     1
110
0.0
120
0.0
130
0.0
111
1.0
121
0.0
131
0.0
112
0.0
122
1.0
132
0.0
 79
     0
146
0.0
348
2F
 60
     3
 61
     5
292
     1
282
     1
141
0.0
142
0.0
 63
   250
361
6D
  0
ENDTAB
  0
TABLE
  2
LTYPE
  5
5
330
0
100
AcDbSymbolTable
 70
     3
  0
LTYPE
  5
14
330
5
100
AcDbSymbolTableRecord
100
AcDbLinetypeTableRecord
  2
ByBlock
 70
     0
  3

 72
    65
 73
     0
 40
0.0
  0
LTYPE
  5
15
330
5
100
AcDbSymbolTableRecord
100
AcDbLinetypeTableRecord
  2
ByLayer
 70
     0
  3

 72
    65
 73
     0
 40
0.0
  0
LTYPE
  5
16
330
5
100
AcDbSymbolTableRecord
100
AcDbLinetypeTableRecord
  2
Continuous
 70
     0
  3
Solid line
 72
    65
 73
     0
 40
0.0
  0
LTYPE
  5
A7
330
5
100
AcDbSymbolTableRecord
100
AcDbLinetypeTableRecord
  2
Dashed
 70
     0
  3

 72
    65
 73
     2
 40
2.0
 49
1.0
 74
     0
 49
-1.0
 74
     0
  0
LTYPE
  5
DD
330
5
100
AcDbSymbolTableRecord
100
AcDbLinetypeTableRecord
  2
Center
 70
     0
  3

 72
    65
 73
     4
 40
1.5
 49
0.45
 74
     0
 49
-0.5
 74
     0
 49
0.05
 74
     0
 49
-0.5
 74
     0
  0
ENDTAB
  0
TABLE
  2
LAYER
  5
2
330
0
100
AcDbSymbolTable
 70
     7
  0
LAYER
  5
10
330
2
100
AcDbSymbolTableRecord
100
AcDbLayerTableRecord
  2
0
 70
     0
 62
     7
  6
Continuous
370
    -3
390
F
347
46
348
0
  0
LAYER
  5
72
330
2
100
AcDbSymbolTableRecord
100
AcDbLayerTableRecord
  2
AM_6
 70
     0
 62
    -2
  6
Continuous
370
    35
390
F
347
46
348
0
  0
LAYER
  5
A8
330
2
100
AcDbSymbolTableRecord
100
AcDbLayerTableRecord
  2
AM_9
 70
     0
 62
     6
  6
Dashed
370
    25
390
F
347
46
348
0
  0
LAYER
  5
DB
330
2
100
AcDbSymbolTableRecord
100
AcDbLayerTableRecord
  2
AM_5
 70
     0
 62
     3
  6
Continuous
370
    25
390
F
347
46
348
0
  0
LAYER
  5
DE
330
2
100
AcDbSymbolTableRecord
100
AcDbLayerTableRecord
  2
AM_7
 70
     0
 62
     7
  6
Center
370
    25
390
F
347
46
348
0
  0
LAYER
  5
E1
330
2
100
AcDbSymbolTableRecord
100
AcDbLayerTableRecord
  2
AM_4
 70
     0
 62
     7
  6
Continuous
370
    50
390
F
347
46
348
0
  0
LAYER
  5
1D3
330
2
100
AcDbSymbolTableRecord
100
AcDbLayerTableRecord
  2
ConnectionPoints
 70
     0
 62
     7
  6
Continuous
370
    50
390
F
347
46
348
0
  0
ENDTAB
  0
TABLE
  2
STYLE
  5
3
330
0
100
AcDbSymbolTable
 70
     1
  0
STYLE
  5
11
330
3
100
AcDbSymbolTableRecord
100
AcDbTextStyleTableRecord
  2
Standard
 70
     0
 40
0.0
 41
1.0
 50
0.0
 71
     0
 42
0.2
  3
txt
  4

  0
ENDTAB
  0
TABLE
  2
VIEW
  5
6
330
0
100
AcDbSymbolTable
 70
     0
  0
ENDTAB
  0
TABLE
  2
UCS
  5
7
330
0
100
AcDbSymbolTable
 70
     0
  0
ENDTAB
  0
TABLE
  2
APPID
  5
9
330
0
100
AcDbSymbolTable
 70
     1
  0
APPID
  5
12
330
9
100
AcDbSymbolTableRecord
100
AcDbRegAppTableRecord
  2
ACAD
 70
     0
  0
ENDTAB
  0
TABLE
  2
DIMSTYLE
  5
A
330
0
100
AcDbSymbolTable
 70
     1
100
AcDbDimStyleTable
  0
DIMSTYLE
105
27
330
A
100
AcDbSymbolTableRecord
100
AcDbDimStyleTableRecord
  2
Standard
 70
     0
178
     0
340
11
  0
ENDTAB
  0
TABLE
  2
BLOCK_RECORD
  5
1
330
0
100
AcDbSymbolTable
 70
     5
  0
BLOCK_RECORD
  5
1F
330
1
100
AcDbSymbolTableRecord
100
AcDbBlockTableRecord
  2
*Model_Space
340
22
 70
     0
280
     1
281
     0
  0
BLOCK_RECORD
  5
1B
330
1
100
AcDbSymbolTableRecord
100
AcDbBlockTableRecord
  2
*Paper_Space
340
1E
 70
     0
280
     1
281
     0
  0
BLOCK_RECORD
  5
23
330
1
100
AcDbSymbolTableRecord
100
AcDbBlockTableRecord
  2
*Paper_Space0
340
26
 70
     0
280
     1
281
     0
  0
BLOCK_RECORD
  5
6E
330
1
100
AcDbSymbolTableRecord
100
AcDbBlockTableRecord
  2
1_130348_2
340
0
102
{BLKREFS
331
6F
102
}
 70
     0
280
     1
281
     0
  0
BLOCK_RECORD
  5
8F
330
1
100
AcDbSymbolTableRecord
100
AcDbBlockTableRecord
  2
2_130305_0_in_130348_2
340
0
102
{BLKREFS
331
90
102
}
 70
     0
280
     1
281
     0
  0
BLOCK_RECORD
  5
F5
330
1
100
AcDbSymbolTableRecord
100
AcDbBlockTableRecord
  2
3_405016_Inch_0_in_130348_2
340
0
102
{BLKREFS
331
F6
102
}
 70
     0
280
     1
281
     0
  0
BLOCK_RECORD
  5
166
330
1
100
AcDbSymbolTableRecord
100
AcDbBlockTableRecord
  2
4_130348H_0_in_130348_2
340
0
102
{BLKREFS
331
167
102
}
 70
     0
280
     1
281
     0
  0
ENDTAB
  0
ENDSEC
  0
SECTION
  2
BLOCKS
  0
BLOCK
  5
20
330
1F
100
AcDbEntity
  8
0
100
AcDbBlockBegin
  2
*Model_Space
 70
     0
 10
0.0
 20
0.0
 30
0.0
  3
*Model_Space
  1

  0
ENDBLK
  5
21
330
1F
100
AcDbEntity
  8
0
100
AcDbBlockEnd
  0
BLOCK
  5
1C
330
1B
100
AcDbEntity
 67
     1
  8
0
100
AcDbBlockBegin
  2
*Paper_Space
 70
     0
 10
0.0
 20
0.0
 30
0.0
  3
*Paper_Space
  1

  0
ENDBLK
  5
1D
330
1B
100
AcDbEntity
 67
     1
  8
0
100
AcDbBlockEnd
  0
BLOCK
  5
24
330
23
100
AcDbEntity
  8
0
100
AcDbBlockBegin
  2
*Paper_Space0
 70
     0
 10
0.0
 20
0.0
 30
0.0
  3
*Paper_Space0
  1

  0
ENDBLK
  5
25
330
23
100
AcDbEntity
  8
0
100
AcDbBlockEnd
  0
BLOCK
  5
70
330
6E
100
AcDbEntity
  8
0
100
AcDbBlockBegin
  2
1_130348_2
 70
     2
 10
0.0
 20
0.0
 30
0.0
  3
1_130348_2
  1

  0
ATTDEF
  5
73
330
6E
100
AcDbEntity
  8
AM_6
100
AcDbText
 10
5.970000000000001
 20
2.375
 30
0.0
 40
0.5
  1
Eccentric Collar Intermediate Duty Wide Slot Take Up Inch Bore
100
AcDbAttributeDefinition
  3

  2
NN
 70
     8
280
     0
  0
ATTDEF
  5
74
330
6E
100
AcDbEntity
  8
AM_6
100
AcDbText
 10
5.970000000000001
 20
1.875
 30
0.0
 40
0.5
  1
Eccentric Collar Take-Up Bearings -(Intermediate Duty) -Wide Slot
100
AcDbAttributeDefinition
  3

  2
NT
 70
     8
280
     0
  0
ATTDEF
  5
75
330
6E
100
AcDbEntity
  8
AM_6
100
AcDbText
 10
5.970000000000001
 20
1.375
 30
0.0
 40
0.5
  1
130348
100
AcDbAttributeDefinition
  3

  2
NB
 70
     8
280
     0
  0
ATTDEF
  5
76
330
6E
100
AcDbEntity
  8
AM_6
100
AcDbText
 10
5.970000000000001
 20
0.875
 30
0.0
 40
0.5
  1
$PN.
100
AcDbAttributeDefinition
  3

  2
NBSYN
 70
     8
280
     0
  0
ATTDEF
  5
77
330
6E
100
AcDbEntity
  8
AM_6
100
AcDbText
 10
5.970000000000001
 20
0.375
 30
0.0
 40
0.5
  1
130348
100
AcDbAttributeDefinition
  3

  2
LINA
 70
     8
280
     0
  0
ATTDEF
  5
78
330
6E
100
AcDbEntity
  8
AM_6
100
AcDbText
 10
5.970000000000001
 20
-0.125
 30
0.0
 40
0.5
  1
210
100
AcDbAttributeDefinition
  3

  2
SERIES
 70
     8
280
     0
  0
ATTDEF
  5
79
330
6E
100
AcDbEntity
  8
AM_6
100
AcDbText
 10
5.970000000000001
 20
-0.625
 30
0.0
 40
0.5
  1
1-15/16
100
AcDbAttributeDefinition
  3

  2
SS
 70
     8
280
     0
  0
ATTDEF
  5
7A
330
6E
100
AcDbEntity
  8
AM_6
100
AcDbText
 10
5.970000000000001
 20
-1.125
 30
0.0
 40
0.5
  1
130348
100
AcDbAttributeDefinition
  3

  2
PN
 70
     8
280
     0
  0
ATTDEF
  5
7B
330
6E
100
AcDbEntity
  8
AM_6
100
AcDbText
 10
5.970000000000001
 20
-1.625
 30
0.0
 40
0.5
  1
WSTU-SXV-115
100
AcDbAttributeDefinition
  3

  2
DESCRIPTION
 70
     8
280
     0
  0
ATTDEF
  5
7C
330
6E
100
AcDbEntity
  8
AM_6
100
AcDbText
 10
5.970000000000001
 20
-2.125
 30
0.0
 40
0.5
  1
4.9
100
AcDbAttributeDefinition
  3

  2
W
 70
     8
280
     0
  0
ATTDEF
  5
7D
330
6E
100
AcDbEntity
  8
AM_6
100
AcDbText
 10
5.970000000000001
 20
-2.625
 30
0.0
 40
0.5
  1
WS400
100
AcDbAttributeDefinition
  3

  2
FS
 70
     8
280
     0
  0
ATTDEF
  5
7E
330
6E
100
AcDbEntity
  8
AM_6
100
AcDbText
 10
5.970000000000001
 20
-3.125
 30
0.0
 40
0.5
  1
1.72
100
AcDbAttributeDefinition
  3

  2
A
 70
     8
280
     0
  0
ATTDEF
  5
7F
330
6E
100
AcDbEntity
  8
AM_6
100
AcDbText
 10
5.970000000000001
 20
-3.625
 30
0.0
 40
0.5
  1
5.82
100
AcDbAttributeDefinition
  3

  2
B
 70
     8
280
     0
  0
ATTDEF
  5
80
330
6E
100
AcDbEntity
  8
AM_6
100
AcDbText
 10
5.970000000000001
 20
-4.125
 30
0.0
 40
0.5
  1
0.688
100
AcDbAttributeDefinition
  3

  2
C
 70
     8
280
     0
  0
ATTDEF
  5
81
330
6E
100
AcDbEntity
  8
AM_6
100
AcDbText
 10
5.970000000000001
 20
-4.625
 30
0.0
 40
0.5
  1
3.38
100
AcDbAttributeDefinition
  3

  2
D
 70
     8
280
     0
  0
ATTDEF
  5
82
330
6E
100
AcDbEntity
  8
AM_6
100
AcDbText
 10
5.970000000000001
 20
-5.125
 30
0.0
 40
0.5
  1
3.56
100
AcDbAttributeDefinition
  3

  2
E
 70
     8
280
     0
  0
ATTDEF
  5
83
330
6E
100
AcDbEntity
  8
AM_6
100
AcDbText
 10
5.970000000000001
 20
-5.625
 30
0.0
 40
0.5
  1
1
100
AcDbAttributeDefinition
  3

  2
F
 70
     8
280
     0
  0
ATTDEF
  5
84
330
6E
100
AcDbEntity
  8
AM_6
100
AcDbText
 10
5.970000000000001
 20
-6.125
 30
0.0
 40
0.5
  1
0.63
100
AcDbAttributeDefinition
  3

  2
G
 70
     8
280
     0
  0
ATTDEF
  5
85
330
6E
100
AcDbEntity
  8
AM_6
100
AcDbText
 10
5.970000000000001
 20
-6.625
 30
0.0
 40
0.5
  1
0.75
100
AcDbAttributeDefinition
  3

  2
H
 70
     8
280
     0
  0
ATTDEF
  5
86
330
6E
100
AcDbEntity
  8
AM_6
100
AcDbText
 10
5.970000000000001
 20
-7.125
 30
0.0
 40
0.5
  1
3.25
100
AcDbAttributeDefinition
  3

  2
J
 70
     8
280
     0
  0
ATTDEF
  5
87
330
6E
100
AcDbEntity
  8
AM_6
100
AcDbText
 10
5.970000000000001
 20
-7.625
 30
0.0
 40
0.5
  1
1.94
100
AcDbAttributeDefinition
  3

  2
K
 70
     8
280
     0
  0
ATTDEF
  5
88
330
6E
100
AcDbEntity
  8
AM_6
100
AcDbText
 10
5.970000000000001
 20
-8.125
 30
0.0
 40
0.5
  1
2.75
100
AcDbAttributeDefinition
  3

  2
L
 70
     8
280
     0
  0
ATTDEF
  5
89
330
6E
100
AcDbEntity
  8
AM_6
100
AcDbText
 10
5.970000000000001
 20
-8.625
 30
0.0
 40
0.5
  1
3.985 / 4.015
100
AcDbAttributeDefinition
  3

  2
M
 70
     8
280
     0
  0
ATTDEF
  5
8A
330
6E
100
AcDbEntity
  8
AM_6
100
AcDbText
 10
5.970000000000001
 20
-9.125
 30
0.0
 40
0.5
  1
4.75
100
AcDbAttributeDefinition
  3

  2
N
 70
     8
280
     0
  0
ATTDEF
  5
8B
330
6E
100
AcDbEntity
  8
AM_6
100
AcDbText
 10
5.970000000000001
 20
-9.625
 30
0.0
 40
0.5
  1
0.43
100
AcDbAttributeDefinition
  3

  2
R
 70
     8
280
     0
  0
ATTDEF
  5
8C
330
6E
100
AcDbEntity
  8
AM_6
100
AcDbText
 10
5.970000000000001
 20
-10.125
 30
0.0
 40
0.5
  1
1.29
100
AcDbAttributeDefinition
  3

  2
S
 70
     8
280
     0
  0
ATTDEF
  5
8D
330
6E
100
AcDbEntity
  8
AM_6
100
AcDbText
 10
5.970000000000001
 20
-10.625
 30
0.0
 40
0.5
  1
1.94
100
AcDbAttributeDefinition
  3

  2
T
 70
     8
280
     0
  0
ATTDEF
  5
8E
330
6E
100
AcDbEntity
  8
AM_6
100
AcDbText
 10
5.970000000000001
 20
-11.125
 30
0.0
 40
0.5
  1
baldor
100
AcDbAttributeDefinition
  3

  2
COMPANY
 70
     8
280
     0
  0
INSERT
  5
90
330
6E
100
AcDbEntity
  8
0
100
AcDbBlockReference
  2
2_130305_0_in_130348_2
 10
0.0
 20
0.0
 30
0.0
  0
INSERT
  5
F6
330
6E
100
AcDbEntity
  8
0
100
AcDbBlockReference
  2
3_405016_Inch_0_in_130348_2
 10
0.0
 20
0.0
 30
0.0
  0
INSERT
  5
167
330
6E
100
AcDbEntity
  8
0
100
AcDbBlockReference
  2
4_130348H_0_in_130348_2
 10
0.0
 20
0.0
 30
0.0
  0
ENDBLK
  5
71
330
6E
100
AcDbEntity
  8
0
100
AcDbBlockEnd
  0
BLOCK
  5
91
330
8F
100
AcDbEntity
  8
0
100
AcDbBlockBegin
  2
2_130305_0_in_130348_2
 70
     2
 10
0.0
 20
0.0
 30
0.0
  3
2_130305_0_in_130348_2
  1

  0
ATTDEF
  5
93
330
8F
100
AcDbEntity
  8
AM_6
100
AcDbText
 10
5.435
 20
1.770996034283886
 30
0.0
 40
0.5
  1
Eccentric Collar Intermediate Duty Insert Inch Bore
100
AcDbAttributeDefinition
  3

  2
NN
 70
     8
280
     0
  0
ATTDEF
  5
94
330
8F
100
AcDbEntity
  8
AM_6
100
AcDbText
 10
5.435
 20
1.270996034283886
 30
0.0
 40
0.5
  1
Eccentric Collar Bearing Inserts -(Intermediate Duty)
100
AcDbAttributeDefinition
  3

  2
NT
 70
     8
280
     0
  0
ATTDEF
  5
95
330
8F
100
AcDbEntity
  8
AM_6
100
AcDbText
 10
5.435
 20
0.7709960342838864
 30
0.0
 40
0.5
  1
130305
100
AcDbAttributeDefinition
  3

  2
NB
 70
     8
280
     0
  0
ATTDEF
  5
96
330
8F
100
AcDbEntity
  8
AM_6
100
AcDbText
 10
5.435
 20
0.2709960342838864
 30
0.0
 40
0.5
  1
$PN.
100
AcDbAttributeDefinition
  3

  2
NBSYN
 70
     8
280
     0
  0
ATTDEF
  5
97
330
8F
100
AcDbEntity
  8
AM_6
100
AcDbText
 10
5.435
 20
-0.2290039657161136
 30
0.0
 40
0.5
  1
130305
100
AcDbAttributeDefinition
  3

  2
LINA
 70
     8
280
     0
  0
ATTDEF
  5
98
330
8F
100
AcDbEntity
  8
AM_6
100
AcDbText
 10
5.435
 20
-0.7290039657161136
 30
0.0
 40
0.5
  1
210
100
AcDbAttributeDefinition
  3

  2
SERIES
 70
     8
280
     0
  0
ATTDEF
  5
99
330
8F
100
AcDbEntity
  8
AM_6
100
AcDbText
 10
5.435
 20
-1.229003965716114
 30
0.0
 40
0.5
  1
1-15/16
100
AcDbAttributeDefinition
  3

  2
SS
 70
     8
280
     0
  0
ATTDEF
  5
9A
330
8F
100
AcDbEntity
  8
AM_6
100
AcDbText
 10
5.435
 20
-1.729003965716114
 30
0.0
 40
0.5
  1
130305
100
AcDbAttributeDefinition
  3

  2
PN
 70
     8
280
     0
  0
ATTDEF
  5
9B
330
8F
100
AcDbEntity
  8
AM_6
100
AcDbText
 10
5.435
 20
-2.229003965716114
 30
0.0
 40
0.5
  1
INS-SXV-115
100
AcDbAttributeDefinition
  3

  2
DESCRIPTION
 70
     8
280
     0
  0
ATTDEF
  5
9C
330
8F
100
AcDbEntity
  8
AM_6
100
AcDbText
 10
5.435
 20
-2.729003965716114
 30
0.0
 40
0.5
  1
2.0
100
AcDbAttributeDefinition
  3

  2
WEIGHT
 70
     8
280
     0
  0
ATTDEF
  5
9D
330
8F
100
AcDbEntity
  8
AM_6
100
AcDbText
 10
5.435
 20
-3.229003965716114
 30
0.0
 40
0.5
  1
1.72
100
AcDbAttributeDefinition
  3

  2
A
 70
     8
280
     0
  0
ATTDEF
  5
9E
330
8F
100
AcDbEntity
  8
AM_6
100
AcDbText
 10
5.435
 20
-3.729003965716114
 30
0.0
 40
0.5
  1
0.87
100
AcDbAttributeDefinition
  3

  2
C
 70
     8
280
     0
  0
ATTDEF
  5
9F
330
8F
100
AcDbEntity
  8
AM_6
100
AcDbText
 10
5.435
 20
-4.229003965716114
 30
0.0
 40
0.5
  1
3.5433
100
AcDbAttributeDefinition
  3

  2
D
 70
     8
280
     0
  0
ATTDEF
  5
A0
330
8F
100
AcDbEntity
  8
AM_6
100
AcDbText
 10
5.435
 20
-4.729003965716114
 30
0.0
 40
0.5
  1
0.25
100
AcDbAttributeDefinition
  3

  2
J
 70
     8
280
     0
  0
ATTDEF
  5
A1
330
8F
100
AcDbEntity
  8
AM_6
100
AcDbText
 10
5.435
 20
-5.229003965716114
 30
0.0
 40
0.5
  1
2.75
100
AcDbAttributeDefinition
  3

  2
L
 70
     8
280
     0
  0
ATTDEF
  5
A2
330
8F
100
AcDbEntity
  8
AM_6
100
AcDbText
 10
5.435
 20
-5.729003965716114
 30
0.0
 40
0.5
  1
3/8 - 24
100
AcDbAttributeDefinition
  3

  2
N
 70
     8
280
     0
  0
ATTDEF
  5
A3
330
8F
100
AcDbEntity
  8
AM_6
100
AcDbText
 10
5.435
 20
-6.229003965716114
 30
0.0
 40
0.5
  1
0.43
100
AcDbAttributeDefinition
  3

  2
W
 70
     8
280
     0
  0
ATTDEF
  5
A4
330
8F
100
AcDbEntity
  8
AM_6
100
AcDbText
 10
5.435
 20
-6.729003965716114
 30
0.0
 40
0.5
  1
1.29
100
AcDbAttributeDefinition
  3

  2
Y
 70
     8
280
     0
  0
ATTDEF
  5
A5
330
8F
100
AcDbEntity
  8
AM_6
100
AcDbText
 10
5.435
 20
-7.229003965716114
 30
0.0
 40
0.5
  1
2.43
100
AcDbAttributeDefinition
  3

  2
Z
 70
     8
280
     0
  0
ATTDEF
  5
A6
330
8F
100
AcDbEntity
  8
AM_6
100
AcDbText
 10
5.435
 20
-7.729003965716114
 30
0.0
 40
0.5
  1
baldor
100
AcDbAttributeDefinition
  3

  2
COMPANY
 70
     8
280
     0
  0
ARC
  5
A9
330
8F
100
AcDbEntity
  8
AM_9
100
AcDbCircle
 10
0.2499999999999999
 20
-1.774775
 30
0.0
 40
0.0937500000000001
100
AcDbArc
 50
180.0
 51
0.0
  0
LINE
  5
AA
330
8F
100
AcDbEntity
  8
AM_9
100
AcDbLine
 10
0.34375
 20
-1.774775
 30
0.0
 11
0.15625
 21
-1.774775
 31
0.0
  0
LINE
  5
AB
330
8F
100
AcDbEntity
  8
AM_9
100
AcDbLine
 10
0.15625
 20
-1.764732468648649
 30
0.0
 11
0.15625
 21
-1.774775
 31
0.0
  0
LINE
  5
AC
330
8F
100
AcDbEntity
  8
AM_9
100
AcDbLine
 10
0.34375
 20
-1.774775
 30
0.0
 11
0.34375
 21
-1.738026824290489
 31
0.0
  0
LINE
  5
AD
330
8F
100
AcDbEntity
  8
AM_9
100
AcDbLine
 10
-0.708125
 20
-0.96875
 30
0.0
 11
0.43
 21
-0.96875
 31
0.0
  0
LINE
  5
AE
330
8F
100
AcDbEntity
  8
AM_9
100
AcDbLine
 10
0.43
 20
0.96875
 30
0.0
 11
-0.708125
 21
0.96875
 31
0.0
  0
LINE
  5
AF
330
8F
100
AcDbEntity
  8
AM_9
100
AcDbLine
 10
-1.262599612229021
 20
-0.96875
 30
0.0
 11
-0.746875
 21
-0.96875
 31
0.0
  0
LINE
  5
B0
330
8F
100
AcDbEntity
  8
AM_9
100
AcDbLine
 10
-0.746875
 20
0.96875
 30
0.0
 11
-1.262599612229021
 21
0.96875
 31
0.0
  0
LINE
  5
B1
330
8F
100
AcDbEntity
  8
AM_9
100
AcDbLine
 10
-0.746875
 20
0.96875
 30
0.0
 11
-0.746875
 21
-0.96875
 31
0.0
  0
LINE
  5
B2
330
8F
100
AcDbEntity
  8
AM_9
100
AcDbLine
 10
-0.746875
 20
-0.96875
 30
0.0
 11
-0.7275000000000001
 21
-0.9881250000000003
 31
0.0
  0
LINE
  5
B3
330
8F
100
AcDbEntity
  8
AM_9
100
AcDbLine
 10
-0.7275000000000001
 20
0.9881250000000003
 30
0.0
 11
-0.746875
 21
0.96875
 31
0.0
  0
LINE
  5
B4
330
8F
100
AcDbEntity
  8
AM_9
100
AcDbLine
 10
-0.708125
 20
0.96875
 30
0.0
 11
-0.708125
 21
-0.96875
 31
0.0
  0
LINE
  5
B5
330
8F
100
AcDbEntity
  8
AM_9
100
AcDbLine
 10
-0.7275000000000001
 20
0.9881250000000003
 30
0.0
 11
-0.7275000000000001
 21
-0.9881250000000003
 31
0.0
  0
LINE
  5
B6
330
8F
100
AcDbEntity
  8
AM_9
100
AcDbLine
 10
-0.708125
 20
0.96875
 30
0.0
 11
-0.7275000000000001
 21
0.9881250000000003
 31
0.0
  0
LINE
  5
B7
330
8F
100
AcDbEntity
  8
AM_9
100
AcDbLine
 10
-0.7275000000000001
 20
-0.9881250000000003
 30
0.0
 11
-0.708125
 21
-0.96875
 31
0.0
  0
LINE
  5
B8
330
8F
100
AcDbEntity
  8
AM_9
100
AcDbLine
 10
-1.262599612229021
 20
0.96875
 30
0.0
 11
-1.262599612229021
 21
-0.96875
 31
0.0
  0
LINE
  5
B9
330
8F
100
AcDbEntity
  8
AM_9
100
AcDbLine
 10
-1.262599612229021
 20
0.96875
 30
0.0
 11
-1.29
 21
0.9961503877709788
 31
0.0
  0
LINE
  5
BA
330
8F
100
AcDbEntity
  8
AM_9
100
AcDbLine
 10
-1.29
 20
-0.9961503877709788
 30
0.0
 11
-1.262599612229021
 21
-0.96875
 31
0.0
  0
LINE
  5
BB
330
8F
100
AcDbEntity
  8
AM_9
100
AcDbLine
 10
-0.5847999999999999
 20
-1.157142857142857
 30
0.0
 11
-0.5775000000000001
 21
-1.157142857142857
 31
0.0
  0
LINE
  5
BC
330
8F
100
AcDbEntity
  8
AM_9
100
AcDbLine
 10
-0.5775000000000001
 20
1.157142857142857
 30
0.0
 11
-0.5847999999999998
 21
1.157142857142857
 31
0.0
  0
LINE
  5
BD
330
8F
100
AcDbEntity
  8
AM_9
100
AcDbLine
 10
0.43
 20
1.215
 30
0.0
 11
0.43
 21
-1.215
 31
0.0
  0
LINE
  5
BE
330
8F
100
AcDbEntity
  8
AM_9
100
AcDbLine
 10
0.43
 20
-1.215
 30
0.0
 11
0.435
 21
-1.215
 31
0.0
  0
LINE
  5
BF
330
8F
100
AcDbEntity
  8
AM_9
100
AcDbLine
 10
0.435
 20
1.215
 30
0.0
 11
0.43
 21
1.215
 31
0.0
  0
LINE
  5
C0
330
8F
100
AcDbEntity
  8
AM_9
100
AcDbLine
 10
-0.5775000000000003
 20
1.215
 30
0.0
 11
-0.5775000000000003
 21
-1.215
 31
0.0
  0
LINE
  5
C1
330
8F
100
AcDbEntity
  8
AM_9
100
AcDbLine
 10
-0.5775000000000003
 20
-1.215
 30
0.0
 11
-0.4349999999999999
 21
-1.215
 31
0.0
  0
LINE
  5
C2
330
8F
100
AcDbEntity
  8
AM_9
100
AcDbLine
 10
-0.4349999999999999
 20
1.215
 30
0.0
 11
-0.5775000000000003
 21
1.215
 31
0.0
  0
ARC
  5
C3
330
8F
100
AcDbEntity
  8
AM_9
100
AcDbCircle
 10
-1.00875
 20
-0.0000000000000001
 30
0.0
 40
0.1706000000000002
100
AcDbArc
 50
304.2855972309774
 51
55.71440276902271
  0
LWPOLYLINE
  5
C4
330
8F
100
AcDbEntity
  8
AM_9
100
AcDbPolyline
 90
        3
 70
     0
 43
0.0
 10
-0.9555921818115087
 20
0.1621067745821849
 10
-0.9409114048244293
 20
0.1565320574342682
 10
-0.912647886067009
 20
0.140956531234315
  0
LWPOLYLINE
  5
C5
330
8F
100
AcDbEntity
  8
AM_9
100
AcDbPolyline
 90
       14
 70
     0
 43
0.0
 10
-0.912647886067009
 20
0.140956531234315
 10
-0.8977462122140166
 20
0.1308619054303434
 10
-0.8839477682814347
 20
0.1193111365062967
 10
-0.863809547302288
 20
0.0969877456169635
 10
-0.8479261326510275
 20
0.0714611814467686
 10
-0.8374674940288035
 20
0.044964804528881
 10
-0.8318295275778372
 20
0.0170336505890691
 10
-0.8312340649830078
 20
-0.0098610394529133
 10
-0.8351795278319617
 20
-0.0364690196704343
 10
-0.8433854721617157
 20
-0.0615561049670388
 10
-0.8555245989963595
 20
-0.0849844789291986
 10
-0.8717602083670636
 20
-0.1067624073506751
 10
-0.8912295035498186
 20
-0.1257076656172618
 10
-0.9126478860670088
 20
-0.1409565312343151
  0
LWPOLYLINE
  5
C6
330
8F
100
AcDbEntity
  8
AM_9
100
AcDbPolyline
 90
        3
 70
     0
 43
0.0
 10
-0.9126478860670088
 20
-0.1409565312343151
 10
-0.9375722343937589
 20
-0.1550236006542176
 10
-0.9554343868057421
 20
-0.1620549455885883
  0
LINE
  5
C7
330
8F
100
AcDbEntity
  8
AM_9
100
AcDbLine
 10
-0.6924999999999993
 20
0.6792229015573609
 30
0.0
 11
-0.6924999999999993
 21
-0.6792229015573609
 31
0.0
  0
LINE
  5
C8
330
8F
100
AcDbEntity
  8
AM_9
100
AcDbLine
 10
-0.6149999999999999
 20
0.7501166575940038
 30
0.0
 11
-0.6149999999999999
 21
-0.7501166575940038
 31
0.0
  0
LINE
  5
C9
330
8F
100
AcDbEntity
  8
AM_9
100
AcDbLine
 10
-0.3
 20
-1.687285714285715
 30
0.0
 11
-0.2
 21
-1.687285714285715
 31
0.0
  0
LINE
  5
CA
330
8F
100
AcDbEntity
  8
AM_9
100
AcDbLine
 10
-0.2
 20
1.687285714285715
 30
0.0
 11
-0.3
 21
1.687285714285715
 31
0.0
  0
LINE
  5
CB
330
8F
100
AcDbEntity
  8
AM_9
100
AcDbLine
 10
0.435
 20
1.686987951201786
 30
0.0
 11
0.435
 21
-1.686987951201617
 31
0.0
  0
ARC
  5
CC
330
8F
100
AcDbEntity
  8
AM_9
100
AcDbCircle
 10
0.3962499999999995
 20
-1.686987951201786
 30
0.0
 40
0.0387500000000005
100
AcDbArc
 50
283.2183714703513
 51
0.0
  0
ARC
  5
CD
330
8F
100
AcDbEntity
  8
AM_9
100
AcDbCircle
 10
0.3962499999999996
 20
1.686987951201786
 30
0.0
 40
0.0387500000000004
100
AcDbArc
 50
0.0
 51
76.78162852964876
  0
LINE
  5
CE
330
8F
100
AcDbEntity
  8
AM_9
100
AcDbLine
 10
-0.4350000000000001
 20
1.686987951201786
 30
0.0
 11
-0.4350000000000001
 21
-1.686987951201617
 31
0.0
  0
ARC
  5
CF
330
8F
100
AcDbEntity
  8
AM_9
100
AcDbCircle
 10
-0.396250000000001
 20
-1.686987951201786
 30
0.0
 40
0.0387499999999991
100
AcDbArc
 50
180.0
 51
256.7816340807331
  0
ARC
  5
D0
330
8F
100
AcDbEntity
  8
AM_9
100
AcDbCircle
 10
-0.396250000000001
 20
1.686987951201786
 30
0.0
 40
0.0387499999999991
100
AcDbArc
 50
103.218365919267
 51
180.0
  0
LINE
  5
D1
330
8F
100
AcDbEntity
  8
AM_9
100
AcDbLine
 10
-0.3
 20
1.746065211411074
 30
0.0
 11
-0.3
 21
-1.746065211410832
 31
0.0
  0
LINE
  5
D2
330
8F
100
AcDbEntity
  8
AM_9
100
AcDbLine
 10
-0.4051106887298753
 20
1.724711295369983
 30
0.0
 11
-0.4051106887298753
 21
-1.724711295369741
 31
0.0
  0
ARC
  5
D3
330
8F
100
AcDbEntity
  8
AM_9
100
AcDbCircle
 10
0.0000000001030471
 20
0.0000000005074783
 30
0.0
 40
1.77165000051736
100
AcDbArc
 50
256.7816340812393
 51
260.2509203904057
  0
ARC
  5
D4
330
8F
100
AcDbEntity
  8
AM_9
100
AcDbCircle
 10
0.0000000001031705
 20
-0.0000000005080887
 30
0.0
 40
1.771650000517982
100
AcDbArc
 50
99.74907960959496
 51
103.2183659187601
  0
LINE
  5
D5
330
8F
100
AcDbEntity
  8
AM_9
100
AcDbLine
 10
-0.1999999999999996
 20
1.760324891177762
 30
0.0
 11
-0.1999999999999996
 21
-1.760324891177758
 31
0.0
  0
LINE
  5
D6
330
8F
100
AcDbEntity
  8
AM_9
100
AcDbLine
 10
0.4051106923846889
 20
1.724711294511518
 30
0.0
 11
0.4051106923846888
 21
-1.724711294511515
 31
0.0
  0
ARC
  5
D7
330
8F
100
AcDbEntity
  8
AM_9
100
AcDbCircle
 10
-0.0000000000000146
 20
0.0000000000003506
 30
0.0
 40
1.771650000000343
100
AcDbArc
 50
263.5181126598232
 51
275.0629979711373
  0
ARC
  5
D8
330
8F
100
AcDbEntity
  8
AM_9
100
AcDbCircle
 10
-0.0000000000022699
 20
0.0000000000109603
 30
0.0
 40
1.771650000011185
100
AcDbArc
 50
281.1777476511336
 51
283.2183660406727
  0
ARC
  5
D9
330
8F
100
AcDbEntity
  8
AM_9
100
AcDbCircle
 10
-0.0000000000000149
 20
-0.0000000000002451
 30
0.0
 40
1.771650000000238
100
AcDbArc
 50
76.78163395931911
 51
96.48188734017715
  0
LINE
  5
DA
330
8F
100
AcDbEntity
  8
AM_9
100
AcDbLine
 10
0.1562500000022523
 20
-1.764746344378945
 30
0.0
 11
0.3437499999994793
 21
-1.737981490120143
 31
0.0
  0
ARC
  5
DC
330
8F
100
AcDbEntity
  8
AM_5
100
AcDbCircle
 10
-1.00875
 20
0.0
 30
0.0
 40
0.1874999999999999
100
AcDbArc
 50
75.00000000000001
 51
14.99999999999997
  0
LINE
  5
DF
330
8F
100
AcDbEntity
  8
AM_7
100
AcDbLine
 10
0.25
 20
-1.18232375
 30
0.0
 11
0.25
 21
-1.90120125
 31
0.0
  0
LINE
  5
E0
330
8F
100
AcDbEntity
  8
AM_7
100
AcDbLine
 10
0.1515624999999999
 20
-1.774775
 30
0.0
 11
0.3484375
 21
-1.774775
 31
0.0
  0
LINE
  5
E2
330
8F
100
AcDbEntity
  8
AM_4
100
AcDbLine
 10
-0.6149999999999999
 20
-1.157142857142857
 30
0.0
 11
-0.5847999999999999
 21
-1.157142857142857
 31
0.0
  0
LINE
  5
E3
330
8F
100
AcDbEntity
  8
AM_4
100
AcDbLine
 10
-0.5847999999999998
 20
1.157142857142857
 30
0.0
 11
-0.6149999999999999
 21
1.157142857142857
 31
0.0
  0
ARC
  5
E4
330
8F
100
AcDbEntity
  8
AM_4
100
AcDbCircle
 10
-1.00875
 20
0.0
 30
0.0
 40
0.1705999999999999
100
AcDbArc
 50
124.2855972309772
 51
235.7144027690228
  0
LINE
  5
E5
330
8F
100
AcDbEntity
  8
AM_4
100
AcDbLine
 10
-1.29
 20
1.2975
 30
0.0
 11
-1.29
 21
-1.297499999997156
 31
0.0
  0
ARC
  5
E6
330
8F
100
AcDbEntity
  8
AM_4
100
AcDbCircle
 10
-1.212500000000001
 20
-1.297500000000001
 30
0.0
 40
0.077499999999999
100
AcDbArc
 50
180.0
 51
270.0
  0
ARC
  5
E7
330
8F
100
AcDbEntity
  8
AM_4
100
AcDbCircle
 10
-1.212500000000001
 20
1.297500000000001
 30
0.0
 40
0.077499999999999
100
AcDbArc
 50
90.0
 51
180.0
  0
LINE
  5
E8
330
8F
100
AcDbEntity
  8
AM_4
100
AcDbLine
 10
-1.2125
 20
1.375
 30
0.0
 11
-1.2125
 21
-1.375
 31
0.0
  0
LWPOLYLINE
  5
E9
330
8F
100
AcDbEntity
  8
AM_4
100
AcDbPolyline
 90
        7
 70
     0
 43
0.0
 10
-1.104852113932991
 20
0.140956531234315
 10
-1.079927765606241
 20
0.1550236006542176
 10
-1.052997723942581
 20
0.1647619462312251
 10
-1.024788397120287
 20
0.1698268758705891
 10
-0.9961233297284016
 20
0.1701320875021885
 10
-0.9679440509671501
 20
0.1656304246224445
 10
-0.9555921818115087
 20
0.1621067745821849
  0
LWPOLYLINE
  5
EA
330
8F
100
AcDbEntity
  8
AM_4
100
AcDbPolyline
 90
        7
 70
     0
 43
0.0
 10
-0.9554343868057421
 20
-0.1620549455885883
 10
-0.9645022760574186
 20
-0.1647619462312251
 10
-0.9927116028797128
 20
-0.1698268758705891
 10
-1.021376670271598
 20
-0.1701320875021885
 10
-1.04955594903285
 20
-0.1656304246224445
 10
-1.07658859517557
 20
-0.1565320574342682
 10
-1.104852113932991
 20
-0.140956531234315
  0
LWPOLYLINE
  5
EB
330
8F
100
AcDbEntity
  8
AM_4
100
AcDbPolyline
 90
       14
 70
     0
 43
0.0
 10
-1.104852113932991
 20
-0.140956531234315
 10
-1.119753787785982
 20
-0.1308619054303441
 10
-1.133552231718563
 20
-0.1193111365062983
 10
-1.15369045269771
 20
-0.0969877456169654
 10
-1.169573867348971
 20
-0.0714611814467708
 10
-1.180032505971196
 20
-0.0449648045288832
 10
-1.185670472422162
 20
-0.0170336505890712
 10
-1.186265935016992
 20
0.0098610394529112
 10
-1.182320472168038
 20
0.0364690196704323
 10
-1.174114527838285
 20
0.0615561049670369
 10
-1.161975401003641
 20
0.0849844789291968
 10
-1.145739791632938
 20
0.1067624073506735
 10
-1.126270496450183
 20
0.1257076656172604
 10
-1.104852113932991
 20
0.140956531234315
  0
LINE
  5
EC
330
8F
100
AcDbEntity
  8
AM_4
100
AcDbLine
 10
-1.2125
 20
-1.375
 30
0.0
 11
-0.6924999999999996
 21
-1.375
 31
0.0
  0
LINE
  5
ED
330
8F
100
AcDbEntity
  8
AM_4
100
AcDbLine
 10
-0.6924999999999996
 20
1.375
 30
0.0
 11
-1.2125
 21
1.375
 31
0.0
  0
LINE
  5
EE
330
8F
100
AcDbEntity
  8
AM_4
100
AcDbLine
 10
-0.6924999999999993
 20
-0.6792229015573609
 30
0.0
 11
-0.6924999999999996
 21
-1.375
 31
0.0
  0
LINE
  5
EF
330
8F
100
AcDbEntity
  8
AM_4
100
AcDbLine
 10
-0.6924999999999996
 20
1.375
 30
0.0
 11
-0.6924999999999993
 21
0.6792229015573609
 31
0.0
  0
LINE
  5
F0
330
8F
100
AcDbEntity
  8
AM_4
100
AcDbLine
 10
-0.6149999999999999
 20
-0.7501166575940038
 30
0.0
 11
-0.6149999999999999
 21
-1.297499999997156
 31
0.0
  0
LINE
  5
F1
330
8F
100
AcDbEntity
  8
AM_4
100
AcDbLine
 10
-0.6149999999999999
 20
1.2975
 30
0.0
 11
-0.6149999999999999
 21
0.7501166575940038
 31
0.0
  0
ARC
  5
F2
330
8F
100
AcDbEntity
  8
AM_4
100
AcDbCircle
 10
-0.6924999999999996
 20
-1.297500000000001
 30
0.0
 40
0.0774999999999997
100
AcDbArc
 50
270.0
 51
0.0
  0
ARC
  5
F3
330
8F
100
AcDbEntity
  8
AM_4
100
AcDbCircle
 10
-0.6924999999999997
 20
1.2975
 30
0.0
 40
0.0774999999999997
100
AcDbArc
 50
0.0000008537736463
 51
90.0
  0
ARC
  5
F4
330
8F
100
AcDbEntity
  8
AM_5
100
AcDbCircle
 10
-1.00875
 20
0.0000000000000001
 30
0.0
 40
0.1875
100
AcDbArc
 50
345.0
 51
285.0
  0
ENDBLK
  5
92
330
8F
100
AcDbEntity
  8
0
100
AcDbBlockEnd
  0
BLOCK
  5
F7
330
F5
100
AcDbEntity
  8
0
100
AcDbBlockBegin
  2
3_405016_Inch_0_in_130348_2
 70
     2
 10
0.0
 20
0.0
 30
0.0
  3
3_405016_Inch_0_in_130348_2
  1

  0
ATTDEF
  5
F9
330
F5
100
AcDbEntity
  8
AM_6
100
AcDbText
 10
5.21875
 20
-0.921925698355158
 30
0.0
 40
0.5
  1
405016 -Inch
100
AcDbAttributeDefinition
  3

  2
NN
 70
     8
280
     0
  0
ATTDEF
  5
FA
330
F5
100
AcDbEntity
  8
AM_6
100
AcDbText
 10
5.21875
 20
-1.421925698355158
 30
0.0
 40
0.5
  1
Grease Fitting
100
AcDbAttributeDefinition
  3

  2
NT
 70
     8
280
     0
  0
ATTDEF
  5
FB
330
F5
100
AcDbEntity
  8
AM_6
100
AcDbText
 10
5.21875
 20
-1.921925698355158
 30
0.0
 40
0.5
  1
405016-Inch
100
AcDbAttributeDefinition
  3

  2
NB
 70
     8
280
     0
  0
ATTDEF
  5
FC
330
F5
100
AcDbEntity
  8
AM_6
100
AcDbText
 10
5.21875
 20
-2.421925698355158
 30
0.0
 40
0.5
  1
$MN.-Inch
100
AcDbAttributeDefinition
  3

  2
NBSYN
 70
     8
280
     0
  0
ATTDEF
  5
FD
330
F5
100
AcDbEntity
  8
AM_6
100
AcDbText
 10
5.21875
 20
-2.921925698355158
 30
0.0
 40
0.5
  1
405016
100
AcDbAttributeDefinition
  3

  2
LINA
 70
     8
280
     0
  0
ATTDEF
  5
FE
330
F5
100
AcDbEntity
  8
AM_6
100
AcDbText
 10
5.21875
 20
-3.421925698355158
 30
0.0
 40
0.5
  1
405016
100
AcDbAttributeDefinition
  3

  2
MN
 70
     8
280
     0
  0
ATTDEF
  5
FF
330
F5
100
AcDbEntity
  8
AM_6
100
AcDbText
 10
5.21875
 20
-3.921925698355158
 30
0.0
 40
0.5
  1
7/16 HEX
100
AcDbAttributeDefinition
  3

  2
H
 70
     8
280
     0
  0
ATTDEF
  5
100
330
F5
100
AcDbEntity
  8
AM_6
100
AcDbText
 10
5.21875
 20
-4.421925698355158
 30
0.0
 40
0.5
  1
0.383
100
AcDbAttributeDefinition
  3

  2
NDR
 70
     8
280
     0
  0
ATTDEF
  5
101
330
F5
100
AcDbEntity
  8
AM_6
100
AcDbText
 10
5.21875
 20
-4.921925698355158
 30
0.0
 40
0.5
  1
0.337
100
AcDbAttributeDefinition
  3

  2
KDR
 70
     8
280
     0
  0
ATTDEF
  5
102
330
F5
100
AcDbEntity
  8
AM_6
100
AcDbText
 10
5.21875
 20
-5.421925698355158
 30
0.0
 40
0.5
  1
0.1575
100
AcDbAttributeDefinition
  3

  2
BZE
 70
     8
280
     0
  0
ATTDEF
  5
103
330
F5
100
AcDbEntity
  8
AM_6
100
AcDbText
 10
5.21875
 20
-5.921925698355158
 30
0.0
 40
0.5
  1
0.4375
100
AcDbAttributeDefinition
  3

  2
HEX
 70
     8
280
     0
  0
ATTDEF
  5
104
330
F5
100
AcDbEntity
  8
AM_6
100
AcDbText
 10
5.21875
 20
-6.421925698355158
 30
0.0
 40
0.5
  1
0.281250
100
AcDbAttributeDefinition
  3

  2
HEX2
 70
     8
280
     0
  0
ATTDEF
  5
105
330
F5
100
AcDbEntity
  8
AM_6
100
AcDbText
 10
5.21875
 20
-6.921925698355158
 30
0.0
 40
0.5
  1
baldor
100
AcDbAttributeDefinition
  3

  2
COMPANY
 70
     8
280
     0
  0
LWPOLYLINE
  5
106
330
F5
100
AcDbEntity
  8
AM_9
100
AcDbPolyline
 90
        5
 70
     0
 43
0.0
 10
-0.1791093260592888
 20
-1.526738809059826
 10
-0.1842540823997055
 20
-1.493670119967152
 10
-0.1862220679364952
 20
-1.459312409178914
 10
-0.1844124966919382
 20
-1.423126446285356
 10
-0.1791093260592888
 20
-1.386113809059826
  0
LINE
  5
107
330
F5
100
AcDbEntity
  8
AM_9
100
AcDbLine
 10
-0.1510741298357571
 20
-1.37957729571137
 30
0.0
 11
-0.1791093260592888
 21
-1.386113809059826
 31
0.0
  0
LWPOLYLINE
  5
108
330
F5
100
AcDbEntity
  8
AM_9
100
AcDbPolyline
 90
        5
 70
     0
 43
0.0
 10
-0.1791093260592888
 20
-1.386113809059826
 10
-0.198835512140694
 20
-1.354688517736611
 10
-0.2156330920108726
 20
-1.321997724328328
 10
-0.2290462109660022
 20
-1.287506153690794
 10
-0.2389369657326277
 20
-1.252169092407283
  0
LINE
  5
109
330
F5
100
AcDbEntity
  8
AM_9
100
AcDbLine
 10
-0.2099962668917054
 20
-1.245421457656344
 30
0.0
 11
-0.2389369657326277
 21
-1.252169092407283
 31
0.0
  0
LINE
  5
10A
330
F5
100
AcDbEntity
  8
AM_9
100
AcDbLine
 10
-0.2389369657326277
 20
-1.252169092407283
 30
0.0
 11
-0.2711532636537957
 21
-1.256618123437406
 31
0.0
  0
LWPOLYLINE
  5
10B
330
F5
100
AcDbEntity
  8
AM_9
100
AcDbPolyline
 90
        3
 70
     0
 43
0.0
 10
-0.2813919000363601
 20
-1.257753048956784
 10
-0.2911775952746244
 20
-1.25855559349426
 10
-0.2987675689889719
 20
-1.258850066725467
  0
LWPOLYLINE
  5
10C
330
F5
100
AcDbEntity
  8
AM_9
100
AcDbPolyline
 90
        5
 70
     0
 43
0.0
 10
-0.2389369657326277
 20
-1.533419092407283
 10
-0.2295338871417797
 20
-1.532998062136291
 10
-0.2166871171046321
 20
-1.531802555641743
 10
-0.1996402057054679
 20
-1.529676787031713
 10
-0.1791093260592888
 20
-1.526738809059826
  0
LINE
  5
10D
330
F5
100
AcDbEntity
  8
AM_9
100
AcDbLine
 10
-0.1510741298357571
 20
-1.52020229571137
 30
0.0
 11
-0.1791093260592888
 21
-1.526738809059826
 31
0.0
  0
LINE
  5
10E
330
F5
100
AcDbEntity
  8
AM_9
100
AcDbLine
 10
-0.452415808934145
 20
-1.546254016496842
 30
0.0
 11
-0.3774664534000949
 21
-1.564780662014441
 31
0.0
  0
LINE
  5
10F
330
F5
100
AcDbEntity
  8
AM_9
100
AcDbLine
 10
-0.4395859245204076
 20
-1.298349390582632
 30
0.0
 11
-0.4986131040655764
 21
-1.348113178260487
 31
0.0
  0
LWPOLYLINE
  5
110
330
F5
100
AcDbEntity
  8
AM_9
100
AcDbPolyline
 90
        3
 70
     0
 43
0.0
 10
-0.2689146070947223
 20
-1.251889734350518
 10
-0.2512755937295761
 20
-1.249238843014548
 10
-0.2360765106845276
 20
-1.247187592413266
  0
LWPOLYLINE
  5
111
330
F5
100
AcDbEntity
  8
AM_9
100
AcDbPolyline
 90
       10
 70
     0
 43
0.0
 10
-0.3781365610938189
 20
-1.302895592272415
 10
-0.3819006894151628
 20
-1.299808445532872
 10
-0.3897246894433081
 20
-1.294643367396401
 10
-0.3974853326992385
 20
-1.29108984075459
 10
-0.405250376138445
 20
-1.289006608649172
 10
-0.4130199862137864
 20
-1.28835268954229
 10
-0.4214745530162444
 20
-1.289301670259394
 10
-0.4292330757104313
 20
-1.291844269649556
 10
-0.4361588337175878
 20
-1.295729529262162
 10
-0.4402036785516359
 20
-1.298879595022022
  0
LWPOLYLINE
  5
112
330
F5
100
AcDbEntity
  8
AM_9
100
AcDbPolyline
 90
       10
 70
     0
 43
0.0
 10
-0.3778382707336143
 20
-1.564687108295451
 10
-0.3722550315968877
 20
-1.565747371048116
 10
-0.3644986106592897
 20
-1.565994887206786
 10
-0.3562102364824989
 20
-1.564622136137807
 10
-0.3486510975190493
 20
-1.561717862220807
 10
-0.3419431650783508
 20
-1.557530023833735
 10
-0.3360585273286926
 20
-1.552210585733712
 10
-0.3309075123268788
 20
-1.545761323696429
 10
-0.3264100887720973
 20
-1.538031294006371
 10
-0.3242146644028815
 20
-1.533164607432983
  0
LWPOLYLINE
  5
113
330
F5
100
AcDbEntity
  8
AM_9
100
AcDbPolyline
 90
        4
 70
     0
 43
0.0
 10
-0.0000000000000001
 20
-1.045778700151693
 10
0.0544416102741494
 20
-1.076326042662265
 10
0.081870001090765
 20
-1.090940219638269
 10
0.1093749999999998
 20
-1.105
  0
LWPOLYLINE
  5
114
330
F5
100
AcDbEntity
  8
AM_9
100
AcDbPolyline
 90
        4
 70
     0
 43
0.0
 10
-0.109375
 20
-1.105
 10
-0.0820312500000001
 20
-1.091024417998
 10
-0.0546875000000001
 20
-1.076459559607483
 10
-0.0000000000000001
 20
-1.045778700151693
  0
LWPOLYLINE
  5
115
330
F5
100
AcDbEntity
  8
AM_9
100
AcDbPolyline
 90
        6
 70
     0
 43
0.0
 10
-0.1510741298357571
 20
-1.52020229571137
 10
-0.1564222384464443
 20
-1.520146258798399
 10
-0.1639940363880806
 20
-1.520585121917566
 10
-0.1744063212866123
 20
-1.521646289109958
 10
-0.1876759562813859
 20
-1.523363121169831
 10
-0.2099962668917054
 20
-1.526671457656344
  0
LINE
  5
116
330
F5
100
AcDbEntity
  8
AM_9
100
AcDbLine
 10
-0.1420694920282088
 20
-1.440307372827561
 30
0.0
 11
-0.1419585098156051
 21
-1.447769408754154
 31
0.0
  0
LWPOLYLINE
  5
117
330
F5
100
AcDbEntity
  8
AM_9
100
AcDbPolyline
 90
        3
 70
     0
 43
0.0
 10
-0.1510741298357571
 20
-1.37957729571137
 10
-0.1458778226760521
 20
-1.403510622598914
 10
-0.1427733109937994
 20
-1.427619595644734
  0
LWPOLYLINE
  5
118
330
F5
100
AcDbEntity
  8
AM_9
100
AcDbPolyline
 90
        3
 70
     0
 43
0.0
 10
-0.2099962668917054
 20
-1.245421457656344
 10
-0.1943573015029059
 20
-1.267992854288234
 10
-0.1861176619699923
 20
-1.281443643046347
  0
LWPOLYLINE
  5
119
330
F5
100
AcDbEntity
  8
AM_9
100
AcDbPolyline
 90
        4
 70
     0
 43
0.0
 10
-0.2258378743019628
 20
-1.246052666893888
 10
-0.2189176876709016
 20
-1.245510369847584
 10
-0.2138633349839128
 20
-1.2453309118622
 10
-0.2099962668917054
 20
-1.245421457656344
  0
LWPOLYLINE
  5
11A
330
F5
100
AcDbEntity
  8
AM_9
100
AcDbPolyline
 90
        5
 70
     0
 43
0.0
 10
-0.1420193496157323
 20
-1.453317875345618
 10
-0.1420496512545707
 20
-1.454566312422038
 10
-0.1441228263802215
 20
-1.481595324422914
 10
-0.1470795994472238
 20
-1.50083829813727
 10
-0.1510741298357571
 20
-1.52020229571137
  0
LINE
  5
11B
330
F5
100
AcDbEntity
  8
AM_9
100
AcDbLine
 10
-0.1419585098156051
 20
-1.447769408754154
 30
0.0
 11
-0.1420193496157323
 21
-1.453317875345618
 31
0.0
  0
LWPOLYLINE
  5
11C
330
F5
100
AcDbEntity
  8
AM_9
100
AcDbPolyline
 90
        4
 70
     0
 43
0.0
 10
-0.1663409091571247
 20
-1.322679313255646
 10
-0.1598729403210872
 20
-1.341768689712644
 10
-0.1549033058439657
 20
-1.360607171961479
 10
-0.1510741298357571
 20
-1.37957729571137
  0
LINE
  5
11D
330
F5
100
AcDbEntity
  8
AM_9
100
AcDbLine
 10
-0.1765789831125443
 20
-1.299205855542361
 30
0.0
 11
-0.1711461583487343
 21
-1.310902921100453
 31
0.0
  0
ELLIPSE
  5
11E
330
F5
100
AcDbEntity
  8
AM_9
100
AcDbEllipse
 10
-0.2013892028241865
 20
-1.38327024483734
 30
0.0
 11
-0.03193085011438218
 21
0.136951858096092
 31
0.0
210
0.0
220
0.0
230
1.0
 40
0.3659981507706602
 41
2.150416404658175
 42
6.139946939636918
  0
LINE
  5
11F
330
F5
100
AcDbEntity
  8
AM_9
100
AcDbLine
 10
-0.3001604473578121
 20
-1.392227923681266
 30
0.0
 11
-0.2987675689889719
 21
-1.399475066725467
 31
0.0
  0
LWPOLYLINE
  5
120
330
F5
100
AcDbEntity
  8
AM_9
100
AcDbPolyline
 90
        3
 70
     0
 43
0.0
 10
-0.3055458577949632
 20
-1.347852494962034
 10
-0.3030753670497809
 20
-1.373922855181632
 10
-0.3001604473578121
 20
-1.392227923681266
  0
LWPOLYLINE
  5
121
330
F5
100
AcDbEntity
  8
AM_9
100
AcDbPolyline
 90
        4
 70
     0
 43
0.0
 10
-0.2602304684431209
 20
-1.303067949924796
 10
-0.2616913382589204
 20
-1.2884112730526
 10
-0.2647402074337707
 20
-1.26995477011276
 10
-0.2689146070947223
 20
-1.251889734350518
  0
LINE
  5
122
330
F5
100
AcDbEntity
  8
AM_9
100
AcDbLine
 10
-0.2689146070947223
 20
-1.251889734350518
 30
0.0
 11
-0.2987675689889719
 21
-1.258850066725467
 31
0.0
  0
LWPOLYLINE
  5
123
330
F5
100
AcDbEntity
  8
AM_9
100
AcDbPolyline
 90
        3
 70
     0
 43
0.0
 10
-0.3001593436617023
 20
-1.266740185070576
 10
-0.3030606061861224
 20
-1.286294122408012
 10
-0.3055458577949632
 20
-1.313633406468319
  0
LINE
  5
124
330
F5
100
AcDbEntity
  8
AM_9
100
AcDbLine
 10
-0.2987675689889719
 20
-1.258850066725467
 30
0.0
 11
-0.3001593436617023
 21
-1.266740185070576
 31
0.0
  0
LINE
  5
125
330
F5
100
AcDbEntity
  8
AM_9
100
AcDbLine
 10
-0.2711532636537957
 20
-1.256618123437406
 30
0.0
 11
-0.2813919000363601
 21
-1.257753048956784
 31
0.0
  0
ELLIPSE
  5
126
330
F5
100
AcDbEntity
  8
AM_9
100
AcDbEllipse
 10
-0.2467045921760209
 20
-1.393835701380858
 30
0.0
 11
-0.0319308501143826
 21
0.1369518580960944
 31
0.0
210
0.0
220
0.0
230
1.0
 40
0.3659981507706667
 41
2.150416404658203
 42
6.139946939636897
  0
ELLIPSE
  5
127
330
F5
100
AcDbEntity
  8
AM_9
100
AcDbEllipse
 10
-0.2467045921760252
 20
-1.39383570138086
 30
0.0
 11
-0.03193085011438183
 21
0.1369518580960895
 31
0.0
210
0.0
220
0.0
230
1.0
 40
0.3659981507706474
 41
1.277241127617979
 42
1.951156734850514
  0
LWPOLYLINE
  5
128
330
F5
100
AcDbEntity
  8
AM_9
100
AcDbPolyline
 90
        3
 70
     0
 43
0.0
 10
-0.3055458577949632
 20
-1.313633406468319
 10
-0.3064767622622303
 20
-1.330869806845232
 10
-0.3055458577949632
 20
-1.347852494962034
  0
ELLIPSE
  5
129
330
F5
100
AcDbEntity
  8
AM_9
100
AcDbEllipse
 10
-0.2467045921760223
 20
-1.39383570138086
 30
0.0
 11
-0.03193085011438166
 21
0.1369518580960962
 31
0.0
210
0.0
220
0.0
230
1.0
 40
0.3659981507706542
 41
0.056021302265
 42
0.86263275797577
  0
LWPOLYLINE
  5
12A
330
F5
100
AcDbEntity
  8
AM_9
100
AcDbPolyline
 90
       16
 70
     0
 43
0.0
 10
-0.32500620894741
 20
-1.535026017545823
 10
-0.324714502357621
 20
-1.534433007436643
 10
-0.3234615083642461
 20
-1.532321400063693
 10
-0.320979203564622
 20
-1.528966351764232
 10
-0.3169899447619867
 20
-1.52469730094089
 10
-0.3112549661375595
 20
-1.519950861316165
 10
-0.3037029531107379
 20
-1.515319043190695
 10
-0.2946202194661726
 20
-1.511501868595769
 10
-0.2847099148958375
 20
-1.509083155606346
 10
-0.2748631650095563
 20
-1.508284048794758
 10
-0.2659500690236094
 20
-1.508920408140211
 10
-0.2585416841367139
 20
-1.510520180991491
 10
-0.252909163791252
 20
-1.512515549383068
 10
-0.2490297069397775
 20
-1.514406891281359
 10
-0.2467197863646274
 20
-1.515831634549633
 10
-0.2457714673164356
 20
-1.516533253615218
  0
LWPOLYLINE
  5
12B
330
F5
100
AcDbEntity
  8
AM_9
100
AcDbPolyline
 90
        3
 70
     0
 43
0.0
 10
-0.2457249882508971
 20
-1.516571960916105
 10
-0.2460084737565059
 20
-1.516310589191636
 10
-0.2470683898945665
 20
-1.515227370085265
  0
LWPOLYLINE
  5
12C
330
F5
100
AcDbEntity
  8
AM_9
100
AcDbPolyline
 90
        3
 70
     0
 43
0.0
 10
-0.3007168525748459
 20
-1.285117653066566
 10
-0.3002146950645021
 20
-1.283595358115421
 10
-0.3001080482840256
 20
-1.283322263717043
  0
LWPOLYLINE
  5
12D
330
F5
100
AcDbEntity
  8
AM_9
100
AcDbPolyline
 90
       16
 70
     0
 43
0.0
 10
-0.3001762243730207
 20
-1.28347172062746
 10
-0.3009593751269939
 20
-1.284924599807887
 10
-0.3028457495050711
 20
-1.28774827768017
 10
-0.3061127111898532
 20
-1.291646058018107
 10
-0.3110270494250656
 20
-1.296237868760936
 10
-0.3177586559652562
 20
-1.301005547326894
 10
-0.3262063443284872
 20
-1.305281329182341
 10
-0.3358456759459966
 20
-1.308391945220873
 10
-0.3458307750284298
 20
-1.309931197776137
 10
-0.3552588458312674
 20
-1.309905576386422
 10
-0.363408834666709
 20
-1.308677804943616
 10
-0.3698670765696755
 20
-1.306794245691024
 10
-0.3745318027962168
 20
-1.304801986155528
 10
-0.3775334509791735
 20
-1.303126781532366
 10
-0.3790806779890827
 20
-1.302066902359144
 10
-0.3793790128906425
 20
-1.301831744742373
  0
LINE
  5
12E
330
F5
100
AcDbEntity
  8
AM_9
100
AcDbLine
 10
-0.177120771554662
 20
-1.264661692407327
 30
0.0
 11
-0.2263662233581053
 21
-1.276143458059952
 31
0.0
  0
LINE
  5
12F
330
F5
100
AcDbEntity
  8
AM_9
100
AcDbLine
 10
-0.176412182290271
 20
-1.49039703161473
 30
0.0
 11
-0.1343592486638227
 21
-1.480592229115782
 31
0.0
  0
LWPOLYLINE
  5
130
330
F5
100
AcDbEntity
  8
AM_9
100
AcDbPolyline
 90
       20
 70
     0
 43
0.0
 10
-0.1343659249938089
 20
-1.48059378540361
 10
-0.1293028157827817
 20
-1.477990967168628
 10
-0.1247141396218193
 20
-1.472417196040507
 10
-0.1208880884981782
 20
-1.463797239076489
 10
-0.1181545989145989
 20
-1.452880991490922
 10
-0.1164278875396129
 20
-1.439336212655024
 10
-0.1158549073091555
 20
-1.424330271317741
 10
-0.1164156227038168
 20
-1.407408286749774
 10
-0.1180609686233502
 20
-1.390004703027538
 10
-0.1208367673933812
 20
-1.371607393511457
 10
-0.1245107513506023
 20
-1.353747455120003
 10
-0.1291842652280563
 20
-1.335922481606625
 10
-0.134472979061152
 20
-1.3195960564441
 10
-0.140518627090196
 20
-1.304328872764631
 10
-0.1468270783017121
 20
-1.291370478489194
 10
-0.1535654953592165
 20
-1.280381372029879
 10
-0.1601799433259584
 20
-1.272268942862664
 10
-0.1668493358980662
 20
-1.266820477436415
 10
-0.1731116383367607
 20
-1.264480939756073
 10
-0.1771125901748264
 20
-1.264659785344162
  0
LINE
  5
131
330
F5
100
AcDbEntity
  8
AM_9
100
AcDbLine
 10
-0.1771125901748264
 20
-1.264659785344162
 30
0.0
 11
-0.1790373738502117
 21
-1.265304054033761
 31
0.0
  0
LWPOLYLINE
  5
132
330
F5
100
AcDbEntity
  8
AM_9
100
AcDbPolyline
 90
        3
 70
     0
 43
0.0
 10
-0.2689146070947223
 20
-1.392514734350518
 10
-0.2634308483997529
 20
-1.364890958955647
 10
-0.2602304684431306
 20
-1.337287038418517
  0
LWPOLYLINE
  5
133
330
F5
100
AcDbEntity
  8
AM_9
100
AcDbPolyline
 90
        5
 70
     0
 43
0.0
 10
-0.179037373850178
 20
-1.419695945966246
 10
-0.1733931390117468
 20
-1.435209976006311
 10
-0.1670729780242512
 20
-1.44935797563067
 10
-0.1606047421316796
 20
-1.460955943415793
 10
-0.1545716237076859
 20
-1.469415750236133
  0
ARC
  5
134
330
F5
100
AcDbEntity
  8
AM_9
100
AcDbCircle
 10
0.0000000000000003
 20
-1.342500000000001
 30
0.0
 40
0.1999999999999995
100
AcDbArc
 50
219.3579430009589
 51
0.0
  0
LWPOLYLINE
  5
135
330
F5
100
AcDbEntity
  8
AM_9
100
AcDbPolyline
 90
        6
 70
     0
 43
0.0
 10
-0.1545716237076859
 20
-1.469415750236133
 10
-0.1538031670974778
 20
-1.470334802540261
 10
-0.1472336073736394
 20
-1.476712011960484
 10
-0.1407130262602577
 20
-1.48026170963818
 10
-0.1347930597680668
 20
-1.480684256104104
 10
-0.1343659249938089
 20
-1.48059378540361
  0
LINE
  5
136
330
F5
100
AcDbEntity
  8
AM_9
100
AcDbLine
 10
-0.2360765106845276
 20
-1.247187592413266
 30
0.0
 11
-0.2258378743019628
 21
-1.246052666893888
 31
0.0
  0
ELLIPSE
  5
137
330
F5
100
AcDbEntity
  8
AM_9
100
AcDbEllipse
 10
-0.2013892028241896
 20
-1.383270244837342
 30
0.0
 11
-0.03193085011438201
 21
0.1369518580960958
 31
0.0
210
0.0
220
0.0
230
1.0
 40
0.3659981507705636
 41
0.056021302265008
 42
0.862632757975738
  0
LINE
  5
138
330
F5
100
AcDbEntity
  8
AM_9
100
AcDbLine
 10
-0.2602304684431306
 20
-1.337287038418517
 30
0.0
 11
-0.2602304684431209
 21
-1.303067949924796
 31
0.0
  0
ELLIPSE
  5
139
330
F5
100
AcDbEntity
  8
AM_9
100
AcDbEllipse
 10
-0.2013892028241875
 20
-1.383270244837341
 30
0.0
 11
-0.03193085011438281
 21
0.1369518580960954
 31
0.0
210
0.0
220
0.0
230
1.0
 40
0.3659981507706691
 41
1.144545279139741
 42
1.951156734850493
  0
LWPOLYLINE
  5
13A
330
F5
100
AcDbEntity
  8
AM_9
100
AcDbPolyline
 90
        3
 70
     0
 43
0.0
 10
-0.2099962668917054
 20
-1.526671457656344
 10
-0.2163479371246914
 20
-1.497339189975666
 10
-0.225837874301963
 20
-1.468057477599441
  0
LINE
  5
13B
330
F5
100
AcDbEntity
  8
AM_9
100
AcDbLine
 10
-0.225837874301963
 20
-1.468057477599441
 30
0.0
 11
-0.2360765106845278
 21
-1.444965725501071
 31
0.0
  0
LWPOLYLINE
  5
13C
330
F5
100
AcDbEntity
  8
AM_9
100
AcDbPolyline
 90
        4
 70
     0
 43
0.0
 10
-0.2360765106845278
 20
-1.444965725501071
 10
-0.2462091938631852
 20
-1.426421611213502
 10
-0.2570505402207575
 20
-1.409284690571682
 10
-0.2689146070947223
 20
-1.392514734350518
  0
LINE
  5
13D
330
F5
100
AcDbEntity
  8
AM_9
100
AcDbLine
 10
-0.2689146070947223
 20
-1.392514734350518
 30
0.0
 11
-0.2987675689889719
 21
-1.399475066725467
 31
0.0
  0
LWPOLYLINE
  5
13E
330
F5
100
AcDbEntity
  8
AM_9
100
AcDbPolyline
 90
        3
 70
     0
 43
0.0
 10
-0.2987675689889719
 20
-1.399475066725467
 10
-0.2912216284034025
 20
-1.427576183495197
 10
-0.28139190003636
 20
-1.45553118204459
  0
LINE
  5
13F
330
F5
100
AcDbEntity
  8
AM_9
100
AcDbLine
 10
-0.28139190003636
 20
-1.45553118204459
 30
0.0
 11
-0.2711532636537957
 21
-1.478622934142958
 31
0.0
  0
LWPOLYLINE
  5
140
330
F5
100
AcDbEntity
  8
AM_9
100
AcDbPolyline
 90
        3
 70
     0
 43
0.0
 10
-0.2711532636537957
 20
-1.478622934142958
 10
-0.2561815527589922
 20
-1.506327936735335
 10
-0.2389369657326277
 20
-1.533419092407283
  0
LINE
  5
141
330
F5
100
AcDbEntity
  8
AM_9
100
AcDbLine
 10
-0.2099962668917054
 20
-1.526671457656344
 30
0.0
 11
-0.2389369657326277
 21
-1.533419092407283
 31
0.0
  0
LWPOLYLINE
  5
142
330
F5
100
AcDbEntity
  8
AM_9
100
AcDbPolyline
 90
        4
 70
     0
 43
0.0
 10
0.1093749999999999
 20
-1.055
 10
0.0820312499999999
 20
-1.041631832001999
 10
0.0546874999999999
 20
-1.028852940392517
 10
-0.0000000000000001
 20
-1.004846299848307
  0
LWPOLYLINE
  5
143
330
F5
100
AcDbEntity
  8
AM_9
100
AcDbPolyline
 90
        4
 70
     0
 43
0.0
 10
-0.0000000000000001
 20
-1.004846299848307
 10
-0.0544416102741497
 20
-1.028740567611885
 10
-0.0818700010907652
 20
-1.041554781452496
 10
-0.1093750000000001
 20
-1.055
  0
LWPOLYLINE
  5
144
330
F5
100
AcDbEntity
  8
AM_9
100
AcDbPolyline
 90
        4
 70
     0
 43
0.0
 10
0.1093749999999998
 20
-1.105
 10
0.1367187499999998
 20
-1.118368167998
 10
0.1640624999999998
 20
-1.131147059607483
 10
0.2187499999999999
 20
-1.155153700151693
  0
LWPOLYLINE
  5
145
330
F5
100
AcDbEntity
  8
AM_9
100
AcDbPolyline
 90
        4
 70
     0
 43
0.0
 10
-0.2187500000000001
 20
-1.155153700151693
 10
-0.1643083897258505
 20
-1.131259432388115
 10
-0.136879998909235
 20
-1.118445218547504
 10
-0.109375
 20
-1.105
  0
LINE
  5
146
330
F5
100
AcDbEntity
  8
AM_9
100
AcDbLine
 10
-0.0000000000000001
 20
-1.045778700151693
 30
0.0
 11
-0.0000000000000001
 21
-1.004846299848307
 31
0.0
  0
LWPOLYLINE
  5
147
330
F5
100
AcDbEntity
  8
AM_9
100
AcDbPolyline
 90
        4
 70
     0
 43
0.0
 10
0.2187499999999999
 20
-1.114221299848307
 10
0.1643083897258503
 20
-1.083673957337735
 10
0.1368799989092347
 20
-1.069059780361731
 10
0.1093749999999999
 20
-1.055
  0
LWPOLYLINE
  5
148
330
F5
100
AcDbEntity
  8
AM_9
100
AcDbPolyline
 90
        4
 70
     0
 43
0.0
 10
-0.1093750000000001
 20
-1.055
 10
-0.1367187500000001
 20
-1.068975582001999
 10
-0.1640625000000001
 20
-1.083540440392517
 10
-0.2187500000000001
 20
-1.114221299848307
  0
ELLIPSE
  5
149
330
F5
100
AcDbEntity
  8
AM_9
100
AcDbEllipse
 10
-0.0000000000000002
 20
-1.3425
 30
0.0
 11
-0.2
 21
2.449293598294707E-17
 31
0.0
210
0.0
220
0.0
230
1.0
 40
0.8660254037844395
 41
0.4619460205669661
 42
5.821239286612622
  0
LWPOLYLINE
  5
14A
330
F5
100
AcDbEntity
  8
AM_9
100
AcDbPolyline
 90
        7
 70
     0
 43
0.0
 10
-0.1790373738501785
 20
-1.419695945966246
 10
-0.1842628795203942
 20
-1.403701216295605
 10
-0.1891729979031394
 20
-1.387644458256412
 10
-0.1936098952159724
 20
-1.370877825105296
 10
-0.1971856748420372
 20
-1.353429808725254
 10
-0.1994144431868155
 20
-1.335957633207593
 10
-0.1999999999699529
 20
-1.32225755900097
  0
LINE
  5
14B
330
F5
100
AcDbEntity
  8
AM_9
100
AcDbLine
 10
0.1999999999999998
 20
-1.3425
 30
0.0
 11
0.1999999999999998
 21
-1.2690625
 31
0.0
  0
LWPOLYLINE
  5
14C
330
F5
100
AcDbEntity
  8
AM_9
100
AcDbPolyline
 90
        8
 70
     0
 43
0.0
 10
-0.1999999999699529
 20
-1.32225755900097
 10
-0.1999786710855128
 20
-1.319747492794572
 10
-0.1988321115509054
 20
-1.304477046299116
 10
-0.196164942998426
 20
-1.291547828583382
 10
-0.1920694300574959
 20
-1.280495849846331
 10
-0.1870948030566196
 20
-1.272226804053058
 10
-0.1815005947613931
 20
-1.266703487144152
 10
-0.1790373738501785
 20
-1.265304054033754
  0
LINE
  5
14D
330
F5
100
AcDbEntity
  8
AM_9
100
AcDbLine
 10
-0.2187500000000001
 20
-1.373903700151693
 30
0.0
 11
-0.2187500000000001
 21
-1.114221299848307
 31
0.0
  0
LWPOLYLINE
  5
14E
330
F5
100
AcDbEntity
  8
AM_9
100
AcDbPolyline
 90
        4
 70
     0
 43
0.0
 10
-0.109375
 20
-1.433125
 10
-0.1367187500000001
 20
-1.419149417998
 10
-0.1640625000000001
 20
-1.404584559607483
 10
-0.2187500000000001
 20
-1.373903700151693
  0
LWPOLYLINE
  5
14F
330
F5
100
AcDbEntity
  8
AM_9
100
AcDbPolyline
 90
        4
 70
     0
 43
0.0
 10
-0.0000000000000001
 20
-1.483278700151693
 10
-0.0544416102741497
 20
-1.459384432388115
 10
-0.0818700010907652
 20
-1.446570218547504
 10
-0.109375
 20
-1.433125
  0
LWPOLYLINE
  5
150
330
F5
100
AcDbEntity
  8
AM_9
100
AcDbPolyline
 90
        4
 70
     0
 43
0.0
 10
-0.1093750000000001
 20
-1.383125
 10
-0.0820312500000001
 20
-1.397100582001999
 10
-0.0546875000000001
 20
-1.411665440392517
 10
-0.0000000000000001
 20
-1.442346299848307
  0
LWPOLYLINE
  5
151
330
F5
100
AcDbEntity
  8
AM_9
100
AcDbPolyline
 90
        4
 70
     0
 43
0.0
 10
-0.2187500000000001
 20
-1.332971299848307
 10
-0.1643083897258505
 20
-1.356865567611885
 10
-0.136879998909235
 20
-1.369679781452496
 10
-0.1093750000000001
 20
-1.383125
  0
LINE
  5
152
330
F5
100
AcDbEntity
  8
AM_9
100
AcDbLine
 10
-0.0000000000000001
 20
-1.483278700151693
 30
0.0
 11
-0.0000000000000001
 21
-1.442346299848307
 31
0.0
  0
LWPOLYLINE
  5
153
330
F5
100
AcDbEntity
  8
AM_9
100
AcDbPolyline
 90
        4
 70
     0
 43
0.0
 10
0.1093749999999998
 20
-1.433125
 10
0.0820312499999998
 20
-1.446493167998
 10
0.0546874999999999
 20
-1.459272059607483
 10
-0.0000000000000001
 20
-1.483278700151693
  0
LWPOLYLINE
  5
154
330
F5
100
AcDbEntity
  8
AM_9
100
AcDbPolyline
 90
        4
 70
     0
 43
0.0
 10
0.2187499999999999
 20
-1.373903700151693
 10
0.1643083897258503
 20
-1.404451042662265
 10
0.1368799989092347
 20
-1.419065219638269
 10
0.1093749999999998
 20
-1.433125
  0
LINE
  5
155
330
F5
100
AcDbEntity
  8
AM_9
100
AcDbLine
 10
0.2187499999999999
 20
-1.373903700151693
 30
0.0
 11
0.2187499999999999
 21
-1.114221299848307
 31
0.0
  0
LWPOLYLINE
  5
156
330
F5
100
AcDbEntity
  8
AM_9
100
AcDbPolyline
 90
        4
 70
     0
 43
0.0
 10
0.1093749999999999
 20
-1.383125
 10
0.1367187499999998
 20
-1.369756832002
 10
0.1640624999999998
 20
-1.356977940392517
 10
0.2187499999999999
 20
-1.332971299848307
  0
LWPOLYLINE
  5
157
330
F5
100
AcDbEntity
  8
AM_9
100
AcDbPolyline
 90
        4
 70
     0
 43
0.0
 10
-0.0000000000000001
 20
-1.442346299848307
 10
0.0544416102741494
 20
-1.411798957337735
 10
0.0818700010907649
 20
-1.397184780361731
 10
0.1093749999999999
 20
-1.383125
  0
LINE
  5
158
330
F5
100
AcDbEntity
  8
AM_9
100
AcDbLine
 10
0.1999999999999998
 20
-1.2190625
 30
0.0
 11
0.1999999999999998
 21
-1.18
 31
0.0
  0
LINE
  5
159
330
F5
100
AcDbEntity
  8
AM_9
100
AcDbLine
 10
-0.1851454569549802
 20
-1.073809912570727
 30
0.0
 11
-0.1912304659644924
 21
-1.171022462287446
 31
0.0
  0
LINE
  5
15A
330
F5
100
AcDbEntity
  8
AM_9
100
AcDbLine
 10
0.1912304659644922
 20
-1.171022462287446
 30
0.0
 11
0.1851454569549799
 21
-1.073809912570727
 31
0.0
  0
ELLIPSE
  5
15B
330
F5
100
AcDbEntity
  8
AM_9
100
AcDbEllipse
 10
-0.0000000000000001
 20
-1.070625
 30
0.0
 11
0.1616637258772237
 21
0.0
 31
0.0
210
0.0
220
0.0
230
1.0
 40
0.8660254037844384
 41
0.0
 42
6.283185307179586
  0
ELLIPSE
  5
15C
330
F5
100
AcDbEntity
  8
AM_9
100
AcDbEllipse
 10
-0.4687500000000008
 20
-1.445606438444093
 30
0.0
 11
-0.02349716402074655
 21
0.1007796617096768
 31
0.0
210
0.0
220
0.0
230
1.0
 40
0.3659981507706673
 41
0.0
 42
6.283185307179586
  0
ELLIPSE
  5
15D
330
F5
100
AcDbEntity
  8
AM_9
100
AcDbEllipse
 10
-0.3729962569746642
 20
-1.423281086609234
 30
0.0
 11
-0.03024351534849234
 21
0.1297148559307584
 31
0.0
210
0.0
220
0.0
230
1.0
 40
0.3659981507706661
 41
0.0
 42
6.283185307179586
  0
ELLIPSE
  5
15E
330
F5
100
AcDbEntity
  8
AM_9
100
AcDbEllipse
 10
-0.2013892028241882
 20
-1.383270244837341
 30
0.0
 11
-0.02497702053391714
 21
0.1071267867773893
 31
0.0
210
0.0
220
0.0
230
1.0
 40
0.3659981507706665
 41
0.0
 42
6.283185307179586
  0
ELLIPSE
  5
15F
330
F5
100
AcDbEntity
  8
AM_9
100
AcDbEllipse
 10
0.0000000000000003
 20
-1.2690625
 30
0.0
 11
-0.2000000000000004
 21
2.449293598294711E-17
 31
0.0
210
0.0
220
0.0
230
1.0
 40
0.8660254037844388
 41
0.0
 42
6.283185307179586
  0
ELLIPSE
  5
160
330
F5
100
AcDbEntity
  8
AM_9
100
AcDbEllipse
 10
-0.0000000000000001
 20
-1.2690625
 30
0.0
 11
-0.21875
 21
2.678914873134835E-17
 31
0.0
210
0.0
220
0.0
230
1.0
 40
0.866025403784442
 41
0.0
 42
6.283185307179586
  0
ELLIPSE
  5
161
330
F5
100
AcDbEntity
  8
AM_9
100
AcDbEllipse
 10
-0.0000000000000001
 20
-1.219062499999999
 30
0.0
 11
-0.21875
 21
2.678914873134835E-17
 31
0.0
210
0.0
220
0.0
230
1.0
 40
0.866025403784442
 41
0.0
 42
6.283185307179586
  0
ELLIPSE
  5
162
330
F5
100
AcDbEntity
  8
AM_9
100
AcDbEllipse
 10
-0.0000000000000004
 20
-1.2190625
 30
0.0
 11
-0.1999999999999996
 21
2.980232263262461E-9
 31
0.0
210
0.0
220
0.0
230
1.0
 40
0.866025403784439
 41
0.0
 42
6.283185307179586
  0
ELLIPSE
  5
163
330
F5
100
AcDbEntity
  8
AM_9
100
AcDbEllipse
 10
0.0000000000000002
 20
-1.179999999999999
 30
0.0
 11
-0.2000000000000004
 21
2.449293598294711E-17
 31
0.0
210
0.0
220
0.0
230
1.0
 40
0.8660254037844389
 41
0.0
 42
6.283185307179586
  0
ELLIPSE
  5
164
330
F5
100
AcDbEntity
  8
AM_9
100
AcDbEllipse
 10
-0.0000000000000002
 20
-1.18
 30
0.0
 11
-0.1915112338502293
 21
2.853739789488283E-9
 31
0.0
210
0.0
220
0.0
230
1.0
 40
0.866025403784438
 41
0.0
 42
6.283185307179586
  0
ELLIPSE
  5
165
330
F5
100
AcDbEntity
  8
AM_9
100
AcDbEllipse
 10
-0.0000000000000001
 20
-1.082501782423881
 30
0.0
 11
-0.1854172907249859
 21
2.270706915929282E-17
 31
0.0
210
0.0
220
0.0
230
1.0
 40
0.8660254037844405
 41
0.0
 42
6.283185307179586
  0
ENDBLK
  5
F8
330
F5
100
AcDbEntity
  8
0
100
AcDbBlockEnd
  0
BLOCK
  5
168
330
166
100
AcDbEntity
  8
0
100
AcDbBlockBegin
  2
4_130348H_0_in_130348_2
 70
     2
 10
0.0
 20
0.0
 30
0.0
  3
4_130348H_0_in_130348_2
  1

  0
ATTDEF
  5
16A
330
166
100
AcDbEntity
  8
AM_6
100
AcDbText
 10
5.970000000000001
 20
2.375
 30
0.0
 40
0.5
  1
WSTU-SXV -I-Housing
100
AcDbAttributeDefinition
  3

  2
NN
 70
     8
280
     0
  0
ATTDEF
  5
16B
330
166
100
AcDbEntity
  8
AM_6
100
AcDbText
 10
5.970000000000001
 20
1.875
 30
0.0
 40
0.5
  1
Eccentric Collar Take-Up Bearings -(Intermediate Duty) -Wide Slot
100
AcDbAttributeDefinition
  3

  2
NT
 70
     8
280
     0
  0
ATTDEF
  5
16C
330
166
100
AcDbEntity
  8
AM_6
100
AcDbText
 10
5.970000000000001
 20
1.375
 30
0.0
 40
0.5
  1
130348H
100
AcDbAttributeDefinition
  3

  2
NB
 70
     8
280
     0
  0
ATTDEF
  5
16D
330
166
100
AcDbEntity
  8
AM_6
100
AcDbText
 10
5.970000000000001
 20
0.875
 30
0.0
 40
0.5
  1
$PN.H
100
AcDbAttributeDefinition
  3

  2
NBSYN
 70
     8
280
     0
  0
ATTDEF
  5
16E
330
166
100
AcDbEntity
  8
AM_6
100
AcDbText
 10
5.970000000000001
 20
0.375
 30
0.0
 40
0.5
  1
130348
100
AcDbAttributeDefinition
  3

  2
LINA
 70
     8
280
     0
  0
ATTDEF
  5
16F
330
166
100
AcDbEntity
  8
AM_6
100
AcDbText
 10
5.970000000000001
 20
-0.125
 30
0.0
 40
0.5
  1
210
100
AcDbAttributeDefinition
  3

  2
SERIES
 70
     8
280
     0
  0
ATTDEF
  5
170
330
166
100
AcDbEntity
  8
AM_6
100
AcDbText
 10
5.970000000000001
 20
-0.625
 30
0.0
 40
0.5
  1
1-15/16
100
AcDbAttributeDefinition
  3

  2
SS
 70
     8
280
     0
  0
ATTDEF
  5
171
330
166
100
AcDbEntity
  8
AM_6
100
AcDbText
 10
5.970000000000001
 20
-1.125
 30
0.0
 40
0.5
  1
130348
100
AcDbAttributeDefinition
  3

  2
PN
 70
     8
280
     0
  0
ATTDEF
  5
172
330
166
100
AcDbEntity
  8
AM_6
100
AcDbText
 10
5.970000000000001
 20
-1.625
 30
0.0
 40
0.5
  1
WSTU-SXV-115
100
AcDbAttributeDefinition
  3

  2
DESCRIPTION
 70
     8
280
     0
  0
ATTDEF
  5
173
330
166
100
AcDbEntity
  8
AM_6
100
AcDbText
 10
5.970000000000001
 20
-2.125
 30
0.0
 40
0.5
  1
4.9
100
AcDbAttributeDefinition
  3

  2
W
 70
     8
280
     0
  0
ATTDEF
  5
174
330
166
100
AcDbEntity
  8
AM_6
100
AcDbText
 10
5.970000000000001
 20
-2.625
 30
0.0
 40
0.5
  1
WS400
100
AcDbAttributeDefinition
  3

  2
FS
 70
     8
280
     0
  0
ATTDEF
  5
175
330
166
100
AcDbEntity
  8
AM_6
100
AcDbText
 10
5.970000000000001
 20
-3.125
 30
0.0
 40
0.5
  1
1.72
100
AcDbAttributeDefinition
  3

  2
A
 70
     8
280
     0
  0
ATTDEF
  5
176
330
166
100
AcDbEntity
  8
AM_6
100
AcDbText
 10
5.970000000000001
 20
-3.625
 30
0.0
 40
0.5
  1
5.82
100
AcDbAttributeDefinition
  3

  2
B
 70
     8
280
     0
  0
ATTDEF
  5
177
330
166
100
AcDbEntity
  8
AM_6
100
AcDbText
 10
5.970000000000001
 20
-4.125
 30
0.0
 40
0.5
  1
0.688
100
AcDbAttributeDefinition
  3

  2
C
 70
     8
280
     0
  0
ATTDEF
  5
178
330
166
100
AcDbEntity
  8
AM_6
100
AcDbText
 10
5.970000000000001
 20
-4.625
 30
0.0
 40
0.5
  1
3.38
100
AcDbAttributeDefinition
  3

  2
D
 70
     8
280
     0
  0
ATTDEF
  5
179
330
166
100
AcDbEntity
  8
AM_6
100
AcDbText
 10
5.970000000000001
 20
-5.125
 30
0.0
 40
0.5
  1
3.56
100
AcDbAttributeDefinition
  3

  2
E
 70
     8
280
     0
  0
ATTDEF
  5
17A
330
166
100
AcDbEntity
  8
AM_6
100
AcDbText
 10
5.970000000000001
 20
-5.625
 30
0.0
 40
0.5
  1
1
100
AcDbAttributeDefinition
  3

  2
F
 70
     8
280
     0
  0
ATTDEF
  5
17B
330
166
100
AcDbEntity
  8
AM_6
100
AcDbText
 10
5.970000000000001
 20
-6.125
 30
0.0
 40
0.5
  1
0.63
100
AcDbAttributeDefinition
  3

  2
G
 70
     8
280
     0
  0
ATTDEF
  5
17C
330
166
100
AcDbEntity
  8
AM_6
100
AcDbText
 10
5.970000000000001
 20
-6.625
 30
0.0
 40
0.5
  1
0.75
100
AcDbAttributeDefinition
  3

  2
H
 70
     8
280
     0
  0
ATTDEF
  5
17D
330
166
100
AcDbEntity
  8
AM_6
100
AcDbText
 10
5.970000000000001
 20
-7.125
 30
0.0
 40
0.5
  1
3.25
100
AcDbAttributeDefinition
  3

  2
J
 70
     8
280
     0
  0
ATTDEF
  5
17E
330
166
100
AcDbEntity
  8
AM_6
100
AcDbText
 10
5.970000000000001
 20
-7.625
 30
0.0
 40
0.5
  1
1.94
100
AcDbAttributeDefinition
  3

  2
K
 70
     8
280
     0
  0
ATTDEF
  5
17F
330
166
100
AcDbEntity
  8
AM_6
100
AcDbText
 10
5.970000000000001
 20
-8.125
 30
0.0
 40
0.5
  1
2.75
100
AcDbAttributeDefinition
  3

  2
L
 70
     8
280
     0
  0
ATTDEF
  5
180
330
166
100
AcDbEntity
  8
AM_6
100
AcDbText
 10
5.970000000000001
 20
-8.625
 30
0.0
 40
0.5
  1
3.985 / 4.015
100
AcDbAttributeDefinition
  3

  2
M
 70
     8
280
     0
  0
ATTDEF
  5
181
330
166
100
AcDbEntity
  8
AM_6
100
AcDbText
 10
5.970000000000001
 20
-9.125
 30
0.0
 40
0.5
  1
4.75
100
AcDbAttributeDefinition
  3

  2
N
 70
     8
280
     0
  0
ATTDEF
  5
182
330
166
100
AcDbEntity
  8
AM_6
100
AcDbText
 10
5.970000000000001
 20
-9.625
 30
0.0
 40
0.5
  1
0.43
100
AcDbAttributeDefinition
  3

  2
R
 70
     8
280
     0
  0
ATTDEF
  5
183
330
166
100
AcDbEntity
  8
AM_6
100
AcDbText
 10
5.970000000000001
 20
-10.125
 30
0.0
 40
0.5
  1
1.29
100
AcDbAttributeDefinition
  3

  2
S
 70
     8
280
     0
  0
ATTDEF
  5
184
330
166
100
AcDbEntity
  8
AM_6
100
AcDbText
 10
5.970000000000001
 20
-10.625
 30
0.0
 40
0.5
  1
1.94
100
AcDbAttributeDefinition
  3

  2
T
 70
     8
280
     0
  0
ATTDEF
  5
185
330
166
100
AcDbEntity
  8
AM_6
100
AcDbText
 10
5.970000000000001
 20
-11.125
 30
0.0
 40
0.5
  1
4450
100
AcDbAttributeDefinition
  3

  2
CAPS
 70
     8
280
     0
  0
ATTDEF
  5
186
330
166
100
AcDbEntity
  8
AM_6
100
AcDbText
 10
5.970000000000001
 20
-11.625
 30
0.0
 40
0.5
  1
7891
100
AcDbAttributeDefinition
  3

  2
CAPD
 70
     8
280
     0
  0
ATTDEF
  5
187
330
166
100
AcDbEntity
  8
AM_6
100
AcDbText
 10
5.970000000000001
 20
-12.125
 30
0.0
 40
0.5
  1
baldor
100
AcDbAttributeDefinition
  3

  2
COMPANY
 70
     8
280
     0
  0
LWPOLYLINE
  5
188
330
166
100
AcDbEntity
  8
AM_9
100
AcDbPolyline
 90
       30
 70
     0
 43
0.0
 10
-0.45
 20
-1.13
 10
-0.4475253298690046
 20
-1.088999299023849
 10
-0.4401612021270728
 20
-1.047983945713539
 10
-0.4271786091386249
 20
-1.005342542854799
 10
-0.4090090862133403
 20
-0.9636583211666332
 10
-0.3859981647853645
 20
-0.9237432802019059
 10
-0.3579369592750227
 20
-0.885598423827311
 10
-0.3253982391434561
 20
-0.8501151217627574
 10
-0.288969014692987
 20
-0.8180155443222585
 10
-0.2482895216151623
 20
-0.7893292345826671
 10
-0.2042960627030099
 20
-0.7648778804445979
 10
-0.1578054885897532
 20
-0.745217346317859
 10
-0.1094802454387363
 20
-0.7307644202831325
 10
-0.0595700143103843
 20
-0.7215324573500695
 10
-0.0090432763029902
 20
-0.7177495188146576
 10
0.0406938897792075
 20
-0.7194833701319794
 10
0.0900725777081145
 20
-0.726502197298809
 10
0.1381638890131131
 20
-0.7386375190566941
 10
0.1843909015540487
 20
-0.7557469300390156
 10
0.2284816542853903
 20
-0.7775459787555057
 10
0.269653026420848
 20
-0.8035563360771998
 10
0.308120360906759
 20
-0.834051767375723
 10
0.3428637211834712
 20
-0.868204276372099
 10
0.3732530987712349
 20
-0.9053044591926386
 10
0.3991795178210188
 20
-0.9453757880254956
 10
0.4201251151781962
 20
-0.9875793392878359
 10
0.4356740074041974
 20
-1.031044970348049
 10
0.4435953538040294
 20
-1.063912039835024
 10
0.4483894538571037
 20
-1.097021415516611
 10
0.4499999999999997
 20
-1.13
  0
ELLIPSE
  5
189
330
166
100
AcDbEntity
  8
AM_9
100
AcDbEllipse
 10
-0.0000000000000001
 20
-1.18
 30
0.0
 11
-0.35
 21
4.286263797015737E-17
 31
0.0
210
0.0
220
0.0
230
1.0
 40
0.8660254037844388
 41
0.0
 42
6.283185307179586
  0
ELLIPSE
  5
18A
330
166
100
AcDbEntity
  8
AM_9
100
AcDbEllipse
 10
-0.0000000000000002
 20
-1.13
 30
0.0
 11
0.4499999999999999
 21
0.0
 31
0.0
210
0.0
220
0.0
230
1.0
 40
0.8660254037844395
 41
0.1388925420627762
 42
2.916049641802123
  0
LINE
  5
18B
330
166
100
AcDbEntity
  8
AM_9
100
AcDbLine
 10
0.4499979535575663
 20
-1.131218058838634
 30
0.0
 11
0.449999939354865
 21
-1.129790315189778
 31
0.0
  0
LWPOLYLINE
  5
18C
330
166
100
AcDbEntity
  8
AM_9
100
AcDbPolyline
 90
       52
 70
     0
 43
0.0
 10
-0.4499890366167338
 20
-1.132819282609426
 10
-0.4495789648712211
 20
-1.147467263450303
 10
-0.4475937489081364
 20
-1.171710798047007
 10
-0.4439895171941162
 20
-1.195787700984667
 10
-0.4387808239213322
 20
-1.21961510844229
 10
-0.4319866446634626
 20
-1.243111192163086
 10
-0.4236303960350748
 20
-1.266195103502736
 10
-0.4137400376792771
 20
-1.288786950896827
 10
-0.4023482378572097
 20
-1.310807834175496
 10
-0.3894925763448931
 20
-1.332179954898563
 10
-0.375215752965474
 20
-1.352826814348855
 10
-0.3595657678424732
 20
-1.372673501462956
 10
-0.3425960410834863
 20
-1.391647062776219
 10
-0.32436544527043
 20
-1.409676936794293
 10
-0.3049382332727616
 20
-1.426695427593488
 10
-0.2843838552084507
 20
-1.442638188178988
 10
-0.262776670056104
 20
-1.457444683886874
 10
-0.2401955675978683
 20
-1.471058609803458
 10
-0.2167235235529175
 20
-1.483428242927481
 10
-0.1924471141635628
 20
-1.494506718232521
 10
-0.1674560161548731
 20
-1.504252226373389
 10
-0.1418425146224917
 20
-1.512628138222317
 10
-0.1157010361225971
 20
-1.51960306689012
 10
-0.0891277182148545
 20
-1.525150881096042
 10
-0.0622200209150698
 20
-1.529250684867263
 10
-0.0350763805800394
 20
-1.531886778031189
 10
-0.0077959029438751
 20
-1.533048610368894
 10
0.0195219106658019
 20
-1.532730740136674
 10
0.0467772569977376
 20
-1.530932819740335
 10
0.073870000487085
 20
-1.527659667410012
 10
0.1007008583268666
 20
-1.522921202274232
 10
0.1271710636561786
 20
-1.516732481793441
 10
0.15318261790213
 20
-1.509113768932651
 10
0.1786385721438494
 20
-1.500090615251621
 10
0.2034433474195057
 20
-1.489693951810138
 10
0.2275031027437939
 20
-1.477960176293953
 10
0.2507261570378125
 20
-1.464931221248326
 10
0.2730234670672221
 20
-1.45065458524657
 10
0.2943091577417282
 20
-1.435183306911109
 10
0.3145010939995027
 20
-1.41857586173611
 10
0.3335214756849213
 20
-1.400895964344765
 10
0.3512974294792228
 20
-1.38221226453802
 10
0.367761566514828
 20
-1.362597934077394
 10
0.3828524722351364
 20
-1.342130151711171
 10
0.3965150973660415
 20
-1.320889504972621
 10
0.408701025753622
 20
-1.298959336867279
 10
0.4193686055177748
 20
-1.276425071954238
 10
0.428482942832658
 20
-1.253373558344413
 10
0.4360157705711873
 20
-1.229892459540417
 10
0.441945215036282
 20
-1.206069723526001
 10
0.4462554916193039
 20
-1.181993147446961
 10
0.4478939995812012
 20
-1.169028429611026
  0
LINE
  5
18D
330
166
100
AcDbEntity
  8
AM_9
100
AcDbLine
 10
-0.4499997731072509
 20
-1.130405582545069
 30
0.0
 11
-0.4499890366167338
 21
-1.132819282609426
 31
0.0
  0
LINE
  5
18E
330
166
100
AcDbEntity
  8
AM_9
100
AcDbLine
 10
0.546
 20
1.500499916694433
 30
0.0
 11
0.5847999999999999
 21
1.44139843207907
 31
0.0
  0
LINE
  5
18F
330
166
100
AcDbEntity
  8
AM_9
100
AcDbLine
 10
-0.5848
 20
1.441398432079069
 30
0.0
 11
-0.546
 21
1.500499916694433
 31
0.0
  0
LINE
  5
190
330
166
100
AcDbEntity
  8
AM_9
100
AcDbLine
 10
-0.546
 20
1.500499916694433
 30
0.0
 11
0.546
 21
1.500499916694433
 31
0.0
  0
LINE
  5
191
330
166
100
AcDbEntity
  8
AM_9
100
AcDbLine
 10
0.5848
 20
-1.44139843207907
 30
0.0
 11
0.546
 21
-1.500499916694433
 31
0.0
  0
LINE
  5
192
330
166
100
AcDbEntity
  8
AM_9
100
AcDbLine
 10
-0.546
 20
-1.500499916694433
 30
0.0
 11
-0.5848
 21
-1.441398432079069
 31
0.0
  0
LINE
  5
193
330
166
100
AcDbEntity
  8
AM_9
100
AcDbLine
 10
0.546
 20
-1.500499916694433
 30
0.0
 11
-0.546
 21
-1.500499916694433
 31
0.0
  0
LINE
  5
194
330
166
100
AcDbEntity
  8
AM_9
100
AcDbLine
 10
0.546
 20
-1.500499916694433
 30
0.0
 11
0.546
 21
1.500499916694433
 31
0.0
  0
LINE
  5
195
330
166
100
AcDbEntity
  8
AM_9
100
AcDbLine
 10
-0.546
 20
-1.500499916694433
 30
0.0
 11
-0.546
 21
1.500499916694433
 31
0.0
  0
ELLIPSE
  5
196
330
166
100
AcDbEntity
  8
AM_9
100
AcDbEllipse
 10
-0.0000000000000001
 20
-1.13
 30
0.0
 11
0.45
 21
0.0
 31
0.0
210
0.0
220
0.0
230
1.0
 40
0.8660254037844385
 41
3.141592653589793
 42
6.283185307179586
  0
LWPOLYLINE
  5
197
330
166
100
AcDbEntity
  8
AM_9
100
AcDbPolyline
 90
       38
 70
     0
 43
0.0
 10
0.4499999999999997
 20
-1.13
 10
0.4484772106754646
 20
-1.161852807944272
 10
0.44393166451857
 20
-1.19318462224311
 10
0.4361209353537958
 20
-1.2246690595389
 10
0.4252073506524949
 20
-1.255166858749206
 10
0.4117072251277151
 20
-1.283652920452757
 10
0.3954577120719282
 20
-1.310857571603935
 10
0.375990416350525
 20
-1.337335426691713
 10
0.3538767195900779
 20
-1.362154946700828
 10
0.3296756627808863
 20
-1.384826651193313
 10
0.3032236213267458
 20
-1.405655898175233
 10
0.2738445051608036
 20
-1.42504709005015
 10
0.2424713225338224
 20
-1.442289491789939
 10
0.2099790554812158
 20
-1.457019929906538
 10
0.1759971130481071
 20
-1.469533396719205
 10
0.1396842084911788
 20
-1.480031781328748
 10
0.1023050024199555
 20
-1.488060430087357
 10
0.0657413350315371
 20
-1.493389073417967
 10
0.0287116632349715
 20
-1.496383449507983
 10
-0.0096392877257057
 20
-1.497003375799473
 10
-0.047917531080034
 20
-1.495127888829508
 10
-0.0842111103992657
 20
-1.490998199228753
 10
-0.1199259932219857
 20
-1.484612541636807
 10
-0.1558046458918929
 20
-1.475714938129999
 10
-0.1905639094691668
 20
-1.464507199574757
 10
-0.2232723373354418
 20
-1.451343178525711
 10
-0.2544652952382446
 20
-1.436077910719357
 10
-0.2847367864863598
 20
-1.418260417013986
 10
-0.3129911047540435
 20
-1.398380770946824
 10
-0.3387742763927039
 20
-1.376762957805815
 10
-0.3622229543213866
 20
-1.353323475077777
 10
-0.3837379272250293
 20
-1.327420446592315
 10
-0.4024552993122349
 20
-1.299855905033095
 10
-0.4178349579856764
 20
-1.271592246352023
 10
-0.4303197390633579
 20
-1.242071773499519
 10
-0.4400421084723746
 20
-1.210535795977571
 10
-0.4465131206157014
 20
-1.178074440613764
 10
-0.45
 20
-1.13
  0
LINE
  5
198
330
166
100
AcDbEntity
  8
AM_9
100
AcDbLine
 10
-0.1031999999999998
 20
-1.753363904379395
 30
0.0
 11
0.5848
 21
-1.753363904379395
 31
0.0
  0
LINE
  5
199
330
166
100
AcDbEntity
  8
AM_9
100
AcDbLine
 10
-0.1031999999999999
 20
-1.868525
 30
0.0
 11
0.6520750000000001
 21
-1.868525
 31
0.0
  0
LINE
  5
19A
330
166
100
AcDbEntity
  8
AM_9
100
AcDbLine
 10
-0.1031999999999999
 20
-1.868525
 30
0.0
 11
-0.1031999999999998
 21
-1.649740291092981
 31
0.0
  0
LINE
  5
19B
330
166
100
AcDbEntity
  8
AM_9
100
AcDbLine
 10
-0.1031999999999998
 20
1.753363904379394
 30
0.0
 11
0.5848
 21
1.753363904379394
 31
0.0
  0
LINE
  5
19C
330
166
100
AcDbEntity
  8
AM_9
100
AcDbLine
 10
-0.1031999999999998
 20
1.649740291092981
 30
0.0
 11
-0.1031999999999999
 21
1.868525
 31
0.0
  0
LINE
  5
19D
330
166
100
AcDbEntity
  8
AM_9
100
AcDbLine
 10
0.6520750000000003
 20
1.868525
 30
0.0
 11
-0.1031999999999999
 21
1.868525
 31
0.0
  0
LINE
  5
19E
330
166
100
AcDbEntity
  8
AM_9
100
AcDbLine
 10
-0.1031999999999998
 20
1.649740291092981
 30
0.0
 11
0.5847999999999995
 21
1.649740291092981
 31
0.0
  0
LINE
  5
19F
330
166
100
AcDbEntity
  8
AM_9
100
AcDbLine
 10
0.5847999999999995
 20
-1.649740291092981
 30
0.0
 11
-0.1031999999999998
 21
-1.649740291092981
 31
0.0
  0
LINE
  5
1A0
330
166
100
AcDbEntity
  8
AM_9
100
AcDbLine
 10
-0.5848000000000003
 20
-1.77165
 30
0.0
 11
-0.1031999999999999
 21
-1.77165
 31
0.0
  0
LINE
  5
1A1
330
166
100
AcDbEntity
  8
AM_9
100
AcDbLine
 10
-0.1031999999999999
 20
1.77165
 30
0.0
 11
-0.5848
 21
1.77165
 31
0.0
  0
LINE
  5
1A2
330
166
100
AcDbEntity
  8
AM_9
100
AcDbLine
 10
0.5847999999999999
 20
-0.7738920855002976
 30
0.0
 11
0.5848000000000001
 21
0.7738920855002976
 31
0.0
  0
LINE
  5
1A3
330
166
100
AcDbEntity
  8
AM_9
100
AcDbLine
 10
-0.5848
 20
0.7738920855002974
 30
0.0
 11
-0.5848
 21
-0.7738920855002976
 31
0.0
  0
LINE
  5
1A4
330
166
100
AcDbEntity
  8
AM_9
100
AcDbLine
 10
-0.5847999999999999
 20
0.9011999999999997
 30
0.0
 11
0.5848000000000002
 21
0.9011999999999997
 31
0.0
  0
LINE
  5
1A5
330
166
100
AcDbEntity
  8
AM_9
100
AcDbLine
 10
-0.5847999999999999
 20
0.9699999999999996
 30
0.0
 11
0.5848000000000002
 21
0.9699999999999996
 31
0.0
  0
LINE
  5
1A6
330
166
100
AcDbEntity
  8
AM_9
100
AcDbLine
 10
-0.5848
 20
-0.901199999999999
 30
0.0
 11
0.5848
 21
-0.901199999999999
 31
0.0
  0
LINE
  5
1A7
330
166
100
AcDbEntity
  8
AM_9
100
AcDbLine
 10
-0.5848
 20
-0.9699999999999999
 30
0.0
 11
0.5848
 21
-0.9699999999999999
 31
0.0
  0
LINE
  5
1A8
330
166
100
AcDbEntity
  8
AM_7
100
AcDbLine
 10
0.0000000000000002
 20
-0.525
 30
0.0
 11
0.0000000000000002
 21
0.525
 31
0.0
  0
LINE
  5
1A9
330
166
100
AcDbEntity
  8
AM_7
100
AcDbLine
 10
0.7567999999999998
 20
0.0
 30
0.0
 11
-1.37625
 21
0.0
 31
0.0
  0
LINE
  5
1AA
330
166
100
AcDbEntity
  8
AM_4
100
AcDbLine
 10
0.3439999999999998
 20
-2.375
 30
0.0
 11
0.3439999999999999
 21
-1.9925
 31
0.0
  0
LINE
  5
1AB
330
166
100
AcDbEntity
  8
AM_4
100
AcDbLine
 10
0.3439999999999998
 20
-2.375
 30
0.0
 11
0.6191999999999996
 21
-2.375
 31
0.0
  0
LWPOLYLINE
  5
1AC
330
166
100
AcDbEntity
  8
AM_4
100
AcDbPolyline
 90
       19
 70
     0
 43
0.0
 10
0.6879999999999996
 20
-2.306199997100297
 10
0.6877381954814376
 20
-2.31219631221237
 10
0.6869547739107678
 20
-2.318146991767835
 10
0.685655697599186
 20
-2.324006747502155
 10
0.683850853301827
 20
-2.329730983135976
 10
0.6815539769735888
 20
-2.335276133779737
 10
0.6787825492302206
 20
-2.340599997488783
 10
0.6755576623102837
 20
-2.345662056445654
 10
0.6719038595504786
 20
-2.350423785325132
 10
0.667848948596034
 20
-2.354848944495235
 10
0.6634237897677351
 20
-2.358903855822692
 10
0.6586620611962495
 20
-2.362557658983881
 10
0.6536000025112163
 20
-2.365782546330518
 10
0.6482761390357834
 20
-2.368553974522654
 10
0.6427309885856354
 20
-2.370850851318314
 10
0.6370067531039513
 20
-2.372655696098189
 10
0.6311469974791347
 20
-2.373954772903712
 10
0.6251963179897075
 20
-2.374738194975986
 10
0.6192000028997029
 20
-2.375
  0
LINE
  5
1AD
330
166
100
AcDbEntity
  8
AM_4
100
AcDbLine
 10
0.5847999999999999
 20
-1.801249999999999
 30
0.0
 11
0.5848
 21
-0.7738920855002976
 31
0.0
  0
LINE
  5
1AE
330
166
100
AcDbEntity
  8
AM_4
100
AcDbLine
 10
-0.5847999999999998
 20
-0.7738920855002974
 30
0.0
 11
-0.5848000000000001
 21
-1.801249999999999
 31
0.0
  0
LINE
  5
1AF
330
166
100
AcDbEntity
  8
AM_4
100
AcDbLine
 10
0.3439999999999999
 20
-1.9925
 30
0.0
 11
-0.344
 21
-1.9925
 31
0.0
  0
LINE
  5
1B0
330
166
100
AcDbEntity
  8
AM_4
100
AcDbLine
 10
-0.5848000000000001
 20
-1.801249999999999
 30
0.0
 11
-0.6880000000000001
 21
-1.90445
 31
0.0
  0
LINE
  5
1B1
330
166
100
AcDbEntity
  8
AM_4
100
AcDbLine
 10
-0.344
 20
-1.9925
 30
0.0
 11
-0.3440000000000001
 21
-2.375
 31
0.0
  0
LINE
  5
1B2
330
166
100
AcDbEntity
  8
AM_4
100
AcDbLine
 10
-0.6880000000000001
 20
-1.90445
 30
0.0
 11
-0.6880000000000002
 21
-2.3062
 31
0.0
  0
LINE
  5
1B3
330
166
100
AcDbEntity
  8
AM_4
100
AcDbLine
 10
0.6879999999999996
 20
-2.3062
 30
0.0
 11
0.3439999999999999
 21
-2.3062
 31
0.0
  0
LINE
  5
1B4
330
166
100
AcDbEntity
  8
AM_4
100
AcDbLine
 10
0.6879999999999996
 20
-2.3062
 30
0.0
 11
0.6879999999999998
 21
-1.90445
 31
0.0
  0
LINE
  5
1B5
330
166
100
AcDbEntity
  8
AM_4
100
AcDbLine
 10
0.6879999999999998
 20
-1.90445
 30
0.0
 11
0.5847999999999999
 21
-1.801249999999999
 31
0.0
  0
LINE
  5
1B6
330
166
100
AcDbEntity
  8
AM_4
100
AcDbLine
 10
-0.3440000000000001
 20
-2.3062
 30
0.0
 11
-0.6880000000000002
 21
-2.3062
 31
0.0
  0
LWPOLYLINE
  5
1B7
330
166
100
AcDbEntity
  8
AM_4
100
AcDbPolyline
 90
       19
 70
     0
 43
0.0
 10
-0.6191999999999991
 20
-2.375
 10
-0.6251963151010381
 20
-2.374738195228712
 10
-0.631146994623484
 20
-2.37395477340724
 10
-0.6370067503030526
 20
-2.372655696848688
 10
-0.6427309858608053
 20
-2.37085085231007
 10
-0.6482761364077594
 20
-2.368553975748121
 10
-0.6535999999999993
 20
-2.365782547780369
 10
-0.6586620588209514
 20
-2.362557660647083
 10
-0.6634237875464334
 20
-2.358903857686586
 10
-0.6678489465456339
 20
-2.354848946545634
 10
-0.6719038576865851
 20
-2.350423787546434
 10
-0.6755576606470821
 20
-2.345662058820952
 10
-0.678782547780369
 20
-2.3406
 10
-0.681553975748121
 20
-2.33527613640776
 10
-0.68385085231007
 20
-2.329730985860806
 10
-0.6856556968486874
 20
-2.324006750303053
 10
-0.6869547734072395
 20
-2.318146994623484
 10
-0.6877381952287117
 20
-2.312196315101038
 10
-0.6879999999999996
 20
-2.306200001449851
  0
LINE
  5
1B8
330
166
100
AcDbEntity
  8
AM_4
100
AcDbLine
 10
-0.6191999999999991
 20
-2.375
 30
0.0
 11
-0.3440000000000001
 21
-2.375
 31
0.0
  0
LWPOLYLINE
  5
1B9
330
166
100
AcDbEntity
  8
AM_4
100
AcDbPolyline
 90
       19
 70
     0
 43
0.0
 10
0.6191999999999991
 20
2.375
 10
0.6251963151010381
 20
2.374738195228712
 10
0.6311469946234841
 20
2.37395477340724
 10
0.6370067503030528
 20
2.372655696848688
 10
0.6427309858608055
 20
2.37085085231007
 10
0.6482761364077596
 20
2.368553975748121
 10
0.6535999999999995
 20
2.365782547780369
 10
0.6586620588209516
 20
2.362557660647082
 10
0.6634237875464336
 20
2.358903857686585
 10
0.6678489465456343
 20
2.354848946545634
 10
0.6719038576865856
 20
2.350423787546433
 10
0.6755576606470824
 20
2.345662058820952
 10
0.6787825477803694
 20
2.340599999999999
 10
0.6815539757481215
 20
2.335276136407759
 10
0.6838508523100706
 20
2.329730985860805
 10
0.685655696848688
 20
2.324006750303053
 10
0.68695477340724
 20
2.318146994623484
 10
0.6877381952287123
 20
2.312196315101038
 10
0.6880000000000002
 20
2.30620000144985
  0
LINE
  5
1BA
330
166
100
AcDbEntity
  8
AM_4
100
AcDbLine
 10
0.3440000000000001
 20
1.9925
 30
0.0
 11
0.344
 21
2.375
 31
0.0
  0
LINE
  5
1BB
330
166
100
AcDbEntity
  8
AM_4
100
AcDbLine
 10
0.344
 20
2.375
 30
0.0
 11
0.6191999999999991
 21
2.375
 31
0.0
  0
LWPOLYLINE
  5
1BC
330
166
100
AcDbEntity
  8
AM_4
100
AcDbPolyline
 90
       19
 70
     0
 43
0.0
 10
-0.6880000000000003
 20
2.3062
 10
-0.6877381952287124
 20
2.312196315101038
 10
-0.6869547734072402
 20
2.318146994623485
 10
-0.6856556968486881
 20
2.324006750303053
 10
-0.6838508523100707
 20
2.329730985860806
 10
-0.6815539757481217
 20
2.33527613640776
 10
-0.6787825477803696
 20
2.3406
 10
-0.6755576606470829
 20
2.345662058820952
 10
-0.6719038576865859
 20
2.350423787546434
 10
-0.6678489465456345
 20
2.354848946545634
 10
-0.663423787546434
 20
2.358903857686586
 10
-0.6586620588209521
 20
2.362557660647083
 10
-0.6536000000000001
 20
2.365782547780369
 10
-0.6482761364077603
 20
2.368553975748121
 10
-0.642730985860806
 20
2.37085085231007
 10
-0.6370067503030535
 20
2.372655696848688
 10
-0.6311469946234848
 20
2.37395477340724
 10
-0.6251963151010389
 20
2.374738195228712
 10
-0.6191999999999999
 20
2.375
  0
LINE
  5
1BD
330
166
100
AcDbEntity
  8
AM_4
100
AcDbLine
 10
-0.3439999999999999
 20
2.375
 30
0.0
 11
-0.3439999999999998
 21
1.9925
 31
0.0
  0
LINE
  5
1BE
330
166
100
AcDbEntity
  8
AM_4
100
AcDbLine
 10
-0.6191999999999998
 20
2.375
 30
0.0
 11
-0.3439999999999999
 21
2.375
 31
0.0
  0
LINE
  5
1BF
330
166
100
AcDbEntity
  8
AM_4
100
AcDbLine
 10
0.5848000000000002
 20
0.7738920855002976
 30
0.0
 11
0.5848000000000001
 21
1.801249999999999
 31
0.0
  0
LINE
  5
1C0
330
166
100
AcDbEntity
  8
AM_4
100
AcDbLine
 10
-0.5847999999999999
 20
1.801249999999999
 30
0.0
 11
-0.5847999999999998
 21
0.7738920855002975
 31
0.0
  0
LINE
  5
1C1
330
166
100
AcDbEntity
  8
AM_4
100
AcDbLine
 10
-0.6879999999999997
 20
1.90445
 30
0.0
 11
-0.5847999999999999
 21
1.801249999999999
 31
0.0
  0
LINE
  5
1C2
330
166
100
AcDbEntity
  8
AM_4
100
AcDbLine
 10
0.5848000000000001
 20
1.801249999999999
 30
0.0
 11
0.6880000000000001
 21
1.90445
 31
0.0
  0
LINE
  5
1C3
330
166
100
AcDbEntity
  8
AM_4
100
AcDbLine
 10
0.6880000000000001
 20
1.90445
 30
0.0
 11
0.6880000000000001
 21
2.306200000000001
 31
0.0
  0
LINE
  5
1C4
330
166
100
AcDbEntity
  8
AM_4
100
AcDbLine
 10
0.6880000000000001
 20
2.306200000000001
 30
0.0
 11
0.3440000000000001
 21
2.306199999999999
 31
0.0
  0
LINE
  5
1C5
330
166
100
AcDbEntity
  8
AM_4
100
AcDbLine
 10
-0.3439999999999998
 20
1.9925
 30
0.0
 11
0.3440000000000001
 21
1.9925
 31
0.0
  0
LINE
  5
1C6
330
166
100
AcDbEntity
  8
AM_4
100
AcDbLine
 10
-0.3439999999999998
 20
2.306199999999999
 30
0.0
 11
-0.6879999999999996
 21
2.3062
 31
0.0
  0
LINE
  5
1C7
330
166
100
AcDbEntity
  8
AM_4
100
AcDbLine
 10
-0.6879999999999996
 20
2.3062
 30
0.0
 11
-0.6879999999999997
 21
1.90445
 31
0.0
  0
LWPOLYLINE
  5
1C8
330
166
100
AcDbEntity
  8
AM_4
100
AcDbPolyline
 90
       19
 70
     0
 43
0.0
 10
0.5160000000000006
 20
1.625
 10
0.5219963151010394
 20
1.624738195228712
 10
0.5279469946234854
 20
1.62395477340724
 10
0.5338067503030541
 20
1.622655696848688
 10
0.5395309858608067
 20
1.62085085231007
 10
0.5450761364077609
 20
1.618553975748121
 10
0.5504000000000008
 20
1.615782547780369
 10
0.5554620588209528
 20
1.612557660647082
 10
0.5602237875464346
 20
1.608903857686585
 10
0.5646489465456352
 20
1.604848946545634
 10
0.5687038576865865
 20
1.600423787546433
 10
0.5723576606470835
 20
1.595662058820951
 10
0.5755825477803702
 20
1.590599999999999
 10
0.5783539757481223
 20
1.585276136407759
 10
0.5806508523100713
 20
1.579730985860805
 10
0.5824556968486887
 20
1.574006750303053
 10
0.5837547734072407
 20
1.568146994623484
 10
0.5845381952287129
 20
1.562196315101038
 10
0.5848000000000007
 20
1.556199999999999
  0
LWPOLYLINE
  5
1C9
330
166
100
AcDbEntity
  8
AM_4
100
AcDbPolyline
 90
       19
 70
     0
 43
0.0
 10
-0.5848000000000002
 20
1.556199999999999
 10
-0.5845381952287123
 20
1.562196315101038
 10
-0.5837547734072401
 20
1.568146994623484
 10
-0.582455696848688
 20
1.574006750303053
 10
-0.5806508523100707
 20
1.579730985860806
 10
-0.5783539757481216
 20
1.58527613640776
 10
-0.5755825477803695
 20
1.5906
 10
-0.5723576606470827
 20
1.595662058820952
 10
-0.5687038576865858
 20
1.600423787546434
 10
-0.5646489465456346
 20
1.604848946545634
 10
-0.560223787546434
 20
1.608903857686586
 10
-0.555462058820952
 20
1.612557660647082
 10
-0.5504
 20
1.615782547780369
 10
-0.5450761364077601
 20
1.618553975748121
 10
-0.539530985860806
 20
1.62085085231007
 10
-0.5338067503030532
 20
1.622655696848688
 10
-0.5279469946234846
 20
1.62395477340724
 10
-0.5219963151010386
 20
1.624738195228712
 10
-0.5160000000000007
 20
1.625
  0
LINE
  5
1CA
330
166
100
AcDbEntity
  8
AM_4
100
AcDbLine
 10
-0.5160000000000007
 20
1.625
 30
0.0
 11
0.516
 21
1.625
 31
0.0
  0
ARC
  5
1CB
330
166
100
AcDbEntity
  8
AM_4
100
AcDbCircle
 10
0.0000000000000002
 20
0.0000000000000002
 30
0.0
 40
0.97
100
AcDbArc
 50
307.0769159403522
 51
52.92308405964782
  0
CIRCLE
  5
1CC
330
166
100
AcDbEntity
  8
AM_4
100
AcDbCircle
 10
0.0000000000000002
 20
0.0
 30
0.0
 40
0.5
  0
LINE
  5
1CD
330
166
100
AcDbEntity
  8
AM_4
100
AcDbLine
 10
0.5848000000000003
 20
1.556199999999999
 30
0.0
 11
-0.5847999999999997
 21
1.5562
 31
0.0
  0
ARC
  5
1CE
330
166
100
AcDbEntity
  8
AM_4
100
AcDbCircle
 10
0.0000000000000001
 20
0.0000000000000001
 30
0.0
 40
0.9699999999999996
100
AcDbArc
 50
127.0769159403522
 51
232.9230840596478
  0
LWPOLYLINE
  5
1CF
330
166
100
AcDbEntity
  8
AM_4
100
AcDbPolyline
 90
       19
 70
     0
 43
0.0
 10
-0.5160000000000001
 20
-1.625
 10
-0.521996315101039
 20
-1.624738195228712
 10
-0.527946994623485
 20
-1.62395477340724
 10
-0.5338067503030537
 20
-1.622655696848688
 10
-0.5395309858608063
 20
-1.62085085231007
 10
-0.5450761364077604
 20
-1.618553975748122
 10
-0.5504000000000003
 20
-1.615782547780369
 10
-0.5554620588209523
 20
-1.612557660647083
 10
-0.5602237875464343
 20
-1.608903857686586
 10
-0.5646489465456349
 20
-1.604848946545634
 10
-0.5687038576865862
 20
-1.600423787546434
 10
-0.5723576606470832
 20
-1.595662058820952
 10
-0.5755825477803699
 20
-1.5906
 10
-0.578353975748122
 20
-1.58527613640776
 10
-0.580650852310071
 20
-1.579730985860806
 10
-0.5824556968486884
 20
-1.574006750303053
 10
-0.5837547734072405
 20
-1.568146994623485
 10
-0.5845381952287126
 20
-1.562196315101039
 10
-0.5848000000000005
 20
-1.5562
  0
LINE
  5
1D0
330
166
100
AcDbEntity
  8
AM_4
100
AcDbLine
 10
-0.5160000000000001
 20
-1.625
 30
0.0
 11
0.516
 21
-1.625
 31
0.0
  0
LWPOLYLINE
  5
1D1
330
166
100
AcDbEntity
  8
AM_4
100
AcDbPolyline
 90
       19
 70
     0
 43
0.0
 10
0.5848000000000005
 20
-1.556200002292416
 10
0.5845381950289155
 20
-1.562196317384732
 10
0.5837547730091666
 20
-1.568146996881074
 10
0.5824556962553674
 20
-1.574006752517357
 10
0.5806508515260184
 20
-1.579730988014973
 10
0.578353974779305
 20
-1.585276138485395
 10
0.5755825466341615
 20
-1.590600001985291
 10
0.572357659332207
 20
-1.595662060698789
 10
0.5687038562130492
 20
-1.600423789302527
 10
0.5646489449246516
 20
-1.604848948166618
 10
0.5602237857903413
 20
-1.608903859160123
 10
0.5554620569431146
 20
-1.612557661961959
 10
0.5503999980147093
 20
-1.615782548926578
 10
0.5450761343301254
 20
-1.618553976716938
 10
0.5395309837066393
 20
-1.620850853094123
 10
0.5338067480887492
 20
-1.622655697442009
 10
0.5279469923658953
 20
-1.623954773805314
 10
0.5219963128173457
 20
-1.624738195428509
 10
0.516
 20
-1.625
  0
LINE
  5
1D2
330
166
100
AcDbEntity
  8
AM_4
100
AcDbLine
 10
0.5848
 20
-1.5562
 30
0.0
 11
-0.5847999999999998
 21
-1.5562
 31
0.0
  0
ENDBLK
  5
169
330
166
100
AcDbEntity
  8
0
100
AcDbBlockEnd
  0
ENDSEC
  0
SECTION
  2
ENTITIES
  0
INSERT
  5
6F
330
1F
100
AcDbEntity
  8
0
100
AcDbBlockReference
  2
1_130348_2
 10
0.0
 20
0.0
 30
0.0
  0
POINT
  5
1D4
330
1F
100
AcDbEntity
  8
ConnectionPoints
100
AcDbPoint
 10
-0.0000000000000001
 20
-1.18
 30
-2.043819952931276
  0
POINT
  5
1D5
330
1F
100
AcDbEntity
  8
ConnectionPoints
100
AcDbPoint
 10
-0.0000000000000001
 20
-1.18
 30
-2.043819952931276
  0
POINT
  5
1D6
330
1F
100
AcDbEntity
  8
ConnectionPoints
100
AcDbPoint
 10
-1.29
 20
0.0
 30
0.0000000000000001
  0
ENDSEC
  0
SECTION
  2
OBJECTS
  0
DICTIONARY
  5
C
330
0
100
AcDbDictionary
281
     1
  3
ACAD_DETAILVIEWSTYLE
350
1DE
  3
ACAD_GROUP
350
D
  3
ACAD_LAYOUT
350
1A
  3
ACAD_MATERIAL
350
43
  3
ACAD_MLEADERSTYLE
350
6B
  3
ACAD_MLINESTYLE
350
17
  3
ACAD_PLOTSETTINGS
350
19
  3
ACAD_PLOTSTYLENAME
350
E
  3
ACAD_SCALELIST
350
47
  3
ACAD_SECTIONVIEWSTYLE
350
1DF
  3
ACAD_TABLESTYLE
350
69
  3
ACAD_VISUALSTYLE
350
2A
  3
ACDB_RECOMPOSE_DATA
350
1DB
  3
AcDbVariableDictionary
350
1D7
  0
SUN
  5
6D
330
29
100
AcDbSun
 90
        1
290
     0
 63
     7
421
 16777215
 40
1.0
291
     1
 91
  2455826
 92
 54000000
292
     0
 70
     2
 71
   256
280
     1
  0
DICTIONARY
  5
1DE
102
{ACAD_REACTORS
330
C
102
}
330
C
100
AcDbDictionary
281
     1
  0
DICTIONARY
  5
D
102
{ACAD_REACTORS
330
C
102
}
330
C
100
AcDbDictionary
281
     1
  0
DICTIONARY
  5
1A
102
{ACAD_REACTORS
330
C
102
}
330
C
100
AcDbDictionary
281
     1
  3
Layout1
350
1E
  3
Layout2
350
26
  3
Model
350
22
  0
DICTIONARY
  5
43
102
{ACAD_REACTORS
330
C
102
}
330
C
100
AcDbDictionary
281
     1
  3
ByBlock
350
45
  3
ByLayer
350
44
  3
Global
350
46
  0
DICTIONARY
  5
6B
102
{ACAD_REACTORS
330
C
102
}
330
C
100
AcDbDictionary
281
     1
  3
Standard
350
6C
  0
DICTIONARY
  5
17
102
{ACAD_REACTORS
330
C
102
}
330
C
100
AcDbDictionary
281
     1
  3
Standard
350
18
  0
DICTIONARY
  5
19
102
{ACAD_REACTORS
330
C
102
}
330
C
100
AcDbDictionary
281
     1
  0
ACDBDICTIONARYWDFLT
  5
E
102
{ACAD_REACTORS
330
C
102
}
330
C
100
AcDbDictionary
281
     1
  3
Normal
350
F
100
AcDbDictionaryWithDefault
340
F
  0
DICTIONARY
  5
47
102
{ACAD_REACTORS
330
C
102
}
330
C
100
AcDbDictionary
281
     1
  3
A0
350
48
  3
A1
350
49
  3
A2
350
4A
  3
A3
350
4B
  3
A4
350
4C
  3
A5
350
4D
  3
A6
350
4E
  3
A7
350
4F
  3
A8
350
50
  3
A9
350
51
  3
B0
350
52
  3
B1
350
53
  3
B2
350
54
  3
B3
350
55
  3
B4
350
56
  3
B5
350
57
  3
B6
350
58
  3
B7
350
59
  3
B8
350
5A
  3
B9
350
5B
  3
C0
350
5C
  3
C1
350
5D
  3
C2
350
5E
  3
C3
350
5F
  3
C4
350
60
  3
C5
350
61
  3
C6
350
62
  3
C7
350
63
  3
C8
350
64
  3
C9
350
65
  3
D0
350
66
  3
D1
350
67
  3
D2
350
68
  0
DICTIONARY
  5
1DF
102
{ACAD_REACTORS
330
C
102
}
330
C
100
AcDbDictionary
281
     1
  0
DICTIONARY
  5
69
102
{ACAD_REACTORS
330
C
102
}
330
C
100
AcDbDictionary
281
     1
  3
Standard
350
6A
  0
DICTIONARY
  5
2A
102
{ACAD_REACTORS
330
C
102
}
330
C
100
AcDbDictionary
281
     1
  3
2dWireframe
350
2F
  3
Basic
350
32
  3
Brighten
350
36
  3
ColorChange
350
3A
  3
Conceptual
350
34
  3
Dim
350
35
  3
EdgeColorOff
350
3D
  3
Facepattern
350
39
  3
Flat
350
2B
  3
FlatWithEdges
350
2C
  3
Gouraud
350
2D
  3
GouraudWithEdges
350
2E
  3
Hidden
350
31
  3
JitterOff
350
3B
  3
Linepattern
350
38
  3
OverhangOff
350
3C
  3
Realistic
350
33
  3
Shaded
350
42
  3
Shaded with edges
350
41
  3
Shades of Gray
350
3E
  3
Sketchy
350
3F
  3
Thicken
350
37
  3
Wireframe
350
30
  3
X-Ray
350
40
  0
XRECORD
  5
1DB
102
{ACAD_REACTORS
330
C
102
}
330
C
100
AcDbXrecord
280
     1
 90
        1
330
6A
  0
DICTIONARY
  5
1D7
102
{ACAD_REACTORS
330
C
102
}
330
C
100
AcDbDictionary
281
     1
  3
CANNOSCALE
350
1D8
  3
CMLEADERSTYLE
350
1DD
  3
CTABLESTYLE
350
1DC
  0
LAYOUT
  5
1E
102
{ACAD_REACTORS
330
1A
102
}
330
1A
100
AcDbPlotSettings
  1

  2
none_device
  4

  6

 40
0.0
 41
0.0
 42
0.0
 43
0.0
 44
0.0
 45
0.0
 46
0.0
 47
0.0
 48
0.0
 49
0.0
140
0.0
141
0.0
142
1.0
143
1.0
 70
   688
 72
     0
 73
     0
 74
     5
  7

 75
    16
 76
     0
 77
     2
 78
   300
147
1.0
148
0.0
149
0.0
100
AcDbLayout
  1
Layout1
 70
     1
 71
     1
 10
0.0
 20
0.0
 11
12.0
 21
9.0
 12
0.0
 22
0.0
 32
0.0
 14
1.000000000000000E+20
 24
1.000000000000000E+20
 34
1.000000000000000E+20
 15
-1.000000000000000E+20
 25
-1.000000000000000E+20
 35
-1.000000000000000E+20
146
0.0
 13
0.0
 23
0.0
 33
0.0
 16
1.0
 26
0.0
 36
0.0
 17
0.0
 27
1.0
 37
0.0
 76
     0
330
1B
  0
LAYOUT
  5
26
102
{ACAD_REACTORS
330
1A
102
}
330
1A
100
AcDbPlotSettings
  1

  2
none_device
  4

  6

 40
0.0
 41
0.0
 42
0.0
 43
0.0
 44
0.0
 45
0.0
 46
0.0
 47
0.0
 48
0.0
 49
0.0
140
0.0
141
0.0
142
1.0
143
1.0
 70
   688
 72
     0
 73
     0
 74
     5
  7

 75
    16
 76
     0
 77
     2
 78
   300
147
1.0
148
0.0
149
0.0
100
AcDbLayout
  1
Layout2
 70
     1
 71
     2
 10
0.0
 20
0.0
 11
0.0
 21
0.0
 12
0.0
 22
0.0
 32
0.0
 14
0.0
 24
0.0
 34
0.0
 15
0.0
 25
0.0
 35
0.0
146
0.0
 13
0.0
 23
0.0
 33
0.0
 16
1.0
 26
0.0
 36
0.0
 17
0.0
 27
1.0
 37
0.0
 76
     0
330
23
  0
LAYOUT
  5
22
102
{ACAD_REACTORS
330
1A
102
}
330
1A
100
AcDbPlotSettings
  1

  2
none_device
  4
Letter_(8.50_x_11.00_Inches)
  6

 40
6.35
 41
6.35
 42
6.35000508
 43
6.35000508
 44
215.9
 45
279.4
 46
0.0
 47
0.0
 48
0.0
 49
0.0
140
0.0
141
0.0
142
1.0
143
1.0
 70
  1712
 72
     0
 73
     0
 74
     0
  7

 75
     0
 76
     0
 77
     2
 78
   300
147
1.0
148
0.0
149
0.0
100
AcDbLayout
  1
Model
 70
     1
 71
     0
 10
0.0
 20
0.0
 11
12.0
 21
9.0
 12
0.0
 22
0.0
 32
0.0
 14
1.000000000000000E+20
 24
1.000000000000000E+20
 34
1.000000000000000E+20
 15
-1.000000000000000E+20
 25
-1.000000000000000E+20
 35
-1.000000000000000E+20
146
0.0
 13
0.0
 23
0.0
 33
0.0
 16
1.0
 26
0.0
 36
0.0
 17
0.0
 27
1.0
 37
0.0
 76
     0
330
1F
331
29
  0
MATERIAL
  5
45
102
{ACAD_REACTORS
330
43
102
}
330
43
100
AcDbMaterial
  1
ByBlock
 72
     1
 94
      127
  0
MATERIAL
  5
44
102
{ACAD_REACTORS
330
43
102
}
330
43
100
AcDbMaterial
  1
ByLayer
 72
     1
 94
      127
  0
MATERIAL
  5
46
102
{ACAD_REACTORS
330
43
102
}
330
43
100
AcDbMaterial
  1
Global
 72
     1
 94
      127
  0
MLEADERSTYLE
  5
6C
102
{ACAD_REACTORS
330
6B
102
}
330
6B
100
AcDbMLeaderStyle
179
     2
170
     2
171
     1
172
     0
 90
        2
 40
0.0
 41
0.0
173
     1
 91
-1056964608
340
14
 92
       -2
290
     1
 42
0.09
291
     1
 43
0.36
  3
Standard
341
0
 44
0.18
300

342
11
174
     1
178
     6
175
     1
176
     0
 93
-1056964608
 45
0.18
292
     0
297
     0
 46
0.18
343
0
 94
-1056964608
 47
1.0
 49
1.0
140
1.0
293
     1
141
0.0
294
     1
177
     0
142
1.0
295
     0
296
     0
143
0.125
271
     0
272
     9
273
     9
298
     0
  0
MLINESTYLE
  5
18
102
{ACAD_REACTORS
330
17
102
}
330
17
100
AcDbMlineStyle
  2
Standard
 70
     0
  3

 62
   256
 51
90.0
 52
90.0
 71
     2
 49
0.5
 62
   256
  6
BYLAYER
 49
-0.5
 62
   256
  6
BYLAYER
  0
ACDBPLACEHOLDER
  5
F
102
{ACAD_REACTORS
330
E
102
}
330
E
  0
SCALE
  5
48
102
{ACAD_REACTORS
330
47
102
}
330
47
100
AcDbScale
 70
     0
300
1:1
140
1.0
141
1.0
290
     1
  0
SCALE
  5
49
102
{ACAD_REACTORS
330
47
102
}
330
47
100
AcDbScale
 70
     0
300
1:2
140
1.0
141
2.0
290
     0
  0
SCALE
  5
4A
102
{ACAD_REACTORS
330
47
102
}
330
47
100
AcDbScale
 70
     0
300
1:4
140
1.0
141
4.0
290
     0
  0
SCALE
  5
4B
102
{ACAD_REACTORS
330
47
102
}
330
47
100
AcDbScale
 70
     0
300
1:5
140
1.0
141
5.0
290
     0
  0
SCALE
  5
4C
102
{ACAD_REACTORS
330
47
102
}
330
47
100
AcDbScale
 70
     0
300
1:8
140
1.0
141
8.0
290
     0
  0
SCALE
  5
4D
102
{ACAD_REACTORS
330
47
102
}
330
47
100
AcDbScale
 70
     0
300
1:10
140
1.0
141
10.0
290
     0
  0
SCALE
  5
4E
102
{ACAD_REACTORS
330
47
102
}
330
47
100
AcDbScale
 70
     0
300
1:16
140
1.0
141
16.0
290
     0
  0
SCALE
  5
4F
102
{ACAD_REACTORS
330
47
102
}
330
47
100
AcDbScale
 70
     0
300
1:20
140
1.0
141
20.0
290
     0
  0
SCALE
  5
50
102
{ACAD_REACTORS
330
47
102
}
330
47
100
AcDbScale
 70
     0
300
1:30
140
1.0
141
30.0
290
     0
  0
SCALE
  5
51
102
{ACAD_REACTORS
330
47
102
}
330
47
100
AcDbScale
 70
     0
300
1:40
140
1.0
141
40.0
290
     0
  0
SCALE
  5
52
102
{ACAD_REACTORS
330
47
102
}
330
47
100
AcDbScale
 70
     0
300
1:50
140
1.0
141
50.0
290
     0
  0
SCALE
  5
53
102
{ACAD_REACTORS
330
47
102
}
330
47
100
AcDbScale
 70
     0
300
1:100
140
1.0
141
100.0
290
     0
  0
SCALE
  5
54
102
{ACAD_REACTORS
330
47
102
}
330
47
100
AcDbScale
 70
     0
300
2:1
140
2.0
141
1.0
290
     0
  0
SCALE
  5
55
102
{ACAD_REACTORS
330
47
102
}
330
47
100
AcDbScale
 70
     0
300
4:1
140
4.0
141
1.0
290
     0
  0
SCALE
  5
56
102
{ACAD_REACTORS
330
47
102
}
330
47
100
AcDbScale
 70
     0
300
8:1
140
8.0
141
1.0
290
     0
  0
SCALE
  5
57
102
{ACAD_REACTORS
330
47
102
}
330
47
100
AcDbScale
 70
     0
300
10:1
140
10.0
141
1.0
290
     0
  0
SCALE
  5
58
102
{ACAD_REACTORS
330
47
102
}
330
47
100
AcDbScale
 70
     0
300
100:1
140
100.0
141
1.0
290
     0
  0
SCALE
  5
59
102
{ACAD_REACTORS
330
47
102
}
330
47
100
AcDbScale
 70
     0
300
1/128" = 1'-0"
140
0.0078125
141
12.0
290
     0
  0
SCALE
  5
5A
102
{ACAD_REACTORS
330
47
102
}
330
47
100
AcDbScale
 70
     0
300
1/64" = 1'-0"
140
0.015625
141
12.0
290
     0
  0
SCALE
  5
5B
102
{ACAD_REACTORS
330
47
102
}
330
47
100
AcDbScale
 70
     0
300
1/32" = 1'-0"
140
0.03125
141
12.0
290
     0
  0
SCALE
  5
5C
102
{ACAD_REACTORS
330
47
102
}
330
47
100
AcDbScale
 70
     0
300
1/16" = 1'-0"
140
0.0625
141
12.0
290
     0
  0
SCALE
  5
5D
102
{ACAD_REACTORS
330
47
102
}
330
47
100
AcDbScale
 70
     0
300
3/32" = 1'-0"
140
0.09375
141
12.0
290
     0
  0
SCALE
  5
5E
102
{ACAD_REACTORS
330
47
102
}
330
47
100
AcDbScale
 70
     0
300
1/8" = 1'-0"
140
0.125
141
12.0
290
     0
  0
SCALE
  5
5F
102
{ACAD_REACTORS
330
47
102
}
330
47
100
AcDbScale
 70
     0
300
3/16" = 1'-0"
140
0.1875
141
12.0
290
     0
  0
SCALE
  5
60
102
{ACAD_REACTORS
330
47
102
}
330
47
100
AcDbScale
 70
     0
300
1/4" = 1'-0"
140
0.25
141
12.0
290
     0
  0
SCALE
  5
61
102
{ACAD_REACTORS
330
47
102
}
330
47
100
AcDbScale
 70
     0
300
3/8" = 1'-0"
140
0.375
141
12.0
290
     0
  0
SCALE
  5
62
102
{ACAD_REACTORS
330
47
102
}
330
47
100
AcDbScale
 70
     0
300
1/2" = 1'-0"
140
0.5
141
12.0
290
     0
  0
SCALE
  5
63
102
{ACAD_REACTORS
330
47
102
}
330
47
100
AcDbScale
 70
     0
300
3/4" = 1'-0"
140
0.75
141
12.0
290
     0
  0
SCALE
  5
64
102
{ACAD_REACTORS
330
47
102
}
330
47
100
AcDbScale
 70
     0
300
1" = 1'-0"
140
1.0
141
12.0
290
     0
  0
SCALE
  5
65
102
{ACAD_REACTORS
330
47
102
}
330
47
100
AcDbScale
 70
     0
300
1-1/2" = 1'-0"
140
1.5
141
12.0
290
     0
  0
SCALE
  5
66
102
{ACAD_REACTORS
330
47
102
}
330
47
100
AcDbScale
 70
     0
300
3" = 1'-0"
140
3.0
141
12.0
290
     0
  0
SCALE
  5
67
102
{ACAD_REACTORS
330
47
102
}
330
47
100
AcDbScale
 70
     0
300
6" = 1'-0"
140
6.0
141
12.0
290
     0
  0
SCALE
  5
68
102
{ACAD_REACTORS
330
47
102
}
330
47
100
AcDbScale
 70
     0
300
1'-0" = 1'-0"
140
12.0
141
12.0
290
     0
  0
TABLESTYLE
  5
6A
102
{ACAD_REACTORS
330
69
102
}
102
{ACAD_XDICTIONARY
360
1D9
102
}
330
69
100
AcDbTableStyle
  3
Standard
 70
     0
 71
     0
 40
0.06
 41
0.06
280
     0
281
     0
  7
Standard
140
0.18
170
     2
 62
     0
 63
   257
283
     0
 90
        4
 91
        0
  1

274
    -2
284
     1
 64
     0
275
    -2
285
     1
 65
     0
276
    -2
286
     1
 66
     0
277
    -2
287
     1
 67
     0
278
    -2
288
     1
 68
     0
279
    -2
289
     1
 69
     0
  7
Standard
140
0.25
170
     5
 62
     0
 63
   257
283
     0
 90
        4
 91
        0
  1

274
    -2
284
     1
 64
     0
275
    -2
285
     1
 65
     0
276
    -2
286
     1
 66
     0
277
    -2
287
     1
 67
     0
278
    -2
288
     1
 68
     0
279
    -2
289
     1
 69
     0
  7
Standard
140
0.18
170
     5
 62
     0
 63
   257
283
     0
 90
        4
 91
        0
  1

274
    -2
284
     1
 64
     0
275
    -2
285
     1
 65
     0
276
    -2
286
     1
 66
     0
277
    -2
287
     1
 67
     0
278
    -2
288
     1
 68
     0
279
    -2
289
     1
 69
     0
  0
VISUALSTYLE
  5
2F
102
{ACAD_REACTORS
330
2A
102
}
330
2A
100
AcDbVisualStyle
  2
2dWireframe
 70
     4
177
     3
291
     0
 70
    58
 90
        0
176
     1
 90
        2
176
     1
 90
        0
176
     1
 90
        0
176
     1
 40
0.6
176
     1
 40
30.0
176
     1
 62
     7
420
 16777215
176
     1
 90
        1
176
     1
 90
        4
176
     1
 62
     7
176
     1
 62
   257
176
     1
 90
        1
176
     1
 90
        1
176
     1
 40
1.0
176
     1
 90
        0
176
     1
 62
   257
176
     1
 40
1.0
176
     1
 90
        1
176
     1
 90
        6
176
     1
 90
        2
176
     1
 62
     7
176
     1
 90
        5
176
     1
 90
        0
176
     1
 90
        0
176
     1
290
     0
176
     1
 90
        1
176
     1
 40
0.0
176
     1
 90
        0
176
     1
290
     1
176
     1
290
     1
176
     1
290
     0
176
     1
290
     0
176
     1
290
     0
176
     1
290
     0
176
     1
290
     0
176
     1
290
     0
176
     1
290
     0
176
     1
 90
       50
176
     1
 40
0.0
176
     1
 40
1.0
176
     1
 90
        0
176
     1
 62
    18
420
        0
176
     1
 90
       50
176
     1
 90
        3
176
     1
 62
     5
420
      255
176
     1
290
     0
176
     1
 90
       50
176
     1
 90
       50
176
     1
 90
       50
176
     1
290
     0
176
     1
 90
       50
176
     1
 62
   256
176
     0
 40
1.0
176
     0
 90
        2
176
     1
  1
strokes_ogs.tif
176
     1
290
     0
176
     1
 40
1.0
176
     1
 40
1.0
176
     1
  0
VISUALSTYLE
  5
32
102
{ACAD_REACTORS
330
2A
102
}
330
2A
100
AcDbVisualStyle
  2
Basic
 70
     7
177
     3
291
     1
 70
    58
 90
        1
176
     1
 90
        0
176
     1
 90
        1
176
     1
 90
        0
176
     1
 40
0.6
176
     1
 40
30.0
176
     1
 62
     7
420
 16777215
176
     1
 90
        0
176
     1
 90
        4
176
     1
 62
     7
176
     1
 62
   257
176
     1
 90
        1
176
     1
 90
        1
176
     1
 40
1.0
176
     1
 90
        8
176
     1
 62
     7
176
     1
 40
1.0
176
     1
 90
        1
176
     1
 90
        6
176
     1
 90
        2
176
     1
 62
     7
176
     1
 90
        5
176
     1
 90
        0
176
     1
 90
        0
176
     1
290
     0
176
     1
 90
        1
176
     1
 40
0.0
176
     1
 90
        0
176
     1
290
     0
176
     1
290
     1
176
     1
290
     1
176
     1
290
     0
176
     1
290
     0
176
     1
290
     0
176
     1
290
     0
176
     1
290
     0
176
     1
290
     0
176
     1
 90
       50
176
     1
 40
0.0
176
     1
 40
1.0
176
     1
 90
        0
176
     1
 62
    18
420
        0
176
     1
 90
       50
176
     1
 90
        3
176
     1
 62
     5
420
      255
176
     1
290
     0
176
     1
 90
       50
176
     1
 90
       50
176
     1
 90
       50
176
     1
290
     0
176
     1
 90
       50
176
     1
 62
   256
176
     0
 40
1.0
176
     0
 90
        2
176
     1
  1
strokes_ogs.tif
176
     1
290
     0
176
     1
 40
1.0
176
     1
 40
1.0
176
     1
  0
VISUALSTYLE
  5
36
102
{ACAD_REACTORS
330
2A
102
}
330
2A
100
AcDbVisualStyle
  2
Brighten
 70
    12
177
     3
291
     1
 70
    58
 90
        2
176
     1
 90
        2
176
     1
 90
        0
176
     1
 90
        0
176
     1
 40
0.6
176
     1
 40
30.0
176
     1
 62
     7
420
 16777215
176
     1
 90
        1
176
     1
 90
        4
176
     1
 62
     7
176
     1
 62
   257
176
     1
 90
        1
176
     1
 90
        1
176
     1
 40
1.0
176
     1
 90
        8
176
     1
 62
     7
176
     1
 40
1.0
176
     1
 90
        1
176
     1
 90
        6
176
     1
 90
        2
176
     1
 62
     7
176
     1
 90
        5
176
     1
 90
        0
176
     1
 90
        0
176
     1
290
     0
176
     1
 90
        1
176
     1
 40
50.0
176
     1
 90
        0
176
     1
290
     0
176
     1
290
     1
176
     1
290
     1
176
     1
290
     0
176
     1
290
     0
176
     1
290
     0
176
     1
290
     0
176
     1
290
     0
176
     1
290
     0
176
     1
 90
       50
176
     1
 40
0.0
176
     1
 40
1.0
176
     1
 90
        0
176
     1
 62
    18
420
        0
176
     1
 90
       50
176
     1
 90
        3
176
     1
 62
     5
420
      255
176
     1
290
     0
176
     1
 90
       50
176
     1
 90
       50
176
     1
 90
       50
176
     1
290
     0
176
     1
 90
       50
176
     1
 62
   256
176
     0
 40
1.0
176
     0
 90
        2
176
     1
  1
strokes_ogs.tif
176
     1
290
     0
176
     1
 40
1.0
176
     1
 40
1.0
176
     1
  0
VISUALSTYLE
  5
3A
102
{ACAD_REACTORS
330
2A
102
}
330
2A
100
AcDbVisualStyle
  2
ColorChange
 70
    16
177
     3
291
     1
 70
    58
 90
        2
176
     1
 90
        2
176
     1
 90
        3
176
     1
 90
        0
176
     1
 40
0.6
176
     1
 40
30.0
176
     1
 62
     8
420
  8421504
176
     1
 90
        1
176
     1
 90
        4
176
     1
 62
     7
176
     1
 62
   257
176
     1
 90
        1
176
     1
 90
        1
176
     1
 40
1.0
176
     1
 90
        8
176
     1
 62
     8
420
  8421504
176
     1
 40
1.0
176
     1
 90
        1
176
     1
 90
        6
176
     1
 90
        2
176
     1
 62
     7
176
     1
 90
        5
176
     1
 90
        0
176
     1
 90
        0
176
     1
290
     0
176
     1
 90
        1
176
     1
 40
0.0
176
     1
 90
        0
176
     1
290
     0
176
     1
290
     1
176
     1
290
     1
176
     1
290
     0
176
     1
290
     0
176
     1
290
     0
176
     1
290
     0
176
     1
290
     0
176
     1
290
     0
176
     1
 90
       50
176
     1
 40
0.0
176
     1
 40
1.0
176
     1
 90
        0
176
     1
 62
    18
420
        0
176
     1
 90
       50
176
     1
 90
        3
176
     1
 62
     5
420
      255
176
     1
290
     0
176
     1
 90
       50
176
     1
 90
       50
176
     1
 90
       50
176
     1
290
     0
176
     1
 90
       50
176
     1
 62
   256
176
     0
 40
1.0
176
     0
 90
        2
176
     1
  1
strokes_ogs.tif
176
     1
290
     0
176
     1
 40
1.0
176
     1
 40
1.0
176
     1
  0
VISUALSTYLE
  5
34
102
{ACAD_REACTORS
330
2A
102
}
330
2A
100
AcDbVisualStyle
  2
Conceptual
 70
     9
177
     3
291
     0
 70
    58
 90
        3
176
     1
 90
        2
176
     1
 90
        0
176
     1
 90
        0
176
     1
 40
0.6
176
     1
 40
30.0
176
     1
 62
     7
420
 16777215
176
     1
 90
        2
176
     1
 90
        2
176
     1
 62
     7
176
     1
 62
   257
176
     1
 90
        1
176
     1
 90
        1
176
     1
 40
179.0
176
     1
 90
        8
176
     1
 62
     7
176
     1
 40
1.0
176
     1
 90
        1
176
     1
 90
        6
176
     1
 90
        2
176
     1
 62
     7
176
     1
 90
        3
176
     1
 90
        0
176
     1
 90
        0
176
     1
290
     0
176
     1
 90
        1
176
     1
 40
0.0
176
     1
 90
        0
176
     1
290
     0
176
     1
290
     1
176
     1
290
     1
176
     1
290
     0
176
     1
290
     0
176
     1
290
     0
176
     1
290
     0
176
     1
290
     0
176
     1
290
     0
176
     1
 90
       50
176
     1
 40
0.0
176
     1
 40
1.0
176
     1
 90
        0
176
     1
 62
    18
420
        0
176
     1
 90
       50
176
     1
 90
        3
176
     1
 62
     5
420
      255
176
     1
290
     0
176
     1
 90
       50
176
     1
 90
       50
176
     1
 90
       50
176
     1
290
     0
176
     1
 90
       50
176
     1
 62
   256
176
     0
 40
1.0
176
     0
 90
        2
176
     1
  1
strokes_ogs.tif
176
     1
290
     0
176
     1
 40
1.0
176
     1
 40
1.0
176
     1
  0
VISUALSTYLE
  5
35
102
{ACAD_REACTORS
330
2A
102
}
330
2A
100
AcDbVisualStyle
  2
Dim
 70
    11
177
     3
291
     1
 70
    58
 90
        2
176
     1
 90
        2
176
     1
 90
        0
176
     1
 90
        0
176
     1
 40
0.6
176
     1
 40
30.0
176
     1
 62
     7
420
 16777215
176
     1
 90
        1
176
     1
 90
        4
176
     1
 62
     7
176
     1
 62
   257
176
     1
 90
        1
176
     1
 90
        1
176
     1
 40
1.0
176
     1
 90
        8
176
     1
 62
     7
176
     1
 40
1.0
176
     1
 90
        1
176
     1
 90
        6
176
     1
 90
        2
176
     1
 62
     7
176
     1
 90
        5
176
     1
 90
        0
176
     1
 90
        0
176
     1
290
     0
176
     1
 90
        1
176
     1
 40
-50.0
176
     1
 90
        0
176
     1
290
     0
176
     1
290
     1
176
     1
290
     1
176
     1
290
     0
176
     1
290
     0
176
     1
290
     0
176
     1
290
     0
176
     1
290
     0
176
     1
290
     0
176
     1
 90
       50
176
     1
 40
0.0
176
     1
 40
1.0
176
     1
 90
        0
176
     1
 62
    18
420
        0
176
     1
 90
       50
176
     1
 90
        3
176
     1
 62
     5
420
      255
176
     1
290
     0
176
     1
 90
       50
176
     1
 90
       50
176
     1
 90
       50
176
     1
290
     0
176
     1
 90
       50
176
     1
 62
   256
176
     0
 40
1.0
176
     0
 90
        2
176
     1
  1
strokes_ogs.tif
176
     1
290
     0
176
     1
 40
1.0
176
     1
 40
1.0
176
     1
  0
VISUALSTYLE
  5
3D
102
{ACAD_REACTORS
330
2A
102
}
330
2A
100
AcDbVisualStyle
  2
EdgeColorOff
 70
    22
177
     3
291
     1
 70
    58
 90
        2
176
     0
 90
        2
176
     0
 90
        0
176
     0
 90
        0
176
     0
 40
0.6
176
     0
 40
30.0
176
     0
 62
     7
420
 16777215
176
     0
 90
        1
176
     0
 90
        4
176
     0
 62
     7
176
     0
 62
   257
176
     0
 90
        1
176
     0
 90
        1
176
     0
 40
1.0
176
     0
 90
        8
176
     2
 62
     7
176
     0
 40
1.0
176
     0
 90
        1
176
     0
 90
        6
176
     0
 90
        2
176
     0
 62
     7
176
     0
 90
        5
176
     0
 90
        0
176
     0
 90
        0
176
     0
290
     0
176
     0
 90
        1
176
     0
 40
0.0
176
     0
 90
        0
176
     0
290
     0
176
     0
290
     1
176
     0
290
     1
176
     0
290
     0
176
     0
290
     0
176
     0
290
     0
176
     0
290
     0
176
     0
290
     0
176
     0
290
     0
176
     0
 90
       50
176
     0
 40
0.0
176
     0
 40
1.0
176
     0
 90
        0
176
     0
 62
    18
420
        0
176
     0
 90
       50
176
     0
 90
        3
176
     0
 62
     5
420
      255
176
     0
290
     0
176
     0
 90
       50
176
     0
 90
       50
176
     0
 90
       50
176
     0
290
     0
176
     0
 90
       50
176
     0
 62
   256
176
     0
 40
1.0
176
     0
 90
        2
176
     0
  1
strokes_ogs.tif
176
     0
290
     0
176
     0
 40
1.0
176
     0
 40
1.0
176
     0
  0
VISUALSTYLE
  5
39
102
{ACAD_REACTORS
330
2A
102
}
330
2A
100
AcDbVisualStyle
  2
Facepattern
 70
    15
177
     3
291
     1
 70
    58
 90
        2
176
     1
 90
        2
176
     1
 90
        0
176
     1
 90
        0
176
     1
 40
0.6
176
     1
 40
30.0
176
     1
 62
     7
420
 16777215
176
     1
 90
        1
176
     1
 90
        4
176
     1
 62
     7
176
     1
 62
   257
176
     1
 90
        1
176
     1
 90
        1
176
     1
 40
1.0
176
     1
 90
        8
176
     1
 62
     7
176
     1
 40
1.0
176
     1
 90
        1
176
     1
 90
        6
176
     1
 90
        2
176
     1
 62
     7
176
     1
 90
        5
176
     1
 90
        0
176
     1
 90
        0
176
     1
290
     0
176
     1
 90
        1
176
     1
 40
0.0
176
     1
 90
        0
176
     1
290
     0
176
     1
290
     1
176
     1
290
     1
176
     1
290
     0
176
     1
290
     0
176
     1
290
     0
176
     1
290
     0
176
     1
290
     0
176
     1
290
     0
176
     1
 90
       50
176
     1
 40
0.0
176
     1
 40
1.0
176
     1
 90
        0
176
     1
 62
    18
420
        0
176
     1
 90
       50
176
     1
 90
        3
176
     1
 62
     5
420
      255
176
     1
290
     0
176
     1
 90
       50
176
     1
 90
       50
176
     1
 90
       50
176
     1
290
     0
176
     1
 90
       50
176
     1
 62
   256
176
     0
 40
1.0
176
     0
 90
        2
176
     1
  1
strokes_ogs.tif
176
     1
290
     0
176
     1
 40
1.0
176
     1
 40
1.0
176
     1
  0
VISUALSTYLE
  5
2B
102
{ACAD_REACTORS
330
2A
102
}
330
2A
100
AcDbVisualStyle
  2
Flat
 70
     0
177
     3
291
     1
 70
    58
 90
        2
176
     1
 90
        1
176
     1
 90
        1
176
     1
 90
        2
176
     1
 40
0.6
176
     1
 40
30.0
176
     1
 62
     7
420
 16777215
176
     1
 90
        0
176
     1
 90
        0
176
     1
 62
     7
176
     1
 62
   257
176
     1
 90
        1
176
     1
 90
        1
176
     1
 40
1.0
176
     1
 90
        8
176
     1
 62
     7
176
     1
 40
1.0
176
     1
 90
        1
176
     1
 90
        6
176
     1
 90
        2
176
     1
 62
     7
176
     1
 90
        5
176
     1
 90
        0
176
     1
 90
        0
176
     1
290
     0
176
     1
 90
       13
176
     1
 40
0.0
176
     1
 90
        0
176
     1
290
     0
176
     1
290
     1
176
     1
290
     1
176
     1
290
     0
176
     1
290
     0
176
     1
290
     0
176
     1
290
     0
176
     1
290
     0
176
     1
290
     0
176
     1
 90
       50
176
     1
 40
0.0
176
     1
 40
1.0
176
     1
 90
        0
176
     1
 62
    18
420
        0
176
     1
 90
       50
176
     1
 90
        3
176
     1
 62
     5
420
      255
176
     1
290
     0
176
     1
 90
       50
176
     1
 90
       50
176
     1
 90
       50
176
     1
290
     0
176
     1
 90
       50
176
     1
 62
   256
176
     0
 40
1.0
176
     0
 90
        2
176
     1
  1
strokes_ogs.tif
176
     1
290
     0
176
     1
 40
1.0
176
     1
 40
1.0
176
     1
  0
VISUALSTYLE
  5
2C
102
{ACAD_REACTORS
330
2A
102
}
330
2A
100
AcDbVisualStyle
  2
FlatWithEdges
 70
     1
177
     3
291
     1
 70
    58
 90
        2
176
     1
 90
        1
176
     1
 90
        1
176
     1
 90
        2
176
     1
 40
0.6
176
     1
 40
30.0
176
     1
 62
     7
420
 16777215
176
     1
 90
        1
176
     1
 90
        0
176
     1
 62
     7
176
     1
 62
   257
176
     1
 90
        1
176
     1
 90
        1
176
     1
 40
1.0
176
     1
 90
        0
176
     1
 62
   257
176
     1
 40
1.0
176
     1
 90
        1
176
     1
 90
        6
176
     1
 90
        2
176
     1
 62
     7
176
     1
 90
        5
176
     1
 90
        0
176
     1
 90
        0
176
     1
290
     0
176
     1
 90
       13
176
     1
 40
0.0
176
     1
 90
        0
176
     1
290
     0
176
     1
290
     1
176
     1
290
     1
176
     1
290
     0
176
     1
290
     0
176
     1
290
     0
176
     1
290
     0
176
     1
290
     0
176
     1
290
     0
176
     1
 90
       50
176
     1
 40
0.0
176
     1
 40
1.0
176
     1
 90
        0
176
     1
 62
    18
420
        0
176
     1
 90
       50
176
     1
 90
        3
176
     1
 62
     5
420
      255
176
     1
290
     0
176
     1
 90
       50
176
     1
 90
       50
176
     1
 90
       50
176
     1
290
     0
176
     1
 90
       50
176
     1
 62
   256
176
     0
 40
1.0
176
     0
 90
        2
176
     1
  1
strokes_ogs.tif
176
     1
290
     0
176
     1
 40
1.0
176
     1
 40
1.0
176
     1
  0
VISUALSTYLE
  5
2D
102
{ACAD_REACTORS
330
2A
102
}
330
2A
100
AcDbVisualStyle
  2
Gouraud
 70
     2
177
     3
291
     1
 70
    58
 90
        2
176
     1
 90
        2
176
     1
 90
        1
176
     1
 90
        2
176
     1
 40
0.6
176
     1
 40
30.0
176
     1
 62
     7
420
 16777215
176
     1
 90
        0
176
     1
 90
        0
176
     1
 62
     7
176
     1
 62
   257
176
     1
 90
        1
176
     1
 90
        1
176
     1
 40
1.0
176
     1
 90
        0
176
     1
 62
     7
176
     1
 40
1.0
176
     1
 90
        1
176
     1
 90
        6
176
     1
 90
        2
176
     1
 62
     7
176
     1
 90
        5
176
     1
 90
        0
176
     1
 90
        0
176
     1
290
     0
176
     1
 90
       13
176
     1
 40
0.0
176
     1
 90
        0
176
     1
290
     0
176
     1
290
     1
176
     1
290
     1
176
     1
290
     0
176
     1
290
     0
176
     1
290
     0
176
     1
290
     0
176
     1
290
     0
176
     1
290
     0
176
     1
 90
       50
176
     1
 40
0.0
176
     1
 40
1.0
176
     1
 90
        0
176
     1
 62
    18
420
        0
176
     1
 90
       50
176
     1
 90
        3
176
     1
 62
     5
420
      255
176
     1
290
     0
176
     1
 90
       50
176
     1
 90
       50
176
     1
 90
       50
176
     1
290
     0
176
     1
 90
       50
176
     1
 62
   256
176
     0
 40
1.0
176
     0
 90
        2
176
     1
  1
strokes_ogs.tif
176
     1
290
     0
176
     1
 40
1.0
176
     1
 40
1.0
176
     1
  0
VISUALSTYLE
  5
2E
102
{ACAD_REACTORS
330
2A
102
}
330
2A
100
AcDbVisualStyle
  2
GouraudWithEdges
 70
     3
177
     3
291
     1
 70
    58
 90
        2
176
     1
 90
        2
176
     1
 90
        1
176
     1
 90
        2
176
     1
 40
0.6
176
     1
 40
30.0
176
     1
 62
     7
420
 16777215
176
     1
 90
        1
176
     1
 90
        0
176
     1
 62
     7
176
     1
 62
   257
176
     1
 90
        1
176
     1
 90
        1
176
     1
 40
1.0
176
     1
 90
        0
176
     1
 62
   257
176
     1
 40
1.0
176
     1
 90
        1
176
     1
 90
        6
176
     1
 90
        2
176
     1
 62
     7
176
     1
 90
        5
176
     1
 90
        0
176
     1
 90
        0
176
     1
290
     0
176
     1
 90
       13
176
     1
 40
0.0
176
     1
 90
        0
176
     1
290
     0
176
     1
290
     1
176
     1
290
     1
176
     1
290
     0
176
     1
290
     0
176
     1
290
     0
176
     1
290
     0
176
     1
290
     0
176
     1
290
     0
176
     1
 90
       50
176
     1
 40
0.0
176
     1
 40
1.0
176
     1
 90
        0
176
     1
 62
    18
420
        0
176
     1
 90
       50
176
     1
 90
        3
176
     1
 62
     5
420
      255
176
     1
290
     0
176
     1
 90
       50
176
     1
 90
       50
176
     1
 90
       50
176
     1
290
     0
176
     1
 90
       50
176
     1
 62
   256
176
     0
 40
1.0
176
     0
 90
        2
176
     1
  1
strokes_ogs.tif
176
     1
290
     0
176
     1
 40
1.0
176
     1
 40
1.0
176
     1
  0
VISUALSTYLE
  5
31
102
{ACAD_REACTORS
330
2A
102
}
330
2A
100
AcDbVisualStyle
  2
Hidden
 70
     6
177
     3
291
     0
 70
    58
 90
        1
176
     1
 90
        2
176
     1
 90
        2
176
     1
 90
        0
176
     1
 40
0.6
176
     1
 40
30.0
176
     1
 62
     7
420
 16777215
176
     1
 90
        2
176
     1
 90
        2
176
     1
 62
     7
176
     1
 62
   257
176
     1
 90
        2
176
     1
 90
        1
176
     1
 40
40.0
176
     1
 90
        0
176
     1
 62
   257
176
     1
 40
1.0
176
     1
 90
        1
176
     1
 90
        6
176
     1
 90
        2
176
     1
 62
     7
176
     1
 90
        3
176
     1
 90
        0
176
     1
 90
        0
176
     1
290
     0
176
     1
 90
        1
176
     1
 40
0.0
176
     1
 90
        0
176
     1
290
     0
176
     1
290
     1
176
     1
290
     1
176
     1
290
     0
176
     1
290
     0
176
     1
290
     0
176
     1
290
     0
176
     1
290
     0
176
     1
290
     0
176
     1
 90
       50
176
     1
 40
0.0
176
     1
 40
1.0
176
     1
 90
        0
176
     1
 62
    18
420
        0
176
     1
 90
       50
176
     1
 90
        3
176
     1
 62
     5
420
      255
176
     1
290
     0
176
     1
 90
       50
176
     1
 90
       50
176
     1
 90
       50
176
     1
290
     0
176
     1
 90
       50
176
     1
 62
   256
176
     0
 40
1.0
176
     0
 90
        2
176
     1
  1
strokes_ogs.tif
176
     1
290
     0
176
     1
 40
1.0
176
     1
 40
1.0
176
     1
  0
VISUALSTYLE
  5
3B
102
{ACAD_REACTORS
330
2A
102
}
330
2A
100
AcDbVisualStyle
  2
JitterOff
 70
    20
177
     3
291
     1
 70
    58
 90
        2
176
     0
 90
        2
176
     0
 90
        0
176
     0
 90
        0
176
     0
 40
0.6
176
     0
 40
30.0
176
     0
 62
     7
420
 16777215
176
     0
 90
        1
176
     0
 90
        4
176
     0
 62
     7
176
     0
 62
   257
176
     0
 90
        1
176
     0
 90
        1
176
     0
 40
1.0
176
     0
 90
       10
176
     2
 62
     7
176
     0
 40
1.0
176
     0
 90
        1
176
     0
 90
        6
176
     0
 90
        2
176
     0
 62
     7
176
     0
 90
        5
176
     0
 90
        0
176
     0
 90
        0
176
     0
290
     0
176
     0
 90
        1
176
     0
 40
0.0
176
     0
 90
        0
176
     0
290
     0
176
     0
290
     1
176
     0
290
     1
176
     0
290
     0
176
     0
290
     0
176
     0
290
     0
176
     0
290
     0
176
     0
290
     0
176
     0
290
     0
176
     0
 90
       50
176
     0
 40
0.0
176
     0
 40
1.0
176
     0
 90
        0
176
     0
 62
    18
420
        0
176
     0
 90
       50
176
     0
 90
        3
176
     0
 62
     5
420
      255
176
     0
290
     0
176
     0
 90
       50
176
     0
 90
       50
176
     0
 90
       50
176
     0
290
     0
176
     0
 90
       50
176
     0
 62
   256
176
     0
 40
1.0
176
     0
 90
        2
176
     0
  1
strokes_ogs.tif
176
     0
290
     0
176
     0
 40
1.0
176
     0
 40
1.0
176
     0
  0
VISUALSTYLE
  5
38
102
{ACAD_REACTORS
330
2A
102
}
330
2A
100
AcDbVisualStyle
  2
Linepattern
 70
    14
177
     3
291
     1
 70
    58
 90
        2
176
     1
 90
        2
176
     1
 90
        0
176
     1
 90
        0
176
     1
 40
0.6
176
     1
 40
30.0
176
     1
 62
     7
420
 16777215
176
     1
 90
        1
176
     1
 90
        4
176
     1
 62
     7
176
     1
 62
   257
176
     1
 90
        7
176
     1
 90
        7
176
     1
 40
1.0
176
     1
 90
        8
176
     1
 62
     7
176
     1
 40
1.0
176
     1
 90
        1
176
     1
 90
        6
176
     1
 90
        2
176
     1
 62
     7
176
     1
 90
        5
176
     1
 90
        0
176
     1
 90
        0
176
     1
290
     0
176
     1
 90
        1
176
     1
 40
0.0
176
     1
 90
        0
176
     1
290
     0
176
     1
290
     1
176
     1
290
     1
176
     1
290
     0
176
     1
290
     0
176
     1
290
     0
176
     1
290
     0
176
     1
290
     0
176
     1
290
     0
176
     1
 90
       50
176
     1
 40
0.0
176
     1
 40
1.0
176
     1
 90
        0
176
     1
 62
    18
420
        0
176
     1
 90
       50
176
     1
 90
        3
176
     1
 62
     5
420
      255
176
     1
290
     0
176
     1
 90
       50
176
     1
 90
       50
176
     1
 90
       50
176
     1
290
     0
176
     1
 90
       50
176
     1
 62
   256
176
     0
 40
1.0
176
     0
 90
        2
176
     1
  1
strokes_ogs.tif
176
     1
290
     0
176
     1
 40
1.0
176
     1
 40
1.0
176
     1
  0
VISUALSTYLE
  5
3C
102
{ACAD_REACTORS
330
2A
102
}
330
2A
100
AcDbVisualStyle
  2
OverhangOff
 70
    21
177
     3
291
     1
 70
    58
 90
        2
176
     0
 90
        2
176
     0
 90
        0
176
     0
 90
        0
176
     0
 40
0.6
176
     0
 40
30.0
176
     0
 62
     7
420
 16777215
176
     0
 90
        1
176
     0
 90
        4
176
     0
 62
     7
176
     0
 62
   257
176
     0
 90
        1
176
     0
 90
        1
176
     0
 40
1.0
176
     0
 90
        9
176
     2
 62
     7
176
     0
 40
1.0
176
     0
 90
        1
176
     0
 90
        6
176
     0
 90
        2
176
     0
 62
     7
176
     0
 90
        5
176
     0
 90
        0
176
     0
 90
        0
176
     0
290
     0
176
     0
 90
        1
176
     0
 40
0.0
176
     0
 90
        0
176
     0
290
     0
176
     0
290
     1
176
     0
290
     1
176
     0
290
     0
176
     0
290
     0
176
     0
290
     0
176
     0
290
     0
176
     0
290
     0
176
     0
290
     0
176
     0
 90
       50
176
     0
 40
0.0
176
     0
 40
1.0
176
     0
 90
        0
176
     0
 62
    18
420
        0
176
     0
 90
       50
176
     0
 90
        3
176
     0
 62
     5
420
      255
176
     0
290
     0
176
     0
 90
       50
176
     0
 90
       50
176
     0
 90
       50
176
     0
290
     0
176
     0
 90
       50
176
     0
 62
   256
176
     0
 40
1.0
176
     0
 90
        2
176
     0
  1
strokes_ogs.tif
176
     0
290
     0
176
     0
 40
1.0
176
     0
 40
1.0
176
     0
  0
VISUALSTYLE
  5
33
102
{ACAD_REACTORS
330
2A
102
}
330
2A
100
AcDbVisualStyle
  2
Realistic
 70
     8
177
     3
291
     0
 70
    58
 90
        2
176
     1
 90
        3
176
     1
 90
        0
176
     1
 90
        2
176
     1
 40
0.6
176
     1
 40
30.0
176
     1
 62
     7
420
 16777215
176
     1
 90
        0
176
     1
 90
        0
176
     1
 62
     7
176
     1
 62
   257
176
     1
 90
        1
176
     1
 90
        1
176
     1
 40
1.0
176
     1
 90
        8
176
     1
 62
   257
176
     1
 40
1.0
176
     1
 90
        1
176
     1
 90
        6
176
     1
 90
        2
176
     1
 62
     7
176
     1
 90
        3
176
     1
 90
        0
176
     1
 90
        0
176
     1
290
     0
176
     1
 90
       13
176
     1
 40
0.0
176
     1
 90
        0
176
     1
290
     0
176
     1
290
     1
176
     1
290
     1
176
     1
290
     0
176
     1
290
     0
176
     1
290
     0
176
     1
290
     0
176
     1
290
     0
176
     1
290
     0
176
     1
 90
       50
176
     1
 40
0.0
176
     1
 40
1.0
176
     1
 90
        0
176
     1
 62
    18
420
        0
176
     1
 90
       50
176
     1
 90
        3
176
     1
 62
     5
420
      255
176
     1
290
     0
176
     1
 90
       50
176
     1
 90
       50
176
     1
 90
       50
176
     1
290
     0
176
     1
 90
       50
176
     1
 62
   256
176
     0
 40
1.0
176
     0
 90
        2
176
     1
  1
strokes_ogs.tif
176
     1
290
     0
176
     1
 40
1.0
176
     1
 40
1.0
176
     1
  0
VISUALSTYLE
  5
42
102
{ACAD_REACTORS
330
2A
102
}
330
2A
100
AcDbVisualStyle
  2
Shaded
 70
    27
177
     3
291
     0
 70
    58
 90
        2
176
     1
 90
        2
176
     1
 90
        1
176
     1
 90
        2
176
     1
 40
0.6
176
     1
 40
30.0
176
     1
 62
     7
420
 16777215
176
     1
 90
        0
176
     1
 90
        4
176
     1
 62
     7
176
     1
 62
   257
176
     1
 90
        1
176
     1
 90
        1
176
     1
 40
1.0
176
     1
 90
        8
176
     1
 62
   257
176
     1
 40
1.0
176
     1
 90
        1
176
     1
 90
        6
176
     1
 90
        2
176
     1
 62
     8
420
  7895160
176
     1
 90
        3
176
     1
 90
        0
176
     1
 90
        0
176
     1
290
     0
176
     1
 90
        5
176
     1
 40
0.0
176
     1
 90
        0
176
     1
290
     0
176
     1
290
     1
176
     1
290
     1
176
     1
290
     0
176
     1
290
     0
176
     1
290
     0
176
     1
290
     0
176
     1
290
     0
176
     1
290
     0
176
     1
 90
       50
176
     1
 40
0.0
176
     1
 40
1.0
176
     1
 90
        0
176
     1
 62
    18
420
        0
176
     1
 90
       50
176
     1
 90
        3
176
     1
 62
     5
420
      255
176
     1
290
     0
176
     1
 90
       50
176
     1
 90
       50
176
     1
 90
       50
176
     1
290
     0
176
     1
 90
       50
176
     1
 62
   256
176
     0
 40
1.0
176
     0
 90
        2
176
     1
  1
strokes_ogs.tif
176
     1
290
     0
176
     1
 40
1.0
176
     1
 40
1.0
176
     1
  0
VISUALSTYLE
  5
41
102
{ACAD_REACTORS
330
2A
102
}
330
2A
100
AcDbVisualStyle
  2
Shaded with edges
 70
    26
177
     3
291
     0
 70
    58
 90
        2
176
     1
 90
        2
176
     1
 90
        1
176
     1
 90
        2
176
     1
 40
0.6
176
     1
 40
30.0
176
     1
 62
     7
420
 16777215
176
     1
 90
        1
176
     1
 90
       10
176
     1
 62
     7
176
     1
 62
   257
176
     1
 90
        2
176
     1
 90
        1
176
     1
 40
1.0
176
     1
 90
        8
176
     1
 62
   257
176
     1
 40
1.0
176
     1
 90
        1
176
     1
 90
        6
176
     1
 90
        2
176
     1
 62
     7
176
     1
 90
        3
176
     1
 90
        0
176
     1
 90
        0
176
     1
290
     0
176
     1
 90
        5
176
     1
 40
0.0
176
     1
 90
        0
176
     1
290
     0
176
     1
290
     1
176
     1
290
     1
176
     1
290
     0
176
     1
290
     0
176
     1
290
     0
176
     1
290
     0
176
     1
290
     0
176
     1
290
     0
176
     1
 90
       50
176
     1
 40
0.0
176
     1
 40
1.0
176
     1
 90
        0
176
     1
 62
    18
420
        0
176
     1
 90
       50
176
     1
 90
        3
176
     1
 62
     5
420
      255
176
     1
290
     0
176
     1
 90
       50
176
     1
 90
       50
176
     1
 90
       50
176
     1
290
     0
176
     1
 90
       50
176
     1
 62
   256
176
     0
 40
1.0
176
     0
 90
        2
176
     1
  1
strokes_ogs.tif
176
     1
290
     0
176
     1
 40
1.0
176
     1
 40
1.0
176
     1
  0
VISUALSTYLE
  5
3E
102
{ACAD_REACTORS
330
2A
102
}
330
2A
100
AcDbVisualStyle
  2
Shades of Gray
 70
    23
177
     3
291
     0
 70
    58
 90
        2
176
     1
 90
        2
176
     1
 90
        3
176
     1
 90
        0
176
     1
 40
0.6
176
     1
 40
30.0
176
     1
 62
     7
420
 16777215
176
     1
 90
        2
176
     1
 90
        2
176
     1
 62
     7
176
     1
 62
     7
176
     1
 90
        1
176
     1
 90
        1
176
     1
 40
40.0
176
     1
 90
        8
176
     1
 62
     7
176
     1
 40
1.0
176
     1
 90
        1
176
     1
 90
        6
176
     1
 90
        2
176
     1
 62
     7
176
     1
 90
        3
176
     1
 90
        0
176
     1
 90
        0
176
     1
290
     0
176
     1
 90
        1
176
     1
 40
0.0
176
     1
 90
        0
176
     1
290
     0
176
     1
290
     1
176
     1
290
     1
176
     1
290
     0
176
     1
290
     0
176
     1
290
     0
176
     1
290
     0
176
     1
290
     0
176
     1
290
     0
176
     1
 90
       50
176
     1
 40
0.0
176
     1
 40
1.0
176
     1
 90
        0
176
     1
 62
    18
420
        0
176
     1
 90
       50
176
     1
 90
        3
176
     1
 62
     5
420
      255
176
     1
290
     0
176
     1
 90
       50
176
     1
 90
       50
176
     1
 90
       50
176
     1
290
     0
176
     1
 90
       50
176
     1
 62
   256
176
     0
 40
1.0
176
     0
 90
        2
176
     1
  1
strokes_ogs.tif
176
     1
290
     0
176
     1
 40
1.0
176
     1
 40
1.0
176
     1
  0
VISUALSTYLE
  5
3F
102
{ACAD_REACTORS
330
2A
102
}
330
2A
100
AcDbVisualStyle
  2
Sketchy
 70
    24
177
     3
291
     0
 70
    58
 90
        1
176
     1
 90
        2
176
     1
 90
        2
176
     1
 90
        0
176
     1
 40
0.6
176
     1
 40
30.0
176
     1
 62
     7
420
 16777215
176
     1
 90
        2
176
     1
 90
        2
176
     1
 62
     7
176
     1
 62
     7
176
     1
 90
        1
176
     1
 90
        1
176
     1
 40
40.0
176
     1
 90
       11
176
     1
 62
     7
176
     1
 40
1.0
176
     1
 90
        1
176
     1
 90
        6
176
     1
 90
        2
176
     1
 62
     7
176
     1
 90
        6
176
     1
 90
        0
176
     1
 90
        0
176
     1
290
     0
176
     1
 90
        1
176
     1
 40
0.0
176
     1
 90
        0
176
     1
290
     0
176
     1
290
     1
176
     1
290
     1
176
     1
290
     0
176
     1
290
     0
176
     1
290
     0
176
     1
290
     0
176
     1
290
     0
176
     1
290
     0
176
     1
 90
       50
176
     1
 40
0.0
176
     1
 40
1.0
176
     1
 90
        0
176
     1
 62
    18
420
        0
176
     1
 90
       50
176
     1
 90
        3
176
     1
 62
     5
420
      255
176
     1
290
     0
176
     1
 90
       50
176
     1
 90
       50
176
     1
 90
       50
176
     1
290
     0
176
     1
 90
       50
176
     1
 62
   256
176
     0
 40
1.0
176
     0
 90
        2
176
     1
  1
strokes_ogs.tif
176
     1
290
     0
176
     1
 40
1.0
176
     1
 40
1.0
176
     1
  0
VISUALSTYLE
  5
37
102
{ACAD_REACTORS
330
2A
102
}
330
2A
100
AcDbVisualStyle
  2
Thicken
 70
    13
177
     3
291
     1
 70
    58
 90
        2
176
     1
 90
        2
176
     1
 90
        0
176
     1
 90
        0
176
     1
 40
0.6
176
     1
 40
30.0
176
     1
 62
     7
420
 16777215
176
     1
 90
        1
176
     1
 90
        4
176
     1
 62
     7
176
     1
 62
   257
176
     1
 90
        1
176
     1
 90
        1
176
     1
 40
1.0
176
     1
 90
       12
176
     1
 62
     7
176
     1
 40
1.0
176
     1
 90
        1
176
     1
 90
        6
176
     1
 90
        2
176
     1
 62
     7
176
     1
 90
        5
176
     1
 90
        0
176
     1
 90
        0
176
     1
290
     0
176
     1
 90
        1
176
     1
 40
0.0
176
     1
 90
        0
176
     1
290
     0
176
     1
290
     1
176
     1
290
     1
176
     1
290
     0
176
     1
290
     0
176
     1
290
     0
176
     1
290
     0
176
     1
290
     0
176
     1
290
     0
176
     1
 90
       50
176
     1
 40
0.0
176
     1
 40
1.0
176
     1
 90
        0
176
     1
 62
    18
420
        0
176
     1
 90
       50
176
     1
 90
        3
176
     1
 62
     5
420
      255
176
     1
290
     0
176
     1
 90
       50
176
     1
 90
       50
176
     1
 90
       50
176
     1
290
     0
176
     1
 90
       50
176
     1
 62
   256
176
     0
 40
1.0
176
     0
 90
        2
176
     1
  1
strokes_ogs.tif
176
     1
290
     0
176
     1
 40
1.0
176
     1
 40
1.0
176
     1
  0
VISUALSTYLE
  5
30
102
{ACAD_REACTORS
330
2A
102
}
330
2A
100
AcDbVisualStyle
  2
Wireframe
 70
     5
177
     3
291
     0
 70
    58
 90
        0
176
     1
 90
        2
176
     1
 90
        0
176
     1
 90
        0
176
     1
 40
0.6
176
     1
 40
30.0
176
     1
 62
     7
420
 16777215
176
     1
 90
        1
176
     1
 90
        4
176
     1
 62
     7
176
     1
 62
   257
176
     1
 90
        1
176
     1
 90
        1
176
     1
 40
1.0
176
     1
 90
        0
176
     1
 62
   257
176
     1
 40
1.0
176
     1
 90
        1
176
     1
 90
        6
176
     1
 90
        2
176
     1
 62
     7
176
     1
 90
        3
176
     1
 90
        0
176
     1
 90
        0
176
     1
290
     0
176
     1
 90
        1
176
     1
 40
0.0
176
     1
 90
        0
176
     1
290
     0
176
     1
290
     1
176
     1
290
     1
176
     1
290
     0
176
     1
290
     0
176
     1
290
     0
176
     1
290
     0
176
     1
290
     0
176
     1
290
     0
176
     1
 90
       50
176
     1
 40
0.0
176
     1
 40
1.0
176
     1
 90
        0
176
     1
 62
    18
420
        0
176
     1
 90
       50
176
     1
 90
        3
176
     1
 62
     5
420
      255
176
     1
290
     0
176
     1
 90
       50
176
     1
 90
       50
176
     1
 90
       50
176
     1
290
     0
176
     1
 90
       50
176
     1
 62
   256
176
     0
 40
1.0
176
     0
 90
        2
176
     1
  1
strokes_ogs.tif
176
     1
290
     0
176
     1
 40
1.0
176
     1
 40
1.0
176
     1
  0
VISUALSTYLE
  5
40
102
{ACAD_REACTORS
330
2A
102
}
330
2A
100
AcDbVisualStyle
  2
X-Ray
 70
    25
177
     3
291
     0
 70
    58
 90
        2
176
     1
 90
        2
176
     1
 90
        1
176
     1
 90
        1
176
     1
 40
0.5
176
     1
 40
30.0
176
     1
 62
     7
420
 16777215
176
     1
 90
        1
176
     1
 90
        0
176
     1
 62
     7
176
     1
 62
   257
176
     1
 90
        1
176
     1
 90
        1
176
     1
 40
1.0
176
     1
 90
        8
176
     1
 62
     7
176
     1
 40
1.0
176
     1
 90
        1
176
     1
 90
        6
176
     1
 90
        2
176
     1
 62
     7
176
     1
 90
        3
176
     1
 90
        0
176
     1
 90
        0
176
     1
290
     0
176
     1
 90
       13
176
     1
 40
0.0
176
     1
 90
        0
176
     1
290
     0
176
     1
290
     1
176
     1
290
     1
176
     1
290
     0
176
     1
290
     0
176
     1
290
     0
176
     1
290
     0
176
     1
290
     0
176
     1
290
     0
176
     1
 90
       50
176
     1
 40
0.0
176
     1
 40
1.0
176
     1
 90
        0
176
     1
 62
    18
420
        0
176
     1
 90
       50
176
     1
 90
        3
176
     1
 62
     5
420
      255
176
     1
290
     0
176
     1
 90
       50
176
     1
 90
       50
176
     1
 90
       50
176
     1
290
     0
176
     1
 90
       50
176
     1
 62
   256
176
     0
 40
1.0
176
     0
 90
        2
176
     1
  1
strokes_ogs.tif
176
     1
290
     0
176
     1
 40
1.0
176
     1
 40
1.0
176
     1
  0
DICTIONARYVAR
  5
1D8
102
{ACAD_REACTORS
330
1D7
102
}
330
1D7
100
DictionaryVariables
280
     0
  1
1:1
  0
DICTIONARYVAR
  5
1DD
102
{ACAD_REACTORS
330
1D7
102
}
330
1D7
100
DictionaryVariables
280
     0
  1
Standard
  0
DICTIONARYVAR
  5
1DC
102
{ACAD_REACTORS
330
1D7
102
}
330
1D7
100
DictionaryVariables
280
     0
  1
Standard
  0
DICTIONARY
  5
1D9
330
6A
100
AcDbDictionary
280
     1
281
     1
  3
ACAD_ROUNDTRIP_2008_TABLESTYLE_CELLSTYLEMAP
360
1DA
  0
CELLSTYLEMAP
  5
1DA
102
{ACAD_REACTORS
330
1D9
102
}
330
1D9
100
AcDbCellStyleMap
 90
        3
300
CELLSTYLE
  1
TABLEFORMAT_BEGIN
 90
        5
170
     1
 91
        0
 92
    32768
 62
   257
 93
        1
300
CONTENTFORMAT
  1
CONTENTFORMAT_BEGIN
 90
        0
 91
        0
 92
        4
 93
        0
300

 40
0.0
140
1.0
 94
        5
 62
     0
340
11
144
0.25
309
CONTENTFORMAT_END
171
     1
301
MARGIN
  1
CELLMARGIN_BEGIN
 40
0.06
 40
0.06
 40
0.06
 40
0.06
 40
0.06
 40
0.06
309
CELLMARGIN_END
 94
        6
 95
        1
302
GRIDFORMAT
  1
GRIDFORMAT_BEGIN
 90
        0
 91
        1
 62
     0
 92
       -2
340
14
 93
        0
 40
0.045
309
GRIDFORMAT_END
 95
        2
302
GRIDFORMAT
  1
GRIDFORMAT_BEGIN
 90
        0
 91
        1
 62
     0
 92
       -2
340
14
 93
        0
 40
0.045
309
GRIDFORMAT_END
 95
        4
302
GRIDFORMAT
  1
GRIDFORMAT_BEGIN
 90
        0
 91
        1
 62
     0
 92
       -2
340
14
 93
        0
 40
0.045
309
GRIDFORMAT_END
 95
        8
302
GRIDFORMAT
  1
GRIDFORMAT_BEGIN
 90
        0
 91
        1
 62
     0
 92
       -2
340
14
 93
        0
 40
0.045
309
GRIDFORMAT_END
 95
       16
302
GRIDFORMAT
  1
GRIDFORMAT_BEGIN
 90
        0
 91
        1
 62
     0
 92
       -2
340
14
 93
        0
 40
0.045
309
GRIDFORMAT_END
 95
       32
302
GRIDFORMAT
  1
GRIDFORMAT_BEGIN
 90
        0
 91
        1
 62
     0
 92
       -2
340
14
 93
        0
 40
0.045
309
GRIDFORMAT_END
309
TABLEFORMAT_END
  1
CELLSTYLE_BEGIN
 90
        1
 91
        1
300
_TITLE
309
CELLSTYLE_END
300
CELLSTYLE
  1
TABLEFORMAT_BEGIN
 90
        5
170
     1
 91
        0
 92
        0
 62
   257
 93
        1
300
CONTENTFORMAT
  1
CONTENTFORMAT_BEGIN
 90
        0
 91
        0
 92
        4
 93
        0
300

 40
0.0
140
1.0
 94
        5
 62
     0
340
11
144
0.18
309
CONTENTFORMAT_END
171
     1
301
MARGIN
  1
CELLMARGIN_BEGIN
 40
0.06
 40
0.06
 40
0.06
 40
0.06
 40
0.06
 40
0.06
309
CELLMARGIN_END
 94
        6
 95
        1
302
GRIDFORMAT
  1
GRIDFORMAT_BEGIN
 90
        0
 91
        1
 62
     0
 92
       -2
340
14
 93
        0
 40
0.045
309
GRIDFORMAT_END
 95
        2
302
GRIDFORMAT
  1
GRIDFORMAT_BEGIN
 90
        0
 91
        1
 62
     0
 92
       -2
340
14
 93
        0
 40
0.045
309
GRIDFORMAT_END
 95
        4
302
GRIDFORMAT
  1
GRIDFORMAT_BEGIN
 90
        0
 91
        1
 62
     0
 92
       -2
340
14
 93
        0
 40
0.045
309
GRIDFORMAT_END
 95
        8
302
GRIDFORMAT
  1
GRIDFORMAT_BEGIN
 90
        0
 91
        1
 62
     0
 92
       -2
340
14
 93
        0
 40
0.045
309
GRIDFORMAT_END
 95
       16
302
GRIDFORMAT
  1
GRIDFORMAT_BEGIN
 90
        0
 91
        1
 62
     0
 92
       -2
340
14
 93
        0
 40
0.045
309
GRIDFORMAT_END
 95
       32
302
GRIDFORMAT
  1
GRIDFORMAT_BEGIN
 90
        0
 91
        1
 62
     0
 92
       -2
340
14
 93
        0
 40
0.045
309
GRIDFORMAT_END
309
TABLEFORMAT_END
  1
CELLSTYLE_BEGIN
 90
        2
 91
        1
300
_HEADER
309
CELLSTYLE_END
300
CELLSTYLE
  1
TABLEFORMAT_BEGIN
 90
        5
170
     1
 91
        0
 92
        0
 62
   257
 93
        1
300
CONTENTFORMAT
  1
CONTENTFORMAT_BEGIN
 90
        0
 91
        0
 92
        4
 93
        0
300

 40
0.0
140
1.0
 94
        2
 62
     0
340
11
144
0.18
309
CONTENTFORMAT_END
171
     1
301
MARGIN
  1
CELLMARGIN_BEGIN
 40
0.06
 40
0.06
 40
0.06
 40
0.06
 40
0.06
 40
0.06
309
CELLMARGIN_END
 94
        6
 95
        1
302
GRIDFORMAT
  1
GRIDFORMAT_BEGIN
 90
        0
 91
        1
 62
     0
 92
       -2
340
14
 93
        0
 40
0.045
309
GRIDFORMAT_END
 95
        2
302
GRIDFORMAT
  1
GRIDFORMAT_BEGIN
 90
        0
 91
        1
 62
     0
 92
       -2
340
14
 93
        0
 40
0.045
309
GRIDFORMAT_END
 95
        4
302
GRIDFORMAT
  1
GRIDFORMAT_BEGIN
 90
        0
 91
        1
 62
     0
 92
       -2
340
14
 93
        0
 40
0.045
309
GRIDFORMAT_END
 95
        8
302
GRIDFORMAT
  1
GRIDFORMAT_BEGIN
 90
        0
 91
        1
 62
     0
 92
       -2
340
14
 93
        0
 40
0.045
309
GRIDFORMAT_END
 95
       16
302
GRIDFORMAT
  1
GRIDFORMAT_BEGIN
 90
        0
 91
        1
 62
     0
 92
       -2
340
14
 93
        0
 40
0.045
309
GRIDFORMAT_END
 95
       32
302
GRIDFORMAT
  1
GRIDFORMAT_BEGIN
 90
        0
 91
        1
 62
     0
 92
       -2
340
14
 93
        0
 40
0.045
309
GRIDFORMAT_END
309
TABLEFORMAT_END
  1
CELLSTYLE_BEGIN
 90
        3
 91
        2
300
_DATA
309
CELLSTYLE_END
  0
ENDSEC
  0
EOF