0
SECTION
  2
HEADER
  9
$ACADVER
  1
AC1027
  9
$ACADMAINTVER
 70
     8
  9
$DWGCODEPAGE
  3
ANSI_1252
  9
$REQUIREDVERSIONS
160
                 0
  9
$COMMENTS
  1
File was created by Cadenas
  9
$CUSTOMPROPERTYTAG
  1
NN
  9
$CUSTOMPROPERTY
  1
Eccentric Collar Intermediate Duty Narrow Slot Take Up Inch Bore
  9
$CUSTOMPROPERTYTAG
  1
NT
  9
$CUSTOMPROPERTY
  1
Eccentric Collar Take-Up Bearings -(Intermediate Duty) -Narrow Slot
  9
$CUSTOMPROPERTYTAG
  1
NB
  9
$CUSTOMPROPERTY
  1
130345
  9
$CUSTOMPROPERTYTAG
  1
NBSYN
  9
$CUSTOMPROPERTY
  1
$PN.
  9
$CUSTOMPROPERTYTAG
  1
LINA
  9
$CUSTOMPROPERTY
  1
130345
  9
$CUSTOMPROPERTYTAG
  1
SERIES
  9
$CUSTOMPROPERTY
  1
211
  9
$CUSTOMPROPERTYTAG
  1
SS
  9
$CUSTOMPROPERTY
  1
2-3/16
  9
$CUSTOMPROPERTYTAG
  1
PN
  9
$CUSTOMPROPERTY
  1
130345
  9
$CUSTOMPROPERTYTAG
  1
DESCRIPTION
  9
$CUSTOMPROPERTY
  1
NSTU-SXV-203
  9
$CUSTOMPROPERTYTAG
  1
W
  9
$CUSTOMPROPERTY
  1
6.8
  9
$CUSTOMPROPERTYTAG
  1
FS
  9
$CUSTOMPROPERTY
  1
NS407
  9
$CUSTOMPROPERTYTAG
  1
A
  9
$CUSTOMPROPERTY
  1
1.90
  9
$CUSTOMPROPERTYTAG
  1
B
  9
$CUSTOMPROPERTY
  1
6.13
  9
$CUSTOMPROPERTYTAG
  1
C
  9
$CUSTOMPROPERTY
  1
0.313
  9
$CUSTOMPROPERTYTAG
  1
D
  9
$CUSTOMPROPERTY
  1
3.50
  9
$CUSTOMPROPERTYTAG
  1
E
  9
$CUSTOMPROPERTY
  1
3.63
  9
$CUSTOMPROPERTYTAG
  1
F
  9
$CUSTOMPROPERTY
  1
1
  9
$CUSTOMPROPERTYTAG
  1
G
  9
$CUSTOMPROPERTY
  1
0.69
  9
$CUSTOMPROPERTYTAG
  1
H
  9
$CUSTOMPROPERTY
  1
1.28
  9
$CUSTOMPROPERTYTAG
  1
J
  9
$CUSTOMPROPERTY
  1
1.75
  9
$CUSTOMPROPERTYTAG
  1
L
  9
$CUSTOMPROPERTY
  1
2.75
  9
$CUSTOMPROPERTYTAG
  1
M
  9
$CUSTOMPROPERTY
  1
4.448 / 4.418
  9
$CUSTOMPROPERTYTAG
  1
N
  9
$CUSTOMPROPERTY
  1
5.38
  9
$CUSTOMPROPERTYTAG
  1
P
  9
$CUSTOMPROPERTY
  1
0.44
  9
$CUSTOMPROPERTYTAG
  1
R
  9
$CUSTOMPROPERTY
  1
0.47
  9
$CUSTOMPROPERTYTAG
  1
S
  9
$CUSTOMPROPERTY
  1
1.43
  9
$CUSTOMPROPERTYTAG
  1
COMPANY
  9
$CUSTOMPROPERTY
  1
baldor
  9
$INSBASE
 10
0.0
 20
0.0
 30
0.0
  9
$EXTMIN
 10
1.000000000000000E+20
 20
1.000000000000000E+20
 30
1.000000000000000E+20
  9
$EXTMAX
 10
-1.000000000000000E+20
 20
-1.000000000000000E+20
 30
-1.000000000000000E+20
  9
$LIMMIN
 10
0.0
 20
0.0
  9
$LIMMAX
 10
12.0
 20
9.0
  9
$ORTHOMODE
 70
     0
  9
$REGENMODE
 70
     1
  9
$FILLMODE
 70
     1
  9
$QTEXTMODE
 70
     0
  9
$MIRRTEXT
 70
     1
  9
$LTSCALE
 40
1.0
  9
$ATTMODE
 70
     1
  9
$TEXTSIZE
 40
0.2
  9
$TRACEWID
 40
0.05
  9
$TEXTSTYLE
  7
Standard
  9
$CLAYER
  8
0
  9
$CELTYPE
  6
ByLayer
  9
$CECOLOR
 62
   256
  9
$CELTSCALE
 40
1.0
  9
$DISPSILH
 70
     0
  9
$DIMSCALE
 40
1.0
  9
$DIMASZ
 40
0.18
  9
$DIMEXO
 40
0.0625
  9
$DIMDLI
 40
0.38
  9
$DIMRND
 40
0.0
  9
$DIMDLE
 40
0.0
  9
$DIMEXE
 40
0.18
  9
$DIMTP
 40
0.0
  9
$DIMTM
 40
0.0
  9
$DIMTXT
 40
0.18
  9
$DIMCEN
 40
0.09
  9
$DIMTSZ
 40
0.0
  9
$DIMTOL
 70
     0
  9
$DIMLIM
 70
     0
  9
$DIMTIH
 70
     1
  9
$DIMTOH
 70
     1
  9
$DIMSE1
 70
     0
  9
$DIMSE2
 70
     0
  9
$DIMTAD
 70
     0
  9
$DIMZIN
 70
     0
  9
$DIMBLK
  1

  9
$DIMASO
 70
     1
  9
$DIMSHO
 70
     1
  9
$DIMPOST
  1

  9
$DIMAPOST
  1

  9
$DIMALT
 70
     0
  9
$DIMALTD
 70
     2
  9
$DIMALTF
 40
25.4
  9
$DIMLFAC
 40
1.0
  9
$DIMTOFL
 70
     0
  9
$DIMTVP
 40
0.0
  9
$DIMTIX
 70
     0
  9
$DIMSOXD
 70
     0
  9
$DIMSAH
 70
     0
  9
$DIMBLK1
  1

  9
$DIMBLK2
  1

  9
$DIMSTYLE
  2
Standard
  9
$DIMCLRD
 70
     0
  9
$DIMCLRE
 70
     0
  9
$DIMCLRT
 70
     0
  9
$DIMTFAC
 40
1.0
  9
$DIMGAP
 40
0.09
  9
$DIMJUST
 70
     0
  9
$DIMSD1
 70
     0
  9
$DIMSD2
 70
     0
  9
$DIMTOLJ
 70
     1
  9
$DIMTZIN
 70
     0
  9
$DIMALTZ
 70
     0
  9
$DIMALTTZ
 70
     0
  9
$DIMUPT
 70
     0
  9
$DIMDEC
 70
     4
  9
$DIMTDEC
 70
     4
  9
$DIMALTU
 70
     2
  9
$DIMALTTD
 70
     2
  9
$DIMTXSTY
  7
Standard
  9
$DIMAUNIT
 70
     0
  9
$DIMADEC
 70
     0
  9
$DIMALTRND
 40
0.0
  9
$DIMAZIN
 70
     0
  9
$DIMDSEP
 70
    46
  9
$DIMATFIT
 70
     3
  9
$DIMFRAC
 70
     0
  9
$DIMLDRBLK
  1

  9
$DIMLUNIT
 70
     2
  9
$DIMLWD
 70
    -2
  9
$DIMLWE
 70
    -2
  9
$DIMTMOVE
 70
     0
  9
$DIMFXL
 40
1.0
  9
$DIMFXLON
 70
     0
  9
$DIMJOGANG
 40
0.7853981633974483
  9
$DIMTFILL
 70
     0
  9
$DIMTFILLCLR
 70
     0
  9
$DIMARCSYM
 70
     0
  9
$DIMLTYPE
  6

  9
$DIMLTEX1
  6

  9
$DIMLTEX2
  6

  9
$DIMTXTDIRECTION
 70
     0
  9
$LUNITS
 70
     2
  9
$LUPREC
 70
     4
  9
$SKETCHINC
 40
0.1
  9
$FILLETRAD
 40
0.5
  9
$AUNITS
 70
     0
  9
$AUPREC
 70
     0
  9
$MENU
  1
.
  9
$ELEVATION
 40
0.0
  9
$PELEVATION
 40
0.0
  9
$THICKNESS
 40
0.0
  9
$LIMCHECK
 70
     0
  9
$CHAMFERA
 40
0.0
  9
$CHAMFERB
 40
0.0
  9
$CHAMFERC
 40
0.0
  9
$CHAMFERD
 40
0.0
  9
$SKPOLY
 70
     0
  9
$TDCREATE
 40
2458168.978074572
  9
$TDUCREATE
 40
2458168.936407905
  9
$TDUPDATE
 40
2458168.978074757
  9
$TDUUPDATE
 40
2458168.93640809
  9
$TDINDWG
 40
0.0000000116
  9
$TDUSRTIMER
 40
0.0000000116
  9
$USRTIMER
 70
     1
  9
$ANGBASE
 50
0.0
  9
$ANGDIR
 70
     0
  9
$PDMODE
 70
     0
  9
$PDSIZE
 40
0.0
  9
$PLINEWID
 40
0.0
  9
$SPLFRAME
 70
     0
  9
$SPLINETYPE
 70
     6
  9
$SPLINESEGS
 70
     8
  9
$HANDSEED
  5
19F
  9
$SURFTAB1
 70
     6
  9
$SURFTAB2
 70
     6
  9
$SURFTYPE
 70
     6
  9
$SURFU
 70
     6
  9
$SURFV
 70
     6
  9
$UCSBASE
  2

  9
$UCSNAME
  2

  9
$UCSORG
 10
0.0
 20
0.0
 30
0.0
  9
$UCSXDIR
 10
1.0
 20
0.0
 30
0.0
  9
$UCSYDIR
 10
0.0
 20
1.0
 30
0.0
  9
$UCSORTHOREF
  2

  9
$UCSORTHOVIEW
 70
     0
  9
$UCSORGTOP
 10
0.0
 20
0.0
 30
0.0
  9
$UCSORGBOTTOM
 10
0.0
 20
0.0
 30
0.0
  9
$UCSORGLEFT
 10
0.0
 20
0.0
 30
0.0
  9
$UCSORGRIGHT
 10
0.0
 20
0.0
 30
0.0
  9
$UCSORGFRONT
 10
0.0
 20
0.0
 30
0.0
  9
$UCSORGBACK
 10
0.0
 20
0.0
 30
0.0
  9
$PUCSBASE
  2

  9
$PUCSNAME
  2

  9
$PUCSORG
 10
0.0
 20
0.0
 30
0.0
  9
$PUCSXDIR
 10
1.0
 20
0.0
 30
0.0
  9
$PUCSYDIR
 10
0.0
 20
1.0
 30
0.0
  9
$PUCSORTHOREF
  2

  9
$PUCSORTHOVIEW
 70
     0
  9
$PUCSORGTOP
 10
0.0
 20
0.0
 30
0.0
  9
$PUCSORGBOTTOM
 10
0.0
 20
0.0
 30
0.0
  9
$PUCSORGLEFT
 10
0.0
 20
0.0
 30
0.0
  9
$PUCSORGRIGHT
 10
0.0
 20
0.0
 30
0.0
  9
$PUCSORGFRONT
 10
0.0
 20
0.0
 30
0.0
  9
$PUCSORGBACK
 10
0.0
 20
0.0
 30
0.0
  9
$USERI1
 70
     0
  9
$USERI2
 70
     0
  9
$USERI3
 70
     0
  9
$USERI4
 70
     0
  9
$USERI5
 70
     0
  9
$USERR1
 40
0.0
  9
$USERR2
 40
0.0
  9
$USERR3
 40
0.0
  9
$USERR4
 40
0.0
  9
$USERR5
 40
0.0
  9
$WORLDVIEW
 70
     1
  9
$SHADEDGE
 70
     3
  9
$SHADEDIF
 70
    70
  9
$TILEMODE
 70
     1
  9
$MAXACTVP
 70
    64
  9
$PINSBASE
 10
0.0
 20
0.0
 30
0.0
  9
$PLIMCHECK
 70
     0
  9
$PEXTMIN
 10
1.000000000000000E+20
 20
1.000000000000000E+20
 30
1.000000000000000E+20
  9
$PEXTMAX
 10
-1.000000000000000E+20
 20
-1.000000000000000E+20
 30
-1.000000000000000E+20
  9
$PLIMMIN
 10
0.0
 20
0.0
  9
$PLIMMAX
 10
12.0
 20
9.0
  9
$UNITMODE
 70
     0
  9
$VISRETAIN
 70
     1
  9
$PLINEGEN
 70
     0
  9
$PSLTSCALE
 70
     1
  9
$TREEDEPTH
 70
  3020
  9
$CMLSTYLE
  2
Standard
  9
$CMLJUST
 70
     0
  9
$CMLSCALE
 40
1.0
  9
$PROXYGRAPHICS
 70
     1
  9
$MEASUREMENT
 70
     0
  9
$CELWEIGHT
370
    -1
  9
$ENDCAPS
280
     0
  9
$JOINSTYLE
280
     0
  9
$LWDISPLAY
290
     0
  9
$INSUNITS
 70
     1
  9
$HYPERLINKBASE
  1

  9
$STYLESHEET
  1

  9
$XEDIT
290
     1
  9
$CEPSNTYPE
380
     0
  9
$PSTYLEMODE
290
     1
  9
$FINGERPRINTGUID
  2
{6965BA55-9134-4712-9431-23FBC529A4C8}
  9
$VERSIONGUID
  2
{FAEB1C32-E019-11D5-929B-00C0DF256EC4}
  9
$EXTNAMES
290
     1
  9
$PSVPSCALE
 40
0.0
  9
$OLESTARTUP
290
     0
  9
$SORTENTS
280
   127
  9
$INDEXCTL
280
     0
  9
$HIDETEXT
280
     1
  9
$XCLIPFRAME
280
     2
  9
$HALOGAP
280
     0
  9
$OBSCOLOR
 70
   257
  9
$OBSLTYPE
280
     0
  9
$INTERSECTIONDISPLAY
280
     0
  9
$INTERSECTIONCOLOR
 70
   257
  9
$DIMASSOC
280
     2
  9
$PROJECTNAME
  1

  9
$CAMERADISPLAY
290
     0
  9
$LENSLENGTH
 40
50.0
  9
$CAMERAHEIGHT
 40
0.0
  9
$STEPSPERSEC
 40
2.0
  9
$STEPSIZE
 40
6.0
  9
$3DDWFPREC
 40
2.0
  9
$PSOLWIDTH
 40
0.25
  9
$PSOLHEIGHT
 40
4.0
  9
$LOFTANG1
 40
1.570796326794897
  9
$LOFTANG2
 40
1.570796326794897
  9
$LOFTMAG1
 40
0.0
  9
$LOFTMAG2
 40
0.0
  9
$LOFTPARAM
 70
     7
  9
$LOFTNORMALS
280
     1
  9
$LATITUDE
 40
37.795
  9
$LONGITUDE
 40
-122.394
  9
$NORTHDIRECTION
 40
0.0
  9
$TIMEZONE
 70
 -8000
  9
$LIGHTGLYPHDISPLAY
280
     1
  9
$TILEMODELIGHTSYNCH
280
     1
  9
$CMATERIAL
347
44
  9
$SOLIDHIST
280
     0
  9
$SHOWHIST
280
     1
  9
$DWFFRAME
280
     2
  9
$DGNFRAME
280
     2
  9
$REALWORLDSCALE
290
     1
  9
$INTERFERECOLOR
 62
   256
  9
$CSHADOW
280
     0
  9
$SHADOWPLANELOCATION
 40
0.0
  0
ENDSEC
  0
SECTION
  2
CLASSES
  0
CLASS
  1
ACDBDICTIONARYWDFLT
  2
AcDbDictionaryWithDefault
  3
ObjectDBX Classes
 90
        0
 91
        4
280
     0
281
     0
  0
CLASS
  1
VISUALSTYLE
  2
AcDbVisualStyle
  3
ObjectDBX Classes
 90
     4095
 91
        4
280
     0
281
     0
  0
CLASS
  1
MATERIAL
  2
AcDbMaterial
  3
ObjectDBX Classes
 90
     1153
 91
        4
280
     0
281
     0
  0
CLASS
  1
SCALE
  2
AcDbScale
  3
ObjectDBX Classes
 90
     1153
 91
        4
280
     0
281
     0
  0
CLASS
  1
TABLESTYLE
  2
AcDbTableStyle
  3
ObjectDBX Classes
 90
     4095
 91
        4
280
     0
281
     0
  0
CLASS
  1
MLEADERSTYLE
  2
AcDbMLeaderStyle
  3
ACDB_MLEADERSTYLE_CLASS
 90
     4095
 91
        4
280
     0
281
     0
  0
CLASS
  1
SUN
  2
AcDbSun
  3
SCENEOE
 90
     1153
 91
        4
280
     0
281
     0
  0
CLASS
  1
DICTIONARYVAR
  2
AcDbDictionaryVar
  3
ObjectDBX Classes
 90
        0
 91
        4
280
     0
281
     0
  0
CLASS
  1
CELLSTYLEMAP
  2
AcDbCellStyleMap
  3
ObjectDBX Classes
 90
     1152
 91
        4
280
     0
281
     0
  0
ENDSEC
  0
SECTION
  2
TABLES
  0
TABLE
  2
VPORT
  5
8
330
0
100
AcDbSymbolTable
 70
     1
  0
VPORT
  5
29
330
8
100
AcDbSymbolTableRecord
100
AcDbViewportTableRecord
  2
*Active
 70
     0
 10
0.0
 20
0.0
 11
1.0
 21
1.0
 12
0.4907337463131043
 22
0.0
 13
0.0
 23
0.0
 14
0.5
 24
0.5
 15
0.5
 25
0.5
 16
0.0
 26
0.0
 36
1.0
 17
0.0
 27
0.0
 37
0.0
 40
5.4876
 41
1.196037640775798
 42
50.0
 43
0.0
 44
0.0
 50
0.0
 51
0.0
 71
     0
 72
   100
 73
     1
 74
     3
 75
     0
 76
     0
 77
     0
 78
     0
281
     0
 65
     1
110
0.0
120
0.0
130
0.0
111
1.0
121
0.0
131
0.0
112
0.0
122
1.0
132
0.0
 79
     0
146
0.0
348
2F
 60
     3
 61
     5
292
     1
282
     1
141
0.0
142
0.0
 63
   250
361
6D
  0
ENDTAB
  0
TABLE
  2
LTYPE
  5
5
330
0
100
AcDbSymbolTable
 70
     3
  0
LTYPE
  5
14
330
5
100
AcDbSymbolTableRecord
100
AcDbLinetypeTableRecord
  2
ByBlock
 70
     0
  3

 72
    65
 73
     0
 40
0.0
  0
LTYPE
  5
15
330
5
100
AcDbSymbolTableRecord
100
AcDbLinetypeTableRecord
  2
ByLayer
 70
     0
  3

 72
    65
 73
     0
 40
0.0
  0
LTYPE
  5
16
330
5
100
AcDbSymbolTableRecord
100
AcDbLinetypeTableRecord
  2
Continuous
 70
     0
  3
Solid line
 72
    65
 73
     0
 40
0.0
  0
LTYPE
  5
9F
330
5
100
AcDbSymbolTableRecord
100
AcDbLinetypeTableRecord
  2
Dashed
 70
     0
  3

 72
    65
 73
     2
 40
2.0
 49
1.0
 74
     0
 49
-1.0
 74
     0
  0
LTYPE
  5
C5
330
5
100
AcDbSymbolTableRecord
100
AcDbLinetypeTableRecord
  2
Center
 70
     0
  3

 72
    65
 73
     4
 40
1.5
 49
0.45
 74
     0
 49
-0.5
 74
     0
 49
0.05
 74
     0
 49
-0.5
 74
     0
  0
ENDTAB
  0
TABLE
  2
LAYER
  5
2
330
0
100
AcDbSymbolTable
 70
     7
  0
LAYER
  5
10
330
2
100
AcDbSymbolTableRecord
100
AcDbLayerTableRecord
  2
0
 70
     0
 62
     7
  6
Continuous
370
    -3
390
F
347
46
348
0
  0
LAYER
  5
72
330
2
100
AcDbSymbolTableRecord
100
AcDbLayerTableRecord
  2
AM_6
 70
     0
 62
    -2
  6
Continuous
370
    35
390
F
347
46
348
0
  0
LAYER
  5
A0
330
2
100
AcDbSymbolTableRecord
100
AcDbLayerTableRecord
  2
AM_9
 70
     0
 62
     6
  6
Dashed
370
    25
390
F
347
46
348
0
  0
LAYER
  5
BE
330
2
100
AcDbSymbolTableRecord
100
AcDbLayerTableRecord
  2
AM_5
 70
     0
 62
     3
  6
Continuous
370
    25
390
F
347
46
348
0
  0
LAYER
  5
C6
330
2
100
AcDbSymbolTableRecord
100
AcDbLayerTableRecord
  2
AM_7
 70
     0
 62
     7
  6
Center
370
    25
390
F
347
46
348
0
  0
LAYER
  5
CA
330
2
100
AcDbSymbolTableRecord
100
AcDbLayerTableRecord
  2
AM_4
 70
     0
 62
     7
  6
Continuous
370
    50
390
F
347
46
348
0
  0
LAYER
  5
192
330
2
100
AcDbSymbolTableRecord
100
AcDbLayerTableRecord
  2
ConnectionPoints
 70
     0
 62
     7
  6
Continuous
370
    50
390
F
347
46
348
0
  0
ENDTAB
  0
TABLE
  2
STYLE
  5
3
330
0
100
AcDbSymbolTable
 70
     1
  0
STYLE
  5
11
330
3
100
AcDbSymbolTableRecord
100
AcDbTextStyleTableRecord
  2
Standard
 70
     0
 40
0.0
 41
1.0
 50
0.0
 71
     0
 42
0.2
  3
txt
  4

  0
ENDTAB
  0
TABLE
  2
VIEW
  5
6
330
0
100
AcDbSymbolTable
 70
     0
  0
ENDTAB
  0
TABLE
  2
UCS
  5
7
330
0
100
AcDbSymbolTable
 70
     0
  0
ENDTAB
  0
TABLE
  2
APPID
  5
9
330
0
100
AcDbSymbolTable
 70
     1
  0
APPID
  5
12
330
9
100
AcDbSymbolTableRecord
100
AcDbRegAppTableRecord
  2
ACAD
 70
     0
  0
ENDTAB
  0
TABLE
  2
DIMSTYLE
  5
A
330
0
100
AcDbSymbolTable
 70
     1
100
AcDbDimStyleTable
  0
DIMSTYLE
105
27
330
A
100
AcDbSymbolTableRecord
100
AcDbDimStyleTableRecord
  2
Standard
 70
     0
178
     0
340
11
  0
ENDTAB
  0
TABLE
  2
BLOCK_RECORD
  5
1
330
0
100
AcDbSymbolTable
 70
     5
  0
BLOCK_RECORD
  5
1F
330
1
100
AcDbSymbolTableRecord
100
AcDbBlockTableRecord
  2
*Model_Space
340
22
 70
     0
280
     1
281
     0
  0
BLOCK_RECORD
  5
1B
330
1
100
AcDbSymbolTableRecord
100
AcDbBlockTableRecord
  2
*Paper_Space
340
1E
 70
     0
280
     1
281
     0
  0
BLOCK_RECORD
  5
23
330
1
100
AcDbSymbolTableRecord
100
AcDbBlockTableRecord
  2
*Paper_Space0
340
26
 70
     0
280
     1
281
     0
  0
BLOCK_RECORD
  5
6E
330
1
100
AcDbSymbolTableRecord
100
AcDbBlockTableRecord
  2
1_130345_0
340
0
102
{BLKREFS
331
6F
102
}
 70
     0
280
     1
281
     0
  0
BLOCK_RECORD
  5
8E
330
1
100
AcDbSymbolTableRecord
100
AcDbBlockTableRecord
  2
2_405016_Inch_0_in_130345_0
340
0
102
{BLKREFS
331
8F
102
}
 70
     0
280
     1
281
     0
  0
BLOCK_RECORD
  5
10E
330
1
100
AcDbSymbolTableRecord
100
AcDbBlockTableRecord
  2
3_130308_0_in_130345_0
340
0
102
{BLKREFS
331
10F
102
}
 70
     0
280
     1
281
     0
  0
BLOCK_RECORD
  5
142
330
1
100
AcDbSymbolTableRecord
100
AcDbBlockTableRecord
  2
4_130345H_0_in_130345_0
340
0
102
{BLKREFS
331
143
102
}
 70
     0
280
     1
281
     0
  0
ENDTAB
  0
ENDSEC
  0
SECTION
  2
BLOCKS
  0
BLOCK
  5
20
330
1F
100
AcDbEntity
  8
0
100
AcDbBlockBegin
  2
*Model_Space
 70
     0
 10
0.0
 20
0.0
 30
0.0
  3
*Model_Space
  1

  0
ENDBLK
  5
21
330
1F
100
AcDbEntity
  8
0
100
AcDbBlockEnd
  0
BLOCK
  5
1C
330
1B
100
AcDbEntity
 67
     1
  8
0
100
AcDbBlockBegin
  2
*Paper_Space
 70
     0
 10
0.0
 20
0.0
 30
0.0
  3
*Paper_Space
  1

  0
ENDBLK
  5
1D
330
1B
100
AcDbEntity
 67
     1
  8
0
100
AcDbBlockEnd
  0
BLOCK
  5
24
330
23
100
AcDbEntity
  8
0
100
AcDbBlockBegin
  2
*Paper_Space0
 70
     0
 10
0.0
 20
0.0
 30
0.0
  3
*Paper_Space0
  1

  0
ENDBLK
  5
25
330
23
100
AcDbEntity
  8
0
100
AcDbBlockEnd
  0
BLOCK
  5
70
330
6E
100
AcDbEntity
  8
0
100
AcDbBlockBegin
  2
1_130345_0
 70
     2
 10
0.0
 20
0.0
 30
0.0
  3
1_130345_0
  1

  0
ATTDEF
  5
73
330
6E
100
AcDbEntity
  8
AM_6
100
AcDbText
 10
8.708075000000001
 20
2.69
 30
0.0
 40
0.5
  1
Eccentric Collar Intermediate Duty Narrow Slot Take Up Inch Bore
100
AcDbAttributeDefinition
  3

  2
NN
 70
     8
280
     0
  0
ATTDEF
  5
74
330
6E
100
AcDbEntity
  8
AM_6
100
AcDbText
 10
8.708075000000001
 20
2.19
 30
0.0
 40
0.5
  1
Eccentric Collar Take-Up Bearings -(Intermediate Duty) -Narrow Slot
100
AcDbAttributeDefinition
  3

  2
NT
 70
     8
280
     0
  0
ATTDEF
  5
75
330
6E
100
AcDbEntity
  8
AM_6
100
AcDbText
 10
8.708075000000001
 20
1.69
 30
0.0
 40
0.5
  1
130345
100
AcDbAttributeDefinition
  3

  2
NB
 70
     8
280
     0
  0
ATTDEF
  5
76
330
6E
100
AcDbEntity
  8
AM_6
100
AcDbText
 10
8.708075000000001
 20
1.19
 30
0.0
 40
0.5
  1
$PN.
100
AcDbAttributeDefinition
  3

  2
NBSYN
 70
     8
280
     0
  0
ATTDEF
  5
77
330
6E
100
AcDbEntity
  8
AM_6
100
AcDbText
 10
8.708075000000001
 20
0.69
 30
0.0
 40
0.5
  1
130345
100
AcDbAttributeDefinition
  3

  2
LINA
 70
     8
280
     0
  0
ATTDEF
  5
78
330
6E
100
AcDbEntity
  8
AM_6
100
AcDbText
 10
8.708075000000001
 20
0.1899999999999999
 30
0.0
 40
0.5
  1
211
100
AcDbAttributeDefinition
  3

  2
SERIES
 70
     8
280
     0
  0
ATTDEF
  5
79
330
6E
100
AcDbEntity
  8
AM_6
100
AcDbText
 10
8.708075000000001
 20
-0.3100000000000001
 30
0.0
 40
0.5
  1
2-3/16
100
AcDbAttributeDefinition
  3

  2
SS
 70
     8
280
     0
  0
ATTDEF
  5
7A
330
6E
100
AcDbEntity
  8
AM_6
100
AcDbText
 10
8.708075000000001
 20
-0.81
 30
0.0
 40
0.5
  1
130345
100
AcDbAttributeDefinition
  3

  2
PN
 70
     8
280
     0
  0
ATTDEF
  5
7B
330
6E
100
AcDbEntity
  8
AM_6
100
AcDbText
 10
8.708075000000001
 20
-1.31
 30
0.0
 40
0.5
  1
NSTU-SXV-203
100
AcDbAttributeDefinition
  3

  2
DESCRIPTION
 70
     8
280
     0
  0
ATTDEF
  5
7C
330
6E
100
AcDbEntity
  8
AM_6
100
AcDbText
 10
8.708075000000001
 20
-1.81
 30
0.0
 40
0.5
  1
6.8
100
AcDbAttributeDefinition
  3

  2
W
 70
     8
280
     0
  0
ATTDEF
  5
7D
330
6E
100
AcDbEntity
  8
AM_6
100
AcDbText
 10
8.708075000000001
 20
-2.31
 30
0.0
 40
0.5
  1
NS407
100
AcDbAttributeDefinition
  3

  2
FS
 70
     8
280
     0
  0
ATTDEF
  5
7E
330
6E
100
AcDbEntity
  8
AM_6
100
AcDbText
 10
8.708075000000001
 20
-2.81
 30
0.0
 40
0.5
  1
1.90
100
AcDbAttributeDefinition
  3

  2
A
 70
     8
280
     0
  0
ATTDEF
  5
7F
330
6E
100
AcDbEntity
  8
AM_6
100
AcDbText
 10
8.708075000000001
 20
-3.31
 30
0.0
 40
0.5
  1
6.13
100
AcDbAttributeDefinition
  3

  2
B
 70
     8
280
     0
  0
ATTDEF
  5
80
330
6E
100
AcDbEntity
  8
AM_6
100
AcDbText
 10
8.708075000000001
 20
-3.81
 30
0.0
 40
0.5
  1
0.313
100
AcDbAttributeDefinition
  3

  2
C
 70
     8
280
     0
  0
ATTDEF
  5
81
330
6E
100
AcDbEntity
  8
AM_6
100
AcDbText
 10
8.708075000000001
 20
-4.31
 30
0.0
 40
0.5
  1
3.50
100
AcDbAttributeDefinition
  3

  2
D
 70
     8
280
     0
  0
ATTDEF
  5
82
330
6E
100
AcDbEntity
  8
AM_6
100
AcDbText
 10
8.708075000000001
 20
-4.81
 30
0.0
 40
0.5
  1
3.63
100
AcDbAttributeDefinition
  3

  2
E
 70
     8
280
     0
  0
ATTDEF
  5
83
330
6E
100
AcDbEntity
  8
AM_6
100
AcDbText
 10
8.708075000000001
 20
-5.31
 30
0.0
 40
0.5
  1
1
100
AcDbAttributeDefinition
  3

  2
F
 70
     8
280
     0
  0
ATTDEF
  5
84
330
6E
100
AcDbEntity
  8
AM_6
100
AcDbText
 10
8.708075000000001
 20
-5.81
 30
0.0
 40
0.5
  1
0.69
100
AcDbAttributeDefinition
  3

  2
G
 70
     8
280
     0
  0
ATTDEF
  5
85
330
6E
100
AcDbEntity
  8
AM_6
100
AcDbText
 10
8.708075000000001
 20
-6.31
 30
0.0
 40
0.5
  1
1.28
100
AcDbAttributeDefinition
  3

  2
H
 70
     8
280
     0
  0
ATTDEF
  5
86
330
6E
100
AcDbEntity
  8
AM_6
100
AcDbText
 10
8.708075000000001
 20
-6.81
 30
0.0
 40
0.5
  1
1.75
100
AcDbAttributeDefinition
  3

  2
J
 70
     8
280
     0
  0
ATTDEF
  5
87
330
6E
100
AcDbEntity
  8
AM_6
100
AcDbText
 10
8.708075000000001
 20
-7.31
 30
0.0
 40
0.5
  1
2.75
100
AcDbAttributeDefinition
  3

  2
L
 70
     8
280
     0
  0
ATTDEF
  5
88
330
6E
100
AcDbEntity
  8
AM_6
100
AcDbText
 10
8.708075000000001
 20
-7.81
 30
0.0
 40
0.5
  1
4.448 / 4.418
100
AcDbAttributeDefinition
  3

  2
M
 70
     8
280
     0
  0
ATTDEF
  5
89
330
6E
100
AcDbEntity
  8
AM_6
100
AcDbText
 10
8.708075000000001
 20
-8.31
 30
0.0
 40
0.5
  1
5.38
100
AcDbAttributeDefinition
  3

  2
N
 70
     8
280
     0
  0
ATTDEF
  5
8A
330
6E
100
AcDbEntity
  8
AM_6
100
AcDbText
 10
8.708075000000001
 20
-8.81
 30
0.0
 40
0.5
  1
0.44
100
AcDbAttributeDefinition
  3

  2
P
 70
     8
280
     0
  0
ATTDEF
  5
8B
330
6E
100
AcDbEntity
  8
AM_6
100
AcDbText
 10
8.708075000000001
 20
-9.31
 30
0.0
 40
0.5
  1
0.47
100
AcDbAttributeDefinition
  3

  2
R
 70
     8
280
     0
  0
ATTDEF
  5
8C
330
6E
100
AcDbEntity
  8
AM_6
100
AcDbText
 10
8.708075000000001
 20
-9.81
 30
0.0
 40
0.5
  1
1.43
100
AcDbAttributeDefinition
  3

  2
S
 70
     8
280
     0
  0
ATTDEF
  5
8D
330
6E
100
AcDbEntity
  8
AM_6
100
AcDbText
 10
8.708075000000001
 20
-10.31
 30
0.0
 40
0.5
  1
baldor
100
AcDbAttributeDefinition
  3

  2
COMPANY
 70
     8
280
     0
  0
INSERT
  5
8F
330
6E
100
AcDbEntity
  8
0
100
AcDbBlockReference
  2
2_405016_Inch_0_in_130345_0
 10
0.0
 20
0.0
 30
0.0
  0
INSERT
  5
10F
330
6E
100
AcDbEntity
  8
0
100
AcDbBlockReference
  2
3_130308_0_in_130345_0
 10
0.0
 20
0.0
 30
0.0
  0
INSERT
  5
143
330
6E
100
AcDbEntity
  8
0
100
AcDbBlockReference
  2
4_130345H_0_in_130345_0
 10
0.0
 20
0.0
 30
0.0
  0
ENDBLK
  5
71
330
6E
100
AcDbEntity
  8
0
100
AcDbBlockEnd
  0
BLOCK
  5
90
330
8E
100
AcDbEntity
  8
0
100
AcDbBlockBegin
  2
2_405016_Inch_0_in_130345_0
 70
     2
 10
0.0
 20
0.0
 30
0.0
  3
2_405016_Inch_0_in_130345_0
  1

  0
ATTDEF
  5
92
330
8E
100
AcDbEntity
  8
AM_6
100
AcDbText
 10
3.105211410555361
 20
-0.9919256983551582
 30
0.0
 40
0.5
  1
405016 -Inch
100
AcDbAttributeDefinition
  3

  2
NN
 70
     8
280
     0
  0
ATTDEF
  5
93
330
8E
100
AcDbEntity
  8
AM_6
100
AcDbText
 10
3.105211410555361
 20
-1.491925698355158
 30
0.0
 40
0.5
  1
Grease Fitting
100
AcDbAttributeDefinition
  3

  2
NT
 70
     8
280
     0
  0
ATTDEF
  5
94
330
8E
100
AcDbEntity
  8
AM_6
100
AcDbText
 10
3.105211410555361
 20
-1.991925698355158
 30
0.0
 40
0.5
  1
405016-Inch
100
AcDbAttributeDefinition
  3

  2
NB
 70
     8
280
     0
  0
ATTDEF
  5
95
330
8E
100
AcDbEntity
  8
AM_6
100
AcDbText
 10
3.105211410555361
 20
-2.491925698355158
 30
0.0
 40
0.5
  1
$MN.-Inch
100
AcDbAttributeDefinition
  3

  2
NBSYN
 70
     8
280
     0
  0
ATTDEF
  5
96
330
8E
100
AcDbEntity
  8
AM_6
100
AcDbText
 10
3.105211410555361
 20
-2.991925698355158
 30
0.0
 40
0.5
  1
405016
100
AcDbAttributeDefinition
  3

  2
LINA
 70
     8
280
     0
  0
ATTDEF
  5
97
330
8E
100
AcDbEntity
  8
AM_6
100
AcDbText
 10
3.105211410555361
 20
-3.491925698355158
 30
0.0
 40
0.5
  1
405016
100
AcDbAttributeDefinition
  3

  2
MN
 70
     8
280
     0
  0
ATTDEF
  5
98
330
8E
100
AcDbEntity
  8
AM_6
100
AcDbText
 10
3.105211410555361
 20
-3.991925698355158
 30
0.0
 40
0.5
  1
7/16 HEX
100
AcDbAttributeDefinition
  3

  2
H
 70
     8
280
     0
  0
ATTDEF
  5
99
330
8E
100
AcDbEntity
  8
AM_6
100
AcDbText
 10
3.105211410555361
 20
-4.491925698355159
 30
0.0
 40
0.5
  1
0.383
100
AcDbAttributeDefinition
  3

  2
NDR
 70
     8
280
     0
  0
ATTDEF
  5
9A
330
8E
100
AcDbEntity
  8
AM_6
100
AcDbText
 10
3.105211410555361
 20
-4.991925698355159
 30
0.0
 40
0.5
  1
0.337
100
AcDbAttributeDefinition
  3

  2
KDR
 70
     8
280
     0
  0
ATTDEF
  5
9B
330
8E
100
AcDbEntity
  8
AM_6
100
AcDbText
 10
3.105211410555361
 20
-5.491925698355159
 30
0.0
 40
0.5
  1
0.1575
100
AcDbAttributeDefinition
  3

  2
BZE
 70
     8
280
     0
  0
ATTDEF
  5
9C
330
8E
100
AcDbEntity
  8
AM_6
100
AcDbText
 10
3.105211410555361
 20
-5.991925698355159
 30
0.0
 40
0.5
  1
0.4375
100
AcDbAttributeDefinition
  3

  2
HEX
 70
     8
280
     0
  0
ATTDEF
  5
9D
330
8E
100
AcDbEntity
  8
AM_6
100
AcDbText
 10
3.105211410555361
 20
-6.491925698355159
 30
0.0
 40
0.5
  1
0.281250
100
AcDbAttributeDefinition
  3

  2
HEX2
 70
     8
280
     0
  0
ATTDEF
  5
9E
330
8E
100
AcDbEntity
  8
AM_6
100
AcDbText
 10
3.105211410555361
 20
-6.991925698355159
 30
0.0
 40
0.5
  1
baldor
100
AcDbAttributeDefinition
  3

  2
COMPANY
 70
     8
280
     0
  0
LINE
  5
A1
330
8E
100
AcDbEntity
  8
AM_9
100
AcDbLine
 10
-1.894788589444639
 20
-1.280629893480119
 30
0.0
 11
-2.056452315321863
 21
-1.00062010651988
 31
0.0
  0
LINE
  5
A2
330
8E
100
AcDbEntity
  8
AM_9
100
AcDbLine
 10
-2.056452315321863
 20
-1.00062010651988
 30
0.0
 11
-2.088900288334346
 21
-0.9919256983551582
 31
0.0
  0
LINE
  5
A3
330
8E
100
AcDbEntity
  8
AM_9
100
AcDbLine
 10
-1.903482997609361
 20
-1.313077866492603
 30
0.0
 11
-1.894788589444639
 21
-1.280629893480119
 31
0.0
  0
ARC
  5
A4
330
8E
100
AcDbEntity
  8
AM_9
100
AcDbCircle
 10
-2.446521765697827
 20
-1.412500000003908
 30
0.0
 40
0.1999999999943696
100
AcDbArc
 50
165.8990727383841
 51
253.9703614256807
  0
LINE
  5
A5
330
8E
100
AcDbEntity
  8
AM_9
100
AcDbLine
 10
-1.903482997609361
 20
-1.313077866492603
 30
0.0
 11
-2.088900288334346
 21
-0.9919256983551582
 31
0.0
  0
LINE
  5
A6
330
8E
100
AcDbEntity
  8
AM_9
100
AcDbLine
 10
-2.088900288334346
 20
-0.9919256983551582
 30
0.0
 11
-2.254357929881933
 21
-1.080680491162142
 31
0.0
  0
LINE
  5
A7
330
8E
100
AcDbEntity
  8
AM_9
100
AcDbLine
 10
-2.063075723661626
 20
-1.41199099091958
 30
0.0
 11
-1.903482997609361
 21
-1.313077866492603
 31
0.0
  0
LINE
  5
A8
330
8E
100
AcDbEntity
  8
AM_9
100
AcDbLine
 10
-2.59193140727518
 20
-1.59020229571137
 30
0.0
 11
-2.603252980499057
 21
-1.596738809059826
 31
0.0
  0
LINE
  5
A9
330
8E
100
AcDbEntity
  8
AM_9
100
AcDbLine
 10
-2.673121288879971
 20
-1.44957729571137
 30
0.0
 11
-2.684442862103848
 21
-1.456113809059826
 31
0.0
  0
LWPOLYLINE
  5
AA
330
8E
100
AcDbEntity
  8
AM_9
100
AcDbPolyline
 90
        6
 70
     0
 43
0.0
 10
-2.673121288879971
 20
-1.44957729571137
 10
-2.656505446892442
 20
-1.473510622598914
 10
-2.640450834237309
 20
-1.498367212109331
 10
-2.624967168173626
 20
-1.524566312422038
 10
-2.610478253058875
 20
-1.551595324422914
 10
-2.59193140727518
 20
-1.59020229571137
  0
LINE
  5
AB
330
8E
100
AcDbEntity
  8
AM_9
100
AcDbLine
 10
-2.391459556897067
 20
-1.507870543208126
 30
0.0
 11
-2.501801932210554
 21
-1.316751942937332
 31
0.0
  0
ELLIPSE
  5
AC
330
8E
100
AcDbEntity
  8
AM_9
100
AcDbEllipse
 10
-2.517137901186337
 20
-1.453270244837341
 30
0.0
 11
-0.07031250000000003
 21
0.1217848224071867
 31
0.0
210
0.0
220
0.0
230
1.0
 40
0.9063077870366504
 41
5.859216366485141
 42
9.84874690146383
  0
LWPOLYLINE
  5
AD
330
8E
100
AcDbEntity
  8
AM_9
100
AcDbPolyline
 90
        6
 70
     0
 43
0.0
 10
-2.59193140727518
 20
-1.59020229571137
 10
-2.562726799775656
 20
-1.590146258798399
 10
-2.533853031061525
 20
-1.590585121917566
 10
-2.505164300473997
 20
-1.591646289109958
 10
-2.477375818901026
 20
-1.593363121169831
 10
-2.440756561236683
 20
-1.596671457656343
  0
LWPOLYLINE
  5
AE
330
8E
100
AcDbEntity
  8
AM_9
100
AcDbPolyline
 90
        6
 70
     0
 43
0.0
 10
-2.603136324446265
 20
-1.315421457656344
 10
-2.613445460803594
 20
-1.337992854288234
 10
-2.624789287637805
 20
-1.361456884363538
 10
-2.637503262214612
 20
-1.386210167846305
 10
-2.651399188404303
 20
-1.411768689712644
 10
-2.673121288879971
 20
-1.44957729571137
  0
LWPOLYLINE
  5
AF
330
8E
100
AcDbEntity
  8
AM_9
100
AcDbPolyline
 90
        5
 70
     0
 43
0.0
 10
-2.401952665507079
 20
-1.489695945966246
 10
-2.409920130583272
 20
-1.505209976006311
 10
-2.420676204017453
 20
-1.51935797563067
 10
-2.433319255539897
 20
-1.530955943415793
 10
-2.443728781159949
 20
-1.537904528105156
  0
LWPOLYLINE
  5
B0
330
8E
100
AcDbEntity
  8
AM_9
100
AcDbPolyline
 90
       13
 70
     0
 43
0.0
 10
-2.401952665507079
 20
-1.489695945966246
 10
-2.396998005035011
 20
-1.473701216295605
 10
-2.394890120568268
 20
-1.457644458256412
 10
-2.395369892286154
 20
-1.440877825105295
 10
-2.398585429238793
 20
-1.423429808725254
 10
-2.404603792481575
 20
-1.405957633207593
 10
-2.412954880301322
 20
-1.389747492794571
 10
-2.423828480778071
 20
-1.374477046299115
 10
-2.436226802492053
 20
-1.361547828583382
 10
-2.450650232858045
 20
-1.350495849846331
 10
-2.466163212718862
 20
-1.342226804053058
 10
-2.483256616505834
 20
-1.336703487144151
 10
-2.491090865875
 20
-1.335304054033754
  0
LINE
  5
B1
330
8E
100
AcDbEntity
  8
AM_9
100
AcDbLine
 10
-2.553718991800381
 20
-1.347373288128892
 30
0.0
 11
-2.572137901186336
 21
-1.358007450421053
 31
0.0
  0
LINE
  5
B2
330
8E
100
AcDbEntity
  8
AM_9
100
AcDbLine
 10
-2.462137901186336
 20
-1.548533039253629
 30
0.0
 11
-2.443719063159225
 21
-1.537898918160516
 31
0.0
  0
LWPOLYLINE
  5
B3
330
8E
100
AcDbEntity
  8
AM_9
100
AcDbPolyline
 90
       21
 70
     0
 43
0.0
 10
-2.443728781159949
 20
-1.537904528105156
 10
-2.448209678685738
 20
-1.540334802540261
 10
-2.464111555492619
 20
-1.546712011960484
 10
-2.481472525314337
 20
-1.550261709638181
 10
-2.498828002444582
 20
-1.550684256104104
 10
-2.516685714028871
 20
-1.547990967168627
 10
-2.533515475528945
 20
-1.542417196040507
 10
-2.54983221942965
 20
-1.533797239076489
 10
-2.564231270289484
 20
-1.522880991490922
 10
-2.577163623155231
 20
-1.509336212655024
 10
-2.587523351314931
 20
-1.494330271317741
 10
-2.595633526131629
 20
-1.477408286749774
 10
-2.60081016732247
 20
-1.460004703027538
 10
-2.603210103766619
 20
-1.441607393511457
 10
-2.602632519809492
 20
-1.423747455120003
 10
-2.599060816000368
 20
-1.405922481606624
 10
-2.592783268732704
 20
-1.3895960564441
 10
-2.583625669669984
 20
-1.374328872764631
 10
-2.572329480507973
 20
-1.361370478489193
 10
-2.558588329367223
 20
-1.350381372029879
 10
-2.55372668220297
 20
-1.347377728641494
  0
LWPOLYLINE
  5
B4
330
8E
100
AcDbEntity
  8
AM_9
100
AcDbPolyline
 90
        5
 70
     0
 43
0.0
 10
-2.55372668220297
 20
-1.347377728641494
 10
-2.543526839627741
 20
-1.342268942862664
 10
-2.526733416808081
 20
-1.336820477436415
 10
-2.509334080654086
 20
-1.334480939756072
 10
-2.491090865874982
 20
-1.335304054033761
  0
ELLIPSE
  5
B5
330
8E
100
AcDbEntity
  8
AM_9
100
AcDbEllipse
 10
-2.517137901186338
 20
-1.453270244837341
 30
0.0
 11
-0.07031250000000135
 21
0.1217848224071876
 31
0.0
210
0.0
220
0.0
230
1.0
 40
0.9063077870366505
 41
3.764821264091946
 42
4.571432719802694
  0
ELLIPSE
  5
B6
330
8E
100
AcDbEntity
  8
AM_9
100
AcDbEllipse
 10
-2.517137901186338
 20
-1.453270244837344
 30
0.0
 11
-0.07031250000001732
 21
0.12178482240718
 31
0.0
210
0.0
220
0.0
230
1.0
 40
0.906307787036689
 41
4.853345240966597
 42
5.659956696677311
  0
LWPOLYLINE
  5
B7
330
8E
100
AcDbEntity
  8
AM_9
100
AcDbPolyline
 90
        5
 70
     0
 43
0.0
 10
-2.603252980499057
 20
-1.596738809059826
 10
-2.625115368997682
 20
-1.563670119967152
 10
-2.646011455927676
 20
-1.529312409178914
 10
-2.665929075482585
 20
-1.493126446285356
 10
-2.684442862103848
 20
-1.456113809059826
  0
LWPOLYLINE
  5
B8
330
8E
100
AcDbEntity
  8
AM_9
100
AcDbPolyline
 90
        4
 70
     0
 43
0.0
 10
-2.500146051091596
 20
-1.602798382094798
 10
-2.529420142855575
 20
-1.601802555641742
 10
-2.567038937216759
 20
-1.599676787031713
 10
-2.603252980499057
 20
-1.596738809059826
  0
LWPOLYLINE
  5
B9
330
8E
100
AcDbEntity
  8
AM_9
100
AcDbPolyline
 90
        4
 70
     0
 43
0.0
 10
-2.684442862103848
 20
-1.456113809059826
 10
-2.669565744060773
 20
-1.424688517736611
 10
-2.653136471818097
 20
-1.391997724328327
 10
-2.638305796205438
 20
-1.364100644325945
  0
ELLIPSE
  5
BA
330
8E
100
AcDbEntity
  8
AM_9
100
AcDbEllipse
 10
-2.53543780872487
 20
-1.463835701380858
 30
0.0
 11
-0.07031250000000003
 21
0.1217848224071867
 31
0.0
210
0.0
220
0.0
230
1.0
 40
0.9063077870366504
 41
0.2395071215408917
 42
2.911891760209629
  0
LWPOLYLINE
  5
BB
330
8E
100
AcDbEntity
  8
AM_9
100
AcDbPolyline
 90
       17
 70
     0
 43
0.0
 10
-2.475556109784183
 20
-1.467239573626864
 10
-2.472952850869972
 20
-1.480662390980868
 10
-2.472035540145281
 20
-1.498738367968859
 10
-2.474071888552614
 20
-1.515947909638208
 10
-2.478870520018578
 20
-1.531763664921187
 10
-2.486211108277307
 20
-1.545792889786494
 10
-2.495941951455997
 20
-1.557763962179167
 10
-2.50806122164073
 20
-1.567428632328262
 10
-2.522623379557018
 20
-1.574368944322018
 10
-2.53915667578929
 20
-1.577917096558984
 10
-2.554632531021732
 20
-1.577902996324953
 10
-2.571914496025294
 20
-1.57446367400618
 10
-2.588708318500581
 20
-1.567639001692535
 10
-2.604469199390495
 20
-1.557707709372618
 10
-2.618677966855214
 20
-1.545013520121072
 10
-2.630834030101584
 20
-1.530004167065427
 10
-2.635961167530524
 20
-1.521872889647148
  0
LWPOLYLINE
  5
BC
330
8E
100
AcDbEntity
  8
AM_9
100
AcDbPolyline
 90
       17
 70
     0
 43
0.0
 10
-2.635961167530524
 20
-1.521872889647148
 10
-2.639876108592523
 20
-1.514530775985692
 10
-2.646941618346134
 20
-1.496723411542957
 10
-2.651021113576039
 20
-1.478415804980189
 10
-2.652053269295407
 20
-1.460318835620006
 10
-2.650126108268396
 20
-1.443065946264096
 10
-2.645428317768135
 20
-1.427189163059371
 10
-2.638180786568687
 20
-1.413086491573977
 10
-2.628539695950856
 20
-1.401033035401105
 10
-2.616512776471822
 20
-1.391274823836513
 10
-2.602041451225134
 20
-1.384219833037404
 10
-2.585558797764739
 20
-1.380531205424756
 10
-2.570097773723238
 20
-1.380418483537089
 10
-2.552806249037705
 20
-1.383724417744085
 10
-2.535983204258183
 20
-1.390425317358152
 10
-2.520173585410566
 20
-1.400244209726786
 10
-2.511144964622676
 20
-1.407719087807858
  0
ELLIPSE
  5
BD
330
8E
100
AcDbEntity
  8
AM_9
100
AcDbEllipse
 10
-2.586438711988855
 20
-1.493281086609234
 30
0.0
 11
0.06659694825923297
 21
-0.1153492980140274
 31
0.0
210
0.0
220
0.0
230
1.0
 40
0.9063077870366515
 41
0.0
 42
6.283185307179586
  0
LINE
  5
BF
330
8E
100
AcDbEntity
  8
AM_5
100
AcDbLine
 10
-2.044979801315556
 20
-1.373716103579453
 30
0.0
 11
-1.894788589444639
 21
-1.28062989348012
 31
0.0
  0
LINE
  5
C0
330
8E
100
AcDbEntity
  8
AM_5
100
AcDbLine
 10
-2.065244920044743
 20
-1.40881631883982
 30
0.0
 11
-2.044979801315556
 21
-1.373716103579453
 31
0.0
  0
LINE
  5
C1
330
8E
100
AcDbEntity
  8
AM_5
100
AcDbLine
 10
-2.03347418689044
 20
-1.39364441233605
 30
0.0
 11
-2.223668558370475
 21
-1.064218097619002
 31
0.0
  0
LINE
  5
C2
330
8E
100
AcDbEntity
  8
AM_5
100
AcDbLine
 10
-2.212162943945359
 20
-1.084146406375599
 30
0.0
 11
-2.056452315321863
 21
-1.00062010651988
 31
0.0
  0
LINE
  5
C3
330
8E
100
AcDbEntity
  8
AM_5
100
AcDbLine
 10
-2.252693181403733
 20
-1.084146406375599
 30
0.0
 11
-2.212162943945359
 21
-1.084146406375599
 31
0.0
  0
ELLIPSE
  5
C4
330
8E
100
AcDbEntity
  8
AM_9
100
AcDbEllipse
 10
-2.517137901186337
 20
-1.45327024483734
 30
0.0
 11
-0.05500000000000058
 21
0.09526279441628804
 31
0.0
210
0.0
220
0.0
230
1.0
 40
0.9063077870366496
 41
0.0
 42
6.283185307179586
  0
LINE
  5
C7
330
8E
100
AcDbEntity
  8
AM_7
100
AcDbLine
 10
-2.651932166151161
 20
-1.53109375
 30
0.0
 11
-1.943415132680017
 21
-1.12203125
 31
0.0
  0
LINE
  5
C8
330
8E
100
AcDbEntity
  8
AM_7
100
AcDbLine
 10
-2.656521765691043
 20
-1.412499999999997
 30
0.0
 11
-2.236521765691037
 21
-1.412499999999997
 31
0.0
  0
LINE
  5
C9
330
8E
100
AcDbEntity
  8
AM_7
100
AcDbLine
 10
-2.44652176569104
 20
-1.6225
 30
0.0
 11
-2.44652176569104
 21
-1.202499999999993
 31
0.0
  0
LINE
  5
CB
330
8E
100
AcDbEntity
  8
AM_4
100
AcDbLine
 10
-2.2099492845102
 20
-1.528505557077846
 30
0.0
 11
-2.4286992845102
 21
-1.149619442922154
 31
0.0
  0
LINE
  5
CC
330
8E
100
AcDbEntity
  8
AM_4
100
AcDbLine
 10
-2.437766884206814
 20
-1.115778700151693
 30
0.0
 11
-2.4286992845102
 21
-1.149619442922154
 31
0.0
  0
LINE
  5
CD
330
8E
100
AcDbEntity
  8
AM_4
100
AcDbLine
 10
-2.2099492845102
 20
-1.528505557077846
 30
0.0
 11
-2.185176141436353
 21
-1.553278700151692
 31
0.0
  0
LINE
  5
CE
330
8E
100
AcDbEntity
  8
AM_4
100
AcDbLine
 10
-2.123346744131756
 20
-1.478505557077846
 30
0.0
 11
-2.342096744131756
 21
-1.099619442922154
 31
0.0
  0
LINE
  5
CF
330
8E
100
AcDbEntity
  8
AM_4
100
AcDbLine
 10
-2.342096744131756
 20
-1.099619442922154
 30
0.0
 11
-2.366869887205603
 21
-1.074846299848307
 31
0.0
  0
LINE
  5
D0
330
8E
100
AcDbEntity
  8
AM_4
100
AcDbLine
 10
-2.114279144435142
 20
-1.512346299848307
 30
0.0
 11
-2.123346744131756
 21
-1.478505557077846
 31
0.0
  0
ARC
  5
D1
330
8E
100
AcDbEntity
  8
AM_4
100
AcDbCircle
 10
-2.446521765691039
 20
-1.412499999999997
 30
0.0
 40
0.2000000000000022
100
AcDbArc
 50
253.9703614241212
 51
299.9999999999995
  0
ARC
  5
D2
330
8E
100
AcDbEntity
  8
AM_4
100
AcDbCircle
 10
-2.446521765691036
 20
-1.412500000000003
 30
0.0
 40
0.2000000000000045
100
AcDbArc
 50
120.0000000000005
 51
165.8990727399433
  0
LINE
  5
D3
330
8E
100
AcDbEntity
  8
AM_4
100
AcDbLine
 10
-2.254357929881933
 20
-1.080680491162142
 30
0.0
 11
-2.260819126386211
 21
-1.084146406375599
 31
0.0
  0
LINE
  5
D4
330
8E
100
AcDbEntity
  8
AM_4
100
AcDbLine
 10
-2.069307892535982
 20
-1.415853593624401
 30
0.0
 11
-2.063075723661626
 21
-1.41199099091958
 31
0.0
  0
LINE
  5
D5
330
8E
100
AcDbEntity
  8
AM_4
100
AcDbLine
 10
-2.065063509461097
 20
-1.423205080756887
 30
0.0
 11
-2.265063509461097
 21
-1.076794919243112
 31
0.0
  0
LINE
  5
D6
330
8E
100
AcDbEntity
  8
AM_4
100
AcDbLine
 10
-2.265063509461097
 20
-1.076794919243112
 30
0.0
 11
-2.332721744131756
 21
-1.115857419243112
 31
0.0
  0
LINE
  5
D7
330
8E
100
AcDbEntity
  8
AM_4
100
AcDbLine
 10
-2.132721744131756
 20
-1.462267580756887
 30
0.0
 11
-2.065063509461097
 21
-1.423205080756887
 31
0.0
  0
LINE
  5
D8
330
8E
100
AcDbEntity
  8
AM_4
100
AcDbLine
 10
-2.501801932210554
 20
-1.316751942937332
 30
0.0
 11
-2.546521765691039
 21
-1.239294919243112
 31
0.0
  0
LINE
  5
D9
330
8E
100
AcDbEntity
  8
AM_4
100
AcDbLine
 10
-2.4193242845102
 20
-1.165857419243112
 30
0.0
 11
-2.546521765691039
 21
-1.239294919243112
 31
0.0
  0
LINE
  5
DA
330
8E
100
AcDbEntity
  8
AM_4
100
AcDbLine
 10
-2.34652176569104
 20
-1.585705080756888
 30
0.0
 11
-2.2193242845102
 21
-1.512267580756887
 31
0.0
  0
LINE
  5
DB
330
8E
100
AcDbEntity
  8
AM_4
100
AcDbLine
 10
-2.34652176569104
 20
-1.585705080756888
 30
0.0
 11
-2.391459556897067
 21
-1.507870543208126
 31
0.0
  0
LINE
  5
DC
330
8E
100
AcDbEntity
  8
AM_4
100
AcDbLine
 10
-2.437766884206814
 20
-1.115778700151693
 30
0.0
 11
-2.366869887205603
 21
-1.074846299848307
 31
0.0
  0
LWPOLYLINE
  5
DD
330
8E
100
AcDbEntity
  8
AM_4
100
AcDbPolyline
 90
        3
 70
     0
 43
0.0
 10
-2.414045813049123
 20
-1.175
 10
-2.427760005911507
 20
-1.146459559607482
 10
-2.437766884206814
 20
-1.115778700151693
  0
LWPOLYLINE
  5
DE
330
8E
100
AcDbEntity
  8
AM_4
100
AcDbPolyline
 90
        3
 70
     0
 43
0.0
 10
-2.366869887205603
 20
-1.074846299848307
 10
-2.34539221628798
 20
-1.098740567611884
 10
-2.327443272670679
 20
-1.125
  0
LWPOLYLINE
  5
DF
330
8E
100
AcDbEntity
  8
AM_4
100
AcDbPolyline
 90
        3
 70
     0
 43
0.0
 10
-2.185176141436353
 20
-1.553278700151692
 10
-2.206653812353976
 20
-1.529384432388115
 10
-2.224602755971277
 20
-1.503125
  0
LINE
  5
E0
330
8E
100
AcDbEntity
  8
AM_4
100
AcDbLine
 10
-2.185176141436353
 20
-1.553278700151692
 30
0.0
 11
-2.114279144435142
 21
-1.512346299848307
 31
0.0
  0
LWPOLYLINE
  5
E1
330
8E
100
AcDbEntity
  8
AM_4
100
AcDbPolyline
 90
        3
 70
     0
 43
0.0
 10
-2.138000215592833
 20
-1.453125
 10
-2.124286022730449
 20
-1.481665440392517
 10
-2.114279144435142
 20
-1.512346299848307
  0
LWPOLYLINE
  5
E2
330
8E
100
AcDbEntity
  8
AM_4
100
AcDbPolyline
 90
        3
 70
     0
 43
0.0
 10
-2.177426830127757
 20
-1.402971299848307
 10
-2.155949159210135
 20
-1.426865567611884
 10
-2.138000215592833
 20
-1.453125
  0
LWPOLYLINE
  5
E3
330
8E
100
AcDbEntity
  8
AM_4
100
AcDbPolyline
 90
        3
 70
     0
 43
0.0
 10
-2.224602755971277
 20
-1.503125
 10
-2.238316948833661
 20
-1.474584559607482
 10
-2.248323827128968
 20
-1.443903700151693
  0
LWPOLYLINE
  5
E4
330
8E
100
AcDbEntity
  8
AM_4
100
AcDbPolyline
 90
        3
 70
     0
 43
0.0
 10
-2.327443272670679
 20
-1.125
 10
-2.313729079808295
 20
-1.153540440392517
 10
-2.303722201512988
 20
-1.184221299848307
  0
LINE
  5
E5
330
8E
100
AcDbEntity
  8
AM_4
100
AcDbLine
 10
-2.374619198514199
 20
-1.225153700151693
 30
0.0
 11
-2.303722201512988
 21
-1.184221299848307
 31
0.0
  0
LWPOLYLINE
  5
E6
330
8E
100
AcDbEntity
  8
AM_4
100
AcDbPolyline
 90
        3
 70
     0
 43
0.0
 10
-2.248323827128968
 20
-1.443903700151693
 10
-2.285517437220039
 20
-1.39278862725104
 10
-2.3193242845102
 20
-1.3390625
  0
LINE
  5
E7
330
8E
100
AcDbEntity
  8
AM_4
100
AcDbLine
 10
-2.248323827128968
 20
-1.443903700151693
 30
0.0
 11
-2.177426830127757
 21
-1.402971299848307
 31
0.0
  0
LWPOLYLINE
  5
E8
330
8E
100
AcDbEntity
  8
AM_4
100
AcDbPolyline
 90
        3
 70
     0
 43
0.0
 10
-2.232721744131756
 20
-1.2890625
 10
-2.203220629846218
 20
-1.344946690392517
 10
-2.177426830127757
 20
-1.402971299848307
  0
LWPOLYLINE
  5
E9
330
8E
100
AcDbEntity
  8
AM_4
100
AcDbPolyline
 90
        4
 70
     0
 43
0.0
 10
-2.303722201512988
 20
-1.184221299848307
 10
-2.285869468702133
 20
-1.207972765773117
 10
-2.258227768235567
 20
-1.247736426839267
 10
-2.232721744131756
 20
-1.2890625
  0
LWPOLYLINE
  5
EA
330
8E
100
AcDbEntity
  8
AM_4
100
AcDbPolyline
 90
        4
 70
     0
 43
0.0
 10
-2.3193242845102
 20
-1.3390625
 10
-2.342296548945701
 20
-1.296438249398529
 10
-2.36297619205162
 20
-1.252490353255273
 10
-2.374619198514199
 20
-1.225153700151693
  0
LWPOLYLINE
  5
EB
330
8E
100
AcDbEntity
  8
AM_4
100
AcDbPolyline
 90
        3
 70
     0
 43
0.0
 10
-2.374619198514199
 20
-1.225153700151693
 10
-2.396096869431822
 20
-1.201259432388115
 10
-2.414045813049123
 20
-1.175
  0
LINE
  5
EC
330
8E
100
AcDbEntity
  8
AM_4
100
AcDbLine
 10
-2.452443807456227
 20
-1.603419092407284
 30
0.0
 11
-2.500146051091596
 21
-1.602798382094798
 31
0.0
  0
LINE
  5
ED
330
8E
100
AcDbEntity
  8
AM_4
100
AcDbLine
 10
-2.638305796205438
 20
-1.364100644325945
 30
0.0
 11
-2.61482357066581
 21
-1.322169092407283
 31
0.0
  0
LWPOLYLINE
  5
EE
330
8E
100
AcDbEntity
  8
AM_4
100
AcDbPolyline
 90
        3
 70
     0
 43
0.0
 10
-2.451959945108405
 20
-1.321889734350518
 10
-2.48002224507725
 20
-1.319238843014547
 10
-2.509810349915235
 20
-1.317187592413266
  0
LINE
  5
EF
330
8E
100
AcDbEntity
  8
AM_4
100
AcDbLine
 10
-2.509810349915235
 20
-1.317187592413266
 30
0.0
 11
-2.53581915894122
 21
-1.316052666893888
 31
0.0
  0
LWPOLYLINE
  5
F0
330
8E
100
AcDbEntity
  8
AM_4
100
AcDbPolyline
 90
        3
 70
     0
 43
0.0
 10
-2.53581915894122
 20
-1.316052666893888
 10
-2.55880919363346
 20
-1.315510369847584
 10
-2.603136324446265
 20
-1.315421457656344
  0
LINE
  5
F1
330
8E
100
AcDbEntity
  8
AM_4
100
AcDbLine
 10
-2.603136324446265
 20
-1.315421457656344
 30
0.0
 11
-2.61482357066581
 21
-1.322169092407283
 31
0.0
  0
LWPOLYLINE
  5
F2
330
8E
100
AcDbEntity
  8
AM_4
100
AcDbPolyline
 90
        3
 70
     0
 43
0.0
 10
-2.61482357066581
 20
-1.322169092407283
 10
-2.585143749432008
 20
-1.324648491521736
 10
-2.554119066479752
 20
-1.326618123437406
  0
LWPOLYLINE
  5
F3
330
8E
100
AcDbEntity
  8
AM_4
100
AcDbPolyline
 90
        3
 70
     0
 43
0.0
 10
-2.440756561236683
 20
-1.596671457656343
 10
-2.42378287890316
 20
-1.567339189975666
 10
-2.407644621718977
 20
-1.53805747759944
  0
LINE
  5
F4
330
8E
100
AcDbEntity
  8
AM_4
100
AcDbLine
 10
-2.407644621718977
 20
-1.53805747759944
 30
0.0
 11
-2.395623091537169
 21
-1.514965725501071
 31
0.0
  0
LWPOLYLINE
  5
F5
330
8E
100
AcDbEntity
  8
AM_4
100
AcDbPolyline
 90
        3
 70
     0
 43
0.0
 10
-2.395623091537169
 20
-1.514965725501071
 10
-2.386458104960612
 20
-1.496421611213501
 10
-2.370770063503614
 20
-1.462514734350518
  0
LWPOLYLINE
  5
F6
330
8E
100
AcDbEntity
  8
AM_4
100
AcDbPolyline
 90
        3
 70
     0
 43
0.0
 10
-2.42594452925751
 20
-1.548622934142958
 10
-2.439679707022083
 20
-1.576327936735335
 10
-2.452443807456227
 20
-1.603419092407284
  0
LINE
  5
F7
330
8E
100
AcDbEntity
  8
AM_4
100
AcDbLine
 10
-2.440756561236683
 20
-1.596671457656343
 30
0.0
 11
-2.452443807456227
 21
-1.603419092407284
 31
0.0
  0
LWPOLYLINE
  5
F8
330
8E
100
AcDbEntity
  8
AM_4
100
AcDbPolyline
 90
        3
 70
     0
 43
0.0
 10
-2.382825712814593
 20
-1.469475066725467
 10
-2.398712997377689
 20
-1.497576183495197
 10
-2.413922999075703
 20
-1.525531182044589
  0
LWPOLYLINE
  5
F9
330
8E
100
AcDbEntity
  8
AM_4
100
AcDbPolyline
 90
        3
 70
     0
 43
0.0
 10
-2.52811025745377
 20
-1.327753048956784
 10
-2.496459706599746
 20
-1.32855559349426
 10
-2.464015594419384
 20
-1.328850066725467
  0
LWPOLYLINE
  5
FA
330
8E
100
AcDbEntity
  8
AM_4
100
AcDbPolyline
 90
        3
 70
     0
 43
0.0
 10
-2.370770063503614
 20
-1.462514734350518
 10
-2.383765951353225
 20
-1.434890958955647
 10
-2.397979851467466
 20
-1.407287038418517
  0
LINE
  5
FB
330
8E
100
AcDbEntity
  8
AM_4
100
AcDbLine
 10
-2.397979851467466
 20
-1.407287038418517
 30
0.0
 11
-2.417736251420734
 21
-1.373067949924796
 31
0.0
  0
LWPOLYLINE
  5
FC
330
8E
100
AcDbEntity
  8
AM_4
100
AcDbPolyline
 90
        3
 70
     0
 43
0.0
 10
-2.417736251420734
 20
-1.373067949924796
 10
-2.426984886834628
 20
-1.3584112730526
 10
-2.451959945108405
 20
-1.321889734350518
  0
LINE
  5
FD
330
8E
100
AcDbEntity
  8
AM_4
100
AcDbLine
 10
-2.451959945108405
 20
-1.321889734350518
 30
0.0
 11
-2.464015594419384
 21
-1.328850066725467
 31
0.0
  0
LWPOLYLINE
  5
FE
330
8E
100
AcDbEntity
  8
AM_4
100
AcDbPolyline
 90
        3
 70
     0
 43
0.0
 10
-2.464015594419384
 20
-1.328850066725467
 10
-2.450482328918994
 20
-1.356294122408012
 10
-2.436036158959269
 20
-1.383633406468319
  0
LWPOLYLINE
  5
FF
330
8E
100
AcDbEntity
  8
AM_4
100
AcDbPolyline
 90
        3
 70
     0
 43
0.0
 10
-2.416279759006
 20
-1.417852494962034
 10
-2.399897804387022
 20
-1.443922855181632
 10
-2.382825712814593
 20
-1.469475066725467
  0
LINE
  5
100
330
8E
100
AcDbEntity
  8
AM_4
100
AcDbLine
 10
-2.370770063503614
 20
-1.462514734350518
 30
0.0
 11
-2.382825712814593
 21
-1.469475066725467
 31
0.0
  0
LINE
  5
101
330
8E
100
AcDbEntity
  8
AM_4
100
AcDbLine
 10
-2.554119066479752
 20
-1.326618123437406
 30
0.0
 11
-2.52811025745377
 21
-1.327753048956784
 31
0.0
  0
ELLIPSE
  5
102
330
8E
100
AcDbEntity
  8
AM_4
100
AcDbEllipse
 10
-2.53543780872487
 20
-1.46383570138086
 30
0.0
 11
-0.0703125
 21
0.1217848224071849
 31
0.0
210
0.0
220
0.0
230
1.0
 40
0.9063077870366494
 41
2.911891760209625
 42
3.565561594284246
  0
ELLIPSE
  5
103
330
8E
100
AcDbEntity
  8
AM_4
100
AcDbEllipse
 10
-2.535437808724867
 20
-1.463835701380861
 30
0.0
 11
-0.07031250000000935
 21
0.1217848224071853
 31
0.0
210
0.0
220
0.0
230
1.0
 40
0.9063077870366495
 41
5.859216366485081
 42
6.522692428720405
  0
LINE
  5
104
330
8E
100
AcDbEntity
  8
AM_4
100
AcDbLine
 10
-2.413922999075703
 20
-1.525531182044589
 30
0.0
 11
-2.42594452925751
 21
-1.548622934142958
 31
0.0
  0
ELLIPSE
  5
105
330
8E
100
AcDbEntity
  8
AM_4
100
AcDbEllipse
 10
-2.535437808724864
 20
-1.463835701380859
 30
0.0
 11
-0.07031249999999911
 21
0.1217848224071793
 31
0.0
210
0.0
220
0.0
230
1.0
 40
0.9063077870366533
 41
3.764821264091902
 42
4.571432719802708
  0
LWPOLYLINE
  5
106
330
8E
100
AcDbEntity
  8
AM_4
100
AcDbPolyline
 90
        3
 70
     0
 43
0.0
 10
-2.436036158959269
 20
-1.383633406468319
 10
-2.42658596007296
 20
-1.400869806845232
 10
-2.416279759006
 20
-1.417852494962034
  0
ELLIPSE
  5
107
330
8E
100
AcDbEntity
  8
AM_4
100
AcDbEllipse
 10
-2.53543780872487
 20
-1.463835701380857
 30
0.0
 11
-0.07031249999999863
 21
0.1217848224071863
 31
0.0
210
0.0
220
0.0
230
1.0
 40
0.9063077870366532
 41
4.853345240966673
 42
5.659956696677448
  0
LWPOLYLINE
  5
108
330
8E
100
AcDbEntity
  8
AM_4
100
AcDbPolyline
 90
        4
 70
     0
 43
0.0
 10
-2.726125565804034
 20
-1.475246148087579
 10
-2.726600207869793
 20
-1.491501745142185
 10
-2.724138814692286
 20
-1.514482935050351
 10
-2.722209043839252
 20
-1.523308770213047
  0
LWPOLYLINE
  5
109
330
8E
100
AcDbEntity
  8
AM_4
100
AcDbPolyline
 90
       32
 70
     0
 43
0.0
 10
-2.63362837539929
 20
-1.626327226967182
 10
-2.626122698070476
 20
-1.629096677632685
 10
-2.604103524521056
 20
-1.634498682875204
 10
-2.581791814959143
 20
-1.636052464466068
 10
-2.559833338610884
 20
-1.633726902854867
 10
-2.538854402062921
 20
-1.627613669371762
 10
-2.519435750225583
 20
-1.617915489166007
 10
-2.502095717887271
 20
-1.604927344679092
 10
-2.487289254376323
 20
-1.589025039326822
 10
-2.475394190827422
 20
-1.57064386017702
 10
-2.466714299396259
 20
-1.550267962682281
 10
-2.461480643112493
 20
-1.528430666555815
 10
-2.459843406900506
 20
-1.50571023605024
 10
-2.461861766897464
 20
-1.482719175275951
 10
-2.467496574287253
 20
-1.460087176528636
 10
-2.476608474285352
 20
-1.438441054805879
 10
-2.488961113601098
 20
-1.41838524985497
 10
-2.504226867369513
 20
-1.40048525689194
 10
-2.521992183296037
 20
-1.385253398977644
 10
-2.541769673335599
 20
-1.373129778628664
 10
-2.563005922483028
 20
-1.364470046539547
 10
-2.585094964937664
 20
-1.359529218785602
 10
-2.607398123817974
 20
-1.358447061773759
 10
-2.629270426014573
 20
-1.361239534940713
 10
-2.650089842603682
 20
-1.367800662823295
 10
-2.669282526853732
 20
-1.377915457281697
 10
-2.686338331521149
 20
-1.391279076213069
 10
-2.700809958843243
 20
-1.407506389723661
 10
-2.712329581267832
 20
-1.426156487162728
 10
-2.72060199150323
 20
-1.446739154248552
 10
-2.725405421568772
 20
-1.468715285697322
 10
-2.726125565804034
 20
-1.475246148087579
  0
LWPOLYLINE
  5
10A
330
8E
100
AcDbEntity
  8
AM_4
100
AcDbPolyline
 90
        6
 70
     0
 43
0.0
 10
-2.706329386826371
 20
-1.5625
 10
-2.699183488668201
 20
-1.573723605034775
 10
-2.684261424116829
 20
-1.591898609934284
 10
-2.666774926195635
 20
-1.607479204928662
 10
-2.647213333438971
 20
-1.620000826606469
 10
-2.63362837539929
 20
-1.626327226967182
  0
ELLIPSE
  5
10B
330
8E
100
AcDbEntity
  8
AM_4
100
AcDbEllipse
 10
-2.597113693466196
 20
-1.499444290038772
 30
0.0
 11
-0.06957427803572266
 21
0.1205061844577997
 31
0.0
210
0.0
220
0.0
230
1.0
 40
0.9063077870366208
 41
1.265167721376057
 42
1.570796326794897
  0
ELLIPSE
  5
10C
330
8E
100
AcDbEntity
  8
AM_4
100
AcDbEllipse
 10
-2.625107355663684
 20
-1.515606438444094
 30
0.0
 11
0.05174132036229517
 21
-0.08961859571819297
 31
0.0
210
0.0
220
0.0
230
1.0
 40
0.9063077870366506
 41
0.0
 42
6.283185307179586
  0
ELLIPSE
  5
10D
330
8E
100
AcDbEntity
  8
AM_4
100
AcDbEllipse
 10
-2.597113693466202
 20
-1.499444290038777
 30
0.0
 11
-0.06957427803571604
 21
0.1205061844577877
 31
0.0
210
0.0
220
0.0
230
1.0
 40
0.9063077870366559
 41
1.570796326794897
 42
7.548353028555598
  0
ENDBLK
  5
91
330
8E
100
AcDbEntity
  8
0
100
AcDbBlockEnd
  0
BLOCK
  5
110
330
10E
100
AcDbEntity
  8
0
100
AcDbBlockBegin
  2
3_130308_0_in_130345_0
 70
     2
 10
0.0
 20
0.0
 30
0.0
  3
3_130308_0_in_130345_0
  1

  0
ATTDEF
  5
112
330
10E
100
AcDbEntity
  8
AM_6
100
AcDbText
 10
6.958313624014294
 20
2.066925
 30
0.0
 40
0.5
  1
Eccentric Collar Intermediate Duty Insert Inch Bore
100
AcDbAttributeDefinition
  3

  2
NN
 70
     8
280
     0
  0
ATTDEF
  5
113
330
10E
100
AcDbEntity
  8
AM_6
100
AcDbText
 10
6.958313624014294
 20
1.566925
 30
0.0
 40
0.5
  1
Eccentric Collar Bearing Inserts -(Intermediate Duty)
100
AcDbAttributeDefinition
  3

  2
NT
 70
     8
280
     0
  0
ATTDEF
  5
114
330
10E
100
AcDbEntity
  8
AM_6
100
AcDbText
 10
6.958313624014294
 20
1.066925
 30
0.0
 40
0.5
  1
130308
100
AcDbAttributeDefinition
  3

  2
NB
 70
     8
280
     0
  0
ATTDEF
  5
115
330
10E
100
AcDbEntity
  8
AM_6
100
AcDbText
 10
6.958313624014294
 20
0.5669249999999999
 30
0.0
 40
0.5
  1
$PN.
100
AcDbAttributeDefinition
  3

  2
NBSYN
 70
     8
280
     0
  0
ATTDEF
  5
116
330
10E
100
AcDbEntity
  8
AM_6
100
AcDbText
 10
6.958313624014294
 20
0.0669249999999999
 30
0.0
 40
0.5
  1
130308
100
AcDbAttributeDefinition
  3

  2
LINA
 70
     8
280
     0
  0
ATTDEF
  5
117
330
10E
100
AcDbEntity
  8
AM_6
100
AcDbText
 10
6.958313624014294
 20
-0.4330750000000001
 30
0.0
 40
0.5
  1
211
100
AcDbAttributeDefinition
  3

  2
SERIES
 70
     8
280
     0
  0
ATTDEF
  5
118
330
10E
100
AcDbEntity
  8
AM_6
100
AcDbText
 10
6.958313624014294
 20
-0.9330750000000001
 30
0.0
 40
0.5
  1
2-3/16
100
AcDbAttributeDefinition
  3

  2
SS
 70
     8
280
     0
  0
ATTDEF
  5
119
330
10E
100
AcDbEntity
  8
AM_6
100
AcDbText
 10
6.958313624014294
 20
-1.433075
 30
0.0
 40
0.5
  1
130308
100
AcDbAttributeDefinition
  3

  2
PN
 70
     8
280
     0
  0
ATTDEF
  5
11A
330
10E
100
AcDbEntity
  8
AM_6
100
AcDbText
 10
6.958313624014294
 20
-1.933075
 30
0.0
 40
0.5
  1
INS-SXV-203
100
AcDbAttributeDefinition
  3

  2
DESCRIPTION
 70
     8
280
     0
  0
ATTDEF
  5
11B
330
10E
100
AcDbEntity
  8
AM_6
100
AcDbText
 10
6.958313624014294
 20
-2.433075
 30
0.0
 40
0.5
  1
2.5
100
AcDbAttributeDefinition
  3

  2
WEIGHT
 70
     8
280
     0
  0
ATTDEF
  5
11C
330
10E
100
AcDbEntity
  8
AM_6
100
AcDbText
 10
6.958313624014294
 20
-2.933075
 30
0.0
 40
0.5
  1
1.90
100
AcDbAttributeDefinition
  3

  2
A
 70
     8
280
     0
  0
ATTDEF
  5
11D
330
10E
100
AcDbEntity
  8
AM_6
100
AcDbText
 10
6.958313624014294
 20
-3.433075
 30
0.0
 40
0.5
  1
0.94
100
AcDbAttributeDefinition
  3

  2
C
 70
     8
280
     0
  0
ATTDEF
  5
11E
330
10E
100
AcDbEntity
  8
AM_6
100
AcDbText
 10
6.958313624014294
 20
-3.933075
 30
0.0
 40
0.5
  1
3.9370
100
AcDbAttributeDefinition
  3

  2
D
 70
     8
280
     0
  0
ATTDEF
  5
11F
330
10E
100
AcDbEntity
  8
AM_6
100
AcDbText
 10
6.958313624014294
 20
-4.433075000000001
 30
0.0
 40
0.5
  1
0.25
100
AcDbAttributeDefinition
  3

  2
J
 70
     8
280
     0
  0
ATTDEF
  5
120
330
10E
100
AcDbEntity
  8
AM_6
100
AcDbText
 10
6.958313624014294
 20
-4.933075000000001
 30
0.0
 40
0.5
  1
3.00
100
AcDbAttributeDefinition
  3

  2
L
 70
     8
280
     0
  0
ATTDEF
  5
121
330
10E
100
AcDbEntity
  8
AM_6
100
AcDbText
 10
6.958313624014294
 20
-5.433075000000001
 30
0.0
 40
0.5
  1
3/8 - 24
100
AcDbAttributeDefinition
  3

  2
N
 70
     8
280
     0
  0
ATTDEF
  5
122
330
10E
100
AcDbEntity
  8
AM_6
100
AcDbText
 10
6.958313624014294
 20
-5.933075000000001
 30
0.0
 40
0.5
  1
0.47
100
AcDbAttributeDefinition
  3

  2
W
 70
     8
280
     0
  0
ATTDEF
  5
123
330
10E
100
AcDbEntity
  8
AM_6
100
AcDbText
 10
6.958313624014294
 20
-6.433075000000001
 30
0.0
 40
0.5
  1
1.43
100
AcDbAttributeDefinition
  3

  2
Y
 70
     8
280
     0
  0
ATTDEF
  5
124
330
10E
100
AcDbEntity
  8
AM_6
100
AcDbText
 10
6.958313624014294
 20
-6.933075000000001
 30
0.0
 40
0.5
  1
2.71
100
AcDbAttributeDefinition
  3

  2
Z
 70
     8
280
     0
  0
ATTDEF
  5
125
330
10E
100
AcDbEntity
  8
AM_6
100
AcDbText
 10
6.958313624014294
 20
-7.433075000000001
 30
0.0
 40
0.5
  1
baldor
100
AcDbAttributeDefinition
  3

  2
COMPANY
 70
     8
280
     0
  0
ARC
  5
126
330
10E
100
AcDbEntity
  8
AM_9
100
AcDbCircle
 10
0.0000000000000001
 20
-1.984125
 30
0.0
 40
0.0937500000000001
100
AcDbArc
 50
179.9999991462263
 51
0.0
  0
LINE
  5
127
330
10E
100
AcDbEntity
  8
AM_9
100
AcDbLine
 10
-0.09375
 20
-1.950299582534411
 30
0.0
 11
-0.09375
 21
-1.984125
 31
0.0
  0
LINE
  5
128
330
10E
100
AcDbEntity
  8
AM_9
100
AcDbLine
 10
0.09375
 20
-1.984125
 30
0.0
 11
0.09375
 21
-1.950299068490933
 31
0.0
  0
LINE
  5
129
330
10E
100
AcDbEntity
  8
AM_9
100
AcDbLine
 10
0.09375
 20
-1.984125
 30
0.0
 11
-0.09375
 21
-1.984125
 31
0.0
  0
LWPOLYLINE
  5
12A
330
10E
100
AcDbEntity
  8
AM_9
100
AcDbPolyline
 90
        3
 70
     0
 43
0.0
 10
0.0817588667065179
 20
-1.956180174728272
 10
0.0913953194354793
 20
-1.952983100838109
 10
0.0937499759733627
 20
-1.950299881524455
  0
LWPOLYLINE
  5
12B
330
10E
100
AcDbEntity
  8
AM_9
100
AcDbPolyline
 90
        3
 70
     0
 43
0.0
 10
-0.0937499788974769
 20
-1.950300422052339
 10
-0.0914856759556535
 20
-1.952931956444129
 10
-0.0815623052257269
 20
-1.956224720931274
  0
LWPOLYLINE
  5
12C
330
10E
100
AcDbEntity
  8
AM_9
100
AcDbPolyline
 90
        7
 70
     0
 43
0.0
 10
0.0781342495795888
 20
-1.943656098647464
 10
0.0656558108535564
 20
-1.941711319695489
 10
0.0396425361103343
 20
-1.939387830832921
 10
0.0093009620367532
 20
-1.938313557110036
 10
-0.0219085228845491
 20
-1.93858869085937
 10
-0.0505984494887225
 20
-1.940165360425068
 10
-0.0655773958473987
 20
-1.941701425971694
  0
LWPOLYLINE
  5
12D
330
10E
100
AcDbEntity
  8
AM_9
100
AcDbPolyline
 90
        4
 70
     0
 43
0.0
 10
0.0937499759733627
 20
-1.950299881524455
 10
0.0931391514564274
 20
-1.94893839839598
 10
0.0842332669729853
 20
-1.94502575044391
 10
0.0781342495795888
 20
-1.943656098647464
  0
LWPOLYLINE
  5
12E
330
10E
100
AcDbEntity
  8
AM_9
100
AcDbPolyline
 90
        4
 70
     0
 43
0.0
 10
-0.0655773958473987
 20
-1.941701425971694
 10
-0.0841188735435282
 20
-1.94499576261886
 10
-0.0930848241289882
 20
-1.948878955956161
 10
-0.0937499788974769
 20
-1.950300422052339
  0
CIRCLE
  5
12F
330
10E
100
AcDbEntity
  8
AM_9
100
AcDbCircle
 10
0.0
 20
0.0
 30
0.0
 40
1.874761904761904
  0
CIRCLE
  5
130
330
10E
100
AcDbEntity
  8
AM_9
100
AcDbCircle
 10
0.0
 20
0.0
 30
0.0
 40
1.355
  0
CIRCLE
  5
131
330
10E
100
AcDbEntity
  8
AM_9
100
AcDbCircle
 10
0.0
 20
0.0
 30
0.0
 40
1.29047619047619
  0
CIRCLE
  5
132
330
10E
100
AcDbEntity
  8
AM_9
100
AcDbCircle
 10
0.0
 20
0.0
 30
0.0
 40
1.115625
  0
LINE
  5
133
330
10E
100
AcDbEntity
  8
AM_9
100
AcDbLine
 10
1.493835112473834
 20
0.1358552786618502
 30
0.0
 11
1.493835112473834
 21
-0.1358552786618502
 31
0.0
  0
LINE
  5
134
330
10E
100
AcDbEntity
  8
AM_9
100
AcDbLine
 10
1.080452692983863
 20
-0.1706
 30
0.0
 11
1.490300825694118
 21
-0.1706
 31
0.0
  0
LINE
  5
135
330
10E
100
AcDbEntity
  8
AM_9
100
AcDbLine
 10
1.490300825694118
 20
0.1706
 30
0.0
 11
1.080380995169636
 21
0.1706
 31
0.0
  0
LINE
  5
136
330
10E
100
AcDbEntity
  8
AM_5
100
AcDbLine
 10
1.077558728097917
 20
0.1875
 30
0.0
 11
1.488235112473832
 21
0.1875
 31
0.0
  0
LINE
  5
137
330
10E
100
AcDbEntity
  8
AM_5
100
AcDbLine
 10
1.077558728097917
 20
-0.1875
 30
0.0
 11
1.488235112473832
 21
-0.1875
 31
0.0
  0
LINE
  5
138
330
10E
100
AcDbEntity
  8
AM_7
100
AcDbLine
 10
0.0
 20
2.066925
 30
0.0
 11
0.0
 21
-2.11401875
 31
0.0
  0
LINE
  5
139
330
10E
100
AcDbEntity
  8
AM_7
100
AcDbLine
 10
-0.0984374999999993
 20
-1.984125
 30
0.0
 11
0.0984374999999999
 21
-1.984125
 31
0.0
  0
CIRCLE
  5
13A
330
10E
100
AcDbEntity
  8
AM_4
100
AcDbCircle
 10
0.0
 20
0.0
 30
0.0
 40
1.958313624014294
  0
CIRCLE
  5
13B
330
10E
100
AcDbEntity
  8
AM_4
100
AcDbCircle
 10
0.0
 20
0.0
 30
0.0
 40
1.945505654065287
  0
CIRCLE
  5
13C
330
10E
100
AcDbEntity
  8
AM_4
100
AcDbCircle
 10
0.0
 20
0.0
 30
0.0
 40
1.919622267277871
  0
CIRCLE
  5
13D
330
10E
100
AcDbEntity
  8
AM_4
100
AcDbCircle
 10
0.0
 20
0.0
 30
0.0
 40
1.876958577060239
  0
CIRCLE
  5
13E
330
10E
100
AcDbEntity
  8
AM_4
100
AcDbCircle
 10
0.0
 20
0.0
 30
0.0
 40
1.09375
  0
CIRCLE
  5
13F
330
10E
100
AcDbEntity
  8
AM_4
100
AcDbCircle
 10
0.0
 20
0.0
 30
0.0
 40
1.124685921676911
  0
CIRCLE
  5
140
330
10E
100
AcDbEntity
  8
AM_4
100
AcDbCircle
 10
0.0
 20
0.0
 30
0.0
 40
1.4125
  0
CIRCLE
  5
141
330
10E
100
AcDbEntity
  8
AM_4
100
AcDbCircle
 10
0.0000000000000001
 20
-0.0000000000000001
 30
0.0
 40
1.5
  0
ENDBLK
  5
111
330
10E
100
AcDbEntity
  8
0
100
AcDbBlockEnd
  0
BLOCK
  5
144
330
142
100
AcDbEntity
  8
0
100
AcDbBlockBegin
  2
4_130345H_0_in_130345_0
 70
     2
 10
0.0
 20
0.0
 30
0.0
  3
4_130345H_0_in_130345_0
  1

  0
ATTDEF
  5
146
330
142
100
AcDbEntity
  8
AM_6
100
AcDbText
 10
8.708075000000001
 20
2.69
 30
0.0
 40
0.5
  1
NSTU-SXV -I-Housing
100
AcDbAttributeDefinition
  3

  2
NN
 70
     8
280
     0
  0
ATTDEF
  5
147
330
142
100
AcDbEntity
  8
AM_6
100
AcDbText
 10
8.708075000000001
 20
2.19
 30
0.0
 40
0.5
  1
Eccentric Collar Take-Up Bearings -(Intermediate Duty) -Narrow Slot
100
AcDbAttributeDefinition
  3

  2
NT
 70
     8
280
     0
  0
ATTDEF
  5
148
330
142
100
AcDbEntity
  8
AM_6
100
AcDbText
 10
8.708075000000001
 20
1.69
 30
0.0
 40
0.5
  1
130345H
100
AcDbAttributeDefinition
  3

  2
NB
 70
     8
280
     0
  0
ATTDEF
  5
149
330
142
100
AcDbEntity
  8
AM_6
100
AcDbText
 10
8.708075000000001
 20
1.19
 30
0.0
 40
0.5
  1
$PN.H
100
AcDbAttributeDefinition
  3

  2
NBSYN
 70
     8
280
     0
  0
ATTDEF
  5
14A
330
142
100
AcDbEntity
  8
AM_6
100
AcDbText
 10
8.708075000000001
 20
0.69
 30
0.0
 40
0.5
  1
130345
100
AcDbAttributeDefinition
  3

  2
LINA
 70
     8
280
     0
  0
ATTDEF
  5
14B
330
142
100
AcDbEntity
  8
AM_6
100
AcDbText
 10
8.708075000000001
 20
0.1899999999999999
 30
0.0
 40
0.5
  1
211
100
AcDbAttributeDefinition
  3

  2
SERIES
 70
     8
280
     0
  0
ATTDEF
  5
14C
330
142
100
AcDbEntity
  8
AM_6
100
AcDbText
 10
8.708075000000001
 20
-0.3100000000000001
 30
0.0
 40
0.5
  1
2-3/16
100
AcDbAttributeDefinition
  3

  2
SS
 70
     8
280
     0
  0
ATTDEF
  5
14D
330
142
100
AcDbEntity
  8
AM_6
100
AcDbText
 10
8.708075000000001
 20
-0.81
 30
0.0
 40
0.5
  1
130345
100
AcDbAttributeDefinition
  3

  2
PN
 70
     8
280
     0
  0
ATTDEF
  5
14E
330
142
100
AcDbEntity
  8
AM_6
100
AcDbText
 10
8.708075000000001
 20
-1.31
 30
0.0
 40
0.5
  1
NSTU-SXV-203
100
AcDbAttributeDefinition
  3

  2
DESCRIPTION
 70
     8
280
     0
  0
ATTDEF
  5
14F
330
142
100
AcDbEntity
  8
AM_6
100
AcDbText
 10
8.708075000000001
 20
-1.81
 30
0.0
 40
0.5
  1
6.8
100
AcDbAttributeDefinition
  3

  2
W
 70
     8
280
     0
  0
ATTDEF
  5
150
330
142
100
AcDbEntity
  8
AM_6
100
AcDbText
 10
8.708075000000001
 20
-2.31
 30
0.0
 40
0.5
  1
NS407
100
AcDbAttributeDefinition
  3

  2
FS
 70
     8
280
     0
  0
ATTDEF
  5
151
330
142
100
AcDbEntity
  8
AM_6
100
AcDbText
 10
8.708075000000001
 20
-2.81
 30
0.0
 40
0.5
  1
1.90
100
AcDbAttributeDefinition
  3

  2
A
 70
     8
280
     0
  0
ATTDEF
  5
152
330
142
100
AcDbEntity
  8
AM_6
100
AcDbText
 10
8.708075000000001
 20
-3.31
 30
0.0
 40
0.5
  1
6.13
100
AcDbAttributeDefinition
  3

  2
B
 70
     8
280
     0
  0
ATTDEF
  5
153
330
142
100
AcDbEntity
  8
AM_6
100
AcDbText
 10
8.708075000000001
 20
-3.81
 30
0.0
 40
0.5
  1
0.313
100
AcDbAttributeDefinition
  3

  2
C
 70
     8
280
     0
  0
ATTDEF
  5
154
330
142
100
AcDbEntity
  8
AM_6
100
AcDbText
 10
8.708075000000001
 20
-4.31
 30
0.0
 40
0.5
  1
3.50
100
AcDbAttributeDefinition
  3

  2
D
 70
     8
280
     0
  0
ATTDEF
  5
155
330
142
100
AcDbEntity
  8
AM_6
100
AcDbText
 10
8.708075000000001
 20
-4.81
 30
0.0
 40
0.5
  1
3.63
100
AcDbAttributeDefinition
  3

  2
E
 70
     8
280
     0
  0
ATTDEF
  5
156
330
142
100
AcDbEntity
  8
AM_6
100
AcDbText
 10
8.708075000000001
 20
-5.31
 30
0.0
 40
0.5
  1
1
100
AcDbAttributeDefinition
  3

  2
F
 70
     8
280
     0
  0
ATTDEF
  5
157
330
142
100
AcDbEntity
  8
AM_6
100
AcDbText
 10
8.708075000000001
 20
-5.81
 30
0.0
 40
0.5
  1
0.69
100
AcDbAttributeDefinition
  3

  2
G
 70
     8
280
     0
  0
ATTDEF
  5
158
330
142
100
AcDbEntity
  8
AM_6
100
AcDbText
 10
8.708075000000001
 20
-6.31
 30
0.0
 40
0.5
  1
1.28
100
AcDbAttributeDefinition
  3

  2
H
 70
     8
280
     0
  0
ATTDEF
  5
159
330
142
100
AcDbEntity
  8
AM_6
100
AcDbText
 10
8.708075000000001
 20
-6.81
 30
0.0
 40
0.5
  1
1.75
100
AcDbAttributeDefinition
  3

  2
J
 70
     8
280
     0
  0
ATTDEF
  5
15A
330
142
100
AcDbEntity
  8
AM_6
100
AcDbText
 10
8.708075000000001
 20
-7.31
 30
0.0
 40
0.5
  1
2.75
100
AcDbAttributeDefinition
  3

  2
L
 70
     8
280
     0
  0
ATTDEF
  5
15B
330
142
100
AcDbEntity
  8
AM_6
100
AcDbText
 10
8.708075000000001
 20
-7.81
 30
0.0
 40
0.5
  1
4.448 / 4.418
100
AcDbAttributeDefinition
  3

  2
M
 70
     8
280
     0
  0
ATTDEF
  5
15C
330
142
100
AcDbEntity
  8
AM_6
100
AcDbText
 10
8.708075000000001
 20
-8.31
 30
0.0
 40
0.5
  1
5.38
100
AcDbAttributeDefinition
  3

  2
N
 70
     8
280
     0
  0
ATTDEF
  5
15D
330
142
100
AcDbEntity
  8
AM_6
100
AcDbText
 10
8.708075000000001
 20
-8.81
 30
0.0
 40
0.5
  1
0.44
100
AcDbAttributeDefinition
  3

  2
P
 70
     8
280
     0
  0
ATTDEF
  5
15E
330
142
100
AcDbEntity
  8
AM_6
100
AcDbText
 10
8.708075000000001
 20
-9.31
 30
0.0
 40
0.5
  1
0.47
100
AcDbAttributeDefinition
  3

  2
R
 70
     8
280
     0
  0
ATTDEF
  5
15F
330
142
100
AcDbEntity
  8
AM_6
100
AcDbText
 10
8.708075000000001
 20
-9.81
 30
0.0
 40
0.5
  1
1.43
100
AcDbAttributeDefinition
  3

  2
S
 70
     8
280
     0
  0
ATTDEF
  5
160
330
142
100
AcDbEntity
  8
AM_6
100
AcDbText
 10
8.708075000000001
 20
-10.31
 30
0.0
 40
0.5
  1
5630
100
AcDbAttributeDefinition
  3

  2
CAPS
 70
     8
280
     0
  0
ATTDEF
  5
161
330
142
100
AcDbEntity
  8
AM_6
100
AcDbText
 10
8.708075000000001
 20
-10.81
 30
0.0
 40
0.5
  1
9975
100
AcDbAttributeDefinition
  3

  2
CAPD
 70
     8
280
     0
  0
ATTDEF
  5
162
330
142
100
AcDbEntity
  8
AM_6
100
AcDbText
 10
8.708075000000001
 20
-11.31
 30
0.0
 40
0.5
  1
baldor
100
AcDbAttributeDefinition
  3

  2
COMPANY
 70
     8
280
     0
  0
LINE
  5
163
330
142
100
AcDbEntity
  8
AM_9
100
AcDbLine
 10
1.75
 20
-2.224
 30
0.0
 11
-1.75
 21
-2.224
 31
0.0
  0
LINE
  5
164
330
142
100
AcDbEntity
  8
AM_9
100
AcDbLine
 10
1.75
 20
2.224
 30
0.0
 11
-1.75
 21
2.224
 31
0.0
  0
ARC
  5
165
330
142
100
AcDbEntity
  8
AM_9
100
AcDbCircle
 10
-0.0000000000000007
 20
-0.000000000000004
 30
0.0
 40
2.077874999999996
100
AcDbArc
 50
249.4564394252422
 51
290.5435605747579
  0
LINE
  5
166
330
142
100
AcDbEntity
  8
AM_9
100
AcDbLine
 10
0.729166666666667
 20
-1.945733920105012
 30
0.0
 11
0.7291666666666663
 21
-1.828471553572059
 31
0.0
  0
LINE
  5
167
330
142
100
AcDbEntity
  8
AM_9
100
AcDbLine
 10
-0.7291666666666665
 20
-1.82847155357206
 30
0.0
 11
-0.7291666666666665
 21
-1.945733920105013
 31
0.0
  0
LINE
  5
168
330
142
100
AcDbEntity
  8
AM_9
100
AcDbLine
 10
0.7291666666666663
 20
1.828471553572059
 30
0.0
 11
0.7291666666666665
 21
1.945733920105012
 31
0.0
  0
ARC
  5
169
330
142
100
AcDbEntity
  8
AM_9
100
AcDbCircle
 10
-0.0000000000000012
 20
0.0000000000000071
 30
0.0
 40
2.077874999999993
100
AcDbArc
 50
69.45643942524211
 51
110.5435605747578
  0
LINE
  5
16A
330
142
100
AcDbEntity
  8
AM_9
100
AcDbLine
 10
-0.7291666666666665
 20
1.945733920105013
 30
0.0
 11
-0.7291666666666665
 21
1.82847155357206
 31
0.0
  0
LINE
  5
16B
330
142
100
AcDbEntity
  8
AM_9
100
AcDbLine
 10
2.35
 20
-0.5
 30
0.0
 11
3.63
 21
-0.5
 31
0.0
  0
LINE
  5
16C
330
142
100
AcDbEntity
  8
AM_9
100
AcDbLine
 10
3.63
 20
0.5
 30
0.0
 11
2.35
 21
0.5
 31
0.0
  0
LINE
  5
16D
330
142
100
AcDbEntity
  8
AM_9
100
AcDbLine
 10
2.35
 20
0.5
 30
0.0
 11
2.35
 21
-0.5
 31
0.0
  0
LWPOLYLINE
  5
16E
330
142
100
AcDbEntity
  8
AM_9
100
AcDbPolyline
 90
        6
 70
     0
 43
0.0
 10
2.374517226140358
 20
0.7820920295992678
 10
2.360208194620752
 20
0.8242677223117815
 10
2.352519375692195
 20
0.8459669686104666
 10
2.346779510968786
 20
0.8617574640797185
 10
2.343117613636393
 20
0.8716718650566662
 10
2.341874249399399
 20
0.8750000000000023
  0
LINE
  5
16F
330
142
100
AcDbEntity
  8
AM_7
100
AcDbLine
 10
-2.066925
 20
0.0
 30
0.0
 11
3.708075
 21
-0.0000000000000075
 31
0.0
  0
LINE
  5
170
330
142
100
AcDbEntity
  8
AM_4
100
AcDbLine
 10
-1.75
 20
2.627400000932812
 30
0.0
 11
-1.75
 21
1.756302173495205
 31
0.0
  0
LINE
  5
171
330
142
100
AcDbEntity
  8
AM_4
100
AcDbLine
 10
1.75
 20
2.627399999999999
 30
0.0
 11
1.75
 21
1.756302173495205
 31
0.0
  0
LINE
  5
172
330
142
100
AcDbEntity
  8
AM_4
100
AcDbLine
 10
-1.75
 20
-1.756302173495205
 30
0.0
 11
-1.75
 21
-2.627399999999999
 31
0.0
  0
LINE
  5
173
330
142
100
AcDbEntity
  8
AM_4
100
AcDbLine
 10
1.75
 20
-1.756302173495205
 30
0.0
 11
1.75
 21
-2.627399999067187
 31
0.0
  0
LWPOLYLINE
  5
174
330
142
100
AcDbEntity
  8
AM_4
100
AcDbPolyline
 90
       19
 70
     0
 43
0.0
 10
1.749999999999999
 20
2.627399999999999
 10
1.749761788100543
 20
2.632855949496003
 10
1.749048965338564
 20
2.638270375921949
 10
1.747866956725695
 20
2.643602072223417
 10
1.746224758061197
 20
2.648810460972186
 10
1.744134867468494
 20
2.653855903184967
 10
1.741613190276905
 20
2.6587
 10
1.73867891797249
 20
2.663305884915575
 10
1.735354382139247
 20
2.667638504366377
 10
1.731664884502277
 20
2.671664884502278
 10
1.727638504366377
 20
2.675354382139247
 10
1.723305884915575
 20
2.678678917972491
 10
1.718699999999999
 20
2.681613190276906
 10
1.713855903184967
 20
2.684134867468494
 10
1.708810460972186
 20
2.686224758061198
 10
1.703602072223417
 20
2.687866956725696
 10
1.698270375921949
 20
2.689048965338564
 10
1.692855949496003
 20
2.689761788100543
 10
1.687399999999999
 20
2.69
  0
LWPOLYLINE
  5
175
330
142
100
AcDbEntity
  8
AM_4
100
AcDbPolyline
 90
       19
 70
     0
 43
0.0
 10
-1.6874
 20
2.69
 10
-1.692855949496004
 20
2.689761788100543
 10
-1.69827037592195
 20
2.689048965338564
 10
-1.703602072223418
 20
2.687866956725695
 10
-1.708810460972187
 20
2.686224758061197
 10
-1.713855903184968
 20
2.684134867468494
 10
-1.7187
 20
2.681613190276905
 10
-1.723305884915576
 20
2.67867891797249
 10
-1.727638504366378
 20
2.675354382139247
 10
-1.731664884502278
 20
2.671664884502277
 10
-1.735354382139248
 20
2.667638504366376
 10
-1.738678917972491
 20
2.663305884915574
 10
-1.741613190276906
 20
2.658699999999999
 10
-1.744134867468494
 20
2.653855903184966
 10
-1.746224758061198
 20
2.648810460972186
 10
-1.747866956725696
 20
2.643602072223417
 10
-1.749048965338564
 20
2.638270375921949
 10
-1.749761788100543
 20
2.632855949496002
 10
-1.75
 20
2.627399999999999
  0
LINE
  5
176
330
142
100
AcDbEntity
  8
AM_4
100
AcDbLine
 10
1.687399999999999
 20
2.69
 30
0.0
 11
-1.687400000000001
 21
2.69
 31
0.0
  0
LINE
  5
177
330
142
100
AcDbEntity
  8
AM_4
100
AcDbLine
 10
1.75
 20
2.627399999999999
 30
0.0
 11
-1.75
 21
2.627400000932812
 31
0.0
  0
LINE
  5
178
330
142
100
AcDbEntity
  8
AM_4
100
AcDbLine
 10
1.6874
 20
-2.69
 30
0.0
 11
-1.687399999999999
 21
-2.69
 31
0.0
  0
LWPOLYLINE
  5
179
330
142
100
AcDbEntity
  8
AM_4
100
AcDbPolyline
 90
       19
 70
     0
 43
0.0
 10
1.6874
 20
-2.69
 10
1.692855949496003
 20
-2.689761788100543
 10
1.69827037592195
 20
-2.689048965338564
 10
1.703602072223418
 20
-2.687866956725696
 10
1.708810460972187
 20
-2.686224758061198
 10
1.713855903184968
 20
-2.684134867468494
 10
1.7187
 20
-2.681613190276906
 10
1.723305884915576
 20
-2.678678917972491
 10
1.727638504366378
 20
-2.675354382139247
 10
1.731664884502278
 20
-2.671664884502278
 10
1.735354382139248
 20
-2.667638504366377
 10
1.738678917972491
 20
-2.663305884915575
 10
1.741613190276906
 20
-2.6587
 10
1.744134867468494
 20
-2.653855903184967
 10
1.746224758061198
 20
-2.648810460972186
 10
1.747866956725696
 20
-2.643602072223417
 10
1.749048965338564
 20
-2.638270375921949
 10
1.749761788100543
 20
-2.632855949496003
 10
1.75
 20
-2.627399999999999
  0
LINE
  5
17A
330
142
100
AcDbEntity
  8
AM_4
100
AcDbLine
 10
1.75
 20
-2.627399999067187
 30
0.0
 11
-1.75
 21
-2.627399999999999
 31
0.0
  0
LWPOLYLINE
  5
17B
330
142
100
AcDbEntity
  8
AM_4
100
AcDbPolyline
 90
       19
 70
     0
 43
0.0
 10
-1.75
 20
-2.627399999999999
 10
-1.749761788100543
 20
-2.632855949496003
 10
-1.749048965338564
 20
-2.638270375921949
 10
-1.747866956725695
 20
-2.643602072223417
 10
-1.746224758061198
 20
-2.648810460972187
 10
-1.744134867468494
 20
-2.653855903184968
 10
-1.741613190276906
 20
-2.6587
 10
-1.738678917972491
 20
-2.663305884915575
 10
-1.735354382139248
 20
-2.667638504366378
 10
-1.731664884502278
 20
-2.671664884502278
 10
-1.727638504366377
 20
-2.675354382139248
 10
-1.723305884915575
 20
-2.678678917972491
 10
-1.7187
 20
-2.681613190276906
 10
-1.713855903184967
 20
-2.684134867468495
 10
-1.708810460972186
 20
-2.686224758061198
 10
-1.703602072223417
 20
-2.687866956725696
 10
-1.698270375921949
 20
-2.689048965338564
 10
-1.692855949496003
 20
-2.689761788100544
 10
-1.687399999999999
 20
-2.69
  0
ARC
  5
17C
330
142
100
AcDbEntity
  8
AM_4
100
AcDbCircle
 10
-0.0000000000000098
 20
-0.000000000000006
 30
0.0
 40
2.500000000000012
100
AcDbArc
 50
18.23027338405083
 51
45.57299599919424
  0
ARC
  5
17D
330
142
100
AcDbEntity
  8
AM_4
100
AcDbCircle
 10
0.0000000000000001
 20
-0.0000000000000013
 30
0.0
 40
2.479334048615472
100
AcDbArc
 50
45.10298244028205
 51
134.897017559718
  0
ARC
  5
17E
330
142
100
AcDbEntity
  8
AM_4
100
AcDbCircle
 10
0.0000000000000009
 20
-0.0000000000000001
 30
0.0
 40
2.500000000000001
100
AcDbArc
 50
134.4270040008057
 51
225.5729959991943
  0
ARC
  5
17F
330
142
100
AcDbEntity
  8
AM_4
100
AcDbCircle
 10
0.0
 20
0.0000000000000018
 30
0.0
 40
2.479334048615472
100
AcDbArc
 50
225.102982440282
 51
314.8970175597179
  0
ARC
  5
180
330
142
100
AcDbEntity
  8
AM_4
100
AcDbCircle
 10
-0.0000000000000047
 20
0.0000000000000033
 30
0.0
 40
2.500000000000006
100
AcDbArc
 50
314.4270040008057
 51
341.7697266159491
  0
CIRCLE
  5
181
330
142
100
AcDbEntity
  8
AM_4
100
AcDbCircle
 10
0.0
 20
0.0
 30
0.0
 40
1.9685
  0
ARC
  5
182
330
142
100
AcDbEntity
  8
AM_4
100
AcDbCircle
 10
0.0000000000000002
 20
0.0000000000000004
 30
0.0
 40
2.4374
100
AcDbArc
 50
14.52607672633191
 51
345.473923273668
  0
LWPOLYLINE
  5
183
330
142
100
AcDbEntity
  8
AM_4
100
AcDbPolyline
 90
        9
 70
     0
 43
0.0
 10
2.172833333333332
 20
-0.6113501451705126
 10
2.155148867035385
 20
-0.6091874445755241
 10
2.137234130633372
 20
-0.6023546163200144
 10
2.109221960124546
 20
-0.5799621226668272
 10
2.095824990340346
 20
-0.561698482218029
 10
2.0852392611773
 20
-0.5409509911244407
 10
2.074848285478172
 20
-0.5085017805726696
 10
2.069511083740021
 20
-0.4739143732496701
 10
2.068499999999994
 20
-0.4495009578533856
  0
LWPOLYLINE
  5
184
330
142
100
AcDbEntity
  8
AM_4
100
AcDbPolyline
 90
        8
 70
     0
 43
0.0
 10
2.068499999999998
 20
0.4495009578533856
 10
2.071689135364509
 20
0.4921001963089708
 10
2.086456242458656
 20
0.5437576980324855
 10
2.096808810827761
 20
0.5632865308403382
 10
2.110465758389103
 20
0.5813473164389442
 10
2.134874306663082
 20
0.6010717375607462
 10
2.159657010047722
 20
0.610153918992165
 10
2.172833333333331
 20
0.6113501451705071
  0
LINE
  5
185
330
142
100
AcDbEntity
  8
AM_4
100
AcDbLine
 10
2.068499999999998
 20
0.4495009578533856
 30
0.0
 11
2.068499999999994
 21
-0.4495009578533856
 31
0.0
  0
LINE
  5
186
330
142
100
AcDbEntity
  8
AM_4
100
AcDbLine
 10
2.172833333333331
 20
0.6113501451705071
 30
0.0
 11
2.172833333333332
 21
-0.6113501451705126
 31
0.0
  0
LINE
  5
187
330
142
100
AcDbEntity
  8
AM_4
100
AcDbLine
 10
2.172833333333332
 20
-0.6113501451705126
 30
0.0
 11
2.359485062465959
 21
-0.6113501451705133
 31
0.0
  0
LWPOLYLINE
  5
188
330
142
100
AcDbEntity
  8
AM_4
100
AcDbPolyline
 90
        5
 70
     0
 43
0.0
 10
2.359485062465959
 20
-0.6113501451705133
 10
2.360702965950941
 20
-0.6605344983935421
 10
2.363377572542389
 20
-0.7052699559108071
 10
2.367929175051394
 20
-0.7463593860405429
 10
2.374517226140357
 20
-0.7820920295992705
  0
LWPOLYLINE
  5
189
330
142
100
AcDbEntity
  8
AM_4
100
AcDbPolyline
 90
        5
 70
     0
 43
0.0
 10
2.374517226140358
 20
0.7820920295992677
 10
2.368093549994573
 20
0.747496116938084
 10
2.363593813470922
 20
0.7078473427368254
 10
2.360761937936524
 20
0.6619659722191692
 10
2.35948506246596
 20
0.6113501451705108
  0
LINE
  5
18A
330
142
100
AcDbEntity
  8
AM_4
100
AcDbLine
 10
2.35948506246596
 20
0.6113501451705108
 30
0.0
 11
2.172833333333331
 21
0.6113501451705071
 31
0.0
  0
LWPOLYLINE
  5
18B
330
142
100
AcDbEntity
  8
AM_4
100
AcDbPolyline
 90
       39
 70
     0
 43
0.0
 10
2.72
 20
0.0
 10
2.723037197658127
 20
-0.0362929919675215
 10
2.731959389054821
 20
-0.0715479153963027
 10
2.746545145756809
 20
-0.1047214186546468
 10
2.766296605864041
 20
-0.1350078918643195
 10
2.791234778712424
 20
-0.1620503102477518
 10
2.820317134359088
 20
-0.1845968896595483
 10
2.853350988526321
 20
-0.2021922176378224
 10
2.888966812176743
 20
-0.2139990975228545
 10
2.925397431398357
 20
-0.2194904231179864
 10
2.962259034817682
 20
-0.2188710473520543
 10
2.997575745906004
 20
-0.2123108225676866
 10
3.031297670637502
 20
-0.200161772914226
 10
3.062806574626759
 20
-0.182511249968389
 10
3.090982890508323
 20
-0.1600130206381709
 10
3.115704174687564
 20
-0.1323591840444268
 10
3.13548607916959
 20
-0.1009217164484471
 10
3.149724235258376
 20
-0.0663709050024714
 10
3.157967823761437
 20
-0.0298333337845915
 10
3.159876001665267
 20
0.0066510439134805
 10
3.155768156142177
 20
0.0429430180006603
 10
3.145889114820636
 20
0.0774652408356449
 10
3.130604077139695
 20
0.1098639421180815
 10
3.109875025398239
 20
0.1397647395739934
 10
3.084555190235121
 20
0.1658426874362804
 10
3.054466440740164
 20
0.187850809627219
 10
3.021043483315485
 20
0.204528613675673
 10
2.985389279187046
 20
0.2152416272529057
 10
2.948374690317221
 20
0.2198405434902549
 10
2.912183784445408
 20
0.218211755494957
 10
2.876783982850176
 20
0.2107219380503918
 10
2.843385257821086
 20
0.1976289601508438
 10
2.812607564683121
 20
0.1793632276249371
 10
2.784589528967402
 20
0.1556890773691177
 10
2.760863810666515
 20
0.1277114938878948
 10
2.741833316692163
 20
0.0954979562684398
 10
2.728469152411576
 20
0.0604541191195699
 10
2.722141170499336
 20
0.030537200999955
 10
2.72
 20
0.0000000000000001
  0
LINE
  5
18C
330
142
100
AcDbEntity
  8
AM_4
100
AcDbLine
 10
2.34189289525094
 20
-0.8750000000000048
 30
0.0
 11
3.525666666666659
 21
-0.8750000000000102
 31
0.0
  0
LINE
  5
18D
330
142
100
AcDbEntity
  8
AM_4
100
AcDbLine
 10
3.525666666666666
 20
0.8749999999999968
 30
0.0
 11
2.341874249399399
 21
0.8750000000000023
 31
0.0
  0
LINE
  5
18E
330
142
100
AcDbEntity
  8
AM_4
100
AcDbLine
 10
3.525666666666666
 20
0.875
 30
0.0
 11
3.525666666666659
 21
-0.8750000000000133
 31
0.0
  0
LINE
  5
18F
330
142
100
AcDbEntity
  8
AM_4
100
AcDbLine
 10
3.63
 20
0.7706666666666674
 30
0.0
 11
3.629999999999993
 21
-0.7706648941158073
 31
0.0
  0
ARC
  5
190
330
142
100
AcDbEntity
  8
AM_4
100
AcDbCircle
 10
3.52566666666666
 20
-0.7706666666666806
 30
0.0
 40
0.1043333333333327
100
AcDbArc
 50
270.0
 51
0.0
  0
ARC
  5
191
330
142
100
AcDbEntity
  8
AM_4
100
AcDbCircle
 10
3.525666666666667
 20
0.7706666666666676
 30
0.0
 40
0.1043333333333325
100
AcDbArc
 50
0.0000008537736463
 51
90.0
  0
ENDBLK
  5
145
330
142
100
AcDbEntity
  8
0
100
AcDbBlockEnd
  0
ENDSEC
  0
SECTION
  2
ENTITIES
  0
INSERT
  5
6F
330
1F
100
AcDbEntity
  8
0
100
AcDbBlockReference
  2
1_130345_0
 10
0.0
 20
0.0
 30
0.0
  0
POINT
  5
193
330
1F
100
AcDbEntity
  8
ConnectionPoints
100
AcDbPoint
 10
0.0
 20
0.0
 30
1.43
  0
POINT
  5
194
330
1F
100
AcDbEntity
  8
ConnectionPoints
100
AcDbPoint
 10
-2.165063509461097
 20
-1.25
 30
0.0
  0
POINT
  5
195
330
1F
100
AcDbEntity
  8
ConnectionPoints
100
AcDbPoint
 10
0.0
 20
0.0
 30
1.43
  0
ENDSEC
  0
SECTION
  2
OBJECTS
  0
DICTIONARY
  5
C
330
0
100
AcDbDictionary
281
     1
  3
ACAD_DETAILVIEWSTYLE
350
19D
  3
ACAD_GROUP
350
D
  3
ACAD_LAYOUT
350
1A
  3
ACAD_MATERIAL
350
43
  3
ACAD_MLEADERSTYLE
350
6B
  3
ACAD_MLINESTYLE
350
17
  3
ACAD_PLOTSETTINGS
350
19
  3
ACAD_PLOTSTYLENAME
350
E
  3
ACAD_SCALELIST
350
47
  3
ACAD_SECTIONVIEWSTYLE
350
19E
  3
ACAD_TABLESTYLE
350
69
  3
ACAD_VISUALSTYLE
350
2A
  3
ACDB_RECOMPOSE_DATA
350
19A
  3
AcDbVariableDictionary
350
196
  0
SUN
  5
6D
330
29
100
AcDbSun
 90
        1
290
     0
 63
     7
421
 16777215
 40
1.0
291
     1
 91
  2455826
 92
 54000000
292
     0
 70
     2
 71
   256
280
     1
  0
DICTIONARY
  5
19D
102
{ACAD_REACTORS
330
C
102
}
330
C
100
AcDbDictionary
281
     1
  0
DICTIONARY
  5
D
102
{ACAD_REACTORS
330
C
102
}
330
C
100
AcDbDictionary
281
     1
  0
DICTIONARY
  5
1A
102
{ACAD_REACTORS
330
C
102
}
330
C
100
AcDbDictionary
281
     1
  3
Layout1
350
1E
  3
Layout2
350
26
  3
Model
350
22
  0
DICTIONARY
  5
43
102
{ACAD_REACTORS
330
C
102
}
330
C
100
AcDbDictionary
281
     1
  3
ByBlock
350
45
  3
ByLayer
350
44
  3
Global
350
46
  0
DICTIONARY
  5
6B
102
{ACAD_REACTORS
330
C
102
}
330
C
100
AcDbDictionary
281
     1
  3
Standard
350
6C
  0
DICTIONARY
  5
17
102
{ACAD_REACTORS
330
C
102
}
330
C
100
AcDbDictionary
281
     1
  3
Standard
350
18
  0
DICTIONARY
  5
19
102
{ACAD_REACTORS
330
C
102
}
330
C
100
AcDbDictionary
281
     1
  0
ACDBDICTIONARYWDFLT
  5
E
102
{ACAD_REACTORS
330
C
102
}
330
C
100
AcDbDictionary
281
     1
  3
Normal
350
F
100
AcDbDictionaryWithDefault
340
F
  0
DICTIONARY
  5
47
102
{ACAD_REACTORS
330
C
102
}
330
C
100
AcDbDictionary
281
     1
  3
A0
350
48
  3
A1
350
49
  3
A2
350
4A
  3
A3
350
4B
  3
A4
350
4C
  3
A5
350
4D
  3
A6
350
4E
  3
A7
350
4F
  3
A8
350
50
  3
A9
350
51
  3
B0
350
52
  3
B1
350
53
  3
B2
350
54
  3
B3
350
55
  3
B4
350
56
  3
B5
350
57
  3
B6
350
58
  3
B7
350
59
  3
B8
350
5A
  3
B9
350
5B
  3
C0
350
5C
  3
C1
350
5D
  3
C2
350
5E
  3
C3
350
5F
  3
C4
350
60
  3
C5
350
61
  3
C6
350
62
  3
C7
350
63
  3
C8
350
64
  3
C9
350
65
  3
D0
350
66
  3
D1
350
67
  3
D2
350
68
  0
DICTIONARY
  5
19E
102
{ACAD_REACTORS
330
C
102
}
330
C
100
AcDbDictionary
281
     1
  0
DICTIONARY
  5
69
102
{ACAD_REACTORS
330
C
102
}
330
C
100
AcDbDictionary
281
     1
  3
Standard
350
6A
  0
DICTIONARY
  5
2A
102
{ACAD_REACTORS
330
C
102
}
330
C
100
AcDbDictionary
281
     1
  3
2dWireframe
350
2F
  3
Basic
350
32
  3
Brighten
350
36
  3
ColorChange
350
3A
  3
Conceptual
350
34
  3
Dim
350
35
  3
EdgeColorOff
350
3D
  3
Facepattern
350
39
  3
Flat
350
2B
  3
FlatWithEdges
350
2C
  3
Gouraud
350
2D
  3
GouraudWithEdges
350
2E
  3
Hidden
350
31
  3
JitterOff
350
3B
  3
Linepattern
350
38
  3
OverhangOff
350
3C
  3
Realistic
350
33
  3
Shaded
350
42
  3
Shaded with edges
350
41
  3
Shades of Gray
350
3E
  3
Sketchy
350
3F
  3
Thicken
350
37
  3
Wireframe
350
30
  3
X-Ray
350
40
  0
XRECORD
  5
19A
102
{ACAD_REACTORS
330
C
102
}
330
C
100
AcDbXrecord
280
     1
 90
        1
330
6A
  0
DICTIONARY
  5
196
102
{ACAD_REACTORS
330
C
102
}
330
C
100
AcDbDictionary
281
     1
  3
CANNOSCALE
350
197
  3
CMLEADERSTYLE
350
19C
  3
CTABLESTYLE
350
19B
  0
LAYOUT
  5
1E
102
{ACAD_REACTORS
330
1A
102
}
330
1A
100
AcDbPlotSettings
  1

  2
none_device
  4

  6

 40
0.0
 41
0.0
 42
0.0
 43
0.0
 44
0.0
 45
0.0
 46
0.0
 47
0.0
 48
0.0
 49
0.0
140
0.0
141
0.0
142
1.0
143
1.0
 70
   688
 72
     0
 73
     0
 74
     5
  7

 75
    16
 76
     0
 77
     2
 78
   300
147
1.0
148
0.0
149
0.0
100
AcDbLayout
  1
Layout1
 70
     1
 71
     1
 10
0.0
 20
0.0
 11
12.0
 21
9.0
 12
0.0
 22
0.0
 32
0.0
 14
1.000000000000000E+20
 24
1.000000000000000E+20
 34
1.000000000000000E+20
 15
-1.000000000000000E+20
 25
-1.000000000000000E+20
 35
-1.000000000000000E+20
146
0.0
 13
0.0
 23
0.0
 33
0.0
 16
1.0
 26
0.0
 36
0.0
 17
0.0
 27
1.0
 37
0.0
 76
     0
330
1B
  0
LAYOUT
  5
26
102
{ACAD_REACTORS
330
1A
102
}
330
1A
100
AcDbPlotSettings
  1

  2
none_device
  4

  6

 40
0.0
 41
0.0
 42
0.0
 43
0.0
 44
0.0
 45
0.0
 46
0.0
 47
0.0
 48
0.0
 49
0.0
140
0.0
141
0.0
142
1.0
143
1.0
 70
   688
 72
     0
 73
     0
 74
     5
  7

 75
    16
 76
     0
 77
     2
 78
   300
147
1.0
148
0.0
149
0.0
100
AcDbLayout
  1
Layout2
 70
     1
 71
     2
 10
0.0
 20
0.0
 11
0.0
 21
0.0
 12
0.0
 22
0.0
 32
0.0
 14
0.0
 24
0.0
 34
0.0
 15
0.0
 25
0.0
 35
0.0
146
0.0
 13
0.0
 23
0.0
 33
0.0
 16
1.0
 26
0.0
 36
0.0
 17
0.0
 27
1.0
 37
0.0
 76
     0
330
23
  0
LAYOUT
  5
22
102
{ACAD_REACTORS
330
1A
102
}
330
1A
100
AcDbPlotSettings
  1

  2
none_device
  4
Letter_(8.50_x_11.00_Inches)
  6

 40
6.35
 41
6.35
 42
6.35000508
 43
6.35000508
 44
215.9
 45
279.4
 46
0.0
 47
0.0
 48
0.0
 49
0.0
140
0.0
141
0.0
142
1.0
143
1.0
 70
  1712
 72
     0
 73
     0
 74
     0
  7

 75
     0
 76
     0
 77
     2
 78
   300
147
1.0
148
0.0
149
0.0
100
AcDbLayout
  1
Model
 70
     1
 71
     0
 10
0.0
 20
0.0
 11
12.0
 21
9.0
 12
0.0
 22
0.0
 32
0.0
 14
1.000000000000000E+20
 24
1.000000000000000E+20
 34
1.000000000000000E+20
 15
-1.000000000000000E+20
 25
-1.000000000000000E+20
 35
-1.000000000000000E+20
146
0.0
 13
0.0
 23
0.0
 33
0.0
 16
1.0
 26
0.0
 36
0.0
 17
0.0
 27
1.0
 37
0.0
 76
     0
330
1F
331
29
  0
MATERIAL
  5
45
102
{ACAD_REACTORS
330
43
102
}
330
43
100
AcDbMaterial
  1
ByBlock
 72
     1
 94
      127
  0
MATERIAL
  5
44
102
{ACAD_REACTORS
330
43
102
}
330
43
100
AcDbMaterial
  1
ByLayer
 72
     1
 94
      127
  0
MATERIAL
  5
46
102
{ACAD_REACTORS
330
43
102
}
330
43
100
AcDbMaterial
  1
Global
 72
     1
 94
      127
  0
MLEADERSTYLE
  5
6C
102
{ACAD_REACTORS
330
6B
102
}
330
6B
100
AcDbMLeaderStyle
179
     2
170
     2
171
     1
172
     0
 90
        2
 40
0.0
 41
0.0
173
     1
 91
-1056964608
340
14
 92
       -2
290
     1
 42
0.09
291
     1
 43
0.36
  3
Standard
341
0
 44
0.18
300

342
11
174
     1
178
     6
175
     1
176
     0
 93
-1056964608
 45
0.18
292
     0
297
     0
 46
0.18
343
0
 94
-1056964608
 47
1.0
 49
1.0
140
1.0
293
     1
141
0.0
294
     1
177
     0
142
1.0
295
     0
296
     0
143
0.125
271
     0
272
     9
273
     9
298
     0
  0
MLINESTYLE
  5
18
102
{ACAD_REACTORS
330
17
102
}
330
17
100
AcDbMlineStyle
  2
Standard
 70
     0
  3

 62
   256
 51
90.0
 52
90.0
 71
     2
 49
0.5
 62
   256
  6
BYLAYER
 49
-0.5
 62
   256
  6
BYLAYER
  0
ACDBPLACEHOLDER
  5
F
102
{ACAD_REACTORS
330
E
102
}
330
E
  0
SCALE
  5
48
102
{ACAD_REACTORS
330
47
102
}
330
47
100
AcDbScale
 70
     0
300
1:1
140
1.0
141
1.0
290
     1
  0
SCALE
  5
49
102
{ACAD_REACTORS
330
47
102
}
330
47
100
AcDbScale
 70
     0
300
1:2
140
1.0
141
2.0
290
     0
  0
SCALE
  5
4A
102
{ACAD_REACTORS
330
47
102
}
330
47
100
AcDbScale
 70
     0
300
1:4
140
1.0
141
4.0
290
     0
  0
SCALE
  5
4B
102
{ACAD_REACTORS
330
47
102
}
330
47
100
AcDbScale
 70
     0
300
1:5
140
1.0
141
5.0
290
     0
  0
SCALE
  5
4C
102
{ACAD_REACTORS
330
47
102
}
330
47
100
AcDbScale
 70
     0
300
1:8
140
1.0
141
8.0
290
     0
  0
SCALE
  5
4D
102
{ACAD_REACTORS
330
47
102
}
330
47
100
AcDbScale
 70
     0
300
1:10
140
1.0
141
10.0
290
     0
  0
SCALE
  5
4E
102
{ACAD_REACTORS
330
47
102
}
330
47
100
AcDbScale
 70
     0
300
1:16
140
1.0
141
16.0
290
     0
  0
SCALE
  5
4F
102
{ACAD_REACTORS
330
47
102
}
330
47
100
AcDbScale
 70
     0
300
1:20
140
1.0
141
20.0
290
     0
  0
SCALE
  5
50
102
{ACAD_REACTORS
330
47
102
}
330
47
100
AcDbScale
 70
     0
300
1:30
140
1.0
141
30.0
290
     0
  0
SCALE
  5
51
102
{ACAD_REACTORS
330
47
102
}
330
47
100
AcDbScale
 70
     0
300
1:40
140
1.0
141
40.0
290
     0
  0
SCALE
  5
52
102
{ACAD_REACTORS
330
47
102
}
330
47
100
AcDbScale
 70
     0
300
1:50
140
1.0
141
50.0
290
     0
  0
SCALE
  5
53
102
{ACAD_REACTORS
330
47
102
}
330
47
100
AcDbScale
 70
     0
300
1:100
140
1.0
141
100.0
290
     0
  0
SCALE
  5
54
102
{ACAD_REACTORS
330
47
102
}
330
47
100
AcDbScale
 70
     0
300
2:1
140
2.0
141
1.0
290
     0
  0
SCALE
  5
55
102
{ACAD_REACTORS
330
47
102
}
330
47
100
AcDbScale
 70
     0
300
4:1
140
4.0
141
1.0
290
     0
  0
SCALE
  5
56
102
{ACAD_REACTORS
330
47
102
}
330
47
100
AcDbScale
 70
     0
300
8:1
140
8.0
141
1.0
290
     0
  0
SCALE
  5
57
102
{ACAD_REACTORS
330
47
102
}
330
47
100
AcDbScale
 70
     0
300
10:1
140
10.0
141
1.0
290
     0
  0
SCALE
  5
58
102
{ACAD_REACTORS
330
47
102
}
330
47
100
AcDbScale
 70
     0
300
100:1
140
100.0
141
1.0
290
     0
  0
SCALE
  5
59
102
{ACAD_REACTORS
330
47
102
}
330
47
100
AcDbScale
 70
     0
300
1/128" = 1'-0"
140
0.0078125
141
12.0
290
     0
  0
SCALE
  5
5A
102
{ACAD_REACTORS
330
47
102
}
330
47
100
AcDbScale
 70
     0
300
1/64" = 1'-0"
140
0.015625
141
12.0
290
     0
  0
SCALE
  5
5B
102
{ACAD_REACTORS
330
47
102
}
330
47
100
AcDbScale
 70
     0
300
1/32" = 1'-0"
140
0.03125
141
12.0
290
     0
  0
SCALE
  5
5C
102
{ACAD_REACTORS
330
47
102
}
330
47
100
AcDbScale
 70
     0
300
1/16" = 1'-0"
140
0.0625
141
12.0
290
     0
  0
SCALE
  5
5D
102
{ACAD_REACTORS
330
47
102
}
330
47
100
AcDbScale
 70
     0
300
3/32" = 1'-0"
140
0.09375
141
12.0
290
     0
  0
SCALE
  5
5E
102
{ACAD_REACTORS
330
47
102
}
330
47
100
AcDbScale
 70
     0
300
1/8" = 1'-0"
140
0.125
141
12.0
290
     0
  0
SCALE
  5
5F
102
{ACAD_REACTORS
330
47
102
}
330
47
100
AcDbScale
 70
     0
300
3/16" = 1'-0"
140
0.1875
141
12.0
290
     0
  0
SCALE
  5
60
102
{ACAD_REACTORS
330
47
102
}
330
47
100
AcDbScale
 70
     0
300
1/4" = 1'-0"
140
0.25
141
12.0
290
     0
  0
SCALE
  5
61
102
{ACAD_REACTORS
330
47
102
}
330
47
100
AcDbScale
 70
     0
300
3/8" = 1'-0"
140
0.375
141
12.0
290
     0
  0
SCALE
  5
62
102
{ACAD_REACTORS
330
47
102
}
330
47
100
AcDbScale
 70
     0
300
1/2" = 1'-0"
140
0.5
141
12.0
290
     0
  0
SCALE
  5
63
102
{ACAD_REACTORS
330
47
102
}
330
47
100
AcDbScale
 70
     0
300
3/4" = 1'-0"
140
0.75
141
12.0
290
     0
  0
SCALE
  5
64
102
{ACAD_REACTORS
330
47
102
}
330
47
100
AcDbScale
 70
     0
300
1" = 1'-0"
140
1.0
141
12.0
290
     0
  0
SCALE
  5
65
102
{ACAD_REACTORS
330
47
102
}
330
47
100
AcDbScale
 70
     0
300
1-1/2" = 1'-0"
140
1.5
141
12.0
290
     0
  0
SCALE
  5
66
102
{ACAD_REACTORS
330
47
102
}
330
47
100
AcDbScale
 70
     0
300
3" = 1'-0"
140
3.0
141
12.0
290
     0
  0
SCALE
  5
67
102
{ACAD_REACTORS
330
47
102
}
330
47
100
AcDbScale
 70
     0
300
6" = 1'-0"
140
6.0
141
12.0
290
     0
  0
SCALE
  5
68
102
{ACAD_REACTORS
330
47
102
}
330
47
100
AcDbScale
 70
     0
300
1'-0" = 1'-0"
140
12.0
141
12.0
290
     0
  0
TABLESTYLE
  5
6A
102
{ACAD_REACTORS
330
69
102
}
102
{ACAD_XDICTIONARY
360
198
102
}
330
69
100
AcDbTableStyle
  3
Standard
 70
     0
 71
     0
 40
0.06
 41
0.06
280
     0
281
     0
  7
Standard
140
0.18
170
     2
 62
     0
 63
   257
283
     0
 90
        4
 91
        0
  1

274
    -2
284
     1
 64
     0
275
    -2
285
     1
 65
     0
276
    -2
286
     1
 66
     0
277
    -2
287
     1
 67
     0
278
    -2
288
     1
 68
     0
279
    -2
289
     1
 69
     0
  7
Standard
140
0.25
170
     5
 62
     0
 63
   257
283
     0
 90
        4
 91
        0
  1

274
    -2
284
     1
 64
     0
275
    -2
285
     1
 65
     0
276
    -2
286
     1
 66
     0
277
    -2
287
     1
 67
     0
278
    -2
288
     1
 68
     0
279
    -2
289
     1
 69
     0
  7
Standard
140
0.18
170
     5
 62
     0
 63
   257
283
     0
 90
        4
 91
        0
  1

274
    -2
284
     1
 64
     0
275
    -2
285
     1
 65
     0
276
    -2
286
     1
 66
     0
277
    -2
287
     1
 67
     0
278
    -2
288
     1
 68
     0
279
    -2
289
     1
 69
     0
  0
VISUALSTYLE
  5
2F
102
{ACAD_REACTORS
330
2A
102
}
330
2A
100
AcDbVisualStyle
  2
2dWireframe
 70
     4
177
     3
291
     0
 70
    58
 90
        0
176
     1
 90
        2
176
     1
 90
        0
176
     1
 90
        0
176
     1
 40
0.6
176
     1
 40
30.0
176
     1
 62
     7
420
 16777215
176
     1
 90
        1
176
     1
 90
        4
176
     1
 62
     7
176
     1
 62
   257
176
     1
 90
        1
176
     1
 90
        1
176
     1
 40
1.0
176
     1
 90
        0
176
     1
 62
   257
176
     1
 40
1.0
176
     1
 90
        1
176
     1
 90
        6
176
     1
 90
        2
176
     1
 62
     7
176
     1
 90
        5
176
     1
 90
        0
176
     1
 90
        0
176
     1
290
     0
176
     1
 90
        1
176
     1
 40
0.0
176
     1
 90
        0
176
     1
290
     1
176
     1
290
     1
176
     1
290
     0
176
     1
290
     0
176
     1
290
     0
176
     1
290
     0
176
     1
290
     0
176
     1
290
     0
176
     1
290
     0
176
     1
 90
       50
176
     1
 40
0.0
176
     1
 40
1.0
176
     1
 90
        0
176
     1
 62
    18
420
        0
176
     1
 90
       50
176
     1
 90
        3
176
     1
 62
     5
420
      255
176
     1
290
     0
176
     1
 90
       50
176
     1
 90
       50
176
     1
 90
       50
176
     1
290
     0
176
     1
 90
       50
176
     1
 62
   256
176
     0
 40
1.0
176
     0
 90
        2
176
     1
  1
strokes_ogs.tif
176
     1
290
     0
176
     1
 40
1.0
176
     1
 40
1.0
176
     1
  0
VISUALSTYLE
  5
32
102
{ACAD_REACTORS
330
2A
102
}
330
2A
100
AcDbVisualStyle
  2
Basic
 70
     7
177
     3
291
     1
 70
    58
 90
        1
176
     1
 90
        0
176
     1
 90
        1
176
     1
 90
        0
176
     1
 40
0.6
176
     1
 40
30.0
176
     1
 62
     7
420
 16777215
176
     1
 90
        0
176
     1
 90
        4
176
     1
 62
     7
176
     1
 62
   257
176
     1
 90
        1
176
     1
 90
        1
176
     1
 40
1.0
176
     1
 90
        8
176
     1
 62
     7
176
     1
 40
1.0
176
     1
 90
        1
176
     1
 90
        6
176
     1
 90
        2
176
     1
 62
     7
176
     1
 90
        5
176
     1
 90
        0
176
     1
 90
        0
176
     1
290
     0
176
     1
 90
        1
176
     1
 40
0.0
176
     1
 90
        0
176
     1
290
     0
176
     1
290
     1
176
     1
290
     1
176
     1
290
     0
176
     1
290
     0
176
     1
290
     0
176
     1
290
     0
176
     1
290
     0
176
     1
290
     0
176
     1
 90
       50
176
     1
 40
0.0
176
     1
 40
1.0
176
     1
 90
        0
176
     1
 62
    18
420
        0
176
     1
 90
       50
176
     1
 90
        3
176
     1
 62
     5
420
      255
176
     1
290
     0
176
     1
 90
       50
176
     1
 90
       50
176
     1
 90
       50
176
     1
290
     0
176
     1
 90
       50
176
     1
 62
   256
176
     0
 40
1.0
176
     0
 90
        2
176
     1
  1
strokes_ogs.tif
176
     1
290
     0
176
     1
 40
1.0
176
     1
 40
1.0
176
     1
  0
VISUALSTYLE
  5
36
102
{ACAD_REACTORS
330
2A
102
}
330
2A
100
AcDbVisualStyle
  2
Brighten
 70
    12
177
     3
291
     1
 70
    58
 90
        2
176
     1
 90
        2
176
     1
 90
        0
176
     1
 90
        0
176
     1
 40
0.6
176
     1
 40
30.0
176
     1
 62
     7
420
 16777215
176
     1
 90
        1
176
     1
 90
        4
176
     1
 62
     7
176
     1
 62
   257
176
     1
 90
        1
176
     1
 90
        1
176
     1
 40
1.0
176
     1
 90
        8
176
     1
 62
     7
176
     1
 40
1.0
176
     1
 90
        1
176
     1
 90
        6
176
     1
 90
        2
176
     1
 62
     7
176
     1
 90
        5
176
     1
 90
        0
176
     1
 90
        0
176
     1
290
     0
176
     1
 90
        1
176
     1
 40
50.0
176
     1
 90
        0
176
     1
290
     0
176
     1
290
     1
176
     1
290
     1
176
     1
290
     0
176
     1
290
     0
176
     1
290
     0
176
     1
290
     0
176
     1
290
     0
176
     1
290
     0
176
     1
 90
       50
176
     1
 40
0.0
176
     1
 40
1.0
176
     1
 90
        0
176
     1
 62
    18
420
        0
176
     1
 90
       50
176
     1
 90
        3
176
     1
 62
     5
420
      255
176
     1
290
     0
176
     1
 90
       50
176
     1
 90
       50
176
     1
 90
       50
176
     1
290
     0
176
     1
 90
       50
176
     1
 62
   256
176
     0
 40
1.0
176
     0
 90
        2
176
     1
  1
strokes_ogs.tif
176
     1
290
     0
176
     1
 40
1.0
176
     1
 40
1.0
176
     1
  0
VISUALSTYLE
  5
3A
102
{ACAD_REACTORS
330
2A
102
}
330
2A
100
AcDbVisualStyle
  2
ColorChange
 70
    16
177
     3
291
     1
 70
    58
 90
        2
176
     1
 90
        2
176
     1
 90
        3
176
     1
 90
        0
176
     1
 40
0.6
176
     1
 40
30.0
176
     1
 62
     8
420
  8421504
176
     1
 90
        1
176
     1
 90
        4
176
     1
 62
     7
176
     1
 62
   257
176
     1
 90
        1
176
     1
 90
        1
176
     1
 40
1.0
176
     1
 90
        8
176
     1
 62
     8
420
  8421504
176
     1
 40
1.0
176
     1
 90
        1
176
     1
 90
        6
176
     1
 90
        2
176
     1
 62
     7
176
     1
 90
        5
176
     1
 90
        0
176
     1
 90
        0
176
     1
290
     0
176
     1
 90
        1
176
     1
 40
0.0
176
     1
 90
        0
176
     1
290
     0
176
     1
290
     1
176
     1
290
     1
176
     1
290
     0
176
     1
290
     0
176
     1
290
     0
176
     1
290
     0
176
     1
290
     0
176
     1
290
     0
176
     1
 90
       50
176
     1
 40
0.0
176
     1
 40
1.0
176
     1
 90
        0
176
     1
 62
    18
420
        0
176
     1
 90
       50
176
     1
 90
        3
176
     1
 62
     5
420
      255
176
     1
290
     0
176
     1
 90
       50
176
     1
 90
       50
176
     1
 90
       50
176
     1
290
     0
176
     1
 90
       50
176
     1
 62
   256
176
     0
 40
1.0
176
     0
 90
        2
176
     1
  1
strokes_ogs.tif
176
     1
290
     0
176
     1
 40
1.0
176
     1
 40
1.0
176
     1
  0
VISUALSTYLE
  5
34
102
{ACAD_REACTORS
330
2A
102
}
330
2A
100
AcDbVisualStyle
  2
Conceptual
 70
     9
177
     3
291
     0
 70
    58
 90
        3
176
     1
 90
        2
176
     1
 90
        0
176
     1
 90
        0
176
     1
 40
0.6
176
     1
 40
30.0
176
     1
 62
     7
420
 16777215
176
     1
 90
        2
176
     1
 90
        2
176
     1
 62
     7
176
     1
 62
   257
176
     1
 90
        1
176
     1
 90
        1
176
     1
 40
179.0
176
     1
 90
        8
176
     1
 62
     7
176
     1
 40
1.0
176
     1
 90
        1
176
     1
 90
        6
176
     1
 90
        2
176
     1
 62
     7
176
     1
 90
        3
176
     1
 90
        0
176
     1
 90
        0
176
     1
290
     0
176
     1
 90
        1
176
     1
 40
0.0
176
     1
 90
        0
176
     1
290
     0
176
     1
290
     1
176
     1
290
     1
176
     1
290
     0
176
     1
290
     0
176
     1
290
     0
176
     1
290
     0
176
     1
290
     0
176
     1
290
     0
176
     1
 90
       50
176
     1
 40
0.0
176
     1
 40
1.0
176
     1
 90
        0
176
     1
 62
    18
420
        0
176
     1
 90
       50
176
     1
 90
        3
176
     1
 62
     5
420
      255
176
     1
290
     0
176
     1
 90
       50
176
     1
 90
       50
176
     1
 90
       50
176
     1
290
     0
176
     1
 90
       50
176
     1
 62
   256
176
     0
 40
1.0
176
     0
 90
        2
176
     1
  1
strokes_ogs.tif
176
     1
290
     0
176
     1
 40
1.0
176
     1
 40
1.0
176
     1
  0
VISUALSTYLE
  5
35
102
{ACAD_REACTORS
330
2A
102
}
330
2A
100
AcDbVisualStyle
  2
Dim
 70
    11
177
     3
291
     1
 70
    58
 90
        2
176
     1
 90
        2
176
     1
 90
        0
176
     1
 90
        0
176
     1
 40
0.6
176
     1
 40
30.0
176
     1
 62
     7
420
 16777215
176
     1
 90
        1
176
     1
 90
        4
176
     1
 62
     7
176
     1
 62
   257
176
     1
 90
        1
176
     1
 90
        1
176
     1
 40
1.0
176
     1
 90
        8
176
     1
 62
     7
176
     1
 40
1.0
176
     1
 90
        1
176
     1
 90
        6
176
     1
 90
        2
176
     1
 62
     7
176
     1
 90
        5
176
     1
 90
        0
176
     1
 90
        0
176
     1
290
     0
176
     1
 90
        1
176
     1
 40
-50.0
176
     1
 90
        0
176
     1
290
     0
176
     1
290
     1
176
     1
290
     1
176
     1
290
     0
176
     1
290
     0
176
     1
290
     0
176
     1
290
     0
176
     1
290
     0
176
     1
290
     0
176
     1
 90
       50
176
     1
 40
0.0
176
     1
 40
1.0
176
     1
 90
        0
176
     1
 62
    18
420
        0
176
     1
 90
       50
176
     1
 90
        3
176
     1
 62
     5
420
      255
176
     1
290
     0
176
     1
 90
       50
176
     1
 90
       50
176
     1
 90
       50
176
     1
290
     0
176
     1
 90
       50
176
     1
 62
   256
176
     0
 40
1.0
176
     0
 90
        2
176
     1
  1
strokes_ogs.tif
176
     1
290
     0
176
     1
 40
1.0
176
     1
 40
1.0
176
     1
  0
VISUALSTYLE
  5
3D
102
{ACAD_REACTORS
330
2A
102
}
330
2A
100
AcDbVisualStyle
  2
EdgeColorOff
 70
    22
177
     3
291
     1
 70
    58
 90
        2
176
     0
 90
        2
176
     0
 90
        0
176
     0
 90
        0
176
     0
 40
0.6
176
     0
 40
30.0
176
     0
 62
     7
420
 16777215
176
     0
 90
        1
176
     0
 90
        4
176
     0
 62
     7
176
     0
 62
   257
176
     0
 90
        1
176
     0
 90
        1
176
     0
 40
1.0
176
     0
 90
        8
176
     2
 62
     7
176
     0
 40
1.0
176
     0
 90
        1
176
     0
 90
        6
176
     0
 90
        2
176
     0
 62
     7
176
     0
 90
        5
176
     0
 90
        0
176
     0
 90
        0
176
     0
290
     0
176
     0
 90
        1
176
     0
 40
0.0
176
     0
 90
        0
176
     0
290
     0
176
     0
290
     1
176
     0
290
     1
176
     0
290
     0
176
     0
290
     0
176
     0
290
     0
176
     0
290
     0
176
     0
290
     0
176
     0
290
     0
176
     0
 90
       50
176
     0
 40
0.0
176
     0
 40
1.0
176
     0
 90
        0
176
     0
 62
    18
420
        0
176
     0
 90
       50
176
     0
 90
        3
176
     0
 62
     5
420
      255
176
     0
290
     0
176
     0
 90
       50
176
     0
 90
       50
176
     0
 90
       50
176
     0
290
     0
176
     0
 90
       50
176
     0
 62
   256
176
     0
 40
1.0
176
     0
 90
        2
176
     0
  1
strokes_ogs.tif
176
     0
290
     0
176
     0
 40
1.0
176
     0
 40
1.0
176
     0
  0
VISUALSTYLE
  5
39
102
{ACAD_REACTORS
330
2A
102
}
330
2A
100
AcDbVisualStyle
  2
Facepattern
 70
    15
177
     3
291
     1
 70
    58
 90
        2
176
     1
 90
        2
176
     1
 90
        0
176
     1
 90
        0
176
     1
 40
0.6
176
     1
 40
30.0
176
     1
 62
     7
420
 16777215
176
     1
 90
        1
176
     1
 90
        4
176
     1
 62
     7
176
     1
 62
   257
176
     1
 90
        1
176
     1
 90
        1
176
     1
 40
1.0
176
     1
 90
        8
176
     1
 62
     7
176
     1
 40
1.0
176
     1
 90
        1
176
     1
 90
        6
176
     1
 90
        2
176
     1
 62
     7
176
     1
 90
        5
176
     1
 90
        0
176
     1
 90
        0
176
     1
290
     0
176
     1
 90
        1
176
     1
 40
0.0
176
     1
 90
        0
176
     1
290
     0
176
     1
290
     1
176
     1
290
     1
176
     1
290
     0
176
     1
290
     0
176
     1
290
     0
176
     1
290
     0
176
     1
290
     0
176
     1
290
     0
176
     1
 90
       50
176
     1
 40
0.0
176
     1
 40
1.0
176
     1
 90
        0
176
     1
 62
    18
420
        0
176
     1
 90
       50
176
     1
 90
        3
176
     1
 62
     5
420
      255
176
     1
290
     0
176
     1
 90
       50
176
     1
 90
       50
176
     1
 90
       50
176
     1
290
     0
176
     1
 90
       50
176
     1
 62
   256
176
     0
 40
1.0
176
     0
 90
        2
176
     1
  1
strokes_ogs.tif
176
     1
290
     0
176
     1
 40
1.0
176
     1
 40
1.0
176
     1
  0
VISUALSTYLE
  5
2B
102
{ACAD_REACTORS
330
2A
102
}
330
2A
100
AcDbVisualStyle
  2
Flat
 70
     0
177
     3
291
     1
 70
    58
 90
        2
176
     1
 90
        1
176
     1
 90
        1
176
     1
 90
        2
176
     1
 40
0.6
176
     1
 40
30.0
176
     1
 62
     7
420
 16777215
176
     1
 90
        0
176
     1
 90
        0
176
     1
 62
     7
176
     1
 62
   257
176
     1
 90
        1
176
     1
 90
        1
176
     1
 40
1.0
176
     1
 90
        8
176
     1
 62
     7
176
     1
 40
1.0
176
     1
 90
        1
176
     1
 90
        6
176
     1
 90
        2
176
     1
 62
     7
176
     1
 90
        5
176
     1
 90
        0
176
     1
 90
        0
176
     1
290
     0
176
     1
 90
       13
176
     1
 40
0.0
176
     1
 90
        0
176
     1
290
     0
176
     1
290
     1
176
     1
290
     1
176
     1
290
     0
176
     1
290
     0
176
     1
290
     0
176
     1
290
     0
176
     1
290
     0
176
     1
290
     0
176
     1
 90
       50
176
     1
 40
0.0
176
     1
 40
1.0
176
     1
 90
        0
176
     1
 62
    18
420
        0
176
     1
 90
       50
176
     1
 90
        3
176
     1
 62
     5
420
      255
176
     1
290
     0
176
     1
 90
       50
176
     1
 90
       50
176
     1
 90
       50
176
     1
290
     0
176
     1
 90
       50
176
     1
 62
   256
176
     0
 40
1.0
176
     0
 90
        2
176
     1
  1
strokes_ogs.tif
176
     1
290
     0
176
     1
 40
1.0
176
     1
 40
1.0
176
     1
  0
VISUALSTYLE
  5
2C
102
{ACAD_REACTORS
330
2A
102
}
330
2A
100
AcDbVisualStyle
  2
FlatWithEdges
 70
     1
177
     3
291
     1
 70
    58
 90
        2
176
     1
 90
        1
176
     1
 90
        1
176
     1
 90
        2
176
     1
 40
0.6
176
     1
 40
30.0
176
     1
 62
     7
420
 16777215
176
     1
 90
        1
176
     1
 90
        0
176
     1
 62
     7
176
     1
 62
   257
176
     1
 90
        1
176
     1
 90
        1
176
     1
 40
1.0
176
     1
 90
        0
176
     1
 62
   257
176
     1
 40
1.0
176
     1
 90
        1
176
     1
 90
        6
176
     1
 90
        2
176
     1
 62
     7
176
     1
 90
        5
176
     1
 90
        0
176
     1
 90
        0
176
     1
290
     0
176
     1
 90
       13
176
     1
 40
0.0
176
     1
 90
        0
176
     1
290
     0
176
     1
290
     1
176
     1
290
     1
176
     1
290
     0
176
     1
290
     0
176
     1
290
     0
176
     1
290
     0
176
     1
290
     0
176
     1
290
     0
176
     1
 90
       50
176
     1
 40
0.0
176
     1
 40
1.0
176
     1
 90
        0
176
     1
 62
    18
420
        0
176
     1
 90
       50
176
     1
 90
        3
176
     1
 62
     5
420
      255
176
     1
290
     0
176
     1
 90
       50
176
     1
 90
       50
176
     1
 90
       50
176
     1
290
     0
176
     1
 90
       50
176
     1
 62
   256
176
     0
 40
1.0
176
     0
 90
        2
176
     1
  1
strokes_ogs.tif
176
     1
290
     0
176
     1
 40
1.0
176
     1
 40
1.0
176
     1
  0
VISUALSTYLE
  5
2D
102
{ACAD_REACTORS
330
2A
102
}
330
2A
100
AcDbVisualStyle
  2
Gouraud
 70
     2
177
     3
291
     1
 70
    58
 90
        2
176
     1
 90
        2
176
     1
 90
        1
176
     1
 90
        2
176
     1
 40
0.6
176
     1
 40
30.0
176
     1
 62
     7
420
 16777215
176
     1
 90
        0
176
     1
 90
        0
176
     1
 62
     7
176
     1
 62
   257
176
     1
 90
        1
176
     1
 90
        1
176
     1
 40
1.0
176
     1
 90
        0
176
     1
 62
     7
176
     1
 40
1.0
176
     1
 90
        1
176
     1
 90
        6
176
     1
 90
        2
176
     1
 62
     7
176
     1
 90
        5
176
     1
 90
        0
176
     1
 90
        0
176
     1
290
     0
176
     1
 90
       13
176
     1
 40
0.0
176
     1
 90
        0
176
     1
290
     0
176
     1
290
     1
176
     1
290
     1
176
     1
290
     0
176
     1
290
     0
176
     1
290
     0
176
     1
290
     0
176
     1
290
     0
176
     1
290
     0
176
     1
 90
       50
176
     1
 40
0.0
176
     1
 40
1.0
176
     1
 90
        0
176
     1
 62
    18
420
        0
176
     1
 90
       50
176
     1
 90
        3
176
     1
 62
     5
420
      255
176
     1
290
     0
176
     1
 90
       50
176
     1
 90
       50
176
     1
 90
       50
176
     1
290
     0
176
     1
 90
       50
176
     1
 62
   256
176
     0
 40
1.0
176
     0
 90
        2
176
     1
  1
strokes_ogs.tif
176
     1
290
     0
176
     1
 40
1.0
176
     1
 40
1.0
176
     1
  0
VISUALSTYLE
  5
2E
102
{ACAD_REACTORS
330
2A
102
}
330
2A
100
AcDbVisualStyle
  2
GouraudWithEdges
 70
     3
177
     3
291
     1
 70
    58
 90
        2
176
     1
 90
        2
176
     1
 90
        1
176
     1
 90
        2
176
     1
 40
0.6
176
     1
 40
30.0
176
     1
 62
     7
420
 16777215
176
     1
 90
        1
176
     1
 90
        0
176
     1
 62
     7
176
     1
 62
   257
176
     1
 90
        1
176
     1
 90
        1
176
     1
 40
1.0
176
     1
 90
        0
176
     1
 62
   257
176
     1
 40
1.0
176
     1
 90
        1
176
     1
 90
        6
176
     1
 90
        2
176
     1
 62
     7
176
     1
 90
        5
176
     1
 90
        0
176
     1
 90
        0
176
     1
290
     0
176
     1
 90
       13
176
     1
 40
0.0
176
     1
 90
        0
176
     1
290
     0
176
     1
290
     1
176
     1
290
     1
176
     1
290
     0
176
     1
290
     0
176
     1
290
     0
176
     1
290
     0
176
     1
290
     0
176
     1
290
     0
176
     1
 90
       50
176
     1
 40
0.0
176
     1
 40
1.0
176
     1
 90
        0
176
     1
 62
    18
420
        0
176
     1
 90
       50
176
     1
 90
        3
176
     1
 62
     5
420
      255
176
     1
290
     0
176
     1
 90
       50
176
     1
 90
       50
176
     1
 90
       50
176
     1
290
     0
176
     1
 90
       50
176
     1
 62
   256
176
     0
 40
1.0
176
     0
 90
        2
176
     1
  1
strokes_ogs.tif
176
     1
290
     0
176
     1
 40
1.0
176
     1
 40
1.0
176
     1
  0
VISUALSTYLE
  5
31
102
{ACAD_REACTORS
330
2A
102
}
330
2A
100
AcDbVisualStyle
  2
Hidden
 70
     6
177
     3
291
     0
 70
    58
 90
        1
176
     1
 90
        2
176
     1
 90
        2
176
     1
 90
        0
176
     1
 40
0.6
176
     1
 40
30.0
176
     1
 62
     7
420
 16777215
176
     1
 90
        2
176
     1
 90
        2
176
     1
 62
     7
176
     1
 62
   257
176
     1
 90
        2
176
     1
 90
        1
176
     1
 40
40.0
176
     1
 90
        0
176
     1
 62
   257
176
     1
 40
1.0
176
     1
 90
        1
176
     1
 90
        6
176
     1
 90
        2
176
     1
 62
     7
176
     1
 90
        3
176
     1
 90
        0
176
     1
 90
        0
176
     1
290
     0
176
     1
 90
        1
176
     1
 40
0.0
176
     1
 90
        0
176
     1
290
     0
176
     1
290
     1
176
     1
290
     1
176
     1
290
     0
176
     1
290
     0
176
     1
290
     0
176
     1
290
     0
176
     1
290
     0
176
     1
290
     0
176
     1
 90
       50
176
     1
 40
0.0
176
     1
 40
1.0
176
     1
 90
        0
176
     1
 62
    18
420
        0
176
     1
 90
       50
176
     1
 90
        3
176
     1
 62
     5
420
      255
176
     1
290
     0
176
     1
 90
       50
176
     1
 90
       50
176
     1
 90
       50
176
     1
290
     0
176
     1
 90
       50
176
     1
 62
   256
176
     0
 40
1.0
176
     0
 90
        2
176
     1
  1
strokes_ogs.tif
176
     1
290
     0
176
     1
 40
1.0
176
     1
 40
1.0
176
     1
  0
VISUALSTYLE
  5
3B
102
{ACAD_REACTORS
330
2A
102
}
330
2A
100
AcDbVisualStyle
  2
JitterOff
 70
    20
177
     3
291
     1
 70
    58
 90
        2
176
     0
 90
        2
176
     0
 90
        0
176
     0
 90
        0
176
     0
 40
0.6
176
     0
 40
30.0
176
     0
 62
     7
420
 16777215
176
     0
 90
        1
176
     0
 90
        4
176
     0
 62
     7
176
     0
 62
   257
176
     0
 90
        1
176
     0
 90
        1
176
     0
 40
1.0
176
     0
 90
       10
176
     2
 62
     7
176
     0
 40
1.0
176
     0
 90
        1
176
     0
 90
        6
176
     0
 90
        2
176
     0
 62
     7
176
     0
 90
        5
176
     0
 90
        0
176
     0
 90
        0
176
     0
290
     0
176
     0
 90
        1
176
     0
 40
0.0
176
     0
 90
        0
176
     0
290
     0
176
     0
290
     1
176
     0
290
     1
176
     0
290
     0
176
     0
290
     0
176
     0
290
     0
176
     0
290
     0
176
     0
290
     0
176
     0
290
     0
176
     0
 90
       50
176
     0
 40
0.0
176
     0
 40
1.0
176
     0
 90
        0
176
     0
 62
    18
420
        0
176
     0
 90
       50
176
     0
 90
        3
176
     0
 62
     5
420
      255
176
     0
290
     0
176
     0
 90
       50
176
     0
 90
       50
176
     0
 90
       50
176
     0
290
     0
176
     0
 90
       50
176
     0
 62
   256
176
     0
 40
1.0
176
     0
 90
        2
176
     0
  1
strokes_ogs.tif
176
     0
290
     0
176
     0
 40
1.0
176
     0
 40
1.0
176
     0
  0
VISUALSTYLE
  5
38
102
{ACAD_REACTORS
330
2A
102
}
330
2A
100
AcDbVisualStyle
  2
Linepattern
 70
    14
177
     3
291
     1
 70
    58
 90
        2
176
     1
 90
        2
176
     1
 90
        0
176
     1
 90
        0
176
     1
 40
0.6
176
     1
 40
30.0
176
     1
 62
     7
420
 16777215
176
     1
 90
        1
176
     1
 90
        4
176
     1
 62
     7
176
     1
 62
   257
176
     1
 90
        7
176
     1
 90
        7
176
     1
 40
1.0
176
     1
 90
        8
176
     1
 62
     7
176
     1
 40
1.0
176
     1
 90
        1
176
     1
 90
        6
176
     1
 90
        2
176
     1
 62
     7
176
     1
 90
        5
176
     1
 90
        0
176
     1
 90
        0
176
     1
290
     0
176
     1
 90
        1
176
     1
 40
0.0
176
     1
 90
        0
176
     1
290
     0
176
     1
290
     1
176
     1
290
     1
176
     1
290
     0
176
     1
290
     0
176
     1
290
     0
176
     1
290
     0
176
     1
290
     0
176
     1
290
     0
176
     1
 90
       50
176
     1
 40
0.0
176
     1
 40
1.0
176
     1
 90
        0
176
     1
 62
    18
420
        0
176
     1
 90
       50
176
     1
 90
        3
176
     1
 62
     5
420
      255
176
     1
290
     0
176
     1
 90
       50
176
     1
 90
       50
176
     1
 90
       50
176
     1
290
     0
176
     1
 90
       50
176
     1
 62
   256
176
     0
 40
1.0
176
     0
 90
        2
176
     1
  1
strokes_ogs.tif
176
     1
290
     0
176
     1
 40
1.0
176
     1
 40
1.0
176
     1
  0
VISUALSTYLE
  5
3C
102
{ACAD_REACTORS
330
2A
102
}
330
2A
100
AcDbVisualStyle
  2
OverhangOff
 70
    21
177
     3
291
     1
 70
    58
 90
        2
176
     0
 90
        2
176
     0
 90
        0
176
     0
 90
        0
176
     0
 40
0.6
176
     0
 40
30.0
176
     0
 62
     7
420
 16777215
176
     0
 90
        1
176
     0
 90
        4
176
     0
 62
     7
176
     0
 62
   257
176
     0
 90
        1
176
     0
 90
        1
176
     0
 40
1.0
176
     0
 90
        9
176
     2
 62
     7
176
     0
 40
1.0
176
     0
 90
        1
176
     0
 90
        6
176
     0
 90
        2
176
     0
 62
     7
176
     0
 90
        5
176
     0
 90
        0
176
     0
 90
        0
176
     0
290
     0
176
     0
 90
        1
176
     0
 40
0.0
176
     0
 90
        0
176
     0
290
     0
176
     0
290
     1
176
     0
290
     1
176
     0
290
     0
176
     0
290
     0
176
     0
290
     0
176
     0
290
     0
176
     0
290
     0
176
     0
290
     0
176
     0
 90
       50
176
     0
 40
0.0
176
     0
 40
1.0
176
     0
 90
        0
176
     0
 62
    18
420
        0
176
     0
 90
       50
176
     0
 90
        3
176
     0
 62
     5
420
      255
176
     0
290
     0
176
     0
 90
       50
176
     0
 90
       50
176
     0
 90
       50
176
     0
290
     0
176
     0
 90
       50
176
     0
 62
   256
176
     0
 40
1.0
176
     0
 90
        2
176
     0
  1
strokes_ogs.tif
176
     0
290
     0
176
     0
 40
1.0
176
     0
 40
1.0
176
     0
  0
VISUALSTYLE
  5
33
102
{ACAD_REACTORS
330
2A
102
}
330
2A
100
AcDbVisualStyle
  2
Realistic
 70
     8
177
     3
291
     0
 70
    58
 90
        2
176
     1
 90
        3
176
     1
 90
        0
176
     1
 90
        2
176
     1
 40
0.6
176
     1
 40
30.0
176
     1
 62
     7
420
 16777215
176
     1
 90
        0
176
     1
 90
        0
176
     1
 62
     7
176
     1
 62
   257
176
     1
 90
        1
176
     1
 90
        1
176
     1
 40
1.0
176
     1
 90
        8
176
     1
 62
   257
176
     1
 40
1.0
176
     1
 90
        1
176
     1
 90
        6
176
     1
 90
        2
176
     1
 62
     7
176
     1
 90
        3
176
     1
 90
        0
176
     1
 90
        0
176
     1
290
     0
176
     1
 90
       13
176
     1
 40
0.0
176
     1
 90
        0
176
     1
290
     0
176
     1
290
     1
176
     1
290
     1
176
     1
290
     0
176
     1
290
     0
176
     1
290
     0
176
     1
290
     0
176
     1
290
     0
176
     1
290
     0
176
     1
 90
       50
176
     1
 40
0.0
176
     1
 40
1.0
176
     1
 90
        0
176
     1
 62
    18
420
        0
176
     1
 90
       50
176
     1
 90
        3
176
     1
 62
     5
420
      255
176
     1
290
     0
176
     1
 90
       50
176
     1
 90
       50
176
     1
 90
       50
176
     1
290
     0
176
     1
 90
       50
176
     1
 62
   256
176
     0
 40
1.0
176
     0
 90
        2
176
     1
  1
strokes_ogs.tif
176
     1
290
     0
176
     1
 40
1.0
176
     1
 40
1.0
176
     1
  0
VISUALSTYLE
  5
42
102
{ACAD_REACTORS
330
2A
102
}
330
2A
100
AcDbVisualStyle
  2
Shaded
 70
    27
177
     3
291
     0
 70
    58
 90
        2
176
     1
 90
        2
176
     1
 90
        1
176
     1
 90
        2
176
     1
 40
0.6
176
     1
 40
30.0
176
     1
 62
     7
420
 16777215
176
     1
 90
        0
176
     1
 90
        4
176
     1
 62
     7
176
     1
 62
   257
176
     1
 90
        1
176
     1
 90
        1
176
     1
 40
1.0
176
     1
 90
        8
176
     1
 62
   257
176
     1
 40
1.0
176
     1
 90
        1
176
     1
 90
        6
176
     1
 90
        2
176
     1
 62
     8
420
  7895160
176
     1
 90
        3
176
     1
 90
        0
176
     1
 90
        0
176
     1
290
     0
176
     1
 90
        5
176
     1
 40
0.0
176
     1
 90
        0
176
     1
290
     0
176
     1
290
     1
176
     1
290
     1
176
     1
290
     0
176
     1
290
     0
176
     1
290
     0
176
     1
290
     0
176
     1
290
     0
176
     1
290
     0
176
     1
 90
       50
176
     1
 40
0.0
176
     1
 40
1.0
176
     1
 90
        0
176
     1
 62
    18
420
        0
176
     1
 90
       50
176
     1
 90
        3
176
     1
 62
     5
420
      255
176
     1
290
     0
176
     1
 90
       50
176
     1
 90
       50
176
     1
 90
       50
176
     1
290
     0
176
     1
 90
       50
176
     1
 62
   256
176
     0
 40
1.0
176
     0
 90
        2
176
     1
  1
strokes_ogs.tif
176
     1
290
     0
176
     1
 40
1.0
176
     1
 40
1.0
176
     1
  0
VISUALSTYLE
  5
41
102
{ACAD_REACTORS
330
2A
102
}
330
2A
100
AcDbVisualStyle
  2
Shaded with edges
 70
    26
177
     3
291
     0
 70
    58
 90
        2
176
     1
 90
        2
176
     1
 90
        1
176
     1
 90
        2
176
     1
 40
0.6
176
     1
 40
30.0
176
     1
 62
     7
420
 16777215
176
     1
 90
        1
176
     1
 90
       10
176
     1
 62
     7
176
     1
 62
   257
176
     1
 90
        2
176
     1
 90
        1
176
     1
 40
1.0
176
     1
 90
        8
176
     1
 62
   257
176
     1
 40
1.0
176
     1
 90
        1
176
     1
 90
        6
176
     1
 90
        2
176
     1
 62
     7
176
     1
 90
        3
176
     1
 90
        0
176
     1
 90
        0
176
     1
290
     0
176
     1
 90
        5
176
     1
 40
0.0
176
     1
 90
        0
176
     1
290
     0
176
     1
290
     1
176
     1
290
     1
176
     1
290
     0
176
     1
290
     0
176
     1
290
     0
176
     1
290
     0
176
     1
290
     0
176
     1
290
     0
176
     1
 90
       50
176
     1
 40
0.0
176
     1
 40
1.0
176
     1
 90
        0
176
     1
 62
    18
420
        0
176
     1
 90
       50
176
     1
 90
        3
176
     1
 62
     5
420
      255
176
     1
290
     0
176
     1
 90
       50
176
     1
 90
       50
176
     1
 90
       50
176
     1
290
     0
176
     1
 90
       50
176
     1
 62
   256
176
     0
 40
1.0
176
     0
 90
        2
176
     1
  1
strokes_ogs.tif
176
     1
290
     0
176
     1
 40
1.0
176
     1
 40
1.0
176
     1
  0
VISUALSTYLE
  5
3E
102
{ACAD_REACTORS
330
2A
102
}
330
2A
100
AcDbVisualStyle
  2
Shades of Gray
 70
    23
177
     3
291
     0
 70
    58
 90
        2
176
     1
 90
        2
176
     1
 90
        3
176
     1
 90
        0
176
     1
 40
0.6
176
     1
 40
30.0
176
     1
 62
     7
420
 16777215
176
     1
 90
        2
176
     1
 90
        2
176
     1
 62
     7
176
     1
 62
     7
176
     1
 90
        1
176
     1
 90
        1
176
     1
 40
40.0
176
     1
 90
        8
176
     1
 62
     7
176
     1
 40
1.0
176
     1
 90
        1
176
     1
 90
        6
176
     1
 90
        2
176
     1
 62
     7
176
     1
 90
        3
176
     1
 90
        0
176
     1
 90
        0
176
     1
290
     0
176
     1
 90
        1
176
     1
 40
0.0
176
     1
 90
        0
176
     1
290
     0
176
     1
290
     1
176
     1
290
     1
176
     1
290
     0
176
     1
290
     0
176
     1
290
     0
176
     1
290
     0
176
     1
290
     0
176
     1
290
     0
176
     1
 90
       50
176
     1
 40
0.0
176
     1
 40
1.0
176
     1
 90
        0
176
     1
 62
    18
420
        0
176
     1
 90
       50
176
     1
 90
        3
176
     1
 62
     5
420
      255
176
     1
290
     0
176
     1
 90
       50
176
     1
 90
       50
176
     1
 90
       50
176
     1
290
     0
176
     1
 90
       50
176
     1
 62
   256
176
     0
 40
1.0
176
     0
 90
        2
176
     1
  1
strokes_ogs.tif
176
     1
290
     0
176
     1
 40
1.0
176
     1
 40
1.0
176
     1
  0
VISUALSTYLE
  5
3F
102
{ACAD_REACTORS
330
2A
102
}
330
2A
100
AcDbVisualStyle
  2
Sketchy
 70
    24
177
     3
291
     0
 70
    58
 90
        1
176
     1
 90
        2
176
     1
 90
        2
176
     1
 90
        0
176
     1
 40
0.6
176
     1
 40
30.0
176
     1
 62
     7
420
 16777215
176
     1
 90
        2
176
     1
 90
        2
176
     1
 62
     7
176
     1
 62
     7
176
     1
 90
        1
176
     1
 90
        1
176
     1
 40
40.0
176
     1
 90
       11
176
     1
 62
     7
176
     1
 40
1.0
176
     1
 90
        1
176
     1
 90
        6
176
     1
 90
        2
176
     1
 62
     7
176
     1
 90
        6
176
     1
 90
        0
176
     1
 90
        0
176
     1
290
     0
176
     1
 90
        1
176
     1
 40
0.0
176
     1
 90
        0
176
     1
290
     0
176
     1
290
     1
176
     1
290
     1
176
     1
290
     0
176
     1
290
     0
176
     1
290
     0
176
     1
290
     0
176
     1
290
     0
176
     1
290
     0
176
     1
 90
       50
176
     1
 40
0.0
176
     1
 40
1.0
176
     1
 90
        0
176
     1
 62
    18
420
        0
176
     1
 90
       50
176
     1
 90
        3
176
     1
 62
     5
420
      255
176
     1
290
     0
176
     1
 90
       50
176
     1
 90
       50
176
     1
 90
       50
176
     1
290
     0
176
     1
 90
       50
176
     1
 62
   256
176
     0
 40
1.0
176
     0
 90
        2
176
     1
  1
strokes_ogs.tif
176
     1
290
     0
176
     1
 40
1.0
176
     1
 40
1.0
176
     1
  0
VISUALSTYLE
  5
37
102
{ACAD_REACTORS
330
2A
102
}
330
2A
100
AcDbVisualStyle
  2
Thicken
 70
    13
177
     3
291
     1
 70
    58
 90
        2
176
     1
 90
        2
176
     1
 90
        0
176
     1
 90
        0
176
     1
 40
0.6
176
     1
 40
30.0
176
     1
 62
     7
420
 16777215
176
     1
 90
        1
176
     1
 90
        4
176
     1
 62
     7
176
     1
 62
   257
176
     1
 90
        1
176
     1
 90
        1
176
     1
 40
1.0
176
     1
 90
       12
176
     1
 62
     7
176
     1
 40
1.0
176
     1
 90
        1
176
     1
 90
        6
176
     1
 90
        2
176
     1
 62
     7
176
     1
 90
        5
176
     1
 90
        0
176
     1
 90
        0
176
     1
290
     0
176
     1
 90
        1
176
     1
 40
0.0
176
     1
 90
        0
176
     1
290
     0
176
     1
290
     1
176
     1
290
     1
176
     1
290
     0
176
     1
290
     0
176
     1
290
     0
176
     1
290
     0
176
     1
290
     0
176
     1
290
     0
176
     1
 90
       50
176
     1
 40
0.0
176
     1
 40
1.0
176
     1
 90
        0
176
     1
 62
    18
420
        0
176
     1
 90
       50
176
     1
 90
        3
176
     1
 62
     5
420
      255
176
     1
290
     0
176
     1
 90
       50
176
     1
 90
       50
176
     1
 90
       50
176
     1
290
     0
176
     1
 90
       50
176
     1
 62
   256
176
     0
 40
1.0
176
     0
 90
        2
176
     1
  1
strokes_ogs.tif
176
     1
290
     0
176
     1
 40
1.0
176
     1
 40
1.0
176
     1
  0
VISUALSTYLE
  5
30
102
{ACAD_REACTORS
330
2A
102
}
330
2A
100
AcDbVisualStyle
  2
Wireframe
 70
     5
177
     3
291
     0
 70
    58
 90
        0
176
     1
 90
        2
176
     1
 90
        0
176
     1
 90
        0
176
     1
 40
0.6
176
     1
 40
30.0
176
     1
 62
     7
420
 16777215
176
     1
 90
        1
176
     1
 90
        4
176
     1
 62
     7
176
     1
 62
   257
176
     1
 90
        1
176
     1
 90
        1
176
     1
 40
1.0
176
     1
 90
        0
176
     1
 62
   257
176
     1
 40
1.0
176
     1
 90
        1
176
     1
 90
        6
176
     1
 90
        2
176
     1
 62
     7
176
     1
 90
        3
176
     1
 90
        0
176
     1
 90
        0
176
     1
290
     0
176
     1
 90
        1
176
     1
 40
0.0
176
     1
 90
        0
176
     1
290
     0
176
     1
290
     1
176
     1
290
     1
176
     1
290
     0
176
     1
290
     0
176
     1
290
     0
176
     1
290
     0
176
     1
290
     0
176
     1
290
     0
176
     1
 90
       50
176
     1
 40
0.0
176
     1
 40
1.0
176
     1
 90
        0
176
     1
 62
    18
420
        0
176
     1
 90
       50
176
     1
 90
        3
176
     1
 62
     5
420
      255
176
     1
290
     0
176
     1
 90
       50
176
     1
 90
       50
176
     1
 90
       50
176
     1
290
     0
176
     1
 90
       50
176
     1
 62
   256
176
     0
 40
1.0
176
     0
 90
        2
176
     1
  1
strokes_ogs.tif
176
     1
290
     0
176
     1
 40
1.0
176
     1
 40
1.0
176
     1
  0
VISUALSTYLE
  5
40
102
{ACAD_REACTORS
330
2A
102
}
330
2A
100
AcDbVisualStyle
  2
X-Ray
 70
    25
177
     3
291
     0
 70
    58
 90
        2
176
     1
 90
        2
176
     1
 90
        1
176
     1
 90
        1
176
     1
 40
0.5
176
     1
 40
30.0
176
     1
 62
     7
420
 16777215
176
     1
 90
        1
176
     1
 90
        0
176
     1
 62
     7
176
     1
 62
   257
176
     1
 90
        1
176
     1
 90
        1
176
     1
 40
1.0
176
     1
 90
        8
176
     1
 62
     7
176
     1
 40
1.0
176
     1
 90
        1
176
     1
 90
        6
176
     1
 90
        2
176
     1
 62
     7
176
     1
 90
        3
176
     1
 90
        0
176
     1
 90
        0
176
     1
290
     0
176
     1
 90
       13
176
     1
 40
0.0
176
     1
 90
        0
176
     1
290
     0
176
     1
290
     1
176
     1
290
     1
176
     1
290
     0
176
     1
290
     0
176
     1
290
     0
176
     1
290
     0
176
     1
290
     0
176
     1
290
     0
176
     1
 90
       50
176
     1
 40
0.0
176
     1
 40
1.0
176
     1
 90
        0
176
     1
 62
    18
420
        0
176
     1
 90
       50
176
     1
 90
        3
176
     1
 62
     5
420
      255
176
     1
290
     0
176
     1
 90
       50
176
     1
 90
       50
176
     1
 90
       50
176
     1
290
     0
176
     1
 90
       50
176
     1
 62
   256
176
     0
 40
1.0
176
     0
 90
        2
176
     1
  1
strokes_ogs.tif
176
     1
290
     0
176
     1
 40
1.0
176
     1
 40
1.0
176
     1
  0
DICTIONARYVAR
  5
197
102
{ACAD_REACTORS
330
196
102
}
330
196
100
DictionaryVariables
280
     0
  1
1:1
  0
DICTIONARYVAR
  5
19C
102
{ACAD_REACTORS
330
196
102
}
330
196
100
DictionaryVariables
280
     0
  1
Standard
  0
DICTIONARYVAR
  5
19B
102
{ACAD_REACTORS
330
196
102
}
330
196
100
DictionaryVariables
280
     0
  1
Standard
  0
DICTIONARY
  5
198
330
6A
100
AcDbDictionary
280
     1
281
     1
  3
ACAD_ROUNDTRIP_2008_TABLESTYLE_CELLSTYLEMAP
360
199
  0
CELLSTYLEMAP
  5
199
102
{ACAD_REACTORS
330
198
102
}
330
198
100
AcDbCellStyleMap
 90
        3
300
CELLSTYLE
  1
TABLEFORMAT_BEGIN
 90
        5
170
     1
 91
        0
 92
    32768
 62
   257
 93
        1
300
CONTENTFORMAT
  1
CONTENTFORMAT_BEGIN
 90
        0
 91
        0
 92
        4
 93
        0
300

 40
0.0
140
1.0
 94
        5
 62
     0
340
11
144
0.25
309
CONTENTFORMAT_END
171
     1
301
MARGIN
  1
CELLMARGIN_BEGIN
 40
0.06
 40
0.06
 40
0.06
 40
0.06
 40
0.06
 40
0.06
309
CELLMARGIN_END
 94
        6
 95
        1
302
GRIDFORMAT
  1
GRIDFORMAT_BEGIN
 90
        0
 91
        1
 62
     0
 92
       -2
340
14
 93
        0
 40
0.045
309
GRIDFORMAT_END
 95
        2
302
GRIDFORMAT
  1
GRIDFORMAT_BEGIN
 90
        0
 91
        1
 62
     0
 92
       -2
340
14
 93
        0
 40
0.045
309
GRIDFORMAT_END
 95
        4
302
GRIDFORMAT
  1
GRIDFORMAT_BEGIN
 90
        0
 91
        1
 62
     0
 92
       -2
340
14
 93
        0
 40
0.045
309
GRIDFORMAT_END
 95
        8
302
GRIDFORMAT
  1
GRIDFORMAT_BEGIN
 90
        0
 91
        1
 62
     0
 92
       -2
340
14
 93
        0
 40
0.045
309
GRIDFORMAT_END
 95
       16
302
GRIDFORMAT
  1
GRIDFORMAT_BEGIN
 90
        0
 91
        1
 62
     0
 92
       -2
340
14
 93
        0
 40
0.045
309
GRIDFORMAT_END
 95
       32
302
GRIDFORMAT
  1
GRIDFORMAT_BEGIN
 90
        0
 91
        1
 62
     0
 92
       -2
340
14
 93
        0
 40
0.045
309
GRIDFORMAT_END
309
TABLEFORMAT_END
  1
CELLSTYLE_BEGIN
 90
        1
 91
        1
300
_TITLE
309
CELLSTYLE_END
300
CELLSTYLE
  1
TABLEFORMAT_BEGIN
 90
        5
170
     1
 91
        0
 92
        0
 62
   257
 93
        1
300
CONTENTFORMAT
  1
CONTENTFORMAT_BEGIN
 90
        0
 91
        0
 92
        4
 93
        0
300

 40
0.0
140
1.0
 94
        5
 62
     0
340
11
144
0.18
309
CONTENTFORMAT_END
171
     1
301
MARGIN
  1
CELLMARGIN_BEGIN
 40
0.06
 40
0.06
 40
0.06
 40
0.06
 40
0.06
 40
0.06
309
CELLMARGIN_END
 94
        6
 95
        1
302
GRIDFORMAT
  1
GRIDFORMAT_BEGIN
 90
        0
 91
        1
 62
     0
 92
       -2
340
14
 93
        0
 40
0.045
309
GRIDFORMAT_END
 95
        2
302
GRIDFORMAT
  1
GRIDFORMAT_BEGIN
 90
        0
 91
        1
 62
     0
 92
       -2
340
14
 93
        0
 40
0.045
309
GRIDFORMAT_END
 95
        4
302
GRIDFORMAT
  1
GRIDFORMAT_BEGIN
 90
        0
 91
        1
 62
     0
 92
       -2
340
14
 93
        0
 40
0.045
309
GRIDFORMAT_END
 95
        8
302
GRIDFORMAT
  1
GRIDFORMAT_BEGIN
 90
        0
 91
        1
 62
     0
 92
       -2
340
14
 93
        0
 40
0.045
309
GRIDFORMAT_END
 95
       16
302
GRIDFORMAT
  1
GRIDFORMAT_BEGIN
 90
        0
 91
        1
 62
     0
 92
       -2
340
14
 93
        0
 40
0.045
309
GRIDFORMAT_END
 95
       32
302
GRIDFORMAT
  1
GRIDFORMAT_BEGIN
 90
        0
 91
        1
 62
     0
 92
       -2
340
14
 93
        0
 40
0.045
309
GRIDFORMAT_END
309
TABLEFORMAT_END
  1
CELLSTYLE_BEGIN
 90
        2
 91
        1
300
_HEADER
309
CELLSTYLE_END
300
CELLSTYLE
  1
TABLEFORMAT_BEGIN
 90
        5
170
     1
 91
        0
 92
        0
 62
   257
 93
        1
300
CONTENTFORMAT
  1
CONTENTFORMAT_BEGIN
 90
        0
 91
        0
 92
        4
 93
        0
300

 40
0.0
140
1.0
 94
        2
 62
     0
340
11
144
0.18
309
CONTENTFORMAT_END
171
     1
301
MARGIN
  1
CELLMARGIN_BEGIN
 40
0.06
 40
0.06
 40
0.06
 40
0.06
 40
0.06
 40
0.06
309
CELLMARGIN_END
 94
        6
 95
        1
302
GRIDFORMAT
  1
GRIDFORMAT_BEGIN
 90
        0
 91
        1
 62
     0
 92
       -2
340
14
 93
        0
 40
0.045
309
GRIDFORMAT_END
 95
        2
302
GRIDFORMAT
  1
GRIDFORMAT_BEGIN
 90
        0
 91
        1
 62
     0
 92
       -2
340
14
 93
        0
 40
0.045
309
GRIDFORMAT_END
 95
        4
302
GRIDFORMAT
  1
GRIDFORMAT_BEGIN
 90
        0
 91
        1
 62
     0
 92
       -2
340
14
 93
        0
 40
0.045
309
GRIDFORMAT_END
 95
        8
302
GRIDFORMAT
  1
GRIDFORMAT_BEGIN
 90
        0
 91
        1
 62
     0
 92
       -2
340
14
 93
        0
 40
0.045
309
GRIDFORMAT_END
 95
       16
302
GRIDFORMAT
  1
GRIDFORMAT_BEGIN
 90
        0
 91
        1
 62
     0
 92
       -2
340
14
 93
        0
 40
0.045
309
GRIDFORMAT_END
 95
       32
302
GRIDFORMAT
  1
GRIDFORMAT_BEGIN
 90
        0
 91
        1
 62
     0
 92
       -2
340
14
 93
        0
 40
0.045
309
GRIDFORMAT_END
309
TABLEFORMAT_END
  1
CELLSTYLE_BEGIN
 90
        3
 91
        2
300
_DATA
309
CELLSTYLE_END
  0
ENDSEC
  0
EOF