0
SECTION
  2
HEADER
  9
$ACADVER
  1
AC1027
  9
$ACADMAINTVER
 70
     8
  9
$DWGCODEPAGE
  3
ANSI_1252
  9
$REQUIREDVERSIONS
160
                 0
  9
$COMMENTS
  1
File was created by Cadenas
  9
$CUSTOMPROPERTYTAG
  1
NN
  9
$CUSTOMPROPERTY
  1
Eccentric Collar Intermediate Duty Narrow Slot Take Up Inch Bore
  9
$CUSTOMPROPERTYTAG
  1
NT
  9
$CUSTOMPROPERTY
  1
Eccentric Collar Take-Up Bearings -(Intermediate Duty) -Narrow Slot
  9
$CUSTOMPROPERTYTAG
  1
NB
  9
$CUSTOMPROPERTY
  1
130340
  9
$CUSTOMPROPERTYTAG
  1
NBSYN
  9
$CUSTOMPROPERTY
  1
$PN.
  9
$CUSTOMPROPERTYTAG
  1
LINA
  9
$CUSTOMPROPERTY
  1
130340
  9
$CUSTOMPROPERTYTAG
  1
SERIES
  9
$CUSTOMPROPERTY
  1
209
  9
$CUSTOMPROPERTYTAG
  1
SS
  9
$CUSTOMPROPERTY
  1
1-11/16
  9
$CUSTOMPROPERTYTAG
  1
PN
  9
$CUSTOMPROPERTY
  1
130340
  9
$CUSTOMPROPERTYTAG
  1
DESCRIPTION
  9
$CUSTOMPROPERTY
  1
NSTU-SXV-111
  9
$CUSTOMPROPERTYTAG
  1
W
  9
$CUSTOMPROPERTY
  1
4.8
  9
$CUSTOMPROPERTYTAG
  1
FS
  9
$CUSTOMPROPERTY
  1
NS400
  9
$CUSTOMPROPERTYTAG
  1
A
  9
$CUSTOMPROPERTY
  1
1.69
  9
$CUSTOMPROPERTYTAG
  1
B
  9
$CUSTOMPROPERTY
  1
5.44
  9
$CUSTOMPROPERTYTAG
  1
C
  9
$CUSTOMPROPERTY
  1
0.313
  9
$CUSTOMPROPERTYTAG
  1
D
  9
$CUSTOMPROPERTY
  1
3.00
  9
$CUSTOMPROPERTYTAG
  1
E
  9
$CUSTOMPROPERTY
  1
3.25
  9
$CUSTOMPROPERTYTAG
  1
F
  9
$CUSTOMPROPERTY
  1
7/8
  9
$CUSTOMPROPERTYTAG
  1
G
  9
$CUSTOMPROPERTY
  1
0.72
  9
$CUSTOMPROPERTYTAG
  1
H
  9
$CUSTOMPROPERTY
  1
1.22
  9
$CUSTOMPROPERTYTAG
  1
J
  9
$CUSTOMPROPERTY
  1
1.63
  9
$CUSTOMPROPERTYTAG
  1
L
  9
$CUSTOMPROPERTY
  1
2.50
  9
$CUSTOMPROPERTYTAG
  1
M
  9
$CUSTOMPROPERTY
  1
4.015 / 3.985
  9
$CUSTOMPROPERTYTAG
  1
N
  9
$CUSTOMPROPERTY
  1
4.75
  9
$CUSTOMPROPERTYTAG
  1
P
  9
$CUSTOMPROPERTY
  1
0.38
  9
$CUSTOMPROPERTYTAG
  1
R
  9
$CUSTOMPROPERTY
  1
0.43
  9
$CUSTOMPROPERTYTAG
  1
S
  9
$CUSTOMPROPERTY
  1
1.26
  9
$CUSTOMPROPERTYTAG
  1
COMPANY
  9
$CUSTOMPROPERTY
  1
baldor
  9
$INSBASE
 10
0.0
 20
0.0
 30
0.0
  9
$EXTMIN
 10
1.000000000000000E+20
 20
1.000000000000000E+20
 30
1.000000000000000E+20
  9
$EXTMAX
 10
-1.000000000000000E+20
 20
-1.000000000000000E+20
 30
-1.000000000000000E+20
  9
$LIMMIN
 10
0.0
 20
0.0
  9
$LIMMAX
 10
12.0
 20
9.0
  9
$ORTHOMODE
 70
     0
  9
$REGENMODE
 70
     1
  9
$FILLMODE
 70
     1
  9
$QTEXTMODE
 70
     0
  9
$MIRRTEXT
 70
     1
  9
$LTSCALE
 40
1.0
  9
$ATTMODE
 70
     1
  9
$TEXTSIZE
 40
0.2
  9
$TRACEWID
 40
0.05
  9
$TEXTSTYLE
  7
Standard
  9
$CLAYER
  8
0
  9
$CELTYPE
  6
ByLayer
  9
$CECOLOR
 62
   256
  9
$CELTSCALE
 40
1.0
  9
$DISPSILH
 70
     0
  9
$DIMSCALE
 40
1.0
  9
$DIMASZ
 40
0.18
  9
$DIMEXO
 40
0.0625
  9
$DIMDLI
 40
0.38
  9
$DIMRND
 40
0.0
  9
$DIMDLE
 40
0.0
  9
$DIMEXE
 40
0.18
  9
$DIMTP
 40
0.0
  9
$DIMTM
 40
0.0
  9
$DIMTXT
 40
0.18
  9
$DIMCEN
 40
0.09
  9
$DIMTSZ
 40
0.0
  9
$DIMTOL
 70
     0
  9
$DIMLIM
 70
     0
  9
$DIMTIH
 70
     1
  9
$DIMTOH
 70
     1
  9
$DIMSE1
 70
     0
  9
$DIMSE2
 70
     0
  9
$DIMTAD
 70
     0
  9
$DIMZIN
 70
     0
  9
$DIMBLK
  1

  9
$DIMASO
 70
     1
  9
$DIMSHO
 70
     1
  9
$DIMPOST
  1

  9
$DIMAPOST
  1

  9
$DIMALT
 70
     0
  9
$DIMALTD
 70
     2
  9
$DIMALTF
 40
25.4
  9
$DIMLFAC
 40
1.0
  9
$DIMTOFL
 70
     0
  9
$DIMTVP
 40
0.0
  9
$DIMTIX
 70
     0
  9
$DIMSOXD
 70
     0
  9
$DIMSAH
 70
     0
  9
$DIMBLK1
  1

  9
$DIMBLK2
  1

  9
$DIMSTYLE
  2
Standard
  9
$DIMCLRD
 70
     0
  9
$DIMCLRE
 70
     0
  9
$DIMCLRT
 70
     0
  9
$DIMTFAC
 40
1.0
  9
$DIMGAP
 40
0.09
  9
$DIMJUST
 70
     0
  9
$DIMSD1
 70
     0
  9
$DIMSD2
 70
     0
  9
$DIMTOLJ
 70
     1
  9
$DIMTZIN
 70
     0
  9
$DIMALTZ
 70
     0
  9
$DIMALTTZ
 70
     0
  9
$DIMUPT
 70
     0
  9
$DIMDEC
 70
     4
  9
$DIMTDEC
 70
     4
  9
$DIMALTU
 70
     2
  9
$DIMALTTD
 70
     2
  9
$DIMTXSTY
  7
Standard
  9
$DIMAUNIT
 70
     0
  9
$DIMADEC
 70
     0
  9
$DIMALTRND
 40
0.0
  9
$DIMAZIN
 70
     0
  9
$DIMDSEP
 70
    46
  9
$DIMATFIT
 70
     3
  9
$DIMFRAC
 70
     0
  9
$DIMLDRBLK
  1

  9
$DIMLUNIT
 70
     2
  9
$DIMLWD
 70
    -2
  9
$DIMLWE
 70
    -2
  9
$DIMTMOVE
 70
     0
  9
$DIMFXL
 40
1.0
  9
$DIMFXLON
 70
     0
  9
$DIMJOGANG
 40
0.7853981633974483
  9
$DIMTFILL
 70
     0
  9
$DIMTFILLCLR
 70
     0
  9
$DIMARCSYM
 70
     0
  9
$DIMLTYPE
  6

  9
$DIMLTEX1
  6

  9
$DIMLTEX2
  6

  9
$DIMTXTDIRECTION
 70
     0
  9
$LUNITS
 70
     2
  9
$LUPREC
 70
     4
  9
$SKETCHINC
 40
0.1
  9
$FILLETRAD
 40
0.5
  9
$AUNITS
 70
     0
  9
$AUPREC
 70
     0
  9
$MENU
  1
.
  9
$ELEVATION
 40
0.0
  9
$PELEVATION
 40
0.0
  9
$THICKNESS
 40
0.0
  9
$LIMCHECK
 70
     0
  9
$CHAMFERA
 40
0.0
  9
$CHAMFERB
 40
0.0
  9
$CHAMFERC
 40
0.0
  9
$CHAMFERD
 40
0.0
  9
$SKPOLY
 70
     0
  9
$TDCREATE
 40
2458169.003854711
  9
$TDUCREATE
 40
2458168.962188044
  9
$TDUPDATE
 40
2458169.003854884
  9
$TDUUPDATE
 40
2458168.962188218
  9
$TDINDWG
 40
0.0000000116
  9
$TDUSRTIMER
 40
0.0000000116
  9
$USRTIMER
 70
     1
  9
$ANGBASE
 50
0.0
  9
$ANGDIR
 70
     0
  9
$PDMODE
 70
     0
  9
$PDSIZE
 40
0.0
  9
$PLINEWID
 40
0.0
  9
$SPLFRAME
 70
     0
  9
$SPLINETYPE
 70
     6
  9
$SPLINESEGS
 70
     8
  9
$HANDSEED
  5
1E5
  9
$SURFTAB1
 70
     6
  9
$SURFTAB2
 70
     6
  9
$SURFTYPE
 70
     6
  9
$SURFU
 70
     6
  9
$SURFV
 70
     6
  9
$UCSBASE
  2

  9
$UCSNAME
  2

  9
$UCSORG
 10
0.0
 20
0.0
 30
0.0
  9
$UCSXDIR
 10
1.0
 20
0.0
 30
0.0
  9
$UCSYDIR
 10
0.0
 20
1.0
 30
0.0
  9
$UCSORTHOREF
  2

  9
$UCSORTHOVIEW
 70
     0
  9
$UCSORGTOP
 10
0.0
 20
0.0
 30
0.0
  9
$UCSORGBOTTOM
 10
0.0
 20
0.0
 30
0.0
  9
$UCSORGLEFT
 10
0.0
 20
0.0
 30
0.0
  9
$UCSORGRIGHT
 10
0.0
 20
0.0
 30
0.0
  9
$UCSORGFRONT
 10
0.0
 20
0.0
 30
0.0
  9
$UCSORGBACK
 10
0.0
 20
0.0
 30
0.0
  9
$PUCSBASE
  2

  9
$PUCSNAME
  2

  9
$PUCSORG
 10
0.0
 20
0.0
 30
0.0
  9
$PUCSXDIR
 10
1.0
 20
0.0
 30
0.0
  9
$PUCSYDIR
 10
0.0
 20
1.0
 30
0.0
  9
$PUCSORTHOREF
  2

  9
$PUCSORTHOVIEW
 70
     0
  9
$PUCSORGTOP
 10
0.0
 20
0.0
 30
0.0
  9
$PUCSORGBOTTOM
 10
0.0
 20
0.0
 30
0.0
  9
$PUCSORGLEFT
 10
0.0
 20
0.0
 30
0.0
  9
$PUCSORGRIGHT
 10
0.0
 20
0.0
 30
0.0
  9
$PUCSORGFRONT
 10
0.0
 20
0.0
 30
0.0
  9
$PUCSORGBACK
 10
0.0
 20
0.0
 30
0.0
  9
$USERI1
 70
     0
  9
$USERI2
 70
     0
  9
$USERI3
 70
     0
  9
$USERI4
 70
     0
  9
$USERI5
 70
     0
  9
$USERR1
 40
0.0
  9
$USERR2
 40
0.0
  9
$USERR3
 40
0.0
  9
$USERR4
 40
0.0
  9
$USERR5
 40
0.0
  9
$WORLDVIEW
 70
     1
  9
$SHADEDGE
 70
     3
  9
$SHADEDIF
 70
    70
  9
$TILEMODE
 70
     1
  9
$MAXACTVP
 70
    64
  9
$PINSBASE
 10
0.0
 20
0.0
 30
0.0
  9
$PLIMCHECK
 70
     0
  9
$PEXTMIN
 10
1.000000000000000E+20
 20
1.000000000000000E+20
 30
1.000000000000000E+20
  9
$PEXTMAX
 10
-1.000000000000000E+20
 20
-1.000000000000000E+20
 30
-1.000000000000000E+20
  9
$PLIMMIN
 10
0.0
 20
0.0
  9
$PLIMMAX
 10
12.0
 20
9.0
  9
$UNITMODE
 70
     0
  9
$VISRETAIN
 70
     1
  9
$PLINEGEN
 70
     0
  9
$PSLTSCALE
 70
     1
  9
$TREEDEPTH
 70
  3020
  9
$CMLSTYLE
  2
Standard
  9
$CMLJUST
 70
     0
  9
$CMLSCALE
 40
1.0
  9
$PROXYGRAPHICS
 70
     1
  9
$MEASUREMENT
 70
     0
  9
$CELWEIGHT
370
    -1
  9
$ENDCAPS
280
     0
  9
$JOINSTYLE
280
     0
  9
$LWDISPLAY
290
     0
  9
$INSUNITS
 70
     1
  9
$HYPERLINKBASE
  1

  9
$STYLESHEET
  1

  9
$XEDIT
290
     1
  9
$CEPSNTYPE
380
     0
  9
$PSTYLEMODE
290
     1
  9
$FINGERPRINTGUID
  2
{50153B9D-64DE-45BB-8B94-1723587AC2BD}
  9
$VERSIONGUID
  2
{FAEB1C32-E019-11D5-929B-00C0DF256EC4}
  9
$EXTNAMES
290
     1
  9
$PSVPSCALE
 40
0.0
  9
$OLESTARTUP
290
     0
  9
$SORTENTS
280
   127
  9
$INDEXCTL
280
     0
  9
$HIDETEXT
280
     1
  9
$XCLIPFRAME
280
     2
  9
$HALOGAP
280
     0
  9
$OBSCOLOR
 70
   257
  9
$OBSLTYPE
280
     0
  9
$INTERSECTIONDISPLAY
280
     0
  9
$INTERSECTIONCOLOR
 70
   257
  9
$DIMASSOC
280
     2
  9
$PROJECTNAME
  1

  9
$CAMERADISPLAY
290
     0
  9
$LENSLENGTH
 40
50.0
  9
$CAMERAHEIGHT
 40
0.0
  9
$STEPSPERSEC
 40
2.0
  9
$STEPSIZE
 40
6.0
  9
$3DDWFPREC
 40
2.0
  9
$PSOLWIDTH
 40
0.25
  9
$PSOLHEIGHT
 40
4.0
  9
$LOFTANG1
 40
1.570796326794897
  9
$LOFTANG2
 40
1.570796326794897
  9
$LOFTMAG1
 40
0.0
  9
$LOFTMAG2
 40
0.0
  9
$LOFTPARAM
 70
     7
  9
$LOFTNORMALS
280
     1
  9
$LATITUDE
 40
37.795
  9
$LONGITUDE
 40
-122.394
  9
$NORTHDIRECTION
 40
0.0
  9
$TIMEZONE
 70
 -8000
  9
$LIGHTGLYPHDISPLAY
280
     1
  9
$TILEMODELIGHTSYNCH
280
     1
  9
$CMATERIAL
347
44
  9
$SOLIDHIST
280
     0
  9
$SHOWHIST
280
     1
  9
$DWFFRAME
280
     2
  9
$DGNFRAME
280
     2
  9
$REALWORLDSCALE
290
     1
  9
$INTERFERECOLOR
 62
   256
  9
$CSHADOW
280
     0
  9
$SHADOWPLANELOCATION
 40
0.0
  0
ENDSEC
  0
SECTION
  2
CLASSES
  0
CLASS
  1
ACDBDICTIONARYWDFLT
  2
AcDbDictionaryWithDefault
  3
ObjectDBX Classes
 90
        0
 91
        4
280
     0
281
     0
  0
CLASS
  1
VISUALSTYLE
  2
AcDbVisualStyle
  3
ObjectDBX Classes
 90
     4095
 91
        4
280
     0
281
     0
  0
CLASS
  1
MATERIAL
  2
AcDbMaterial
  3
ObjectDBX Classes
 90
     1153
 91
        4
280
     0
281
     0
  0
CLASS
  1
SCALE
  2
AcDbScale
  3
ObjectDBX Classes
 90
     1153
 91
        4
280
     0
281
     0
  0
CLASS
  1
TABLESTYLE
  2
AcDbTableStyle
  3
ObjectDBX Classes
 90
     4095
 91
        4
280
     0
281
     0
  0
CLASS
  1
MLEADERSTYLE
  2
AcDbMLeaderStyle
  3
ACDB_MLEADERSTYLE_CLASS
 90
     4095
 91
        4
280
     0
281
     0
  0
CLASS
  1
SUN
  2
AcDbSun
  3
SCENEOE
 90
     1153
 91
        4
280
     0
281
     0
  0
CLASS
  1
DICTIONARYVAR
  2
AcDbDictionaryVar
  3
ObjectDBX Classes
 90
        0
 91
        4
280
     0
281
     0
  0
CLASS
  1
CELLSTYLEMAP
  2
AcDbCellStyleMap
  3
ObjectDBX Classes
 90
     1152
 91
        4
280
     0
281
     0
  0
ENDSEC
  0
SECTION
  2
TABLES
  0
TABLE
  2
VPORT
  5
8
330
0
100
AcDbSymbolTable
 70
     1
  0
VPORT
  5
29
330
8
100
AcDbSymbolTableRecord
100
AcDbViewportTableRecord
  2
*Active
 70
     0
 10
0.0
 20
0.0
 11
1.0
 21
1.0
 12
0.4328457154968373
 22
-0.2241249999999999
 13
0.0
 23
0.0
 14
0.5
 24
0.5
 15
0.5
 25
0.5
 16
0.0
 26
0.0
 36
1.0
 17
0.0
 27
0.0
 37
0.0
 40
2.286074999999999
 41
2.579803042501429
 42
50.0
 43
0.0
 44
0.0
 50
0.0
 51
0.0
 71
     0
 72
   100
 73
     1
 74
     3
 75
     0
 76
     0
 77
     0
 78
     0
281
     0
 65
     1
110
0.0
120
0.0
130
0.0
111
1.0
121
0.0
131
0.0
112
0.0
122
1.0
132
0.0
 79
     0
146
0.0
348
2F
 60
     3
 61
     5
292
     1
282
     1
141
0.0
142
0.0
 63
   250
361
6D
  0
ENDTAB
  0
TABLE
  2
LTYPE
  5
5
330
0
100
AcDbSymbolTable
 70
     3
  0
LTYPE
  5
14
330
5
100
AcDbSymbolTableRecord
100
AcDbLinetypeTableRecord
  2
ByBlock
 70
     0
  3

 72
    65
 73
     0
 40
0.0
  0
LTYPE
  5
15
330
5
100
AcDbSymbolTableRecord
100
AcDbLinetypeTableRecord
  2
ByLayer
 70
     0
  3

 72
    65
 73
     0
 40
0.0
  0
LTYPE
  5
16
330
5
100
AcDbSymbolTableRecord
100
AcDbLinetypeTableRecord
  2
Continuous
 70
     0
  3
Solid line
 72
    65
 73
     0
 40
0.0
  0
LTYPE
  5
9F
330
5
100
AcDbSymbolTableRecord
100
AcDbLinetypeTableRecord
  2
Dashed
 70
     0
  3

 72
    65
 73
     2
 40
2.0
 49
1.0
 74
     0
 49
-1.0
 74
     0
  0
LTYPE
  5
160
330
5
100
AcDbSymbolTableRecord
100
AcDbLinetypeTableRecord
  2
Center
 70
     0
  3

 72
    65
 73
     4
 40
1.5
 49
0.45
 74
     0
 49
-0.5
 74
     0
 49
0.05
 74
     0
 49
-0.5
 74
     0
  0
ENDTAB
  0
TABLE
  2
LAYER
  5
2
330
0
100
AcDbSymbolTable
 70
     7
  0
LAYER
  5
10
330
2
100
AcDbSymbolTableRecord
100
AcDbLayerTableRecord
  2
0
 70
     0
 62
     7
  6
Continuous
370
    -3
390
F
347
46
348
0
  0
LAYER
  5
72
330
2
100
AcDbSymbolTableRecord
100
AcDbLayerTableRecord
  2
AM_6
 70
     0
 62
    -2
  6
Continuous
370
    35
390
F
347
46
348
0
  0
LAYER
  5
A0
330
2
100
AcDbSymbolTableRecord
100
AcDbLayerTableRecord
  2
AM_9
 70
     0
 62
     6
  6
Dashed
370
    25
390
F
347
46
348
0
  0
LAYER
  5
F3
330
2
100
AcDbSymbolTableRecord
100
AcDbLayerTableRecord
  2
AM_4
 70
     0
 62
     7
  6
Continuous
370
    50
390
F
347
46
348
0
  0
LAYER
  5
15D
330
2
100
AcDbSymbolTableRecord
100
AcDbLayerTableRecord
  2
AM_5
 70
     0
 62
     3
  6
Continuous
370
    25
390
F
347
46
348
0
  0
LAYER
  5
161
330
2
100
AcDbSymbolTableRecord
100
AcDbLayerTableRecord
  2
AM_7
 70
     0
 62
     7
  6
Center
370
    25
390
F
347
46
348
0
  0
LAYER
  5
1D8
330
2
100
AcDbSymbolTableRecord
100
AcDbLayerTableRecord
  2
ConnectionPoints
 70
     0
 62
     7
  6
Continuous
370
    50
390
F
347
46
348
0
  0
ENDTAB
  0
TABLE
  2
STYLE
  5
3
330
0
100
AcDbSymbolTable
 70
     1
  0
STYLE
  5
11
330
3
100
AcDbSymbolTableRecord
100
AcDbTextStyleTableRecord
  2
Standard
 70
     0
 40
0.0
 41
1.0
 50
0.0
 71
     0
 42
0.2
  3
txt
  4

  0
ENDTAB
  0
TABLE
  2
VIEW
  5
6
330
0
100
AcDbSymbolTable
 70
     0
  0
ENDTAB
  0
TABLE
  2
UCS
  5
7
330
0
100
AcDbSymbolTable
 70
     0
  0
ENDTAB
  0
TABLE
  2
APPID
  5
9
330
0
100
AcDbSymbolTable
 70
     1
  0
APPID
  5
12
330
9
100
AcDbSymbolTableRecord
100
AcDbRegAppTableRecord
  2
ACAD
 70
     0
  0
ENDTAB
  0
TABLE
  2
DIMSTYLE
  5
A
330
0
100
AcDbSymbolTable
 70
     1
100
AcDbDimStyleTable
  0
DIMSTYLE
105
27
330
A
100
AcDbSymbolTableRecord
100
AcDbDimStyleTableRecord
  2
Standard
 70
     0
178
     0
340
11
  0
ENDTAB
  0
TABLE
  2
BLOCK_RECORD
  5
1
330
0
100
AcDbSymbolTable
 70
     5
  0
BLOCK_RECORD
  5
1F
330
1
100
AcDbSymbolTableRecord
100
AcDbBlockTableRecord
  2
*Model_Space
340
22
 70
     0
280
     1
281
     0
  0
BLOCK_RECORD
  5
1B
330
1
100
AcDbSymbolTableRecord
100
AcDbBlockTableRecord
  2
*Paper_Space
340
1E
 70
     0
280
     1
281
     0
  0
BLOCK_RECORD
  5
23
330
1
100
AcDbSymbolTableRecord
100
AcDbBlockTableRecord
  2
*Paper_Space0
340
26
 70
     0
280
     1
281
     0
  0
BLOCK_RECORD
  5
6E
330
1
100
AcDbSymbolTableRecord
100
AcDbBlockTableRecord
  2
1_130340_4
340
0
102
{BLKREFS
331
6F
102
}
 70
     0
280
     1
281
     0
  0
BLOCK_RECORD
  5
8E
330
1
100
AcDbSymbolTableRecord
100
AcDbBlockTableRecord
  2
2_405016_Inch_0_in_130340_4
340
0
102
{BLKREFS
331
8F
102
}
 70
     0
280
     1
281
     0
  0
BLOCK_RECORD
  5
116
330
1
100
AcDbSymbolTableRecord
100
AcDbBlockTableRecord
  2
3_130302_0_in_130340_4
340
0
102
{BLKREFS
331
117
102
}
 70
     0
280
     1
281
     0
  0
BLOCK_RECORD
  5
176
330
1
100
AcDbSymbolTableRecord
100
AcDbBlockTableRecord
  2
4_130340H_0_in_130340_4
340
0
102
{BLKREFS
331
177
102
}
 70
     0
280
     1
281
     0
  0
ENDTAB
  0
ENDSEC
  0
SECTION
  2
BLOCKS
  0
BLOCK
  5
20
330
1F
100
AcDbEntity
  8
0
100
AcDbBlockBegin
  2
*Model_Space
 70
     0
 10
0.0
 20
0.0
 30
0.0
  3
*Model_Space
  1

  0
ENDBLK
  5
21
330
1F
100
AcDbEntity
  8
0
100
AcDbBlockEnd
  0
BLOCK
  5
1C
330
1B
100
AcDbEntity
 67
     1
  8
0
100
AcDbBlockBegin
  2
*Paper_Space
 70
     0
 10
0.0
 20
0.0
 30
0.0
  3
*Paper_Space
  1

  0
ENDBLK
  5
1D
330
1B
100
AcDbEntity
 67
     1
  8
0
100
AcDbBlockEnd
  0
BLOCK
  5
24
330
23
100
AcDbEntity
  8
0
100
AcDbBlockBegin
  2
*Paper_Space0
 70
     0
 10
0.0
 20
0.0
 30
0.0
  3
*Paper_Space0
  1

  0
ENDBLK
  5
25
330
23
100
AcDbEntity
  8
0
100
AcDbBlockEnd
  0
BLOCK
  5
70
330
6E
100
AcDbEntity
  8
0
100
AcDbBlockBegin
  2
1_130340_4
 70
     2
 10
0.0
 20
0.0
 30
0.0
  3
1_130340_4
  1

  0
ATTDEF
  5
73
330
6E
100
AcDbEntity
  8
AM_6
100
AcDbText
 10
8.3238375
 20
0.8965
 30
0.0
 40
0.5
  1
Eccentric Collar Intermediate Duty Narrow Slot Take Up Inch Bore
100
AcDbAttributeDefinition
  3

  2
NN
 70
     8
280
     0
  0
ATTDEF
  5
74
330
6E
100
AcDbEntity
  8
AM_6
100
AcDbText
 10
8.3238375
 20
0.3965
 30
0.0
 40
0.5
  1
Eccentric Collar Take-Up Bearings -(Intermediate Duty) -Narrow Slot
100
AcDbAttributeDefinition
  3

  2
NT
 70
     8
280
     0
  0
ATTDEF
  5
75
330
6E
100
AcDbEntity
  8
AM_6
100
AcDbText
 10
8.3238375
 20
-0.1035
 30
0.0
 40
0.5
  1
130340
100
AcDbAttributeDefinition
  3

  2
NB
 70
     8
280
     0
  0
ATTDEF
  5
76
330
6E
100
AcDbEntity
  8
AM_6
100
AcDbText
 10
8.3238375
 20
-0.6035
 30
0.0
 40
0.5
  1
$PN.
100
AcDbAttributeDefinition
  3

  2
NBSYN
 70
     8
280
     0
  0
ATTDEF
  5
77
330
6E
100
AcDbEntity
  8
AM_6
100
AcDbText
 10
8.3238375
 20
-1.1035
 30
0.0
 40
0.5
  1
130340
100
AcDbAttributeDefinition
  3

  2
LINA
 70
     8
280
     0
  0
ATTDEF
  5
78
330
6E
100
AcDbEntity
  8
AM_6
100
AcDbText
 10
8.3238375
 20
-1.6035
 30
0.0
 40
0.5
  1
209
100
AcDbAttributeDefinition
  3

  2
SERIES
 70
     8
280
     0
  0
ATTDEF
  5
79
330
6E
100
AcDbEntity
  8
AM_6
100
AcDbText
 10
8.3238375
 20
-2.1035
 30
0.0
 40
0.5
  1
1-11/16
100
AcDbAttributeDefinition
  3

  2
SS
 70
     8
280
     0
  0
ATTDEF
  5
7A
330
6E
100
AcDbEntity
  8
AM_6
100
AcDbText
 10
8.3238375
 20
-2.6035
 30
0.0
 40
0.5
  1
130340
100
AcDbAttributeDefinition
  3

  2
PN
 70
     8
280
     0
  0
ATTDEF
  5
7B
330
6E
100
AcDbEntity
  8
AM_6
100
AcDbText
 10
8.3238375
 20
-3.1035
 30
0.0
 40
0.5
  1
NSTU-SXV-111
100
AcDbAttributeDefinition
  3

  2
DESCRIPTION
 70
     8
280
     0
  0
ATTDEF
  5
7C
330
6E
100
AcDbEntity
  8
AM_6
100
AcDbText
 10
8.3238375
 20
-3.6035
 30
0.0
 40
0.5
  1
4.8
100
AcDbAttributeDefinition
  3

  2
W
 70
     8
280
     0
  0
ATTDEF
  5
7D
330
6E
100
AcDbEntity
  8
AM_6
100
AcDbText
 10
8.3238375
 20
-4.1035
 30
0.0
 40
0.5
  1
NS400
100
AcDbAttributeDefinition
  3

  2
FS
 70
     8
280
     0
  0
ATTDEF
  5
7E
330
6E
100
AcDbEntity
  8
AM_6
100
AcDbText
 10
8.3238375
 20
-4.6035
 30
0.0
 40
0.5
  1
1.69
100
AcDbAttributeDefinition
  3

  2
A
 70
     8
280
     0
  0
ATTDEF
  5
7F
330
6E
100
AcDbEntity
  8
AM_6
100
AcDbText
 10
8.3238375
 20
-5.1035
 30
0.0
 40
0.5
  1
5.44
100
AcDbAttributeDefinition
  3

  2
B
 70
     8
280
     0
  0
ATTDEF
  5
80
330
6E
100
AcDbEntity
  8
AM_6
100
AcDbText
 10
8.3238375
 20
-5.6035
 30
0.0
 40
0.5
  1
0.313
100
AcDbAttributeDefinition
  3

  2
C
 70
     8
280
     0
  0
ATTDEF
  5
81
330
6E
100
AcDbEntity
  8
AM_6
100
AcDbText
 10
8.3238375
 20
-6.1035
 30
0.0
 40
0.5
  1
3.00
100
AcDbAttributeDefinition
  3

  2
D
 70
     8
280
     0
  0
ATTDEF
  5
82
330
6E
100
AcDbEntity
  8
AM_6
100
AcDbText
 10
8.3238375
 20
-6.6035
 30
0.0
 40
0.5
  1
3.25
100
AcDbAttributeDefinition
  3

  2
E
 70
     8
280
     0
  0
ATTDEF
  5
83
330
6E
100
AcDbEntity
  8
AM_6
100
AcDbText
 10
8.3238375
 20
-7.1035
 30
0.0
 40
0.5
  1
7/8
100
AcDbAttributeDefinition
  3

  2
F
 70
     8
280
     0
  0
ATTDEF
  5
84
330
6E
100
AcDbEntity
  8
AM_6
100
AcDbText
 10
8.3238375
 20
-7.6035
 30
0.0
 40
0.5
  1
0.72
100
AcDbAttributeDefinition
  3

  2
G
 70
     8
280
     0
  0
ATTDEF
  5
85
330
6E
100
AcDbEntity
  8
AM_6
100
AcDbText
 10
8.3238375
 20
-8.1035
 30
0.0
 40
0.5
  1
1.22
100
AcDbAttributeDefinition
  3

  2
H
 70
     8
280
     0
  0
ATTDEF
  5
86
330
6E
100
AcDbEntity
  8
AM_6
100
AcDbText
 10
8.3238375
 20
-8.6035
 30
0.0
 40
0.5
  1
1.63
100
AcDbAttributeDefinition
  3

  2
J
 70
     8
280
     0
  0
ATTDEF
  5
87
330
6E
100
AcDbEntity
  8
AM_6
100
AcDbText
 10
8.3238375
 20
-9.1035
 30
0.0
 40
0.5
  1
2.50
100
AcDbAttributeDefinition
  3

  2
L
 70
     8
280
     0
  0
ATTDEF
  5
88
330
6E
100
AcDbEntity
  8
AM_6
100
AcDbText
 10
8.3238375
 20
-9.6035
 30
0.0
 40
0.5
  1
4.015 / 3.985
100
AcDbAttributeDefinition
  3

  2
M
 70
     8
280
     0
  0
ATTDEF
  5
89
330
6E
100
AcDbEntity
  8
AM_6
100
AcDbText
 10
8.3238375
 20
-10.1035
 30
0.0
 40
0.5
  1
4.75
100
AcDbAttributeDefinition
  3

  2
N
 70
     8
280
     0
  0
ATTDEF
  5
8A
330
6E
100
AcDbEntity
  8
AM_6
100
AcDbText
 10
8.3238375
 20
-10.6035
 30
0.0
 40
0.5
  1
0.38
100
AcDbAttributeDefinition
  3

  2
P
 70
     8
280
     0
  0
ATTDEF
  5
8B
330
6E
100
AcDbEntity
  8
AM_6
100
AcDbText
 10
8.3238375
 20
-11.1035
 30
0.0
 40
0.5
  1
0.43
100
AcDbAttributeDefinition
  3

  2
R
 70
     8
280
     0
  0
ATTDEF
  5
8C
330
6E
100
AcDbEntity
  8
AM_6
100
AcDbText
 10
8.3238375
 20
-11.6035
 30
0.0
 40
0.5
  1
1.26
100
AcDbAttributeDefinition
  3

  2
S
 70
     8
280
     0
  0
ATTDEF
  5
8D
330
6E
100
AcDbEntity
  8
AM_6
100
AcDbText
 10
8.3238375
 20
-12.1035
 30
0.0
 40
0.5
  1
baldor
100
AcDbAttributeDefinition
  3

  2
COMPANY
 70
     8
280
     0
  0
INSERT
  5
8F
330
6E
100
AcDbEntity
  8
0
100
AcDbBlockReference
  2
2_405016_Inch_0_in_130340_4
 10
0.0
 20
0.0
 30
0.0
  0
INSERT
  5
117
330
6E
100
AcDbEntity
  8
0
100
AcDbBlockReference
  2
3_130302_0_in_130340_4
 10
0.0
 20
0.0
 30
0.0
  0
INSERT
  5
177
330
6E
100
AcDbEntity
  8
0
100
AcDbBlockReference
  2
4_130340H_0_in_130340_4
 10
0.0
 20
0.0
 30
0.0
  0
ENDBLK
  5
71
330
6E
100
AcDbEntity
  8
0
100
AcDbBlockEnd
  0
BLOCK
  5
90
330
8E
100
AcDbEntity
  8
0
100
AcDbBlockBegin
  2
2_405016_Inch_0_in_130340_4
 70
     2
 10
0.0
 20
0.0
 30
0.0
  3
2_405016_Inch_0_in_130340_4
  1

  0
ATTDEF
  5
92
330
8E
100
AcDbEntity
  8
AM_6
100
AcDbText
 10
3.373679285728585
 20
0.2187500000000003
 30
0.0
 40
0.5
  1
405016 -Inch
100
AcDbAttributeDefinition
  3

  2
NN
 70
     8
280
     0
  0
ATTDEF
  5
93
330
8E
100
AcDbEntity
  8
AM_6
100
AcDbText
 10
3.373679285728585
 20
-0.2812499999999997
 30
0.0
 40
0.5
  1
Grease Fitting
100
AcDbAttributeDefinition
  3

  2
NT
 70
     8
280
     0
  0
ATTDEF
  5
94
330
8E
100
AcDbEntity
  8
AM_6
100
AcDbText
 10
3.373679285728585
 20
-0.7812499999999997
 30
0.0
 40
0.5
  1
405016-Inch
100
AcDbAttributeDefinition
  3

  2
NB
 70
     8
280
     0
  0
ATTDEF
  5
95
330
8E
100
AcDbEntity
  8
AM_6
100
AcDbText
 10
3.373679285728585
 20
-1.28125
 30
0.0
 40
0.5
  1
$MN.-Inch
100
AcDbAttributeDefinition
  3

  2
NBSYN
 70
     8
280
     0
  0
ATTDEF
  5
96
330
8E
100
AcDbEntity
  8
AM_6
100
AcDbText
 10
3.373679285728585
 20
-1.78125
 30
0.0
 40
0.5
  1
405016
100
AcDbAttributeDefinition
  3

  2
LINA
 70
     8
280
     0
  0
ATTDEF
  5
97
330
8E
100
AcDbEntity
  8
AM_6
100
AcDbText
 10
3.373679285728585
 20
-2.28125
 30
0.0
 40
0.5
  1
405016
100
AcDbAttributeDefinition
  3

  2
MN
 70
     8
280
     0
  0
ATTDEF
  5
98
330
8E
100
AcDbEntity
  8
AM_6
100
AcDbText
 10
3.373679285728585
 20
-2.78125
 30
0.0
 40
0.5
  1
7/16 HEX
100
AcDbAttributeDefinition
  3

  2
H
 70
     8
280
     0
  0
ATTDEF
  5
99
330
8E
100
AcDbEntity
  8
AM_6
100
AcDbText
 10
3.373679285728585
 20
-3.28125
 30
0.0
 40
0.5
  1
0.383
100
AcDbAttributeDefinition
  3

  2
NDR
 70
     8
280
     0
  0
ATTDEF
  5
9A
330
8E
100
AcDbEntity
  8
AM_6
100
AcDbText
 10
3.373679285728585
 20
-3.78125
 30
0.0
 40
0.5
  1
0.337
100
AcDbAttributeDefinition
  3

  2
KDR
 70
     8
280
     0
  0
ATTDEF
  5
9B
330
8E
100
AcDbEntity
  8
AM_6
100
AcDbText
 10
3.373679285728585
 20
-4.28125
 30
0.0
 40
0.5
  1
0.1575
100
AcDbAttributeDefinition
  3

  2
BZE
 70
     8
280
     0
  0
ATTDEF
  5
9C
330
8E
100
AcDbEntity
  8
AM_6
100
AcDbText
 10
3.373679285728585
 20
-4.78125
 30
0.0
 40
0.5
  1
0.4375
100
AcDbAttributeDefinition
  3

  2
HEX
 70
     8
280
     0
  0
ATTDEF
  5
9D
330
8E
100
AcDbEntity
  8
AM_6
100
AcDbText
 10
3.373679285728585
 20
-5.28125
 30
0.0
 40
0.5
  1
0.281250
100
AcDbAttributeDefinition
  3

  2
HEX2
 70
     8
280
     0
  0
ATTDEF
  5
9E
330
8E
100
AcDbEntity
  8
AM_6
100
AcDbText
 10
3.373679285728585
 20
-5.78125
 30
0.0
 40
0.5
  1
baldor
100
AcDbAttributeDefinition
  3

  2
COMPANY
 70
     8
280
     0
  0
LINE
  5
A1
330
8E
100
AcDbEntity
  8
AM_9
100
AcDbLine
 10
-2.323463532102004
 20
-0.151074129835757
 30
0.0
 11
-2.334785105325881
 21
-0.1791093260592887
 31
0.0
  0
LINE
  5
A2
330
8E
100
AcDbEntity
  8
AM_9
100
AcDbLine
 10
-2.172288686063507
 20
-0.2099962668917053
 30
0.0
 11
-2.183975932283052
 21
-0.2389369657326276
 31
0.0
  0
LWPOLYLINE
  5
A3
330
8E
100
AcDbEntity
  8
AM_9
100
AcDbPolyline
 90
        3
 70
     0
 43
0.0
 10
-1.916708266263178
 20
-0.0000000000000001
 10
-1.9381859371808
 20
-0.0544416102741497
 10
-1.956134880798101
 20
-0.109375
  0
LWPOLYLINE
  5
A4
330
8E
100
AcDbEntity
  8
AM_9
100
AcDbPolyline
 90
        3
 70
     0
 43
0.0
 10
-1.956134880798101
 20
0.1093749999999999
 10
-1.938275230814178
 20
0.0546874999999999
 10
-1.916708266263178
 20
-0.0000000000000001
  0
LWPOLYLINE
  5
A5
330
8E
100
AcDbEntity
  8
AM_9
100
AcDbPolyline
 90
        3
 70
     0
 43
0.0
 10
-2.114357837641417
 20
-0.2987675689889718
 10
-2.130245122204513
 20
-0.2912216284034024
 10
-2.145455123902527
 20
-0.2813919000363599
  0
LWPOLYLINE
  5
A6
330
8E
100
AcDbEntity
  8
AM_9
100
AcDbPolyline
 90
        3
 70
     0
 43
0.0
 10
-1.869532340419658
 20
-0.1093750000000001
 10
-1.855818147557273
 20
-0.0546875000000001
 10
-1.845811269261966
 20
-0.0000000000000001
  0
LWPOLYLINE
  5
A7
330
8E
100
AcDbEntity
  8
AM_9
100
AcDbPolyline
 90
        3
 70
     0
 43
0.0
 10
-1.845811269261966
 20
-0.0000000000000001
 10
-1.85576547669124
 20
0.0544416102741495
 10
-1.869532340419658
 20
0.1093749999999999
  0
LWPOLYLINE
  5
A8
330
8E
100
AcDbEntity
  8
AM_9
100
AcDbPolyline
 90
        4
 70
     0
 43
0.0
 10
-2.127155216363994
 20
-0.2360765106845277
 10
-2.117990229787436
 20
-0.2462091938631851
 10
-2.10989895900845
 20
-0.2570505402207574
 10
-2.102302188330439
 20
-0.2689146070947222
  0
LWPOLYLINE
  5
A9
330
8E
100
AcDbEntity
  8
AM_9
100
AcDbPolyline
 90
        3
 70
     0
 43
0.0
 10
-1.979855951955793
 20
0.2187499999999999
 10
-1.969901744526518
 20
0.1643083897258503
 10
-1.956134880798101
 20
0.1093749999999999
  0
LINE
  5
AA
330
8E
100
AcDbEntity
  8
AM_9
100
AcDbLine
 10
-1.916708266263178
 20
-0.0000000000000001
 30
0.0
 11
-1.845811269261966
 21
-0.0000000000000001
 31
0.0
  0
LWPOLYLINE
  5
AB
330
8E
100
AcDbEntity
  8
AM_9
100
AcDbPolyline
 90
        3
 70
     0
 43
0.0
 10
-1.956134880798101
 20
-0.109375
 10
-1.969849073660486
 20
-0.1640625
 10
-1.979855951955793
 20
-0.2187500000000001
  0
LWPOLYLINE
  5
AC
330
8E
100
AcDbEntity
  8
AM_9
100
AcDbPolyline
 90
        3
 70
     0
 43
0.0
 10
-2.102302188330439
 20
-0.2689146070947222
 10
-2.11529807618005
 20
-0.2634308483997528
 10
-2.12951197629429
 20
-0.2602304684431305
  0
LWPOLYLINE
  5
AD
330
8E
100
AcDbEntity
  8
AM_9
100
AcDbPolyline
 90
        3
 70
     0
 43
0.0
 10
-2.147811883832824
 20
-0.3055458577949631
 10
-2.131429929213846
 20
-0.3030753670497808
 10
-2.114357837641417
 20
-0.2987675689889718
  0
LINE
  5
AE
330
8E
100
AcDbEntity
  8
AM_9
100
AcDbLine
 10
-2.102302188330439
 20
-0.2689146070947222
 30
0.0
 11
-2.114357837641417
 21
-0.2987675689889718
 31
0.0
  0
ELLIPSE
  5
AF
330
8E
100
AcDbEntity
  8
AM_9
100
AcDbEllipse
 10
-2.356639480490507
 20
-0.4687500000000002
 30
0.0
 11
-0.09595382955731815
 21
0.03874944547499697
 31
0.0
210
0.0
220
0.0
230
1.0
 40
0.2113091308703523
 41
3.040609649696539
 42
6.38416831107282
  0
ELLIPSE
  5
B0
330
8E
100
AcDbEntity
  8
AM_9
100
AcDbEllipse
 10
-2.328645818293024
 20
-0.399430321788976
 30
0.0
 11
-0.1290248947933272
 21
0.0521046752253359
 31
0.0
210
0.0
220
0.0
230
1.0
 40
0.211309130870347
 41
3.037154351501909
 42
5.801105639492179
  0
LWPOLYLINE
  5
B1
330
8E
100
AcDbEntity
  8
AM_9
100
AcDbPolyline
 90
        3
 70
     0
 43
0.0
 10
-2.190093978130815
 20
-0.3007181662501118
 10
-2.182014453745818
 20
-0.3030606061861223
 10
-2.168455169120833
 20
-0.305456396233367
  0
ELLIPSE
  5
B2
330
8E
100
AcDbEntity
  8
AM_9
100
AcDbEllipse
 10
-2.266969933551694
 20
-0.2467045921760145
 30
0.0
 11
-0.1303939210191758
 21
0.05265753494273869
 31
0.0
210
0.0
220
0.0
230
1.0
 40
0.2113091308703775
 41
-3.998491619702644
 42
-3.764628581859179
  0
LWPOLYLINE
  5
B3
330
8E
100
AcDbEntity
  8
AM_9
100
AcDbPolyline
 90
        5
 70
     0
 43
0.0
 10
-2.334785105325881
 20
-0.1791093260592887
 10
-2.356647493824507
 20
-0.1842540823997054
 10
-2.3775435807545
 20
-0.1862220679364951
 10
-2.397461200309409
 20
-0.1844124966919381
 10
-2.415974986930672
 20
-0.1791093260592887
  0
LWPOLYLINE
  5
B4
330
8E
100
AcDbEntity
  8
AM_9
100
AcDbPolyline
 90
        5
 70
     0
 43
0.0
 10
-2.183975932283052
 20
-0.2389369657326276
 10
-2.222817220970481
 20
-0.2295338871417796
 10
-2.2609522676824
 20
-0.216687117104632
 10
-2.298571062043583
 20
-0.1996402057054678
 10
-2.334785105325881
 20
-0.1791093260592887
  0
LWPOLYLINE
  5
B5
330
8E
100
AcDbEntity
  8
AM_9
100
AcDbPolyline
 90
        3
 70
     0
 43
0.0
 10
-2.157476654084334
 20
-0.2711532636537956
 10
-2.171211831848907
 20
-0.2561815527589921
 10
-2.183975932283052
 20
-0.2389369657326276
  0
ELLIPSE
  5
B6
330
8E
100
AcDbEntity
  8
AM_9
100
AcDbEllipse
 10
-2.266969933551706
 20
-0.2467045921760149
 30
0.0
 11
-0.1303939210191616
 21
0.05265753494272628
 31
0.0
210
0.0
220
0.0
230
1.0
 40
0.211309130870359
 41
3.80634037200268
 42
6.919181903097283
  0
LWPOLYLINE
  5
B7
330
8E
100
AcDbEntity
  8
AM_9
100
AcDbPolyline
 90
        4
 70
     0
 43
0.0
 10
-2.149268376247558
 20
-0.2602304684431209
 10
-2.158517011661452
 20
-0.2616913382589203
 10
-2.170814529111087
 20
-0.2647402074337707
 10
-2.18349206993523
 20
-0.2689146070947222
  0
LINE
  5
B8
330
8E
100
AcDbEntity
  8
AM_9
100
AcDbLine
 10
-1.901219436947897
 20
0.2000413016192557
 30
0.0
 11
-1.908958954954581
 21
0.2187499999999999
 31
0.0
  0
LWPOLYLINE
  5
B9
330
8E
100
AcDbEntity
  8
AM_9
100
AcDbPolyline
 90
        3
 70
     0
 43
0.0
 10
-1.869532340419658
 20
0.1093749999999999
 10
-1.887391990403581
 20
0.1640624999999999
 10
-1.901219436947897
 20
0.2000413016192557
  0
LWPOLYLINE
  5
BA
330
8E
100
AcDbEntity
  8
AM_9
100
AcDbPolyline
 90
        3
 70
     0
 43
0.0
 10
-1.901219314865931
 20
-0.2000409996967266
 10
-1.887481284036959
 20
-0.1643083897258505
 10
-1.869532340419658
 20
-0.1093750000000001
  0
LINE
  5
BB
330
8E
100
AcDbEntity
  8
AM_9
100
AcDbLine
 10
-1.908958954954581
 20
-0.2187500000000001
 30
0.0
 11
-1.901219314865931
 21
-0.2000409996967266
 31
0.0
  0
LINE
  5
BC
330
8E
100
AcDbEntity
  8
AM_9
100
AcDbLine
 10
-2.334598332953894
 20
-0.1204089378707286
 30
0.0
 11
-2.335683777943606
 21
-0.1230967854582223
 31
0.0
  0
LINE
  5
BD
330
8E
100
AcDbEntity
  8
AM_9
100
AcDbLine
 10
-2.146673003349273
 20
-0.2425790968238377
 30
0.0
 11
-2.126809625183316
 21
-0.193392142543456
 31
0.0
  0
ELLIPSE
  5
BE
330
8E
100
AcDbEntity
  8
AM_9
100
AcDbEllipse
 10
-2.248670026013152
 20
-0.2013892028241969
 30
0.0
 11
-0.1019970226638964
 21
0.04118989399965806
 31
0.0
210
0.0
220
0.0
230
1.0
 40
0.2113091308703596
 41
2.266244529964936
 42
6.283185307179586
  0
LWPOLYLINE
  5
BF
330
8E
100
AcDbEntity
  8
AM_9
100
AcDbPolyline
 90
        4
 70
     0
 43
0.0
 10
-2.334603062608914
 20
-0.1204206514110939
 10
-2.334742228593443
 20
-0.1208367673933812
 10
-2.334164644636316
 20
-0.1245107513506023
 10
-2.332256152997151
 20
-0.1273642464000147
  0
LWPOLYLINE
  5
C0
330
8E
100
AcDbEntity
  8
AM_9
100
AcDbPolyline
 90
        5
 70
     0
 43
0.0
 10
-2.126808680981827
 20
-0.1933898041312626
 10
-2.126902017112979
 20
-0.1936098952159724
 10
-2.130117554065617
 20
-0.1971856748420371
 10
-2.1361359173084
 20
-0.1994144431868155
 10
-2.142999887888843
 20
-0.1999999999699529
  0
LWPOLYLINE
  5
C1
330
8E
100
AcDbEntity
  8
AM_9
100
AcDbPolyline
 90
        3
 70
     0
 43
0.0
 10
-2.236297019101281
 20
-0.1745741884610188
 10
-2.20890794372785
 20
-0.1876759562813858
 10
-2.172288686063507
 20
-0.2099962668917053
  0
LWPOLYLINE
  5
C2
330
8E
100
AcDbEntity
  8
AM_9
100
AcDbPolyline
 90
        3
 70
     0
 43
0.0
 10
-2.323463532102004
 20
-0.151074129835757
 10
-2.29425892460248
 20
-0.1564222384464442
 10
-2.265588425660187
 20
-0.1639312493177431
  0
LWPOLYLINE
  5
C3
330
8E
100
AcDbEntity
  8
AM_9
100
AcDbPolyline
 90
        3
 70
     0
 43
0.0
 10
-2.172288686063507
 20
-0.2099962668917053
 10
-2.155315003729984
 20
-0.2163479371246913
 10
-2.139176746545801
 20
-0.2258378743019629
  0
LWPOLYLINE
  5
C4
330
8E
100
AcDbEntity
  8
AM_9
100
AcDbPolyline
 90
        5
 70
     0
 43
0.0
 10
-2.360374412446499
 20
-0.141958509815605
 10
-2.35649929300045
 20
-0.1420496512545706
 10
-2.3420103778857
 20
-0.1441228263802214
 10
-2.332492503587107
 20
-0.1470795994472237
 10
-2.323463532102004
 20
-0.151074129835757
  0
ELLIPSE
  5
C5
330
8E
100
AcDbEntity
  8
AM_9
100
AcDbEllipse
 10
-2.248670026013158
 20
-0.2013892028241889
 30
0.0
 11
-0.1303939210191705
 21
0.05265753494273202
 31
0.0
210
0.0
220
0.0
230
1.0
 40
0.2113091308703512
 41
3.814164134970074
 42
4.692469599917673
  0
ELLIPSE
  5
C6
330
8E
100
AcDbEntity
  8
AM_9
100
AcDbEllipse
 10
-2.24867002601316
 20
-0.2013892028241903
 30
0.0
 11
-0.1303939210191767
 21
0.05265753494273553
 31
0.0
210
0.0
220
0.0
230
1.0
 40
0.2113091308703574
 41
-1.277004714932094
 42
-0.672571481380289
  0
ELLIPSE
  5
C7
330
8E
100
AcDbEntity
  8
AM_9
100
AcDbEllipse
 10
-2.317970836815679
 20
-0.3729962569746642
 30
0.0
 11
-0.1235034625625957
 21
0.04987493162723586
 31
0.0
210
0.0
220
0.0
230
1.0
 40
0.2113091308703487
 41
3.394054008709052
 42
5.801105639492176
  0
LINE
  5
C8
330
8E
100
AcDbEntity
  8
AM_9
100
AcDbLine
 10
-2.145455123902527
 20
-0.2813919000363599
 30
0.0
 11
-2.157476654084334
 21
-0.2711532636537956
 31
0.0
  0
ELLIPSE
  5
C9
330
8E
100
AcDbEntity
  8
AM_9
100
AcDbEllipse
 10
-2.266969933551694
 20
-0.2467045921760213
 30
0.0
 11
-0.1303939210191741
 21
0.05265753494273308
 31
0.0
210
0.0
220
0.0
230
1.0
 40
0.2113091308703521
 41
2.800469246484363
 42
3.607080702195127
  0
LWPOLYLINE
  5
CA
330
8E
100
AcDbEntity
  8
AM_9
100
AcDbPolyline
 90
        3
 70
     0
 43
0.0
 10
-2.167568283786093
 20
-0.3055458577949631
 10
-2.158118084899785
 20
-0.3064767622622302
 10
-2.147811883832824
 20
-0.3055458577949631
  0
LWPOLYLINE
  5
CB
330
8E
100
AcDbEntity
  8
AM_9
100
AcDbPolyline
 90
        9
 70
     0
 43
0.0
 10
-2.190086446613189
 20
-0.3369416504674028
 10
-2.186111271117302
 20
-0.3314562456100753
 10
-2.17946590891164
 20
-0.3240596384880784
 10
-2.17247640835038
 20
-0.3179731446365689
 10
-2.165536652370874
 20
-0.3132177626232895
 10
-2.159058307817081
 20
-0.3097348243215827
 10
-2.153388137805785
 20
-0.307367231664564
 10
-2.148738450308217
 20
-0.3058872354807249
 10
-2.145959570795626
 20
-0.3052110987914622
  0
LINE
  5
CC
330
8E
100
AcDbEntity
  8
AM_9
100
AcDbLine
 10
-2.394551538907202
 20
-0.2049535437829198
 30
0.0
 11
-2.393602208641756
 21
-0.2064318698089898
 31
0.0
  0
ELLIPSE
  5
CD
330
8E
100
AcDbEntity
  8
AM_9
100
AcDbEllipse
 10
-2.248670026013166
 20
-0.2013892028241837
 30
0.0
 11
-0.1303939210191936
 21
0.05265753494271606
 31
0.0
210
0.0
220
0.0
230
1.0
 40
0.2113091308704519
 41
-4.162381761873677
 42
-3.764628581859272
  0
LINE
  5
CE
330
8E
100
AcDbEntity
  8
AM_9
100
AcDbLine
 10
-2.12951197629429
 20
-0.2602304684431305
 30
0.0
 11
-2.149268376247558
 21
-0.2602304684431209
 31
0.0
  0
ELLIPSE
  5
CF
330
8E
100
AcDbEntity
  8
AM_9
100
AcDbEllipse
 10
-2.248670026013158
 20
-0.2013892028241901
 30
0.0
 11
-0.1303939210191718
 21
0.05265753494273202
 31
0.0
210
0.0
220
0.0
230
1.0
 40
0.211309130870349
 41
2.800469246484355
 42
3.607080702195137
  0
LINE
  5
D0
330
8E
100
AcDbEntity
  8
AM_9
100
AcDbLine
 10
-2.139176746545801
 20
-0.2258378743019629
 30
0.0
 11
-2.127155216363994
 21
-0.2360765106845277
 31
0.0
  0
LINE
  5
D1
330
8E
100
AcDbEntity
  8
AM_9
100
AcDbLine
 10
-2.18349206993523
 20
-0.2689146070947222
 30
0.0
 11
-2.189874086063611
 21
-0.2646395696223714
 31
0.0
  0
LINE
  5
D2
330
8E
100
AcDbEntity
  8
AM_9
100
AcDbLine
 10
-2.18349206993523
 20
-0.2689146070947222
 30
0.0
 11
-2.19
 21
-0.2850299554449037
 31
0.0
  0
LWPOLYLINE
  5
D3
330
8E
100
AcDbEntity
  8
AM_9
100
AcDbPolyline
 90
       17
 70
     0
 43
0.0
 10
-2.133484790333903
 20
-0.1790373738501779
 10
-2.141452255410096
 20
-0.1733931390117467
 10
-2.152208328844278
 20
-0.1670729780242511
 10
-2.164851380366721
 20
-0.1606047421316795
 10
-2.179741803512563
 20
-0.1538031670974777
 10
-2.195643680319443
 20
-0.1472336073736393
 10
-2.213004650141162
 20
-0.1407130262602576
 10
-2.230360127271406
 20
-0.1347930597680667
 10
-2.248217838855695
 20
-0.1293028157827817
 10
-2.265047600355769
 20
-0.1247141396218192
 10
-2.281364344256474
 20
-0.1208880884981781
 10
-2.295763395116308
 20
-0.1181545989145989
 10
-2.308695747982056
 20
-0.1164278875396128
 10
-2.319055476141755
 20
-0.1158549073091554
 10
-2.327165650958453
 20
-0.1164156227038168
 10
-2.332342292149295
 20
-0.1180609686233502
 10
-2.334603062608914
 20
-0.1204206514110939
  0
ARC
  5
D4
330
8E
100
AcDbEntity
  8
AM_9
100
AcDbCircle
 10
-2.178053890517862
 20
-0.000000000000091
 30
0.0
 40
0.200000000000091
100
AcDbArc
 50
90.0
 51
93.42434653210286
  0
ELLIPSE
  5
D5
330
8E
100
AcDbEntity
  8
AM_9
100
AcDbEllipse
 10
-2.178053890517922
 20
-0.0000000000000026
 30
0.0
 11
1.224646799147369E-17
 21
0.2000000000000026
 31
0.0
210
0.0
220
0.0
230
1.0
 40
0.4999999999999785
 41
0.0
 42
0.1197470724643186
  0
LWPOLYLINE
  5
D6
330
8E
100
AcDbEntity
  8
AM_9
100
AcDbPolyline
 90
        4
 70
     0
 43
0.0
 10
-2.133484790333904
 20
-0.1790373738501784
 10
-2.128530129861836
 20
-0.1842628795203941
 10
-2.126422245395093
 20
-0.1891729979031393
 10
-2.126808680981827
 20
-0.1933898041312626
  0
LINE
  5
D7
330
8E
100
AcDbEntity
  8
AM_9
100
AcDbLine
 10
-2.050856409337024
 20
0.1999999999999999
 30
0.0
 11
-2.178053890517864
 21
0.1999999999999999
 31
0.0
  0
LINE
  5
D8
330
8E
100
AcDbEntity
  8
AM_9
100
AcDbLine
 10
-2.14314767211575
 20
-0.2
 30
0.0
 11
-2.050856409337024
 21
-0.2
 31
0.0
  0
LWPOLYLINE
  5
D9
330
8E
100
AcDbEntity
  8
AM_9
100
AcDbPolyline
 90
        6
 70
     0
 43
0.0
 10
-2.142999887888843
 20
-0.1999999999699529
 10
-2.144487005128146
 20
-0.1999786710855128
 10
-2.155360605604895
 20
-0.1988321115509053
 10
-2.167758927318877
 20
-0.1961649429984259
 10
-2.18218235768487
 20
-0.1920694300574958
 10
-2.189848394393637
 20
-0.1896526789612584
  0
LINE
  5
DA
330
8E
100
AcDbEntity
  8
AM_9
100
AcDbLine
 10
-1.896595634287921
 20
0.1999999999999999
 30
0.0
 11
-1.96425386895858
 21
0.1999999999999999
 31
0.0
  0
LINE
  5
DB
330
8E
100
AcDbEntity
  8
AM_9
100
AcDbLine
 10
-1.96425386895858
 20
-0.2
 30
0.0
 11
-1.896595634287921
 21
-0.2
 31
0.0
  0
LINE
  5
DC
330
8E
100
AcDbEntity
  8
AM_9
100
AcDbLine
 10
-2.106151323341023
 20
0.2187499999999999
 30
0.0
 11
-1.908958954954581
 21
0.2187499999999999
 31
0.0
  0
LWPOLYLINE
  5
DD
330
8E
100
AcDbEntity
  8
AM_9
100
AcDbPolyline
 90
        3
 70
     0
 43
0.0
 10
-2.145577937875947
 20
0.1093749999999999
 10
-2.127718287892024
 20
0.1640624999999999
 10
-2.106151323341023
 20
0.2187499999999999
  0
LWPOLYLINE
  5
DE
330
8E
100
AcDbEntity
  8
AM_9
100
AcDbPolyline
 90
        3
 70
     0
 43
0.0
 10
-2.169299009033639
 20
-0.0000000000000001
 10
-2.159344801604364
 20
0.0544416102741495
 10
-2.145577937875947
 20
0.1093749999999999
  0
LWPOLYLINE
  5
DF
330
8E
100
AcDbEntity
  8
AM_9
100
AcDbPolyline
 90
        3
 70
     0
 43
0.0
 10
-2.058975397497504
 20
0.1093749999999999
 10
-2.076835047481427
 20
0.0546874999999999
 10
-2.098402012032427
 20
-0.0000000000000001
  0
LWPOLYLINE
  5
E0
330
8E
100
AcDbEntity
  8
AM_9
100
AcDbPolyline
 90
        3
 70
     0
 43
0.0
 10
-2.035254326339812
 20
0.2187499999999999
 10
-2.045208533769086
 20
0.1643083897258503
 10
-2.058975397497504
 20
0.1093749999999999
  0
LINE
  5
E1
330
8E
100
AcDbEntity
  8
AM_9
100
AcDbLine
 10
-2.169299009033639
 20
-0.0000000000000001
 30
0.0
 11
-2.098402012032427
 21
-0.0000000000000001
 31
0.0
  0
LWPOLYLINE
  5
E2
330
8E
100
AcDbEntity
  8
AM_9
100
AcDbPolyline
 90
        3
 70
     0
 43
0.0
 10
-2.145577937875947
 20
-0.109375
 10
-2.159292130738331
 20
-0.0546875
 10
-2.169299009033639
 20
-0.0000000000000001
  0
LWPOLYLINE
  5
E3
330
8E
100
AcDbEntity
  8
AM_9
100
AcDbPolyline
 90
        3
 70
     0
 43
0.0
 10
-2.106151323341023
 20
-0.2187500000000001
 10
-2.127628994258646
 20
-0.1643083897258504
 10
-2.145577937875947
 20
-0.109375
  0
LINE
  5
E4
330
8E
100
AcDbEntity
  8
AM_9
100
AcDbLine
 10
-2.106151323341023
 20
-0.2187500000000001
 30
0.0
 11
-1.908958954954581
 21
-0.2187500000000001
 31
0.0
  0
LWPOLYLINE
  5
E5
330
8E
100
AcDbEntity
  8
AM_9
100
AcDbPolyline
 90
        3
 70
     0
 43
0.0
 10
-2.058975397497504
 20
-0.109375
 10
-2.045261204635119
 20
-0.1640625
 10
-2.035254326339812
 20
-0.2187500000000001
  0
LWPOLYLINE
  5
E6
330
8E
100
AcDbEntity
  8
AM_9
100
AcDbPolyline
 90
        3
 70
     0
 43
0.0
 10
-2.098402012032427
 20
-0.0000000000000001
 10
-2.076924341114805
 20
-0.0544416102741496
 10
-2.058975397497504
 20
-0.109375
  0
LINE
  5
E7
330
8E
100
AcDbEntity
  8
AM_9
100
AcDbLine
 10
-1.726051016665518
 20
0.1853871066562612
 30
0.0
 11
-1.894865546275157
 21
0.1914799725689261
 31
0.0
  0
LINE
  5
E8
330
8E
100
AcDbEntity
  8
AM_9
100
AcDbLine
 10
-1.894865546275157
 20
-0.1914799725689262
 30
0.0
 11
-1.726051016665518
 21
-0.1853871066562613
 31
0.0
  0
LINE
  5
E9
330
8E
100
AcDbEntity
  8
AM_9
100
AcDbLine
 10
-1.660484279383368
 20
0.1319978794387896
 30
0.0
 11
-1.674198406442436
 21
0.1513925839218323
 31
0.0
  0
LINE
  5
EA
330
8E
100
AcDbEntity
  8
AM_9
100
AcDbLine
 10
-1.674198406442436
 20
-0.1513925839218325
 30
0.0
 11
-1.660484279383368
 21
-0.1319978794387897
 31
0.0
  0
ELLIPSE
  5
EB
330
8E
100
AcDbEntity
  8
AM_9
100
AcDbEllipse
 10
-2.050856409337025
 20
0.0
 30
0.0
 11
1.339457436567416E-17
 21
0.2187499999999998
 31
0.0
210
0.0
220
0.0
230
1.0
 40
0.4999999999999954
 41
0.0
 42
6.283185307179586
  0
ELLIPSE
  5
EC
330
8E
100
AcDbEntity
  8
AM_9
100
AcDbEllipse
 10
-2.050856409337025
 20
0.0000000000000005
 30
0.0
 11
1.224646799147356E-17
 21
0.2000000000000005
 31
0.0
210
0.0
220
0.0
230
1.0
 40
0.5000000000000014
 41
0.0
 42
6.283185307179586
  0
ELLIPSE
  5
ED
330
8E
100
AcDbEntity
  8
AM_9
100
AcDbEllipse
 10
-1.964253868958581
 20
0.0000000000000002
 30
0.0
 11
1.339457436567419E-17
 21
0.2187500000000002
 31
0.0
210
0.0
220
0.0
230
1.0
 40
0.5000000000000007
 41
0.0
 42
6.283185307179586
  0
ELLIPSE
  5
EE
330
8E
100
AcDbEntity
  8
AM_9
100
AcDbEllipse
 10
-1.96425386895858
 20
-0.0000000000000004
 30
0.0
 11
1.224646799147350E-17
 21
0.1999999999999996
 31
0.0
210
0.0
220
0.0
230
1.0
 40
0.4999999999999993
 41
0.0
 42
6.283185307179586
  0
ELLIPSE
  5
EF
330
8E
100
AcDbEntity
  8
AM_9
100
AcDbEllipse
 10
-1.896595634287922
 20
-0.0000000000000004
 30
0.0
 11
1.224646799147355E-17
 21
0.2000000000000003
 31
0.0
210
0.0
220
0.0
230
1.0
 40
0.5000000000000029
 41
0.0
 42
6.283185307179586
  0
ELLIPSE
  5
F0
330
8E
100
AcDbEntity
  8
AM_9
100
AcDbEllipse
 10
-1.896595634286895
 20
-0.0000000000002328
 30
0.0
 11
1.172668097678644E-17
 21
0.1915112338504621
 31
0.0
210
0.0
220
0.0
230
1.0
 40
0.4999999999999587
 41
0.0
 42
6.283185307179586
  0
ELLIPSE
  5
F1
330
8E
100
AcDbEntity
  8
AM_9
100
AcDbEllipse
 10
-1.727723767798679
 20
0.0000000000000007
 30
0.0
 11
1.135353457964650E-17
 21
0.1854172907249874
 31
0.0
210
0.0
220
0.0
230
1.0
 40
0.4999999999999999
 41
0.0
 42
6.283185307179586
  0
ELLIPSE
  5
F2
330
8E
100
AcDbEntity
  8
AM_9
100
AcDbEllipse
 10
-1.707152577209998
 20
-0.0000000000000272
 30
0.0
 11
9.899048221690792E-18
 21
0.1616637258772553
 31
0.0
210
0.0
220
0.0
230
1.0
 40
0.499999999999726
 41
0.0
 42
6.283185307179586
  0
LINE
  5
F4
330
8E
100
AcDbEntity
  8
AM_4
100
AcDbLine
 10
-2.261999938619161
 20
-0.5093460834378319
 30
0.0
 11
-2.201388188351898
 21
-0.4540180898723598
 31
0.0
  0
LINE
  5
F5
330
8E
100
AcDbEntity
  8
AM_4
100
AcDbLine
 10
-2.458123355651773
 20
-0.3503396289636352
 30
0.0
 11
-2.452929933361042
 21
-0.4322420068738781
 31
0.0
  0
ELLIPSE
  5
F6
330
8E
100
AcDbEntity
  8
AM_4
100
AcDbEllipse
 10
-2.356639480490508
 20
-0.4687500000000001
 30
0.0
 11
-0.0959538295573177
 21
0.03874944547499708
 31
0.0
210
0.0
220
0.0
230
1.0
 40
0.2113091308703435
 41
0.1009830038932451
 42
3.04060964969654
  0
LINE
  5
F7
330
8E
100
AcDbEntity
  8
AM_4
100
AcDbLine
 10
-2.404653413706795
 20
-0.151074129835757
 30
0.0
 11
-2.415974986930672
 21
-0.1791093260592887
 31
0.0
  0
LWPOLYLINE
  5
F8
330
8E
100
AcDbEntity
  8
AM_4
100
AcDbPolyline
 90
        9
 70
     0
 43
0.0
 10
-2.434967439740381
 20
-0.3181945520044982
 10
-2.435769879108368
 20
-0.3184635116500267
 10
-2.441457768336456
 20
-0.3209499558542287
 10
-2.446579551886643
 20
-0.3243320191425458
 10
-2.451034001709059
 20
-0.3286720491529253
 10
-2.454583892353192
 20
-0.3339022136441918
 10
-2.457130959486006
 20
-0.3403168281607891
 10
-2.458146069006326
 20
-0.3467301465743883
 10
-2.458107607722937
 20
-0.3505743234558535
  0
LWPOLYLINE
  5
F9
330
8E
100
AcDbEntity
  8
AM_4
100
AcDbPolyline
 90
        9
 70
     0
 43
0.0
 10
-2.201711099763688
 20
-0.4543088610525454
 10
-2.19795694388944
 20
-0.4503436224106486
 10
-2.194556716819885
 20
-0.4450009027083409
 10
-2.192216059911085
 20
-0.4385657727476368
 10
-2.191381048269757
 20
-0.4321836877678753
 10
-2.191803430896805
 20
-0.4261370271028832
 10
-2.193242006416793
 20
-0.4204813239428461
 10
-2.195559981472047
 20
-0.4151264607376996
 10
-2.195957063069702
 20
-0.4143839868564605
  0
ELLIPSE
  5
FA
330
8E
100
AcDbEntity
  8
AM_4
100
AcDbEllipse
 10
-2.328645818293024
 20
-0.3994303217889759
 30
0.0
 11
-0.1290248947933268
 21
0.05210467522533575
 31
0.0
210
0.0
220
0.0
230
1.0
 40
0.2113091308703541
 41
0.1026607482126192
 42
3.037154351501908
  0
LINE
  5
FB
330
8E
100
AcDbEntity
  8
AM_4
100
AcDbLine
 10
-2.195547719246208
 20
-0.2987675689889718
 30
0.0
 11
-2.190093978130815
 21
-0.3007181662501118
 31
0.0
  0
ELLIPSE
  5
FC
330
8E
100
AcDbEntity
  8
AM_4
100
AcDbEllipse
 10
-2.266969933551696
 20
-0.2467045921760208
 30
0.0
 11
-0.1303939210191767
 21
0.05265753494273435
 31
0.0
210
0.0
220
0.0
230
1.0
 40
0.2113091308703442
 41
1.711945269609639
 42
2.284693687476935
  0
LWPOLYLINE
  5
FD
330
8E
100
AcDbEntity
  8
AM_4
100
AcDbPolyline
 90
        4
 70
     0
 43
0.0
 10
-2.415974986930672
 20
-0.1791093260592888
 10
-2.401097868887597
 20
-0.1988355121406939
 10
-2.384668596644922
 20
-0.2156330920108724
 10
-2.379171578033579
 20
-0.2201680623457971
  0
LWPOLYLINE
  5
FE
330
8E
100
AcDbEntity
  8
AM_4
100
AcDbPolyline
 90
        3
 70
     0
 43
0.0
 10
-2.379171578033579
 20
-0.2201680623457971
 10
-2.366231056434951
 20
-0.2290462109660021
 10
-2.346355695492635
 20
-0.2389369657326275
  0
LINE
  5
FF
330
8E
100
AcDbEntity
  8
AM_4
100
AcDbLine
 10
-2.335683777943606
 20
-0.1230967854582223
 30
0.0
 11
-2.350667048677049
 21
-0.1601993088245384
 31
0.0
  0
ELLIPSE
  5
100
330
8E
100
AcDbEntity
  8
AM_4
100
AcDbEllipse
 10
-2.248670026013161
 20
-0.2013892028241881
 30
0.0
 11
-0.101997022663888
 21
0.04118989399964975
 31
0.0
210
0.0
220
0.0
230
1.0
 40
0.2113091308703488
 41
0.0
 42
2.266244529964768
  0
LWPOLYLINE
  5
101
330
8E
100
AcDbEntity
  8
AM_4
100
AcDbPolyline
 90
        4
 70
     0
 43
0.0
 10
-2.404653413706795
 20
-0.1510741298357571
 10
-2.388037571719267
 20
-0.145877822676052
 10
-2.371982959064133
 20
-0.1427138007556462
 10
-2.360374412446499
 20
-0.141958509815605
  0
LWPOLYLINE
  5
102
330
8E
100
AcDbEntity
  8
AM_4
100
AcDbPolyline
 90
        7
 70
     0
 43
0.0
 10
-2.334668449273089
 20
-0.2099962668917053
 10
-2.344977585630418
 20
-0.1943573015029059
 10
-2.356321412464629
 20
-0.1805491420332303
 10
-2.369035387041436
 20
-0.1688997677199809
 10
-2.382931313231127
 20
-0.1598729403210871
 10
-2.393604652871771
 20
-0.1549033058439656
 10
-2.404653413706795
 20
-0.151074129835757
  0
LINE
  5
103
330
8E
100
AcDbEntity
  8
AM_4
100
AcDbLine
 10
-2.35904455890367
 20
-0.1419585097669023
 30
0.0
 11
-2.360483035551823
 21
-0.1419585097669023
 31
0.0
  0
ELLIPSE
  5
104
330
8E
100
AcDbEntity
  8
AM_4
100
AcDbEllipse
 10
-2.248670026013161
 20
-0.2013892028241826
 30
0.0
 11
-0.1303939210191749
 21
0.05265753494272871
 31
0.0
210
0.0
220
0.0
230
1.0
 40
0.2113091308703323
 41
5.610613825799291
 42
7.795870906981537
  0
ELLIPSE
  5
105
330
8E
100
AcDbEntity
  8
AM_4
100
AcDbEllipse
 10
-2.266969933551694
 20
-0.2467045921760209
 30
0.0
 11
-0.1303939210191749
 21
0.0526575349427341
 31
0.0
210
0.0
220
0.0
230
1.0
 40
0.2113091308703492
 41
0.6359965959176863
 42
1.512685599801932
  0
LWPOLYLINE
  5
106
330
8E
100
AcDbEntity
  8
AM_4
100
AcDbPolyline
 90
       11
 70
     0
 43
0.0
 10
-2.195625859550188
 20
-0.415000026894089
 10
-2.196738960321217
 20
-0.4127473589156245
 10
-2.199163798629765
 20
-0.4068665330467979
 10
-2.201341596652524
 20
-0.3996059986139742
 10
-2.20290438054202
 20
-0.3911045194931571
 10
-2.203509540404403
 20
-0.3816792347933237
 10
-2.202920868394688
 20
-0.3717286212378983
 10
-2.20073165936785
 20
-0.360513179198358
 10
-2.197033941725522
 20
-0.3498413296513663
 10
-2.192068438852361
 20
-0.3400902609143973
 10
-2.190086446613189
 20
-0.3369416504674028
  0
LWPOLYLINE
  5
107
330
8E
100
AcDbEntity
  8
AM_4
100
AcDbPolyline
 90
       18
 70
     0
 43
0.0
 10
-2.393602208641756
 20
-0.2064318698089898
 10
-2.393160688026866
 20
-0.2071590238335456
 10
-2.390841080553701
 20
-0.2114496834083898
 10
-2.38840714564906
 20
-0.2170760477963104
 10
-2.386157123195029
 20
-0.2240872633280645
 10
-2.384453324165464
 20
-0.2323797664452641
 10
-2.383650417410887
 20
-0.2416642300066432
 10
-2.384007513898516
 20
-0.2515481351381196
 10
-2.38565865903588
 20
-0.2616422934689374
 10
-2.388962910256278
 20
-0.2724814910792284
 10
-2.393611110224853
 20
-0.2825043962479693
 10
-2.399328902893048
 20
-0.2914552974725698
 10
-2.405819950418712
 20
-0.2991955891902399
 10
-2.412753258178991
 20
-0.3056411591892305
 10
-2.419747511313697
 20
-0.3107547833345081
 10
-2.426389372750506
 20
-0.3145705461778364
 10
-2.432305256117017
 20
-0.3172193451825289
 10
-2.435329904289749
 20
-0.3183138190703107
  0
ELLIPSE
  5
108
330
8E
100
AcDbEntity
  8
AM_4
100
AcDbEllipse
 10
-2.317970836815679
 20
-0.3729962569746643
 30
0.0
 11
-0.1235034625625953
 21
0.04987493162723556
 31
0.0
210
0.0
220
0.0
230
1.0
 40
0.2113091308703507
 41
6.03942599209463
 42
9.667309791166769
  0
ELLIPSE
  5
109
330
8E
100
AcDbEntity
  8
AM_4
100
AcDbEllipse
 10
-2.248670026013161
 20
-0.2013892028241927
 30
0.0
 11
-0.13039392101917
 21
0.05265753494273056
 31
0.0
210
0.0
220
0.0
230
1.0
 40
0.2113091308703278
 41
-4.571240037569963
 42
-4.162381761873649
  0
LWPOLYLINE
  5
10A
330
8E
100
AcDbEntity
  8
AM_4
100
AcDbPolyline
 90
        3
 70
     0
 43
0.0
 10
-2.189874086063611
 20
-0.2646395696223714
 10
-2.211554369904074
 20
-0.251275593729576
 10
-2.24134247474206
 20
-0.2360765106845275
  0
LINE
  5
10B
330
8E
100
AcDbEntity
  8
AM_4
100
AcDbLine
 10
-2.24134247474206
 20
-0.2360765106845275
 30
0.0
 11
-2.267351283768044
 21
-0.2258378743019627
 31
0.0
  0
LWPOLYLINE
  5
10C
330
8E
100
AcDbEntity
  8
AM_4
100
AcDbPolyline
 90
        4
 70
     0
 43
0.0
 10
-2.267351283768044
 20
-0.2258378743019627
 10
-2.290341318460285
 20
-0.2189176876709014
 10
-2.312347188320969
 20
-0.2138633349839127
 10
-2.334668449273089
 20
-0.2099962668917053
  0
LINE
  5
10D
330
8E
100
AcDbEntity
  8
AM_4
100
AcDbLine
 10
-2.334668449273089
 20
-0.2099962668917053
 30
0.0
 11
-2.346355695492634
 21
-0.2389369657326276
 31
0.0
  0
LWPOLYLINE
  5
10E
330
8E
100
AcDbEntity
  8
AM_4
100
AcDbPolyline
 90
        3
 70
     0
 43
0.0
 10
-2.346355695492634
 20
-0.2389369657326276
 10
-2.316675874258832
 20
-0.2560939713202353
 10
-2.285651191306577
 20
-0.2711532636537956
  0
LINE
  5
10F
330
8E
100
AcDbEntity
  8
AM_4
100
AcDbLine
 10
-2.285651191306577
 20
-0.2711532636537956
 30
0.0
 11
-2.259642382280594
 21
-0.2813919000363599
 31
0.0
  0
LWPOLYLINE
  5
110
330
8E
100
AcDbEntity
  8
AM_4
100
AcDbPolyline
 90
        3
 70
     0
 43
0.0
 10
-2.259642382280594
 20
-0.2813919000363599
 10
-2.22799183142657
 20
-0.2911775952746243
 10
-2.195547719246208
 20
-0.2987675689889718
  0
LINE
  5
111
330
8E
100
AcDbEntity
  8
AM_4
100
AcDbLine
 10
-2.19
 20
-0.2850299554449037
 30
0.0
 11
-2.195547719246208
 21
-0.2987675689889718
 31
0.0
  0
ARC
  5
112
330
8E
100
AcDbEntity
  8
AM_4
100
AcDbCircle
 10
-2.178053890517862
 20
-0.0000000000000003
 30
0.0
 40
0.2000000000000003
100
AcDbArc
 50
93.4243465321043
 51
219.6391192605283
  0
LWPOLYLINE
  5
113
330
8E
100
AcDbEntity
  8
AM_4
100
AcDbPolyline
 90
       10
 70
     0
 43
0.0
 10
-2.332256152997151
 20
-0.1273642464000147
 10
-2.330592940827192
 20
-0.1291842652280562
 10
-2.324315393559529
 20
-0.1344729790611519
 10
-2.315157794496808
 20
-0.1405186270901959
 10
-2.303861605334797
 20
-0.1468270783017121
 10
-2.290120454194047
 20
-0.1535654953592165
 10
-2.275058964454566
 20
-0.1601799433259583
 10
-2.258265541634906
 20
-0.1668493358980661
 10
-2.24086620548091
 20
-0.1731116383367606
 10
-2.222622990701806
 20
-0.1790373738502115
  0
ELLIPSE
  5
114
330
8E
100
AcDbEntity
  8
AM_4
100
AcDbEllipse
 10
-2.178053890517864
 20
0.0
 30
0.0
 11
1.224646799147353E-17
 21
0.1999999999999999
 31
0.0
210
0.0
220
0.0
230
1.0
 40
0.4999999999999984
 41
0.1197470724648966
 42
2.679646633022828
  0
LINE
  5
115
330
8E
100
AcDbEntity
  8
AM_4
100
AcDbLine
 10
-2.189848394393637
 20
-0.1896526789612584
 30
0.0
 11
-2.222622990701824
 21
-0.1790373738501784
 31
0.0
  0
ENDBLK
  5
91
330
8E
100
AcDbEntity
  8
0
100
AcDbBlockEnd
  0
BLOCK
  5
118
330
116
100
AcDbEntity
  8
0
100
AcDbBlockBegin
  2
3_130302_0_in_130340_4
 70
     2
 10
0.0
 20
0.0
 30
0.0
  3
3_130302_0_in_130340_4
  1

  0
ATTDEF
  5
11A
330
116
100
AcDbEntity
  8
AM_6
100
AcDbText
 10
6.672639608421236
 20
0.4350000000000002
 30
0.0
 40
0.5
  1
Eccentric Collar Intermediate Duty Insert Inch Bore
100
AcDbAttributeDefinition
  3

  2
NN
 70
     8
280
     0
  0
ATTDEF
  5
11B
330
116
100
AcDbEntity
  8
AM_6
100
AcDbText
 10
6.672639608421236
 20
-0.0649999999999998
 30
0.0
 40
0.5
  1
Eccentric Collar Bearing Inserts -(Intermediate Duty)
100
AcDbAttributeDefinition
  3

  2
NT
 70
     8
280
     0
  0
ATTDEF
  5
11C
330
116
100
AcDbEntity
  8
AM_6
100
AcDbText
 10
6.672639608421236
 20
-0.5649999999999998
 30
0.0
 40
0.5
  1
130302
100
AcDbAttributeDefinition
  3

  2
NB
 70
     8
280
     0
  0
ATTDEF
  5
11D
330
116
100
AcDbEntity
  8
AM_6
100
AcDbText
 10
6.672639608421236
 20
-1.065
 30
0.0
 40
0.5
  1
$PN.
100
AcDbAttributeDefinition
  3

  2
NBSYN
 70
     8
280
     0
  0
ATTDEF
  5
11E
330
116
100
AcDbEntity
  8
AM_6
100
AcDbText
 10
6.672639608421236
 20
-1.565
 30
0.0
 40
0.5
  1
130302
100
AcDbAttributeDefinition
  3

  2
LINA
 70
     8
280
     0
  0
ATTDEF
  5
11F
330
116
100
AcDbEntity
  8
AM_6
100
AcDbText
 10
6.672639608421236
 20
-2.065
 30
0.0
 40
0.5
  1
209
100
AcDbAttributeDefinition
  3

  2
SERIES
 70
     8
280
     0
  0
ATTDEF
  5
120
330
116
100
AcDbEntity
  8
AM_6
100
AcDbText
 10
6.672639608421236
 20
-2.565
 30
0.0
 40
0.5
  1
1-11/16
100
AcDbAttributeDefinition
  3

  2
SS
 70
     8
280
     0
  0
ATTDEF
  5
121
330
116
100
AcDbEntity
  8
AM_6
100
AcDbText
 10
6.672639608421236
 20
-3.065
 30
0.0
 40
0.5
  1
130302
100
AcDbAttributeDefinition
  3

  2
PN
 70
     8
280
     0
  0
ATTDEF
  5
122
330
116
100
AcDbEntity
  8
AM_6
100
AcDbText
 10
6.672639608421236
 20
-3.565
 30
0.0
 40
0.5
  1
INS-SXV-111
100
AcDbAttributeDefinition
  3

  2
DESCRIPTION
 70
     8
280
     0
  0
ATTDEF
  5
123
330
116
100
AcDbEntity
  8
AM_6
100
AcDbText
 10
6.672639608421236
 20
-4.065
 30
0.0
 40
0.5
  1
1.9
100
AcDbAttributeDefinition
  3

  2
WEIGHT
 70
     8
280
     0
  0
ATTDEF
  5
124
330
116
100
AcDbEntity
  8
AM_6
100
AcDbText
 10
6.672639608421236
 20
-4.565
 30
0.0
 40
0.5
  1
1.69
100
AcDbAttributeDefinition
  3

  2
A
 70
     8
280
     0
  0
ATTDEF
  5
125
330
116
100
AcDbEntity
  8
AM_6
100
AcDbText
 10
6.672639608421236
 20
-5.065
 30
0.0
 40
0.5
  1
0.87
100
AcDbAttributeDefinition
  3

  2
C
 70
     8
280
     0
  0
ATTDEF
  5
126
330
116
100
AcDbEntity
  8
AM_6
100
AcDbText
 10
6.672639608421236
 20
-5.565
 30
0.0
 40
0.5
  1
3.3465
100
AcDbAttributeDefinition
  3

  2
D
 70
     8
280
     0
  0
ATTDEF
  5
127
330
116
100
AcDbEntity
  8
AM_6
100
AcDbText
 10
6.672639608421236
 20
-6.065
 30
0.0
 40
0.5
  1
0.25
100
AcDbAttributeDefinition
  3

  2
J
 70
     8
280
     0
  0
ATTDEF
  5
128
330
116
100
AcDbEntity
  8
AM_6
100
AcDbText
 10
6.672639608421236
 20
-6.565
 30
0.0
 40
0.5
  1
2.50
100
AcDbAttributeDefinition
  3

  2
L
 70
     8
280
     0
  0
ATTDEF
  5
129
330
116
100
AcDbEntity
  8
AM_6
100
AcDbText
 10
6.672639608421236
 20
-7.065
 30
0.0
 40
0.5
  1
5/16 - 24
100
AcDbAttributeDefinition
  3

  2
N
 70
     8
280
     0
  0
ATTDEF
  5
12A
330
116
100
AcDbEntity
  8
AM_6
100
AcDbText
 10
6.672639608421236
 20
-7.565
 30
0.0
 40
0.5
  1
0.43
100
AcDbAttributeDefinition
  3

  2
W
 70
     8
280
     0
  0
ATTDEF
  5
12B
330
116
100
AcDbEntity
  8
AM_6
100
AcDbText
 10
6.672639608421236
 20
-8.065
 30
0.0
 40
0.5
  1
1.26
100
AcDbAttributeDefinition
  3

  2
Y
 70
     8
280
     0
  0
ATTDEF
  5
12C
330
116
100
AcDbEntity
  8
AM_6
100
AcDbText
 10
6.672639608421236
 20
-8.565
 30
0.0
 40
0.5
  1
2.22
100
AcDbAttributeDefinition
  3

  2
Z
 70
     8
280
     0
  0
ATTDEF
  5
12D
330
116
100
AcDbEntity
  8
AM_6
100
AcDbText
 10
6.672639608421236
 20
-9.065
 30
0.0
 40
0.5
  1
baldor
100
AcDbAttributeDefinition
  3

  2
COMPANY
 70
     8
280
     0
  0
ARC
  5
12E
330
116
100
AcDbEntity
  8
AM_9
100
AcDbCircle
 10
-0.0000000000000053
 20
0.2500000000002114
 30
0.0
 40
0.0781249999997885
100
AcDbArc
 50
90.0
 51
92.18960112133554
  0
ARC
  5
12F
330
116
100
AcDbEntity
  8
AM_9
100
AcDbCircle
 10
0.0000000000000006
 20
0.2499999999999995
 30
0.0
 40
0.0781250000000007
100
AcDbArc
 50
130.1766883825545
 51
147.6036458319164
  0
ARC
  5
130
330
116
100
AcDbEntity
  8
AM_9
100
AcDbCircle
 10
0.0000000000000022
 20
0.2500000000000883
 30
0.0
 40
0.0781250000000884
100
AcDbArc
 50
267.4850960441054
 51
270.0
  0
LINE
  5
131
330
116
100
AcDbEntity
  8
AM_9
100
AcDbLine
 10
1.25
 20
-0.8823209270615263
 30
0.0
 11
1.246045927061527
 21
-0.8862749999999999
 31
0.0
  0
LINE
  5
132
330
116
100
AcDbEntity
  8
AM_9
100
AcDbLine
 10
1.246045927061527
 20
-1.164975
 30
0.0
 11
1.25
 21
-1.168929072938474
 31
0.0
  0
LINE
  5
133
330
116
100
AcDbEntity
  8
AM_9
100
AcDbLine
 10
1.246045927061527
 20
-1.123343344473382
 30
0.0
 11
1.246045927061527
 21
-1.164975
 31
0.0
  0
LINE
  5
134
330
116
100
AcDbEntity
  8
AM_9
100
AcDbLine
 10
0.84375
 20
-1.164975
 30
0.0
 11
1.246045927061527
 21
-1.164975
 31
0.0
  0
LINE
  5
135
330
116
100
AcDbEntity
  8
AM_9
100
AcDbLine
 10
1.246045927061527
 20
-0.8862749999999999
 30
0.0
 11
0.84375
 21
-0.8862749999999999
 31
0.0
  0
LINE
  5
136
330
116
100
AcDbEntity
  8
AM_9
100
AcDbLine
 10
1.246045927061527
 20
-0.8862749999999999
 30
0.0
 11
1.246045927061527
 21
-0.9279066555266176
 31
0.0
  0
LINE
  5
137
330
116
100
AcDbEntity
  8
AM_9
100
AcDbLine
 10
0.84375
 20
-0.7743749999999998
 30
0.0
 11
0.84375
 21
0.4299999999999999
 31
0.0
  0
LINE
  5
138
330
116
100
AcDbEntity
  8
AM_9
100
AcDbLine
 10
-0.84375
 20
0.4299999999999999
 30
0.0
 11
-0.84375
 21
-0.7743749999999998
 31
0.0
  0
LINE
  5
139
330
116
100
AcDbEntity
  8
AM_9
100
AcDbLine
 10
0.84375
 20
-1.236135146134954
 30
0.0
 11
0.84375
 21
-1.164975
 31
0.0
  0
LINE
  5
13A
330
116
100
AcDbEntity
  8
AM_9
100
AcDbLine
 10
0.84375
 20
-0.8862749999999999
 30
0.0
 11
0.84375
 21
-0.808125
 31
0.0
  0
LINE
  5
13B
330
116
100
AcDbEntity
  8
AM_9
100
AcDbLine
 10
-0.84375
 20
-0.808125
 30
0.0
 11
-0.84375
 21
-1.236135146134954
 31
0.0
  0
LWPOLYLINE
  5
13C
330
116
100
AcDbEntity
  8
AM_9
100
AcDbPolyline
 90
       21
 70
     0
 43
0.0
 10
0.8437499999999161
 20
-0.886275000000508
 10
0.8437250945250935
 20
-0.8864258795596109
 10
0.8432190628076752
 20
-0.8895266977245703
 10
0.8421616725338892
 20
-0.8962393644561825
 10
0.8406109398002485
 20
-0.9067506456932074
 10
0.8387996799430201
 20
-0.9203194300024308
 10
0.8368424622401848
 20
-0.9372526818895486
 10
0.8350407080298952
 20
-0.9563621378943327
 10
0.8335218080025902
 20
-0.9780543744427641
 10
0.8325454108289405
 20
-1.000401576514488
 10
0.8321645294588038
 20
-1.024153915572713
 10
0.8324375246221973
 20
-1.046993022817551
 10
0.833338870468222
 20
-1.069874667041144
 10
0.8347167694733844
 20
-1.09086643805959
 10
0.8364907184448688
 20
-1.11060195007714
 10
0.8383953016520679
 20
-1.127659512946658
 10
0.840300844629328
 20
-1.142286345289525
 10
0.8419046574176239
 20
-1.15332704454701
 10
0.8431009695823479
 20
-1.160989710728813
 10
0.8435829462309885
 20
-1.163959909447163
 10
0.84375
 20
-1.164975
  0
LINE
  5
13D
330
116
100
AcDbEntity
  8
AM_9
100
AcDbLine
 10
-0.84375
 20
-0.808125
 30
0.0
 11
0.84375
 21
-0.808125
 31
0.0
  0
LINE
  5
13E
330
116
100
AcDbEntity
  8
AM_9
100
AcDbLine
 10
0.84375
 20
-0.808125
 30
0.0
 11
0.860625
 21
-0.7912499999999999
 31
0.0
  0
LINE
  5
13F
330
116
100
AcDbEntity
  8
AM_9
100
AcDbLine
 10
-0.860625
 20
-0.7912499999999999
 30
0.0
 11
-0.84375
 21
-0.808125
 31
0.0
  0
LINE
  5
140
330
116
100
AcDbEntity
  8
AM_9
100
AcDbLine
 10
-0.84375
 20
-0.7743749999999998
 30
0.0
 11
0.84375
 21
-0.7743749999999998
 31
0.0
  0
LINE
  5
141
330
116
100
AcDbEntity
  8
AM_9
100
AcDbLine
 10
-0.860625
 20
-0.7912499999999999
 30
0.0
 11
0.860625
 21
-0.7912499999999999
 31
0.0
  0
LINE
  5
142
330
116
100
AcDbEntity
  8
AM_9
100
AcDbLine
 10
-0.84375
 20
-0.7743749999999998
 30
0.0
 11
-0.860625
 21
-0.7912499999999999
 31
0.0
  0
LINE
  5
143
330
116
100
AcDbEntity
  8
AM_9
100
AcDbLine
 10
0.860625
 20
-0.7912499999999999
 30
0.0
 11
0.84375
 21
-0.7743749999999998
 31
0.0
  0
LINE
  5
144
330
116
100
AcDbEntity
  8
AM_9
100
AcDbLine
 10
-0.84375
 20
-1.236135146134954
 30
0.0
 11
0.84375
 21
-1.236135146134954
 31
0.0
  0
LINE
  5
145
330
116
100
AcDbEntity
  8
AM_9
100
AcDbLine
 10
-0.84375
 20
-1.236135146134954
 30
0.0
 11
-0.867614853865046
 21
-1.26
 31
0.0
  0
LINE
  5
146
330
116
100
AcDbEntity
  8
AM_9
100
AcDbLine
 10
0.867614853865046
 20
-1.26
 30
0.0
 11
0.84375
 21
-1.236135146134954
 31
0.0
  0
LINE
  5
147
330
116
100
AcDbEntity
  8
AM_9
100
AcDbLine
 10
1.11
 20
-0.6259999999999998
 30
0.0
 11
1.11
 21
-0.4349999999999999
 31
0.0
  0
LINE
  5
148
330
116
100
AcDbEntity
  8
AM_9
100
AcDbLine
 10
-1.11
 20
-0.4349999999999999
 30
0.0
 11
-1.11
 21
-0.6259999999999998
 31
0.0
  0
LINE
  5
149
330
116
100
AcDbEntity
  8
AM_9
100
AcDbLine
 10
-1.11
 20
0.43
 30
0.0
 11
1.11
 21
0.43
 31
0.0
  0
LINE
  5
14A
330
116
100
AcDbEntity
  8
AM_9
100
AcDbLine
 10
1.11
 20
0.43
 30
0.0
 11
1.11
 21
0.435
 31
0.0
  0
LINE
  5
14B
330
116
100
AcDbEntity
  8
AM_9
100
AcDbLine
 10
-1.11
 20
0.435
 30
0.0
 11
-1.11
 21
0.43
 31
0.0
  0
LINE
  5
14C
330
116
100
AcDbEntity
  8
AM_9
100
AcDbLine
 10
1.593571428571429
 20
-0.3
 30
0.0
 11
1.593571428571429
 21
-0.2
 31
0.0
  0
LINE
  5
14D
330
116
100
AcDbEntity
  8
AM_9
100
AcDbLine
 10
-1.593571428571429
 20
-0.2
 30
0.0
 11
-1.593571428571429
 21
-0.3
 31
0.0
  0
LINE
  5
14E
330
116
100
AcDbEntity
  8
AM_9
100
AcDbLine
 10
-1.589641056182181
 20
0.435
 30
0.0
 11
1.589641056182181
 21
0.435
 31
0.0
  0
ARC
  5
14F
330
116
100
AcDbEntity
  8
AM_9
100
AcDbCircle
 10
1.589641056182181
 20
0.4012499999999998
 30
0.0
 40
0.0337500000000003
100
AcDbArc
 50
14.16643214540663
 51
90.0
  0
ARC
  5
150
330
116
100
AcDbEntity
  8
AM_9
100
AcDbCircle
 10
-1.589641056182181
 20
0.4012499999999998
 30
0.0
 40
0.0337500000000002
100
AcDbArc
 50
90.0
 51
165.8335678545934
  0
LINE
  5
151
330
116
100
AcDbEntity
  8
AM_9
100
AcDbLine
 10
-1.589641056182181
 20
-0.4350000000000001
 30
0.0
 11
1.589641056182181
 21
-0.4350000000000001
 31
0.0
  0
ARC
  5
152
330
116
100
AcDbEntity
  8
AM_9
100
AcDbCircle
 10
1.589641056182181
 20
-0.4012499999999999
 30
0.0
 40
0.0337500000000001
100
AcDbArc
 50
270.0
 51
345.8335752704335
  0
ARC
  5
153
330
116
100
AcDbEntity
  8
AM_9
100
AcDbCircle
 10
-1.589641056182181
 20
-0.4012499999999999
 30
0.0
 40
0.0337500000000003
100
AcDbArc
 50
194.1664247295666
 51
270.0
  0
ARC
  5
154
330
116
100
AcDbEntity
  8
AM_9
100
AcDbCircle
 10
-0.0000000000006692
 20
0.0000000000001458
 30
0.0
 40
1.673250000000684
100
AcDbArc
 50
345.8335752704337
 51
349.6714882663087
  0
ARC
  5
155
330
116
100
AcDbEntity
  8
AM_9
100
AcDbCircle
 10
-0.0000000002175888
 20
-0.0000000000472048
 30
0.0
 40
1.673249999777599
100
AcDbArc
 50
190.3285117334354
 51
194.1664247298221
  0
LINE
  5
156
330
116
100
AcDbEntity
  8
AM_9
100
AcDbLine
 10
-1.622364682681942
 20
-0.4095099496797802
 30
0.0
 11
1.622364682681814
 21
-0.4095099496797802
 31
0.0
  0
LINE
  5
157
330
116
100
AcDbEntity
  8
AM_9
100
AcDbLine
 10
-1.646136556455879
 20
-0.3
 30
0.0
 11
1.646136556455752
 21
-0.3
 31
0.0
  0
LWPOLYLINE
  5
158
330
116
100
AcDbEntity
  8
AM_9
100
AcDbPolyline
 90
       38
 70
     0
 43
0.0
 10
-0.054794811152164
 20
0.3056870208917599
 10
-0.0633087925965039
 20
0.2957767670873866
 10
-0.0702101591051178
 20
0.284264401110103
 10
-0.0749260421487187
 20
0.2721269933097206
 10
-0.0776029467946804
 20
0.2590165555386743
 10
-0.0780193370084254
 20
0.2459381435567282
 10
-0.0761629698295433
 20
0.232601216946462
 10
-0.0721732063222299
 20
0.2200910730020478
 10
-0.0659286339145479
 20
0.208084240968801
 10
-0.0579927764040032
 20
0.1976516140654241
 10
-0.048098260562143
 20
0.1884364315857486
 10
-0.0372005938748338
 20
0.1813004261995775
 10
-0.0248817415165335
 20
0.1759431666616481
 10
-0.0123332966029185
 20
0.1728546474510327
 10
0.0009416369170002
 20
0.171880674958647
 10
0.013728555078965
 20
0.1730906871670027
 10
0.0264883342131442
 20
0.1765024913645857
 10
0.0381540127251282
 20
0.181825320404341
 10
0.049062658145162
 20
0.1892022105604901
 10
0.0583761407352485
 20
0.1980794663176651
 10
0.0662880094619437
 20
0.2086549225835375
 10
0.0722097313678293
 20
0.2201793641787112
 10
0.0762232503238811
 20
0.2328672321248736
 10
0.0780120431435646
 20
0.245800386974182
 10
0.0775788638983467
 20
0.2592214695814599
 10
0.074941137456833
 20
0.2720758134997571
 10
0.0700138422893844
 20
0.2846637781102579
 10
0.0632234823975024
 20
0.2958945192646431
 10
0.0543529785158276
 20
0.3061183512895556
 10
0.0442462817181569
 20
0.3143877486725346
 10
0.0325283844824241
 20
0.3210311187294947
 10
0.0203429468878284
 20
0.3254299684271377
 10
0.0072032362540789
 20
0.3277922169144697
 10
-0.0056569365712735
 20
0.3279199248820774
 10
-0.0187255451048403
 20
0.3258476735670026
 10
-0.030875817566409
 20
0.3217648905427007
 10
-0.0424900355896717
 20
0.3155599916152254
 10
-0.0547948111521617
 20
0.3056870208917565
  0
ARC
  5
159
330
116
100
AcDbEntity
  8
AM_9
100
AcDbCircle
 10
0.000000000000014
 20
0.0000000000000003
 30
0.0
 40
1.673249999999986
100
AcDbArc
 50
353.1351448839998
 51
14.16642487914697
  0
ARC
  5
15A
330
116
100
AcDbEntity
  8
AM_9
100
AcDbCircle
 10
-0.0000000000018872
 20
0.00000000000012
 30
0.0
 40
1.673249999998136
100
AcDbArc
 50
165.8335751208413
 51
186.8648551160119
  0
LINE
  5
15B
330
116
100
AcDbEntity
  8
AM_9
100
AcDbLine
 10
-1.661254213689158
 20
-0.1999999999999998
 30
0.0
 11
1.661254213689163
 21
-0.1999999999999998
 31
0.0
  0
LINE
  5
15C
330
116
100
AcDbEntity
  8
AM_9
100
AcDbLine
 10
-1.622364681612717
 20
0.409509953915226
 30
0.0
 11
1.622364681612722
 21
0.409509953915226
 31
0.0
  0
LINE
  5
15E
330
116
100
AcDbEntity
  8
AM_5
100
AcDbLine
 10
0.84375
 20
-0.8693749999999999
 30
0.0
 11
1.25
 21
-0.8693749999999999
 31
0.0
  0
LINE
  5
15F
330
116
100
AcDbEntity
  8
AM_5
100
AcDbLine
 10
0.84375
 20
-1.181875
 30
0.0
 11
1.25
 21
-1.181875
 31
0.0
  0
LINE
  5
162
330
116
100
AcDbEntity
  8
AM_7
100
AcDbLine
 10
1.28577291353516
 20
-1.025625
 30
0.0
 11
0.7835792111152153
 21
-1.025625
 31
0.0
  0
LINE
  5
163
330
116
100
AcDbEntity
  8
AM_4
100
AcDbLine
 10
1.057142857142857
 20
-0.6974999999999999
 30
0.0
 11
1.057142857142857
 21
-0.66625
 31
0.0
  0
LINE
  5
164
330
116
100
AcDbEntity
  8
AM_4
100
AcDbLine
 10
-1.057142857142857
 20
-0.66625
 30
0.0
 11
-1.057142857142857
 21
-0.6974999999999999
 31
0.0
  0
LINE
  5
165
330
116
100
AcDbEntity
  8
AM_4
100
AcDbLine
 10
-1.11
 20
-0.66625
 30
0.0
 11
1.11
 21
-0.66625
 31
0.0
  0
LINE
  5
166
330
116
100
AcDbEntity
  8
AM_4
100
AcDbLine
 10
1.11
 20
-0.66625
 30
0.0
 11
1.11
 21
-0.6259999999999998
 31
0.0
  0
LINE
  5
167
330
116
100
AcDbEntity
  8
AM_4
100
AcDbLine
 10
-1.11
 20
-0.6259999999999998
 30
0.0
 11
-1.11
 21
-0.66625
 31
0.0
  0
LINE
  5
168
330
116
100
AcDbEntity
  8
AM_4
100
AcDbLine
 10
-1.1825
 20
-0.6974999999999999
 30
0.0
 11
1.1825
 21
-0.6974999999999999
 31
0.0
  0
ARC
  5
169
330
116
100
AcDbEntity
  8
AM_4
100
AcDbCircle
 10
1.182499999999999
 20
-0.7650000000000007
 30
0.0
 40
0.0675000000000008
100
AcDbArc
 50
0.0
 51
90.0
  0
ARC
  5
16A
330
116
100
AcDbEntity
  8
AM_4
100
AcDbCircle
 10
-1.182499999999999
 20
-0.7650000000000007
 30
0.0
 40
0.0675000000000008
100
AcDbArc
 50
90.0
 51
180.0
  0
LWPOLYLINE
  5
16B
330
116
100
AcDbEntity
  8
AM_4
100
AcDbPolyline
 90
       10
 70
     0
 43
0.0
 10
1.246045927061527
 20
-1.123343344473382
 10
1.244761773323002
 20
-1.105289615488853
 10
1.243625970254169
 20
-1.084988089463265
 10
1.242772558949359
 20
-1.062975648100037
 10
1.242290371563328
 20
-1.03990049575148
 10
1.242244921276509
 20
-1.016507793346194
 10
1.242626959528571
 20
-0.9933731311049933
 10
1.243401662000917
 20
-0.9712162861961016
 10
1.244472936277267
 20
-0.9505829342864163
 10
1.246045927061527
 20
-0.9279066555266176
  0
LWPOLYLINE
  5
16C
330
116
100
AcDbEntity
  8
AM_4
100
AcDbPolyline
 90
        7
 70
     0
 43
0.0
 10
1.246045927061526
 20
-0.9279066555266164
 10
1.246926837092902
 20
-0.9161204558443462
 10
1.247788869569352
 20
-0.9056905118546904
 10
1.248822483510484
 20
-0.894256992595872
 10
1.249596473819744
 20
-0.8862983562934329
 10
1.249959406267005
 20
-0.8827161416691666
 10
1.249999999999999
 20
-0.8823209270615364
  0
LINE
  5
16D
330
116
100
AcDbEntity
  8
AM_4
100
AcDbLine
 10
-1.25
 20
-0.7650000000000001
 30
0.0
 11
1.25
 21
-0.7650000000000001
 31
0.0
  0
LINE
  5
16E
330
116
100
AcDbEntity
  8
AM_4
100
AcDbLine
 10
1.25
 20
-1.1925
 30
0.0
 11
1.25
 21
-1.168929072938474
 31
0.0
  0
LINE
  5
16F
330
116
100
AcDbEntity
  8
AM_4
100
AcDbLine
 10
1.25
 20
-0.8823209270615263
 30
0.0
 11
1.25
 21
-0.7650000000000001
 31
0.0
  0
LINE
  5
170
330
116
100
AcDbEntity
  8
AM_4
100
AcDbLine
 10
-1.25
 20
-0.7650000000000001
 30
0.0
 11
-1.25
 21
-1.1925
 31
0.0
  0
LWPOLYLINE
  5
171
330
116
100
AcDbEntity
  8
AM_4
100
AcDbPolyline
 90
        7
 70
     0
 43
0.0
 10
1.249999999999999
 20
-1.168929072938463
 10
1.24993661741273
 20
-1.168311519760862
 10
1.24954987388961
 20
-1.164485136331133
 10
1.24882705737014
 20
-1.157041427521703
 10
1.247871545511152
 20
-1.146513168738819
 10
1.246741254021255
 20
-1.132753185281693
 10
1.246045927061526
 20
-1.123343344473375
  0
LINE
  5
172
330
116
100
AcDbEntity
  8
AM_4
100
AcDbLine
 10
-1.1825
 20
-1.26
 30
0.0
 11
1.1825
 21
-1.26
 31
0.0
  0
LINE
  5
173
330
116
100
AcDbEntity
  8
AM_4
100
AcDbLine
 10
-1.25
 20
-1.1925
 30
0.0
 11
1.25
 21
-1.1925
 31
0.0
  0
ARC
  5
174
330
116
100
AcDbEntity
  8
AM_4
100
AcDbCircle
 10
1.1825
 20
-1.1925
 30
0.0
 40
0.0675000000000003
100
AcDbArc
 50
270.0
 51
0.0
  0
ARC
  5
175
330
116
100
AcDbEntity
  8
AM_4
100
AcDbCircle
 10
-1.1825
 20
-1.1925
 30
0.0
 40
0.0675000000000003
100
AcDbArc
 50
180.0
 51
270.0
  0
ENDBLK
  5
119
330
116
100
AcDbEntity
  8
0
100
AcDbBlockEnd
  0
BLOCK
  5
178
330
176
100
AcDbEntity
  8
0
100
AcDbBlockBegin
  2
4_130340H_0_in_130340_4
 70
     2
 10
0.0
 20
0.0
 30
0.0
  3
4_130340H_0_in_130340_4
  1

  0
ATTDEF
  5
17A
330
176
100
AcDbEntity
  8
AM_6
100
AcDbText
 10
8.3238375
 20
0.8965
 30
0.0
 40
0.5
  1
NSTU-SXV -I-Housing
100
AcDbAttributeDefinition
  3

  2
NN
 70
     8
280
     0
  0
ATTDEF
  5
17B
330
176
100
AcDbEntity
  8
AM_6
100
AcDbText
 10
8.3238375
 20
0.3965
 30
0.0
 40
0.5
  1
Eccentric Collar Take-Up Bearings -(Intermediate Duty) -Narrow Slot
100
AcDbAttributeDefinition
  3

  2
NT
 70
     8
280
     0
  0
ATTDEF
  5
17C
330
176
100
AcDbEntity
  8
AM_6
100
AcDbText
 10
8.3238375
 20
-0.1035
 30
0.0
 40
0.5
  1
130340H
100
AcDbAttributeDefinition
  3

  2
NB
 70
     8
280
     0
  0
ATTDEF
  5
17D
330
176
100
AcDbEntity
  8
AM_6
100
AcDbText
 10
8.3238375
 20
-0.6035
 30
0.0
 40
0.5
  1
$PN.H
100
AcDbAttributeDefinition
  3

  2
NBSYN
 70
     8
280
     0
  0
ATTDEF
  5
17E
330
176
100
AcDbEntity
  8
AM_6
100
AcDbText
 10
8.3238375
 20
-1.1035
 30
0.0
 40
0.5
  1
130340
100
AcDbAttributeDefinition
  3

  2
LINA
 70
     8
280
     0
  0
ATTDEF
  5
17F
330
176
100
AcDbEntity
  8
AM_6
100
AcDbText
 10
8.3238375
 20
-1.6035
 30
0.0
 40
0.5
  1
209
100
AcDbAttributeDefinition
  3

  2
SERIES
 70
     8
280
     0
  0
ATTDEF
  5
180
330
176
100
AcDbEntity
  8
AM_6
100
AcDbText
 10
8.3238375
 20
-2.1035
 30
0.0
 40
0.5
  1
1-11/16
100
AcDbAttributeDefinition
  3

  2
SS
 70
     8
280
     0
  0
ATTDEF
  5
181
330
176
100
AcDbEntity
  8
AM_6
100
AcDbText
 10
8.3238375
 20
-2.6035
 30
0.0
 40
0.5
  1
130340
100
AcDbAttributeDefinition
  3

  2
PN
 70
     8
280
     0
  0
ATTDEF
  5
182
330
176
100
AcDbEntity
  8
AM_6
100
AcDbText
 10
8.3238375
 20
-3.1035
 30
0.0
 40
0.5
  1
NSTU-SXV-111
100
AcDbAttributeDefinition
  3

  2
DESCRIPTION
 70
     8
280
     0
  0
ATTDEF
  5
183
330
176
100
AcDbEntity
  8
AM_6
100
AcDbText
 10
8.3238375
 20
-3.6035
 30
0.0
 40
0.5
  1
4.8
100
AcDbAttributeDefinition
  3

  2
W
 70
     8
280
     0
  0
ATTDEF
  5
184
330
176
100
AcDbEntity
  8
AM_6
100
AcDbText
 10
8.3238375
 20
-4.1035
 30
0.0
 40
0.5
  1
NS400
100
AcDbAttributeDefinition
  3

  2
FS
 70
     8
280
     0
  0
ATTDEF
  5
185
330
176
100
AcDbEntity
  8
AM_6
100
AcDbText
 10
8.3238375
 20
-4.6035
 30
0.0
 40
0.5
  1
1.69
100
AcDbAttributeDefinition
  3

  2
A
 70
     8
280
     0
  0
ATTDEF
  5
186
330
176
100
AcDbEntity
  8
AM_6
100
AcDbText
 10
8.3238375
 20
-5.1035
 30
0.0
 40
0.5
  1
5.44
100
AcDbAttributeDefinition
  3

  2
B
 70
     8
280
     0
  0
ATTDEF
  5
187
330
176
100
AcDbEntity
  8
AM_6
100
AcDbText
 10
8.3238375
 20
-5.6035
 30
0.0
 40
0.5
  1
0.313
100
AcDbAttributeDefinition
  3

  2
C
 70
     8
280
     0
  0
ATTDEF
  5
188
330
176
100
AcDbEntity
  8
AM_6
100
AcDbText
 10
8.3238375
 20
-6.1035
 30
0.0
 40
0.5
  1
3.00
100
AcDbAttributeDefinition
  3

  2
D
 70
     8
280
     0
  0
ATTDEF
  5
189
330
176
100
AcDbEntity
  8
AM_6
100
AcDbText
 10
8.3238375
 20
-6.6035
 30
0.0
 40
0.5
  1
3.25
100
AcDbAttributeDefinition
  3

  2
E
 70
     8
280
     0
  0
ATTDEF
  5
18A
330
176
100
AcDbEntity
  8
AM_6
100
AcDbText
 10
8.3238375
 20
-7.1035
 30
0.0
 40
0.5
  1
7/8
100
AcDbAttributeDefinition
  3

  2
F
 70
     8
280
     0
  0
ATTDEF
  5
18B
330
176
100
AcDbEntity
  8
AM_6
100
AcDbText
 10
8.3238375
 20
-7.6035
 30
0.0
 40
0.5
  1
0.72
100
AcDbAttributeDefinition
  3

  2
G
 70
     8
280
     0
  0
ATTDEF
  5
18C
330
176
100
AcDbEntity
  8
AM_6
100
AcDbText
 10
8.3238375
 20
-8.1035
 30
0.0
 40
0.5
  1
1.22
100
AcDbAttributeDefinition
  3

  2
H
 70
     8
280
     0
  0
ATTDEF
  5
18D
330
176
100
AcDbEntity
  8
AM_6
100
AcDbText
 10
8.3238375
 20
-8.6035
 30
0.0
 40
0.5
  1
1.63
100
AcDbAttributeDefinition
  3

  2
J
 70
     8
280
     0
  0
ATTDEF
  5
18E
330
176
100
AcDbEntity
  8
AM_6
100
AcDbText
 10
8.3238375
 20
-9.1035
 30
0.0
 40
0.5
  1
2.50
100
AcDbAttributeDefinition
  3

  2
L
 70
     8
280
     0
  0
ATTDEF
  5
18F
330
176
100
AcDbEntity
  8
AM_6
100
AcDbText
 10
8.3238375
 20
-9.6035
 30
0.0
 40
0.5
  1
4.015 / 3.985
100
AcDbAttributeDefinition
  3

  2
M
 70
     8
280
     0
  0
ATTDEF
  5
190
330
176
100
AcDbEntity
  8
AM_6
100
AcDbText
 10
8.3238375
 20
-10.1035
 30
0.0
 40
0.5
  1
4.75
100
AcDbAttributeDefinition
  3

  2
N
 70
     8
280
     0
  0
ATTDEF
  5
191
330
176
100
AcDbEntity
  8
AM_6
100
AcDbText
 10
8.3238375
 20
-10.6035
 30
0.0
 40
0.5
  1
0.38
100
AcDbAttributeDefinition
  3

  2
P
 70
     8
280
     0
  0
ATTDEF
  5
192
330
176
100
AcDbEntity
  8
AM_6
100
AcDbText
 10
8.3238375
 20
-11.1035
 30
0.0
 40
0.5
  1
0.43
100
AcDbAttributeDefinition
  3

  2
R
 70
     8
280
     0
  0
ATTDEF
  5
193
330
176
100
AcDbEntity
  8
AM_6
100
AcDbText
 10
8.3238375
 20
-11.6035
 30
0.0
 40
0.5
  1
1.26
100
AcDbAttributeDefinition
  3

  2
S
 70
     8
280
     0
  0
ATTDEF
  5
194
330
176
100
AcDbEntity
  8
AM_6
100
AcDbText
 10
8.3238375
 20
-12.1035
 30
0.0
 40
0.5
  1
4450
100
AcDbAttributeDefinition
  3

  2
CAPS
 70
     8
280
     0
  0
ATTDEF
  5
195
330
176
100
AcDbEntity
  8
AM_6
100
AcDbText
 10
8.3238375
 20
-12.6035
 30
0.0
 40
0.5
  1
7891
100
AcDbAttributeDefinition
  3

  2
CAPD
 70
     8
280
     0
  0
ATTDEF
  5
196
330
176
100
AcDbEntity
  8
AM_6
100
AcDbText
 10
8.3238375
 20
-13.1035
 30
0.0
 40
0.5
  1
baldor
100
AcDbAttributeDefinition
  3

  2
COMPANY
 70
     8
280
     0
  0
LINE
  5
197
330
176
100
AcDbEntity
  8
AM_9
100
AcDbLine
 10
2.72
 20
0.4374999999999999
 30
0.0
 11
2.72
 21
0.815
 31
0.0
  0
LINE
  5
198
330
176
100
AcDbEntity
  8
AM_9
100
AcDbLine
 10
2.34
 20
0.815
 30
0.0
 11
2.34
 21
0.4374999999999999
 31
0.0
  0
LINE
  5
199
330
176
100
AcDbEntity
  8
AM_9
100
AcDbLine
 10
2.72
 20
-0.815
 30
0.0
 11
2.72
 21
-0.4375
 31
0.0
  0
LINE
  5
19A
330
176
100
AcDbEntity
  8
AM_9
100
AcDbLine
 10
2.34
 20
-0.4375
 30
0.0
 11
2.34
 21
-0.815
 31
0.0
  0
LINE
  5
19B
330
176
100
AcDbEntity
  8
AM_9
100
AcDbLine
 10
2.715557042902327
 20
-0.4355888728728724
 30
0.0
 11
2.719999999957922
 21
-0.4374999999817263
 31
0.0
  0
LINE
  5
19C
330
176
100
AcDbEntity
  8
AM_9
100
AcDbLine
 10
2.03
 20
0.4375
 30
0.0
 11
2.03
 21
-0.4375
 31
0.0
  0
LWPOLYLINE
  5
19D
330
176
100
AcDbEntity
  8
AM_9
100
AcDbPolyline
 90
       21
 70
     0
 43
0.0
 10
2.34
 20
0.4375
 10
2.342363644030206
 20
0.4364786960226391
 10
2.349640336198768
 20
0.4334003441697912
 10
2.361115504538842
 20
0.428751936213902
 10
2.377028090717783
 20
0.4227370991874819
 10
2.397172766189751
 20
0.4158717639389368
 10
2.421431848440419
 20
0.4087704655831486
 10
2.449521755550934
 20
0.40222257250135
 10
2.481237527318413
 20
0.3970944833940943
 10
2.511968178644008
 20
0.3945014532057067
 10
2.544377892488519
 20
0.3943513329410862
 10
2.572740799421123
 20
0.3964000831674441
 10
2.600695774855737
 20
0.4003799977302226
 10
2.626678303524212
 20
0.4057744994110887
 10
2.650822114978088
 20
0.4121944122228954
 10
2.673288687710617
 20
0.4193302970521337
 10
2.692354507186296
 20
0.42622205011438
 10
2.706771567915389
 20
0.4319194800229145
 10
2.716311988137637
 20
0.4359110080323724
 10
2.7198780291814
 20
0.4374470436130667
 10
2.719999999957922
 20
0.4374999999817263
  0
LINE
  5
19E
330
176
100
AcDbEntity
  8
AM_9
100
AcDbLine
 10
2.03
 20
-0.4375
 30
0.0
 11
2.34
 21
-0.4375
 31
0.0
  0
LINE
  5
19F
330
176
100
AcDbEntity
  8
AM_9
100
AcDbLine
 10
2.719999999999999
 20
-0.4375
 30
0.0
 11
3.25
 21
-0.4375
 31
0.0
  0
LINE
  5
1A0
330
176
100
AcDbEntity
  8
AM_9
100
AcDbLine
 10
3.25
 20
0.4375
 30
0.0
 11
2.72
 21
0.4375
 31
0.0
  0
LINE
  5
1A1
330
176
100
AcDbEntity
  8
AM_9
100
AcDbLine
 10
2.34
 20
0.4375
 30
0.0
 11
2.03
 21
0.4375
 31
0.0
  0
LWPOLYLINE
  5
1A2
330
176
100
AcDbEntity
  8
AM_9
100
AcDbPolyline
 90
       22
 70
     0
 43
0.0
 10
2.719999999957922
 20
-0.4374999999817263
 10
2.718369014107484
 20
-0.4367941568700586
 10
2.712403499781197
 20
-0.4342548637982415
 10
2.701943517491277
 20
-0.4299660721583426
 10
2.687357724482931
 20
-0.4243438504967948
 10
2.6685889783805
 20
-0.4177477168442105
 10
2.645198664254667
 20
-0.4105812736183415
 10
2.617759086386524
 20
-0.4037423773192473
 10
2.587855620647321
 20
-0.3983133475550207
 10
2.571562066797564
 20
-0.3962762658627121
 10
2.554878391460193
 20
-0.3948736308765712
 10
2.52476893096015
 20
-0.3941238562727454
 10
2.493854906724467
 20
-0.3957432472802246
 10
2.466462015841218
 20
-0.3991783128264382
 10
2.440038058716592
 20
-0.4042269175592829
 10
2.415007062355172
 20
-0.4105235994534144
 10
2.392356472686628
 20
-0.4174350136383709
 10
2.372280586365519
 20
-0.4244781071353439
 10
2.356227789613639
 20
-0.4307006281659708
 10
2.345796833327489
 20
-0.4350138579541817
 10
2.340493517647828
 20
-0.4372858983016651
 10
2.34
 20
-0.4375
  0
LINE
  5
1A3
330
176
100
AcDbEntity
  8
AM_9
100
AcDbLine
 10
2.719999999957922
 20
0.4374999999817263
 30
0.0
 11
2.715810767480048
 21
0.4356970177904875
 31
0.0
  0
LINE
  5
1A4
330
176
100
AcDbEntity
  8
AM_9
100
AcDbLine
 10
0.5625
 20
-0.313
 30
0.0
 11
0.5625
 21
0.6260000000000001
 31
0.0
  0
LINE
  5
1A5
330
176
100
AcDbEntity
  8
AM_9
100
AcDbLine
 10
-0.5625
 20
-0.313
 30
0.0
 11
-0.5625
 21
0.6260000000000001
 31
0.0
  0
LINE
  5
1A6
330
176
100
AcDbEntity
  8
AM_9
100
AcDbLine
 10
1.67325
 20
-0.626
 30
0.0
 11
1.67325
 21
0.626
 31
0.0
  0
LINE
  5
1A7
330
176
100
AcDbEntity
  8
AM_9
100
AcDbLine
 10
-1.67325
 20
0.626
 30
0.0
 11
-1.67325
 21
-0.626
 31
0.0
  0
LINE
  5
1A8
330
176
100
AcDbEntity
  8
AM_9
100
AcDbLine
 10
0.5625
 20
-0.313
 30
0.0
 11
-0.5625
 21
-0.313
 31
0.0
  0
LINE
  5
1A9
330
176
100
AcDbEntity
  8
AM_7
100
AcDbLine
 10
1.6994125
 20
0.0
 30
0.0
 11
3.3238375
 21
0.0
 31
0.0
  0
LINE
  5
1AA
330
176
100
AcDbEntity
  8
AM_7
100
AcDbLine
 10
2.53
 20
0.8965
 30
0.0
 11
2.53
 21
-0.8965
 31
0.0
  0
LINE
  5
1AB
330
176
100
AcDbEntity
  8
AM_7
100
AcDbLine
 10
0.0
 20
0.6886
 30
0.0
 11
0.0
 21
-1.34475
 31
0.0
  0
LINE
  5
1AC
330
176
100
AcDbEntity
  8
AM_4
100
AcDbLine
 10
1.77325
 20
-0.626
 30
0.0
 11
1.77325
 21
-0.7106666666666666
 31
0.0
  0
ARC
  5
1AD
330
176
100
AcDbEntity
  8
AM_4
100
AcDbCircle
 10
1.877583333333333
 20
-0.7106666666666668
 30
0.0
 40
0.1043333333333329
100
AcDbArc
 50
180.0
 51
270.0
  0
LINE
  5
1AE
330
176
100
AcDbEntity
  8
AM_4
100
AcDbLine
 10
1.77325
 20
0.7106666666666666
 30
0.0
 11
1.77325
 21
0.626
 31
0.0
  0
ARC
  5
1AF
330
176
100
AcDbEntity
  8
AM_4
100
AcDbCircle
 10
1.877583333333333
 20
0.7106666666666671
 30
0.0
 40
0.1043333333333326
100
AcDbArc
 50
90.0
 51
180.0
  0
LINE
  5
1B0
330
176
100
AcDbEntity
  8
AM_4
100
AcDbLine
 10
1.877583333333333
 20
-0.626
 30
0.0
 11
1.877583333333333
 21
-0.815
 31
0.0
  0
LWPOLYLINE
  5
1B1
330
176
100
AcDbEntity
  8
AM_4
100
AcDbPolyline
 90
       20
 70
     0
 43
0.0
 10
2.34
 20
0.815
 10
2.342541257477882
 20
0.8144113089514251
 10
2.350380623005494
 20
0.8126426770677838
 10
2.362826419992774
 20
0.8099827194776643
 10
2.380208047790988
 20
0.806574627016364
 10
2.401479236737304
 20
0.8028963735063361
 10
2.427008129442159
 20
0.7992073106528761
 10
2.45508036894905
 20
0.7960765987747727
 10
2.486256144214704
 20
0.7937496613662047
 10
2.517270741092897
 20
0.7926455916942475
 10
2.549599285164008
 20
0.7927856784648295
 10
2.579805216860343
 20
0.7941067684049203
 10
2.6094516797059
 20
0.7965158940084552
 10
2.636366489065989
 20
0.7996491918311586
 10
2.661057289126575
 20
0.8033063008798116
 10
2.682033925430227
 20
0.8069939990369962
 10
2.699245802352114
 20
0.8104129451173708
 10
2.711261454518656
 20
0.8130072047000684
 10
2.718354241256741
 20
0.8146178982807843
 10
2.719999999996879
 20
0.8149999999992723
  0
LINE
  5
1B2
330
176
100
AcDbEntity
  8
AM_4
100
AcDbLine
 10
1.877583333333333
 20
-0.815
 30
0.0
 11
2.34
 21
-0.815
 31
0.0
  0
LINE
  5
1B3
330
176
100
AcDbEntity
  8
AM_4
100
AcDbLine
 10
2.72
 20
-0.815
 30
0.0
 11
3.145666666666667
 21
-0.815
 31
0.0
  0
LINE
  5
1B4
330
176
100
AcDbEntity
  8
AM_4
100
AcDbLine
 10
3.145666666666667
 20
0.815
 30
0.0
 11
2.72
 21
0.815
 31
0.0
  0
LINE
  5
1B5
330
176
100
AcDbEntity
  8
AM_4
100
AcDbLine
 10
2.34
 20
0.815
 30
0.0
 11
1.877583333333333
 21
0.815
 31
0.0
  0
LINE
  5
1B6
330
176
100
AcDbEntity
  8
AM_4
100
AcDbLine
 10
1.877583333333333
 20
0.815
 30
0.0
 11
1.877583333333333
 21
0.626
 31
0.0
  0
LWPOLYLINE
  5
1B7
330
176
100
AcDbEntity
  8
AM_4
100
AcDbPolyline
 90
       21
 70
     0
 43
0.0
 10
2.719999999996879
 20
-0.8149999999992723
 10
2.719900381845982
 20
-0.8149767818933553
 10
2.716162302836151
 20
-0.8141138759395142
 10
2.707606990381754
 20
-0.8122002481115506
 10
2.694007786407544
 20
-0.809335254392333
 10
2.676171217371024
 20
-0.8059100599866755
 10
2.65378546014332
 20
-0.8021520056341526
 10
2.628085560587035
 20
-0.7985898679520501
 10
2.59872751780145
 20
-0.7955177381448816
 10
2.568383866247935
 20
-0.7934723191064318
 10
2.535953731630071
 20
-0.7925657366555299
 10
2.505067306475173
 20
-0.7929354571504561
 10
2.474007324737186
 20
-0.7945188353230443
 10
2.445487958517131
 20
-0.7970365645035378
 10
2.418537401954433
 20
-0.8003429956981365
 10
2.394784226127884
 20
-0.8039952148513292
 10
2.374191835697082
 20
-0.8077135532250559
 10
2.358240158816296
 20
-0.8109417013839225
 10
2.346823582032559
 20
-0.8134362913586919
 10
2.3417478820875
 20
-0.8145942915946205
 10
2.34
 20
-0.815
  0
LINE
  5
1B8
330
176
100
AcDbEntity
  8
AM_4
100
AcDbLine
 10
3.145666666666667
 20
0.815
 30
0.0
 11
3.145666666666667
 21
-0.815
 31
0.0
  0
LINE
  5
1B9
330
176
100
AcDbEntity
  8
AM_4
100
AcDbLine
 10
3.25
 20
0.7106666666666666
 30
0.0
 11
3.25
 21
-0.7106666666666646
 31
0.0
  0
ARC
  5
1BA
330
176
100
AcDbEntity
  8
AM_4
100
AcDbCircle
 10
3.145666666666667
 20
-0.7106666666666666
 30
0.0
 40
0.1043333333333334
100
AcDbArc
 50
270.0
 51
0.0
  0
ARC
  5
1BB
330
176
100
AcDbEntity
  8
AM_4
100
AcDbCircle
 10
3.145666666666667
 20
0.7106666666666666
 30
0.0
 40
0.1043333333333329
100
AcDbArc
 50
0.0
 51
90.0
  0
LWPOLYLINE
  5
1BC
330
176
100
AcDbEntity
  8
AM_4
100
AcDbPolyline
 90
       15
 70
     0
 43
0.0
 10
2.070225122356818
 20
0.3923736194461883
 10
2.062105866103819
 20
0.346990538077022
 10
2.05474178933803
 20
0.3001479982476102
 10
2.048163183842511
 20
0.2511823887208911
 10
2.04262266702724
 20
0.201077994453581
 10
2.037222186525129
 20
0.1355812181786467
 10
2.033873531435763
 20
0.0690401468348496
 10
2.032706712992495
 20
-0.0002509770718784
 10
2.033890560547301
 20
-0.0695400049138073
 10
2.037006482092181
 20
-0.1323136625327688
 10
2.041955113344375
 20
-0.1941795172340151
 10
2.048811935210171
 20
-0.2564060116842233
 10
2.057247418572997
 20
-0.3168468734661224
 10
2.063488099057539
 20
-0.3551150942308502
 10
2.070225122356818
 20
-0.3923736194461881
  0
LINE
  5
1BD
330
176
100
AcDbEntity
  8
AM_4
100
AcDbLine
 10
-2.19
 20
0.3923736194461882
 30
0.0
 11
-2.19
 21
-0.3923736194461882
 31
0.0
  0
LWPOLYLINE
  5
1BE
330
176
100
AcDbEntity
  8
AM_4
100
AcDbPolyline
 90
        9
 70
     0
 43
0.0
 10
2.070225122356818
 20
-0.3923736194461881
 10
2.067476307401424
 20
-0.4244631428883384
 10
2.065309380030766
 20
-0.4557064407841109
 10
2.063676985031619
 20
-0.4863038030825325
 10
2.062559628412133
 20
-0.5158871231350707
 10
2.061901159757739
 20
-0.5451924111030825
 10
2.061688573521852
 20
-0.5732783767441371
 10
2.061871718181144
 20
-0.6003266558647734
 10
2.062397090765986
 20
-0.626
  0
LINE
  5
1BF
330
176
100
AcDbEntity
  8
AM_4
100
AcDbLine
 10
1.5
 20
-0.3923736194461881
 30
0.0
 11
2.070225122356818
 21
-0.3923736194461881
 31
0.0
  0
LINE
  5
1C0
330
176
100
AcDbEntity
  8
AM_4
100
AcDbLine
 10
-2.19
 20
-0.3923736194461882
 30
0.0
 11
-2.1274
 21
-0.626
 31
0.0
  0
LINE
  5
1C1
330
176
100
AcDbEntity
  8
AM_4
100
AcDbLine
 10
-2.19
 20
-0.3923736194461882
 30
0.0
 11
-1.5
 21
-0.3923736194461881
 31
0.0
  0
LINE
  5
1C2
330
176
100
AcDbEntity
  8
AM_4
100
AcDbLine
 10
-2.1274
 20
-0.626
 30
0.0
 11
2.062397090765986
 21
-0.626
 31
0.0
  0
LWPOLYLINE
  5
1C3
330
176
100
AcDbEntity
  8
AM_4
100
AcDbPolyline
 90
        9
 70
     0
 43
0.0
 10
2.062397090765986
 20
0.626
 10
2.061888707281359
 20
0.6015319169114233
 10
2.061689573065749
 20
0.5758091692355416
 10
2.061852946709262
 20
0.5486430188849158
 10
2.062431439950013
 20
0.5203172457203954
 10
2.063510787877208
 20
0.4900420104121724
 10
2.065129173735269
 20
0.4586847386033959
 10
2.067358292749444
 20
0.4259962913557702
 10
2.070225122356818
 20
0.3923736194461883
  0
LINE
  5
1C4
330
176
100
AcDbEntity
  8
AM_4
100
AcDbLine
 10
1.5
 20
0.3923736194461883
 30
0.0
 11
2.070225122356818
 21
0.3923736194461883
 31
0.0
  0
LINE
  5
1C5
330
176
100
AcDbEntity
  8
AM_4
100
AcDbLine
 10
-2.1274
 20
0.626
 30
0.0
 11
-2.19
 21
0.3923736194461882
 31
0.0
  0
LINE
  5
1C6
330
176
100
AcDbEntity
  8
AM_4
100
AcDbLine
 10
-2.1274
 20
0.626
 30
0.0
 11
2.062397090765986
 21
0.626
 31
0.0
  0
LINE
  5
1C7
330
176
100
AcDbEntity
  8
AM_4
100
AcDbLine
 10
-2.19
 20
0.3923736194461882
 30
0.0
 11
-1.5
 21
0.3923736194461883
 31
0.0
  0
LINE
  5
1C8
330
176
100
AcDbEntity
  8
AM_4
100
AcDbLine
 10
1.5
 20
-0.4694999999999999
 30
0.0
 11
-1.5
 21
-0.4694999999999999
 31
0.0
  0
LINE
  5
1C9
330
176
100
AcDbEntity
  8
AM_4
100
AcDbLine
 10
1.5
 20
0.4695000000000001
 30
0.0
 11
-1.5
 21
0.4695000000000001
 31
0.0
  0
LINE
  5
1CA
330
176
100
AcDbEntity
  8
AM_4
100
AcDbLine
 10
1.4374
 20
0.4069000000000005
 30
0.0
 11
-1.437400000000001
 21
0.4069000000000005
 31
0.0
  0
LINE
  5
1CB
330
176
100
AcDbEntity
  8
AM_4
100
AcDbLine
 10
1.5
 20
0.1565000000000001
 30
0.0
 11
-1.5
 21
0.1565000000000001
 31
0.0
  0
LINE
  5
1CC
330
176
100
AcDbEntity
  8
AM_4
100
AcDbLine
 10
-1.437399999999999
 20
0.1565000000000001
 30
0.0
 11
-1.437400000000001
 21
0.4069000000000005
 31
0.0
  0
LINE
  5
1CD
330
176
100
AcDbEntity
  8
AM_4
100
AcDbLine
 10
-1.499999999999999
 20
0.4695000000000004
 30
0.0
 11
-1.4374
 21
0.4069000000000012
 31
0.0
  0
LINE
  5
1CE
330
176
100
AcDbEntity
  8
AM_4
100
AcDbLine
 10
-1.5
 20
0.4695000000000001
 30
0.0
 11
-1.5
 21
-0.4694999999999999
 31
0.0
  0
LINE
  5
1CF
330
176
100
AcDbEntity
  8
AM_4
100
AcDbLine
 10
-1.4374
 20
-0.4069000000000002
 30
0.0
 11
-1.5
 21
-0.4694999999999996
 31
0.0
  0
LINE
  5
1D0
330
176
100
AcDbEntity
  8
AM_4
100
AcDbLine
 10
1.4374
 20
0.4069000000000005
 30
0.0
 11
1.5
 21
0.4695000000000004
 31
0.0
  0
LINE
  5
1D1
330
176
100
AcDbEntity
  8
AM_4
100
AcDbLine
 10
1.4374
 20
0.1565000000000001
 30
0.0
 11
1.4374
 21
0.4069000000000005
 31
0.0
  0
LINE
  5
1D2
330
176
100
AcDbEntity
  8
AM_4
100
AcDbLine
 10
-1.5
 20
-0.1564999999999998
 30
0.0
 11
1.5
 21
-0.1564999999999999
 31
0.0
  0
LINE
  5
1D3
330
176
100
AcDbEntity
  8
AM_4
100
AcDbLine
 10
1.5
 20
-0.4694999999999996
 30
0.0
 11
1.4374
 21
-0.4068999999999995
 31
0.0
  0
LINE
  5
1D4
330
176
100
AcDbEntity
  8
AM_4
100
AcDbLine
 10
1.5
 20
0.4695000000000001
 30
0.0
 11
1.5
 21
-0.4694999999999999
 31
0.0
  0
LINE
  5
1D5
330
176
100
AcDbEntity
  8
AM_4
100
AcDbLine
 10
-1.437400000000001
 20
-0.4068999999999998
 30
0.0
 11
-1.437399999999999
 21
-0.1564999999999999
 31
0.0
  0
LINE
  5
1D6
330
176
100
AcDbEntity
  8
AM_4
100
AcDbLine
 10
1.4374
 20
-0.4068999999999998
 30
0.0
 11
-1.437400000000001
 21
-0.4068999999999998
 31
0.0
  0
LINE
  5
1D7
330
176
100
AcDbEntity
  8
AM_4
100
AcDbLine
 10
1.4374
 20
-0.4068999999999998
 30
0.0
 11
1.4374
 21
-0.1564999999999998
 31
0.0
  0
ENDBLK
  5
179
330
176
100
AcDbEntity
  8
0
100
AcDbBlockEnd
  0
ENDSEC
  0
SECTION
  2
ENTITIES
  0
INSERT
  5
6F
330
1F
100
AcDbEntity
  8
0
100
AcDbBlockReference
  2
1_130340_4
 10
0.0
 20
0.0
 30
0.0
  0
POINT
  5
1D9
330
1F
100
AcDbEntity
  8
ConnectionPoints
100
AcDbPoint
 10
0.0
 20
-1.26
 30
0.0000000000000001
  0
POINT
  5
1DA
330
1F
100
AcDbEntity
  8
ConnectionPoints
100
AcDbPoint
 10
-1.896595634287921
 20
-0.0000000000000001
 30
-1.095
  0
POINT
  5
1DB
330
1F
100
AcDbEntity
  8
ConnectionPoints
100
AcDbPoint
 10
0.0
 20
-1.26
 30
0.0000000000000001
  0
ENDSEC
  0
SECTION
  2
OBJECTS
  0
DICTIONARY
  5
C
330
0
100
AcDbDictionary
281
     1
  3
ACAD_DETAILVIEWSTYLE
350
1E3
  3
ACAD_GROUP
350
D
  3
ACAD_LAYOUT
350
1A
  3
ACAD_MATERIAL
350
43
  3
ACAD_MLEADERSTYLE
350
6B
  3
ACAD_MLINESTYLE
350
17
  3
ACAD_PLOTSETTINGS
350
19
  3
ACAD_PLOTSTYLENAME
350
E
  3
ACAD_SCALELIST
350
47
  3
ACAD_SECTIONVIEWSTYLE
350
1E4
  3
ACAD_TABLESTYLE
350
69
  3
ACAD_VISUALSTYLE
350
2A
  3
ACDB_RECOMPOSE_DATA
350
1E0
  3
AcDbVariableDictionary
350
1DC
  0
SUN
  5
6D
330
29
100
AcDbSun
 90
        1
290
     0
 63
     7
421
 16777215
 40
1.0
291
     1
 91
  2455826
 92
 54000000
292
     0
 70
     2
 71
   256
280
     1
  0
DICTIONARY
  5
1E3
102
{ACAD_REACTORS
330
C
102
}
330
C
100
AcDbDictionary
281
     1
  0
DICTIONARY
  5
D
102
{ACAD_REACTORS
330
C
102
}
330
C
100
AcDbDictionary
281
     1
  0
DICTIONARY
  5
1A
102
{ACAD_REACTORS
330
C
102
}
330
C
100
AcDbDictionary
281
     1
  3
Layout1
350
1E
  3
Layout2
350
26
  3
Model
350
22
  0
DICTIONARY
  5
43
102
{ACAD_REACTORS
330
C
102
}
330
C
100
AcDbDictionary
281
     1
  3
ByBlock
350
45
  3
ByLayer
350
44
  3
Global
350
46
  0
DICTIONARY
  5
6B
102
{ACAD_REACTORS
330
C
102
}
330
C
100
AcDbDictionary
281
     1
  3
Standard
350
6C
  0
DICTIONARY
  5
17
102
{ACAD_REACTORS
330
C
102
}
330
C
100
AcDbDictionary
281
     1
  3
Standard
350
18
  0
DICTIONARY
  5
19
102
{ACAD_REACTORS
330
C
102
}
330
C
100
AcDbDictionary
281
     1
  0
ACDBDICTIONARYWDFLT
  5
E
102
{ACAD_REACTORS
330
C
102
}
330
C
100
AcDbDictionary
281
     1
  3
Normal
350
F
100
AcDbDictionaryWithDefault
340
F
  0
DICTIONARY
  5
47
102
{ACAD_REACTORS
330
C
102
}
330
C
100
AcDbDictionary
281
     1
  3
A0
350
48
  3
A1
350
49
  3
A2
350
4A
  3
A3
350
4B
  3
A4
350
4C
  3
A5
350
4D
  3
A6
350
4E
  3
A7
350
4F
  3
A8
350
50
  3
A9
350
51
  3
B0
350
52
  3
B1
350
53
  3
B2
350
54
  3
B3
350
55
  3
B4
350
56
  3
B5
350
57
  3
B6
350
58
  3
B7
350
59
  3
B8
350
5A
  3
B9
350
5B
  3
C0
350
5C
  3
C1
350
5D
  3
C2
350
5E
  3
C3
350
5F
  3
C4
350
60
  3
C5
350
61
  3
C6
350
62
  3
C7
350
63
  3
C8
350
64
  3
C9
350
65
  3
D0
350
66
  3
D1
350
67
  3
D2
350
68
  0
DICTIONARY
  5
1E4
102
{ACAD_REACTORS
330
C
102
}
330
C
100
AcDbDictionary
281
     1
  0
DICTIONARY
  5
69
102
{ACAD_REACTORS
330
C
102
}
330
C
100
AcDbDictionary
281
     1
  3
Standard
350
6A
  0
DICTIONARY
  5
2A
102
{ACAD_REACTORS
330
C
102
}
330
C
100
AcDbDictionary
281
     1
  3
2dWireframe
350
2F
  3
Basic
350
32
  3
Brighten
350
36
  3
ColorChange
350
3A
  3
Conceptual
350
34
  3
Dim
350
35
  3
EdgeColorOff
350
3D
  3
Facepattern
350
39
  3
Flat
350
2B
  3
FlatWithEdges
350
2C
  3
Gouraud
350
2D
  3
GouraudWithEdges
350
2E
  3
Hidden
350
31
  3
JitterOff
350
3B
  3
Linepattern
350
38
  3
OverhangOff
350
3C
  3
Realistic
350
33
  3
Shaded
350
42
  3
Shaded with edges
350
41
  3
Shades of Gray
350
3E
  3
Sketchy
350
3F
  3
Thicken
350
37
  3
Wireframe
350
30
  3
X-Ray
350
40
  0
XRECORD
  5
1E0
102
{ACAD_REACTORS
330
C
102
}
330
C
100
AcDbXrecord
280
     1
 90
        1
330
6A
  0
DICTIONARY
  5
1DC
102
{ACAD_REACTORS
330
C
102
}
330
C
100
AcDbDictionary
281
     1
  3
CANNOSCALE
350
1DD
  3
CMLEADERSTYLE
350
1E2
  3
CTABLESTYLE
350
1E1
  0
LAYOUT
  5
1E
102
{ACAD_REACTORS
330
1A
102
}
330
1A
100
AcDbPlotSettings
  1

  2
none_device
  4

  6

 40
0.0
 41
0.0
 42
0.0
 43
0.0
 44
0.0
 45
0.0
 46
0.0
 47
0.0
 48
0.0
 49
0.0
140
0.0
141
0.0
142
1.0
143
1.0
 70
   688
 72
     0
 73
     0
 74
     5
  7

 75
    16
 76
     0
 77
     2
 78
   300
147
1.0
148
0.0
149
0.0
100
AcDbLayout
  1
Layout1
 70
     1
 71
     1
 10
0.0
 20
0.0
 11
12.0
 21
9.0
 12
0.0
 22
0.0
 32
0.0
 14
1.000000000000000E+20
 24
1.000000000000000E+20
 34
1.000000000000000E+20
 15
-1.000000000000000E+20
 25
-1.000000000000000E+20
 35
-1.000000000000000E+20
146
0.0
 13
0.0
 23
0.0
 33
0.0
 16
1.0
 26
0.0
 36
0.0
 17
0.0
 27
1.0
 37
0.0
 76
     0
330
1B
  0
LAYOUT
  5
26
102
{ACAD_REACTORS
330
1A
102
}
330
1A
100
AcDbPlotSettings
  1

  2
none_device
  4

  6

 40
0.0
 41
0.0
 42
0.0
 43
0.0
 44
0.0
 45
0.0
 46
0.0
 47
0.0
 48
0.0
 49
0.0
140
0.0
141
0.0
142
1.0
143
1.0
 70
   688
 72
     0
 73
     0
 74
     5
  7

 75
    16
 76
     0
 77
     2
 78
   300
147
1.0
148
0.0
149
0.0
100
AcDbLayout
  1
Layout2
 70
     1
 71
     2
 10
0.0
 20
0.0
 11
0.0
 21
0.0
 12
0.0
 22
0.0
 32
0.0
 14
0.0
 24
0.0
 34
0.0
 15
0.0
 25
0.0
 35
0.0
146
0.0
 13
0.0
 23
0.0
 33
0.0
 16
1.0
 26
0.0
 36
0.0
 17
0.0
 27
1.0
 37
0.0
 76
     0
330
23
  0
LAYOUT
  5
22
102
{ACAD_REACTORS
330
1A
102
}
330
1A
100
AcDbPlotSettings
  1

  2
none_device
  4
Letter_(8.50_x_11.00_Inches)
  6

 40
6.35
 41
6.35
 42
6.35000508
 43
6.35000508
 44
215.9
 45
279.4
 46
0.0
 47
0.0
 48
0.0
 49
0.0
140
0.0
141
0.0
142
1.0
143
1.0
 70
  1712
 72
     0
 73
     0
 74
     0
  7

 75
     0
 76
     0
 77
     2
 78
   300
147
1.0
148
0.0
149
0.0
100
AcDbLayout
  1
Model
 70
     1
 71
     0
 10
0.0
 20
0.0
 11
12.0
 21
9.0
 12
0.0
 22
0.0
 32
0.0
 14
1.000000000000000E+20
 24
1.000000000000000E+20
 34
1.000000000000000E+20
 15
-1.000000000000000E+20
 25
-1.000000000000000E+20
 35
-1.000000000000000E+20
146
0.0
 13
0.0
 23
0.0
 33
0.0
 16
1.0
 26
0.0
 36
0.0
 17
0.0
 27
1.0
 37
0.0
 76
     0
330
1F
331
29
  0
MATERIAL
  5
45
102
{ACAD_REACTORS
330
43
102
}
330
43
100
AcDbMaterial
  1
ByBlock
 72
     1
 94
      127
  0
MATERIAL
  5
44
102
{ACAD_REACTORS
330
43
102
}
330
43
100
AcDbMaterial
  1
ByLayer
 72
     1
 94
      127
  0
MATERIAL
  5
46
102
{ACAD_REACTORS
330
43
102
}
330
43
100
AcDbMaterial
  1
Global
 72
     1
 94
      127
  0
MLEADERSTYLE
  5
6C
102
{ACAD_REACTORS
330
6B
102
}
330
6B
100
AcDbMLeaderStyle
179
     2
170
     2
171
     1
172
     0
 90
        2
 40
0.0
 41
0.0
173
     1
 91
-1056964608
340
14
 92
       -2
290
     1
 42
0.09
291
     1
 43
0.36
  3
Standard
341
0
 44
0.18
300

342
11
174
     1
178
     6
175
     1
176
     0
 93
-1056964608
 45
0.18
292
     0
297
     0
 46
0.18
343
0
 94
-1056964608
 47
1.0
 49
1.0
140
1.0
293
     1
141
0.0
294
     1
177
     0
142
1.0
295
     0
296
     0
143
0.125
271
     0
272
     9
273
     9
298
     0
  0
MLINESTYLE
  5
18
102
{ACAD_REACTORS
330
17
102
}
330
17
100
AcDbMlineStyle
  2
Standard
 70
     0
  3

 62
   256
 51
90.0
 52
90.0
 71
     2
 49
0.5
 62
   256
  6
BYLAYER
 49
-0.5
 62
   256
  6
BYLAYER
  0
ACDBPLACEHOLDER
  5
F
102
{ACAD_REACTORS
330
E
102
}
330
E
  0
SCALE
  5
48
102
{ACAD_REACTORS
330
47
102
}
330
47
100
AcDbScale
 70
     0
300
1:1
140
1.0
141
1.0
290
     1
  0
SCALE
  5
49
102
{ACAD_REACTORS
330
47
102
}
330
47
100
AcDbScale
 70
     0
300
1:2
140
1.0
141
2.0
290
     0
  0
SCALE
  5
4A
102
{ACAD_REACTORS
330
47
102
}
330
47
100
AcDbScale
 70
     0
300
1:4
140
1.0
141
4.0
290
     0
  0
SCALE
  5
4B
102
{ACAD_REACTORS
330
47
102
}
330
47
100
AcDbScale
 70
     0
300
1:5
140
1.0
141
5.0
290
     0
  0
SCALE
  5
4C
102
{ACAD_REACTORS
330
47
102
}
330
47
100
AcDbScale
 70
     0
300
1:8
140
1.0
141
8.0
290
     0
  0
SCALE
  5
4D
102
{ACAD_REACTORS
330
47
102
}
330
47
100
AcDbScale
 70
     0
300
1:10
140
1.0
141
10.0
290
     0
  0
SCALE
  5
4E
102
{ACAD_REACTORS
330
47
102
}
330
47
100
AcDbScale
 70
     0
300
1:16
140
1.0
141
16.0
290
     0
  0
SCALE
  5
4F
102
{ACAD_REACTORS
330
47
102
}
330
47
100
AcDbScale
 70
     0
300
1:20
140
1.0
141
20.0
290
     0
  0
SCALE
  5
50
102
{ACAD_REACTORS
330
47
102
}
330
47
100
AcDbScale
 70
     0
300
1:30
140
1.0
141
30.0
290
     0
  0
SCALE
  5
51
102
{ACAD_REACTORS
330
47
102
}
330
47
100
AcDbScale
 70
     0
300
1:40
140
1.0
141
40.0
290
     0
  0
SCALE
  5
52
102
{ACAD_REACTORS
330
47
102
}
330
47
100
AcDbScale
 70
     0
300
1:50
140
1.0
141
50.0
290
     0
  0
SCALE
  5
53
102
{ACAD_REACTORS
330
47
102
}
330
47
100
AcDbScale
 70
     0
300
1:100
140
1.0
141
100.0
290
     0
  0
SCALE
  5
54
102
{ACAD_REACTORS
330
47
102
}
330
47
100
AcDbScale
 70
     0
300
2:1
140
2.0
141
1.0
290
     0
  0
SCALE
  5
55
102
{ACAD_REACTORS
330
47
102
}
330
47
100
AcDbScale
 70
     0
300
4:1
140
4.0
141
1.0
290
     0
  0
SCALE
  5
56
102
{ACAD_REACTORS
330
47
102
}
330
47
100
AcDbScale
 70
     0
300
8:1
140
8.0
141
1.0
290
     0
  0
SCALE
  5
57
102
{ACAD_REACTORS
330
47
102
}
330
47
100
AcDbScale
 70
     0
300
10:1
140
10.0
141
1.0
290
     0
  0
SCALE
  5
58
102
{ACAD_REACTORS
330
47
102
}
330
47
100
AcDbScale
 70
     0
300
100:1
140
100.0
141
1.0
290
     0
  0
SCALE
  5
59
102
{ACAD_REACTORS
330
47
102
}
330
47
100
AcDbScale
 70
     0
300
1/128" = 1'-0"
140
0.0078125
141
12.0
290
     0
  0
SCALE
  5
5A
102
{ACAD_REACTORS
330
47
102
}
330
47
100
AcDbScale
 70
     0
300
1/64" = 1'-0"
140
0.015625
141
12.0
290
     0
  0
SCALE
  5
5B
102
{ACAD_REACTORS
330
47
102
}
330
47
100
AcDbScale
 70
     0
300
1/32" = 1'-0"
140
0.03125
141
12.0
290
     0
  0
SCALE
  5
5C
102
{ACAD_REACTORS
330
47
102
}
330
47
100
AcDbScale
 70
     0
300
1/16" = 1'-0"
140
0.0625
141
12.0
290
     0
  0
SCALE
  5
5D
102
{ACAD_REACTORS
330
47
102
}
330
47
100
AcDbScale
 70
     0
300
3/32" = 1'-0"
140
0.09375
141
12.0
290
     0
  0
SCALE
  5
5E
102
{ACAD_REACTORS
330
47
102
}
330
47
100
AcDbScale
 70
     0
300
1/8" = 1'-0"
140
0.125
141
12.0
290
     0
  0
SCALE
  5
5F
102
{ACAD_REACTORS
330
47
102
}
330
47
100
AcDbScale
 70
     0
300
3/16" = 1'-0"
140
0.1875
141
12.0
290
     0
  0
SCALE
  5
60
102
{ACAD_REACTORS
330
47
102
}
330
47
100
AcDbScale
 70
     0
300
1/4" = 1'-0"
140
0.25
141
12.0
290
     0
  0
SCALE
  5
61
102
{ACAD_REACTORS
330
47
102
}
330
47
100
AcDbScale
 70
     0
300
3/8" = 1'-0"
140
0.375
141
12.0
290
     0
  0
SCALE
  5
62
102
{ACAD_REACTORS
330
47
102
}
330
47
100
AcDbScale
 70
     0
300
1/2" = 1'-0"
140
0.5
141
12.0
290
     0
  0
SCALE
  5
63
102
{ACAD_REACTORS
330
47
102
}
330
47
100
AcDbScale
 70
     0
300
3/4" = 1'-0"
140
0.75
141
12.0
290
     0
  0
SCALE
  5
64
102
{ACAD_REACTORS
330
47
102
}
330
47
100
AcDbScale
 70
     0
300
1" = 1'-0"
140
1.0
141
12.0
290
     0
  0
SCALE
  5
65
102
{ACAD_REACTORS
330
47
102
}
330
47
100
AcDbScale
 70
     0
300
1-1/2" = 1'-0"
140
1.5
141
12.0
290
     0
  0
SCALE
  5
66
102
{ACAD_REACTORS
330
47
102
}
330
47
100
AcDbScale
 70
     0
300
3" = 1'-0"
140
3.0
141
12.0
290
     0
  0
SCALE
  5
67
102
{ACAD_REACTORS
330
47
102
}
330
47
100
AcDbScale
 70
     0
300
6" = 1'-0"
140
6.0
141
12.0
290
     0
  0
SCALE
  5
68
102
{ACAD_REACTORS
330
47
102
}
330
47
100
AcDbScale
 70
     0
300
1'-0" = 1'-0"
140
12.0
141
12.0
290
     0
  0
TABLESTYLE
  5
6A
102
{ACAD_REACTORS
330
69
102
}
102
{ACAD_XDICTIONARY
360
1DE
102
}
330
69
100
AcDbTableStyle
  3
Standard
 70
     0
 71
     0
 40
0.06
 41
0.06
280
     0
281
     0
  7
Standard
140
0.18
170
     2
 62
     0
 63
   257
283
     0
 90
        4
 91
        0
  1

274
    -2
284
     1
 64
     0
275
    -2
285
     1
 65
     0
276
    -2
286
     1
 66
     0
277
    -2
287
     1
 67
     0
278
    -2
288
     1
 68
     0
279
    -2
289
     1
 69
     0
  7
Standard
140
0.25
170
     5
 62
     0
 63
   257
283
     0
 90
        4
 91
        0
  1

274
    -2
284
     1
 64
     0
275
    -2
285
     1
 65
     0
276
    -2
286
     1
 66
     0
277
    -2
287
     1
 67
     0
278
    -2
288
     1
 68
     0
279
    -2
289
     1
 69
     0
  7
Standard
140
0.18
170
     5
 62
     0
 63
   257
283
     0
 90
        4
 91
        0
  1

274
    -2
284
     1
 64
     0
275
    -2
285
     1
 65
     0
276
    -2
286
     1
 66
     0
277
    -2
287
     1
 67
     0
278
    -2
288
     1
 68
     0
279
    -2
289
     1
 69
     0
  0
VISUALSTYLE
  5
2F
102
{ACAD_REACTORS
330
2A
102
}
330
2A
100
AcDbVisualStyle
  2
2dWireframe
 70
     4
177
     3
291
     0
 70
    58
 90
        0
176
     1
 90
        2
176
     1
 90
        0
176
     1
 90
        0
176
     1
 40
0.6
176
     1
 40
30.0
176
     1
 62
     7
420
 16777215
176
     1
 90
        1
176
     1
 90
        4
176
     1
 62
     7
176
     1
 62
   257
176
     1
 90
        1
176
     1
 90
        1
176
     1
 40
1.0
176
     1
 90
        0
176
     1
 62
   257
176
     1
 40
1.0
176
     1
 90
        1
176
     1
 90
        6
176
     1
 90
        2
176
     1
 62
     7
176
     1
 90
        5
176
     1
 90
        0
176
     1
 90
        0
176
     1
290
     0
176
     1
 90
        1
176
     1
 40
0.0
176
     1
 90
        0
176
     1
290
     1
176
     1
290
     1
176
     1
290
     0
176
     1
290
     0
176
     1
290
     0
176
     1
290
     0
176
     1
290
     0
176
     1
290
     0
176
     1
290
     0
176
     1
 90
       50
176
     1
 40
0.0
176
     1
 40
1.0
176
     1
 90
        0
176
     1
 62
    18
420
        0
176
     1
 90
       50
176
     1
 90
        3
176
     1
 62
     5
420
      255
176
     1
290
     0
176
     1
 90
       50
176
     1
 90
       50
176
     1
 90
       50
176
     1
290
     0
176
     1
 90
       50
176
     1
 62
   256
176
     0
 40
1.0
176
     0
 90
        2
176
     1
  1
strokes_ogs.tif
176
     1
290
     0
176
     1
 40
1.0
176
     1
 40
1.0
176
     1
  0
VISUALSTYLE
  5
32
102
{ACAD_REACTORS
330
2A
102
}
330
2A
100
AcDbVisualStyle
  2
Basic
 70
     7
177
     3
291
     1
 70
    58
 90
        1
176
     1
 90
        0
176
     1
 90
        1
176
     1
 90
        0
176
     1
 40
0.6
176
     1
 40
30.0
176
     1
 62
     7
420
 16777215
176
     1
 90
        0
176
     1
 90
        4
176
     1
 62
     7
176
     1
 62
   257
176
     1
 90
        1
176
     1
 90
        1
176
     1
 40
1.0
176
     1
 90
        8
176
     1
 62
     7
176
     1
 40
1.0
176
     1
 90
        1
176
     1
 90
        6
176
     1
 90
        2
176
     1
 62
     7
176
     1
 90
        5
176
     1
 90
        0
176
     1
 90
        0
176
     1
290
     0
176
     1
 90
        1
176
     1
 40
0.0
176
     1
 90
        0
176
     1
290
     0
176
     1
290
     1
176
     1
290
     1
176
     1
290
     0
176
     1
290
     0
176
     1
290
     0
176
     1
290
     0
176
     1
290
     0
176
     1
290
     0
176
     1
 90
       50
176
     1
 40
0.0
176
     1
 40
1.0
176
     1
 90
        0
176
     1
 62
    18
420
        0
176
     1
 90
       50
176
     1
 90
        3
176
     1
 62
     5
420
      255
176
     1
290
     0
176
     1
 90
       50
176
     1
 90
       50
176
     1
 90
       50
176
     1
290
     0
176
     1
 90
       50
176
     1
 62
   256
176
     0
 40
1.0
176
     0
 90
        2
176
     1
  1
strokes_ogs.tif
176
     1
290
     0
176
     1
 40
1.0
176
     1
 40
1.0
176
     1
  0
VISUALSTYLE
  5
36
102
{ACAD_REACTORS
330
2A
102
}
330
2A
100
AcDbVisualStyle
  2
Brighten
 70
    12
177
     3
291
     1
 70
    58
 90
        2
176
     1
 90
        2
176
     1
 90
        0
176
     1
 90
        0
176
     1
 40
0.6
176
     1
 40
30.0
176
     1
 62
     7
420
 16777215
176
     1
 90
        1
176
     1
 90
        4
176
     1
 62
     7
176
     1
 62
   257
176
     1
 90
        1
176
     1
 90
        1
176
     1
 40
1.0
176
     1
 90
        8
176
     1
 62
     7
176
     1
 40
1.0
176
     1
 90
        1
176
     1
 90
        6
176
     1
 90
        2
176
     1
 62
     7
176
     1
 90
        5
176
     1
 90
        0
176
     1
 90
        0
176
     1
290
     0
176
     1
 90
        1
176
     1
 40
50.0
176
     1
 90
        0
176
     1
290
     0
176
     1
290
     1
176
     1
290
     1
176
     1
290
     0
176
     1
290
     0
176
     1
290
     0
176
     1
290
     0
176
     1
290
     0
176
     1
290
     0
176
     1
 90
       50
176
     1
 40
0.0
176
     1
 40
1.0
176
     1
 90
        0
176
     1
 62
    18
420
        0
176
     1
 90
       50
176
     1
 90
        3
176
     1
 62
     5
420
      255
176
     1
290
     0
176
     1
 90
       50
176
     1
 90
       50
176
     1
 90
       50
176
     1
290
     0
176
     1
 90
       50
176
     1
 62
   256
176
     0
 40
1.0
176
     0
 90
        2
176
     1
  1
strokes_ogs.tif
176
     1
290
     0
176
     1
 40
1.0
176
     1
 40
1.0
176
     1
  0
VISUALSTYLE
  5
3A
102
{ACAD_REACTORS
330
2A
102
}
330
2A
100
AcDbVisualStyle
  2
ColorChange
 70
    16
177
     3
291
     1
 70
    58
 90
        2
176
     1
 90
        2
176
     1
 90
        3
176
     1
 90
        0
176
     1
 40
0.6
176
     1
 40
30.0
176
     1
 62
     8
420
  8421504
176
     1
 90
        1
176
     1
 90
        4
176
     1
 62
     7
176
     1
 62
   257
176
     1
 90
        1
176
     1
 90
        1
176
     1
 40
1.0
176
     1
 90
        8
176
     1
 62
     8
420
  8421504
176
     1
 40
1.0
176
     1
 90
        1
176
     1
 90
        6
176
     1
 90
        2
176
     1
 62
     7
176
     1
 90
        5
176
     1
 90
        0
176
     1
 90
        0
176
     1
290
     0
176
     1
 90
        1
176
     1
 40
0.0
176
     1
 90
        0
176
     1
290
     0
176
     1
290
     1
176
     1
290
     1
176
     1
290
     0
176
     1
290
     0
176
     1
290
     0
176
     1
290
     0
176
     1
290
     0
176
     1
290
     0
176
     1
 90
       50
176
     1
 40
0.0
176
     1
 40
1.0
176
     1
 90
        0
176
     1
 62
    18
420
        0
176
     1
 90
       50
176
     1
 90
        3
176
     1
 62
     5
420
      255
176
     1
290
     0
176
     1
 90
       50
176
     1
 90
       50
176
     1
 90
       50
176
     1
290
     0
176
     1
 90
       50
176
     1
 62
   256
176
     0
 40
1.0
176
     0
 90
        2
176
     1
  1
strokes_ogs.tif
176
     1
290
     0
176
     1
 40
1.0
176
     1
 40
1.0
176
     1
  0
VISUALSTYLE
  5
34
102
{ACAD_REACTORS
330
2A
102
}
330
2A
100
AcDbVisualStyle
  2
Conceptual
 70
     9
177
     3
291
     0
 70
    58
 90
        3
176
     1
 90
        2
176
     1
 90
        0
176
     1
 90
        0
176
     1
 40
0.6
176
     1
 40
30.0
176
     1
 62
     7
420
 16777215
176
     1
 90
        2
176
     1
 90
        2
176
     1
 62
     7
176
     1
 62
   257
176
     1
 90
        1
176
     1
 90
        1
176
     1
 40
179.0
176
     1
 90
        8
176
     1
 62
     7
176
     1
 40
1.0
176
     1
 90
        1
176
     1
 90
        6
176
     1
 90
        2
176
     1
 62
     7
176
     1
 90
        3
176
     1
 90
        0
176
     1
 90
        0
176
     1
290
     0
176
     1
 90
        1
176
     1
 40
0.0
176
     1
 90
        0
176
     1
290
     0
176
     1
290
     1
176
     1
290
     1
176
     1
290
     0
176
     1
290
     0
176
     1
290
     0
176
     1
290
     0
176
     1
290
     0
176
     1
290
     0
176
     1
 90
       50
176
     1
 40
0.0
176
     1
 40
1.0
176
     1
 90
        0
176
     1
 62
    18
420
        0
176
     1
 90
       50
176
     1
 90
        3
176
     1
 62
     5
420
      255
176
     1
290
     0
176
     1
 90
       50
176
     1
 90
       50
176
     1
 90
       50
176
     1
290
     0
176
     1
 90
       50
176
     1
 62
   256
176
     0
 40
1.0
176
     0
 90
        2
176
     1
  1
strokes_ogs.tif
176
     1
290
     0
176
     1
 40
1.0
176
     1
 40
1.0
176
     1
  0
VISUALSTYLE
  5
35
102
{ACAD_REACTORS
330
2A
102
}
330
2A
100
AcDbVisualStyle
  2
Dim
 70
    11
177
     3
291
     1
 70
    58
 90
        2
176
     1
 90
        2
176
     1
 90
        0
176
     1
 90
        0
176
     1
 40
0.6
176
     1
 40
30.0
176
     1
 62
     7
420
 16777215
176
     1
 90
        1
176
     1
 90
        4
176
     1
 62
     7
176
     1
 62
   257
176
     1
 90
        1
176
     1
 90
        1
176
     1
 40
1.0
176
     1
 90
        8
176
     1
 62
     7
176
     1
 40
1.0
176
     1
 90
        1
176
     1
 90
        6
176
     1
 90
        2
176
     1
 62
     7
176
     1
 90
        5
176
     1
 90
        0
176
     1
 90
        0
176
     1
290
     0
176
     1
 90
        1
176
     1
 40
-50.0
176
     1
 90
        0
176
     1
290
     0
176
     1
290
     1
176
     1
290
     1
176
     1
290
     0
176
     1
290
     0
176
     1
290
     0
176
     1
290
     0
176
     1
290
     0
176
     1
290
     0
176
     1
 90
       50
176
     1
 40
0.0
176
     1
 40
1.0
176
     1
 90
        0
176
     1
 62
    18
420
        0
176
     1
 90
       50
176
     1
 90
        3
176
     1
 62
     5
420
      255
176
     1
290
     0
176
     1
 90
       50
176
     1
 90
       50
176
     1
 90
       50
176
     1
290
     0
176
     1
 90
       50
176
     1
 62
   256
176
     0
 40
1.0
176
     0
 90
        2
176
     1
  1
strokes_ogs.tif
176
     1
290
     0
176
     1
 40
1.0
176
     1
 40
1.0
176
     1
  0
VISUALSTYLE
  5
3D
102
{ACAD_REACTORS
330
2A
102
}
330
2A
100
AcDbVisualStyle
  2
EdgeColorOff
 70
    22
177
     3
291
     1
 70
    58
 90
        2
176
     0
 90
        2
176
     0
 90
        0
176
     0
 90
        0
176
     0
 40
0.6
176
     0
 40
30.0
176
     0
 62
     7
420
 16777215
176
     0
 90
        1
176
     0
 90
        4
176
     0
 62
     7
176
     0
 62
   257
176
     0
 90
        1
176
     0
 90
        1
176
     0
 40
1.0
176
     0
 90
        8
176
     2
 62
     7
176
     0
 40
1.0
176
     0
 90
        1
176
     0
 90
        6
176
     0
 90
        2
176
     0
 62
     7
176
     0
 90
        5
176
     0
 90
        0
176
     0
 90
        0
176
     0
290
     0
176
     0
 90
        1
176
     0
 40
0.0
176
     0
 90
        0
176
     0
290
     0
176
     0
290
     1
176
     0
290
     1
176
     0
290
     0
176
     0
290
     0
176
     0
290
     0
176
     0
290
     0
176
     0
290
     0
176
     0
290
     0
176
     0
 90
       50
176
     0
 40
0.0
176
     0
 40
1.0
176
     0
 90
        0
176
     0
 62
    18
420
        0
176
     0
 90
       50
176
     0
 90
        3
176
     0
 62
     5
420
      255
176
     0
290
     0
176
     0
 90
       50
176
     0
 90
       50
176
     0
 90
       50
176
     0
290
     0
176
     0
 90
       50
176
     0
 62
   256
176
     0
 40
1.0
176
     0
 90
        2
176
     0
  1
strokes_ogs.tif
176
     0
290
     0
176
     0
 40
1.0
176
     0
 40
1.0
176
     0
  0
VISUALSTYLE
  5
39
102
{ACAD_REACTORS
330
2A
102
}
330
2A
100
AcDbVisualStyle
  2
Facepattern
 70
    15
177
     3
291
     1
 70
    58
 90
        2
176
     1
 90
        2
176
     1
 90
        0
176
     1
 90
        0
176
     1
 40
0.6
176
     1
 40
30.0
176
     1
 62
     7
420
 16777215
176
     1
 90
        1
176
     1
 90
        4
176
     1
 62
     7
176
     1
 62
   257
176
     1
 90
        1
176
     1
 90
        1
176
     1
 40
1.0
176
     1
 90
        8
176
     1
 62
     7
176
     1
 40
1.0
176
     1
 90
        1
176
     1
 90
        6
176
     1
 90
        2
176
     1
 62
     7
176
     1
 90
        5
176
     1
 90
        0
176
     1
 90
        0
176
     1
290
     0
176
     1
 90
        1
176
     1
 40
0.0
176
     1
 90
        0
176
     1
290
     0
176
     1
290
     1
176
     1
290
     1
176
     1
290
     0
176
     1
290
     0
176
     1
290
     0
176
     1
290
     0
176
     1
290
     0
176
     1
290
     0
176
     1
 90
       50
176
     1
 40
0.0
176
     1
 40
1.0
176
     1
 90
        0
176
     1
 62
    18
420
        0
176
     1
 90
       50
176
     1
 90
        3
176
     1
 62
     5
420
      255
176
     1
290
     0
176
     1
 90
       50
176
     1
 90
       50
176
     1
 90
       50
176
     1
290
     0
176
     1
 90
       50
176
     1
 62
   256
176
     0
 40
1.0
176
     0
 90
        2
176
     1
  1
strokes_ogs.tif
176
     1
290
     0
176
     1
 40
1.0
176
     1
 40
1.0
176
     1
  0
VISUALSTYLE
  5
2B
102
{ACAD_REACTORS
330
2A
102
}
330
2A
100
AcDbVisualStyle
  2
Flat
 70
     0
177
     3
291
     1
 70
    58
 90
        2
176
     1
 90
        1
176
     1
 90
        1
176
     1
 90
        2
176
     1
 40
0.6
176
     1
 40
30.0
176
     1
 62
     7
420
 16777215
176
     1
 90
        0
176
     1
 90
        0
176
     1
 62
     7
176
     1
 62
   257
176
     1
 90
        1
176
     1
 90
        1
176
     1
 40
1.0
176
     1
 90
        8
176
     1
 62
     7
176
     1
 40
1.0
176
     1
 90
        1
176
     1
 90
        6
176
     1
 90
        2
176
     1
 62
     7
176
     1
 90
        5
176
     1
 90
        0
176
     1
 90
        0
176
     1
290
     0
176
     1
 90
       13
176
     1
 40
0.0
176
     1
 90
        0
176
     1
290
     0
176
     1
290
     1
176
     1
290
     1
176
     1
290
     0
176
     1
290
     0
176
     1
290
     0
176
     1
290
     0
176
     1
290
     0
176
     1
290
     0
176
     1
 90
       50
176
     1
 40
0.0
176
     1
 40
1.0
176
     1
 90
        0
176
     1
 62
    18
420
        0
176
     1
 90
       50
176
     1
 90
        3
176
     1
 62
     5
420
      255
176
     1
290
     0
176
     1
 90
       50
176
     1
 90
       50
176
     1
 90
       50
176
     1
290
     0
176
     1
 90
       50
176
     1
 62
   256
176
     0
 40
1.0
176
     0
 90
        2
176
     1
  1
strokes_ogs.tif
176
     1
290
     0
176
     1
 40
1.0
176
     1
 40
1.0
176
     1
  0
VISUALSTYLE
  5
2C
102
{ACAD_REACTORS
330
2A
102
}
330
2A
100
AcDbVisualStyle
  2
FlatWithEdges
 70
     1
177
     3
291
     1
 70
    58
 90
        2
176
     1
 90
        1
176
     1
 90
        1
176
     1
 90
        2
176
     1
 40
0.6
176
     1
 40
30.0
176
     1
 62
     7
420
 16777215
176
     1
 90
        1
176
     1
 90
        0
176
     1
 62
     7
176
     1
 62
   257
176
     1
 90
        1
176
     1
 90
        1
176
     1
 40
1.0
176
     1
 90
        0
176
     1
 62
   257
176
     1
 40
1.0
176
     1
 90
        1
176
     1
 90
        6
176
     1
 90
        2
176
     1
 62
     7
176
     1
 90
        5
176
     1
 90
        0
176
     1
 90
        0
176
     1
290
     0
176
     1
 90
       13
176
     1
 40
0.0
176
     1
 90
        0
176
     1
290
     0
176
     1
290
     1
176
     1
290
     1
176
     1
290
     0
176
     1
290
     0
176
     1
290
     0
176
     1
290
     0
176
     1
290
     0
176
     1
290
     0
176
     1
 90
       50
176
     1
 40
0.0
176
     1
 40
1.0
176
     1
 90
        0
176
     1
 62
    18
420
        0
176
     1
 90
       50
176
     1
 90
        3
176
     1
 62
     5
420
      255
176
     1
290
     0
176
     1
 90
       50
176
     1
 90
       50
176
     1
 90
       50
176
     1
290
     0
176
     1
 90
       50
176
     1
 62
   256
176
     0
 40
1.0
176
     0
 90
        2
176
     1
  1
strokes_ogs.tif
176
     1
290
     0
176
     1
 40
1.0
176
     1
 40
1.0
176
     1
  0
VISUALSTYLE
  5
2D
102
{ACAD_REACTORS
330
2A
102
}
330
2A
100
AcDbVisualStyle
  2
Gouraud
 70
     2
177
     3
291
     1
 70
    58
 90
        2
176
     1
 90
        2
176
     1
 90
        1
176
     1
 90
        2
176
     1
 40
0.6
176
     1
 40
30.0
176
     1
 62
     7
420
 16777215
176
     1
 90
        0
176
     1
 90
        0
176
     1
 62
     7
176
     1
 62
   257
176
     1
 90
        1
176
     1
 90
        1
176
     1
 40
1.0
176
     1
 90
        0
176
     1
 62
     7
176
     1
 40
1.0
176
     1
 90
        1
176
     1
 90
        6
176
     1
 90
        2
176
     1
 62
     7
176
     1
 90
        5
176
     1
 90
        0
176
     1
 90
        0
176
     1
290
     0
176
     1
 90
       13
176
     1
 40
0.0
176
     1
 90
        0
176
     1
290
     0
176
     1
290
     1
176
     1
290
     1
176
     1
290
     0
176
     1
290
     0
176
     1
290
     0
176
     1
290
     0
176
     1
290
     0
176
     1
290
     0
176
     1
 90
       50
176
     1
 40
0.0
176
     1
 40
1.0
176
     1
 90
        0
176
     1
 62
    18
420
        0
176
     1
 90
       50
176
     1
 90
        3
176
     1
 62
     5
420
      255
176
     1
290
     0
176
     1
 90
       50
176
     1
 90
       50
176
     1
 90
       50
176
     1
290
     0
176
     1
 90
       50
176
     1
 62
   256
176
     0
 40
1.0
176
     0
 90
        2
176
     1
  1
strokes_ogs.tif
176
     1
290
     0
176
     1
 40
1.0
176
     1
 40
1.0
176
     1
  0
VISUALSTYLE
  5
2E
102
{ACAD_REACTORS
330
2A
102
}
330
2A
100
AcDbVisualStyle
  2
GouraudWithEdges
 70
     3
177
     3
291
     1
 70
    58
 90
        2
176
     1
 90
        2
176
     1
 90
        1
176
     1
 90
        2
176
     1
 40
0.6
176
     1
 40
30.0
176
     1
 62
     7
420
 16777215
176
     1
 90
        1
176
     1
 90
        0
176
     1
 62
     7
176
     1
 62
   257
176
     1
 90
        1
176
     1
 90
        1
176
     1
 40
1.0
176
     1
 90
        0
176
     1
 62
   257
176
     1
 40
1.0
176
     1
 90
        1
176
     1
 90
        6
176
     1
 90
        2
176
     1
 62
     7
176
     1
 90
        5
176
     1
 90
        0
176
     1
 90
        0
176
     1
290
     0
176
     1
 90
       13
176
     1
 40
0.0
176
     1
 90
        0
176
     1
290
     0
176
     1
290
     1
176
     1
290
     1
176
     1
290
     0
176
     1
290
     0
176
     1
290
     0
176
     1
290
     0
176
     1
290
     0
176
     1
290
     0
176
     1
 90
       50
176
     1
 40
0.0
176
     1
 40
1.0
176
     1
 90
        0
176
     1
 62
    18
420
        0
176
     1
 90
       50
176
     1
 90
        3
176
     1
 62
     5
420
      255
176
     1
290
     0
176
     1
 90
       50
176
     1
 90
       50
176
     1
 90
       50
176
     1
290
     0
176
     1
 90
       50
176
     1
 62
   256
176
     0
 40
1.0
176
     0
 90
        2
176
     1
  1
strokes_ogs.tif
176
     1
290
     0
176
     1
 40
1.0
176
     1
 40
1.0
176
     1
  0
VISUALSTYLE
  5
31
102
{ACAD_REACTORS
330
2A
102
}
330
2A
100
AcDbVisualStyle
  2
Hidden
 70
     6
177
     3
291
     0
 70
    58
 90
        1
176
     1
 90
        2
176
     1
 90
        2
176
     1
 90
        0
176
     1
 40
0.6
176
     1
 40
30.0
176
     1
 62
     7
420
 16777215
176
     1
 90
        2
176
     1
 90
        2
176
     1
 62
     7
176
     1
 62
   257
176
     1
 90
        2
176
     1
 90
        1
176
     1
 40
40.0
176
     1
 90
        0
176
     1
 62
   257
176
     1
 40
1.0
176
     1
 90
        1
176
     1
 90
        6
176
     1
 90
        2
176
     1
 62
     7
176
     1
 90
        3
176
     1
 90
        0
176
     1
 90
        0
176
     1
290
     0
176
     1
 90
        1
176
     1
 40
0.0
176
     1
 90
        0
176
     1
290
     0
176
     1
290
     1
176
     1
290
     1
176
     1
290
     0
176
     1
290
     0
176
     1
290
     0
176
     1
290
     0
176
     1
290
     0
176
     1
290
     0
176
     1
 90
       50
176
     1
 40
0.0
176
     1
 40
1.0
176
     1
 90
        0
176
     1
 62
    18
420
        0
176
     1
 90
       50
176
     1
 90
        3
176
     1
 62
     5
420
      255
176
     1
290
     0
176
     1
 90
       50
176
     1
 90
       50
176
     1
 90
       50
176
     1
290
     0
176
     1
 90
       50
176
     1
 62
   256
176
     0
 40
1.0
176
     0
 90
        2
176
     1
  1
strokes_ogs.tif
176
     1
290
     0
176
     1
 40
1.0
176
     1
 40
1.0
176
     1
  0
VISUALSTYLE
  5
3B
102
{ACAD_REACTORS
330
2A
102
}
330
2A
100
AcDbVisualStyle
  2
JitterOff
 70
    20
177
     3
291
     1
 70
    58
 90
        2
176
     0
 90
        2
176
     0
 90
        0
176
     0
 90
        0
176
     0
 40
0.6
176
     0
 40
30.0
176
     0
 62
     7
420
 16777215
176
     0
 90
        1
176
     0
 90
        4
176
     0
 62
     7
176
     0
 62
   257
176
     0
 90
        1
176
     0
 90
        1
176
     0
 40
1.0
176
     0
 90
       10
176
     2
 62
     7
176
     0
 40
1.0
176
     0
 90
        1
176
     0
 90
        6
176
     0
 90
        2
176
     0
 62
     7
176
     0
 90
        5
176
     0
 90
        0
176
     0
 90
        0
176
     0
290
     0
176
     0
 90
        1
176
     0
 40
0.0
176
     0
 90
        0
176
     0
290
     0
176
     0
290
     1
176
     0
290
     1
176
     0
290
     0
176
     0
290
     0
176
     0
290
     0
176
     0
290
     0
176
     0
290
     0
176
     0
290
     0
176
     0
 90
       50
176
     0
 40
0.0
176
     0
 40
1.0
176
     0
 90
        0
176
     0
 62
    18
420
        0
176
     0
 90
       50
176
     0
 90
        3
176
     0
 62
     5
420
      255
176
     0
290
     0
176
     0
 90
       50
176
     0
 90
       50
176
     0
 90
       50
176
     0
290
     0
176
     0
 90
       50
176
     0
 62
   256
176
     0
 40
1.0
176
     0
 90
        2
176
     0
  1
strokes_ogs.tif
176
     0
290
     0
176
     0
 40
1.0
176
     0
 40
1.0
176
     0
  0
VISUALSTYLE
  5
38
102
{ACAD_REACTORS
330
2A
102
}
330
2A
100
AcDbVisualStyle
  2
Linepattern
 70
    14
177
     3
291
     1
 70
    58
 90
        2
176
     1
 90
        2
176
     1
 90
        0
176
     1
 90
        0
176
     1
 40
0.6
176
     1
 40
30.0
176
     1
 62
     7
420
 16777215
176
     1
 90
        1
176
     1
 90
        4
176
     1
 62
     7
176
     1
 62
   257
176
     1
 90
        7
176
     1
 90
        7
176
     1
 40
1.0
176
     1
 90
        8
176
     1
 62
     7
176
     1
 40
1.0
176
     1
 90
        1
176
     1
 90
        6
176
     1
 90
        2
176
     1
 62
     7
176
     1
 90
        5
176
     1
 90
        0
176
     1
 90
        0
176
     1
290
     0
176
     1
 90
        1
176
     1
 40
0.0
176
     1
 90
        0
176
     1
290
     0
176
     1
290
     1
176
     1
290
     1
176
     1
290
     0
176
     1
290
     0
176
     1
290
     0
176
     1
290
     0
176
     1
290
     0
176
     1
290
     0
176
     1
 90
       50
176
     1
 40
0.0
176
     1
 40
1.0
176
     1
 90
        0
176
     1
 62
    18
420
        0
176
     1
 90
       50
176
     1
 90
        3
176
     1
 62
     5
420
      255
176
     1
290
     0
176
     1
 90
       50
176
     1
 90
       50
176
     1
 90
       50
176
     1
290
     0
176
     1
 90
       50
176
     1
 62
   256
176
     0
 40
1.0
176
     0
 90
        2
176
     1
  1
strokes_ogs.tif
176
     1
290
     0
176
     1
 40
1.0
176
     1
 40
1.0
176
     1
  0
VISUALSTYLE
  5
3C
102
{ACAD_REACTORS
330
2A
102
}
330
2A
100
AcDbVisualStyle
  2
OverhangOff
 70
    21
177
     3
291
     1
 70
    58
 90
        2
176
     0
 90
        2
176
     0
 90
        0
176
     0
 90
        0
176
     0
 40
0.6
176
     0
 40
30.0
176
     0
 62
     7
420
 16777215
176
     0
 90
        1
176
     0
 90
        4
176
     0
 62
     7
176
     0
 62
   257
176
     0
 90
        1
176
     0
 90
        1
176
     0
 40
1.0
176
     0
 90
        9
176
     2
 62
     7
176
     0
 40
1.0
176
     0
 90
        1
176
     0
 90
        6
176
     0
 90
        2
176
     0
 62
     7
176
     0
 90
        5
176
     0
 90
        0
176
     0
 90
        0
176
     0
290
     0
176
     0
 90
        1
176
     0
 40
0.0
176
     0
 90
        0
176
     0
290
     0
176
     0
290
     1
176
     0
290
     1
176
     0
290
     0
176
     0
290
     0
176
     0
290
     0
176
     0
290
     0
176
     0
290
     0
176
     0
290
     0
176
     0
 90
       50
176
     0
 40
0.0
176
     0
 40
1.0
176
     0
 90
        0
176
     0
 62
    18
420
        0
176
     0
 90
       50
176
     0
 90
        3
176
     0
 62
     5
420
      255
176
     0
290
     0
176
     0
 90
       50
176
     0
 90
       50
176
     0
 90
       50
176
     0
290
     0
176
     0
 90
       50
176
     0
 62
   256
176
     0
 40
1.0
176
     0
 90
        2
176
     0
  1
strokes_ogs.tif
176
     0
290
     0
176
     0
 40
1.0
176
     0
 40
1.0
176
     0
  0
VISUALSTYLE
  5
33
102
{ACAD_REACTORS
330
2A
102
}
330
2A
100
AcDbVisualStyle
  2
Realistic
 70
     8
177
     3
291
     0
 70
    58
 90
        2
176
     1
 90
        3
176
     1
 90
        0
176
     1
 90
        2
176
     1
 40
0.6
176
     1
 40
30.0
176
     1
 62
     7
420
 16777215
176
     1
 90
        0
176
     1
 90
        0
176
     1
 62
     7
176
     1
 62
   257
176
     1
 90
        1
176
     1
 90
        1
176
     1
 40
1.0
176
     1
 90
        8
176
     1
 62
   257
176
     1
 40
1.0
176
     1
 90
        1
176
     1
 90
        6
176
     1
 90
        2
176
     1
 62
     7
176
     1
 90
        3
176
     1
 90
        0
176
     1
 90
        0
176
     1
290
     0
176
     1
 90
       13
176
     1
 40
0.0
176
     1
 90
        0
176
     1
290
     0
176
     1
290
     1
176
     1
290
     1
176
     1
290
     0
176
     1
290
     0
176
     1
290
     0
176
     1
290
     0
176
     1
290
     0
176
     1
290
     0
176
     1
 90
       50
176
     1
 40
0.0
176
     1
 40
1.0
176
     1
 90
        0
176
     1
 62
    18
420
        0
176
     1
 90
       50
176
     1
 90
        3
176
     1
 62
     5
420
      255
176
     1
290
     0
176
     1
 90
       50
176
     1
 90
       50
176
     1
 90
       50
176
     1
290
     0
176
     1
 90
       50
176
     1
 62
   256
176
     0
 40
1.0
176
     0
 90
        2
176
     1
  1
strokes_ogs.tif
176
     1
290
     0
176
     1
 40
1.0
176
     1
 40
1.0
176
     1
  0
VISUALSTYLE
  5
42
102
{ACAD_REACTORS
330
2A
102
}
330
2A
100
AcDbVisualStyle
  2
Shaded
 70
    27
177
     3
291
     0
 70
    58
 90
        2
176
     1
 90
        2
176
     1
 90
        1
176
     1
 90
        2
176
     1
 40
0.6
176
     1
 40
30.0
176
     1
 62
     7
420
 16777215
176
     1
 90
        0
176
     1
 90
        4
176
     1
 62
     7
176
     1
 62
   257
176
     1
 90
        1
176
     1
 90
        1
176
     1
 40
1.0
176
     1
 90
        8
176
     1
 62
   257
176
     1
 40
1.0
176
     1
 90
        1
176
     1
 90
        6
176
     1
 90
        2
176
     1
 62
     8
420
  7895160
176
     1
 90
        3
176
     1
 90
        0
176
     1
 90
        0
176
     1
290
     0
176
     1
 90
        5
176
     1
 40
0.0
176
     1
 90
        0
176
     1
290
     0
176
     1
290
     1
176
     1
290
     1
176
     1
290
     0
176
     1
290
     0
176
     1
290
     0
176
     1
290
     0
176
     1
290
     0
176
     1
290
     0
176
     1
 90
       50
176
     1
 40
0.0
176
     1
 40
1.0
176
     1
 90
        0
176
     1
 62
    18
420
        0
176
     1
 90
       50
176
     1
 90
        3
176
     1
 62
     5
420
      255
176
     1
290
     0
176
     1
 90
       50
176
     1
 90
       50
176
     1
 90
       50
176
     1
290
     0
176
     1
 90
       50
176
     1
 62
   256
176
     0
 40
1.0
176
     0
 90
        2
176
     1
  1
strokes_ogs.tif
176
     1
290
     0
176
     1
 40
1.0
176
     1
 40
1.0
176
     1
  0
VISUALSTYLE
  5
41
102
{ACAD_REACTORS
330
2A
102
}
330
2A
100
AcDbVisualStyle
  2
Shaded with edges
 70
    26
177
     3
291
     0
 70
    58
 90
        2
176
     1
 90
        2
176
     1
 90
        1
176
     1
 90
        2
176
     1
 40
0.6
176
     1
 40
30.0
176
     1
 62
     7
420
 16777215
176
     1
 90
        1
176
     1
 90
       10
176
     1
 62
     7
176
     1
 62
   257
176
     1
 90
        2
176
     1
 90
        1
176
     1
 40
1.0
176
     1
 90
        8
176
     1
 62
   257
176
     1
 40
1.0
176
     1
 90
        1
176
     1
 90
        6
176
     1
 90
        2
176
     1
 62
     7
176
     1
 90
        3
176
     1
 90
        0
176
     1
 90
        0
176
     1
290
     0
176
     1
 90
        5
176
     1
 40
0.0
176
     1
 90
        0
176
     1
290
     0
176
     1
290
     1
176
     1
290
     1
176
     1
290
     0
176
     1
290
     0
176
     1
290
     0
176
     1
290
     0
176
     1
290
     0
176
     1
290
     0
176
     1
 90
       50
176
     1
 40
0.0
176
     1
 40
1.0
176
     1
 90
        0
176
     1
 62
    18
420
        0
176
     1
 90
       50
176
     1
 90
        3
176
     1
 62
     5
420
      255
176
     1
290
     0
176
     1
 90
       50
176
     1
 90
       50
176
     1
 90
       50
176
     1
290
     0
176
     1
 90
       50
176
     1
 62
   256
176
     0
 40
1.0
176
     0
 90
        2
176
     1
  1
strokes_ogs.tif
176
     1
290
     0
176
     1
 40
1.0
176
     1
 40
1.0
176
     1
  0
VISUALSTYLE
  5
3E
102
{ACAD_REACTORS
330
2A
102
}
330
2A
100
AcDbVisualStyle
  2
Shades of Gray
 70
    23
177
     3
291
     0
 70
    58
 90
        2
176
     1
 90
        2
176
     1
 90
        3
176
     1
 90
        0
176
     1
 40
0.6
176
     1
 40
30.0
176
     1
 62
     7
420
 16777215
176
     1
 90
        2
176
     1
 90
        2
176
     1
 62
     7
176
     1
 62
     7
176
     1
 90
        1
176
     1
 90
        1
176
     1
 40
40.0
176
     1
 90
        8
176
     1
 62
     7
176
     1
 40
1.0
176
     1
 90
        1
176
     1
 90
        6
176
     1
 90
        2
176
     1
 62
     7
176
     1
 90
        3
176
     1
 90
        0
176
     1
 90
        0
176
     1
290
     0
176
     1
 90
        1
176
     1
 40
0.0
176
     1
 90
        0
176
     1
290
     0
176
     1
290
     1
176
     1
290
     1
176
     1
290
     0
176
     1
290
     0
176
     1
290
     0
176
     1
290
     0
176
     1
290
     0
176
     1
290
     0
176
     1
 90
       50
176
     1
 40
0.0
176
     1
 40
1.0
176
     1
 90
        0
176
     1
 62
    18
420
        0
176
     1
 90
       50
176
     1
 90
        3
176
     1
 62
     5
420
      255
176
     1
290
     0
176
     1
 90
       50
176
     1
 90
       50
176
     1
 90
       50
176
     1
290
     0
176
     1
 90
       50
176
     1
 62
   256
176
     0
 40
1.0
176
     0
 90
        2
176
     1
  1
strokes_ogs.tif
176
     1
290
     0
176
     1
 40
1.0
176
     1
 40
1.0
176
     1
  0
VISUALSTYLE
  5
3F
102
{ACAD_REACTORS
330
2A
102
}
330
2A
100
AcDbVisualStyle
  2
Sketchy
 70
    24
177
     3
291
     0
 70
    58
 90
        1
176
     1
 90
        2
176
     1
 90
        2
176
     1
 90
        0
176
     1
 40
0.6
176
     1
 40
30.0
176
     1
 62
     7
420
 16777215
176
     1
 90
        2
176
     1
 90
        2
176
     1
 62
     7
176
     1
 62
     7
176
     1
 90
        1
176
     1
 90
        1
176
     1
 40
40.0
176
     1
 90
       11
176
     1
 62
     7
176
     1
 40
1.0
176
     1
 90
        1
176
     1
 90
        6
176
     1
 90
        2
176
     1
 62
     7
176
     1
 90
        6
176
     1
 90
        0
176
     1
 90
        0
176
     1
290
     0
176
     1
 90
        1
176
     1
 40
0.0
176
     1
 90
        0
176
     1
290
     0
176
     1
290
     1
176
     1
290
     1
176
     1
290
     0
176
     1
290
     0
176
     1
290
     0
176
     1
290
     0
176
     1
290
     0
176
     1
290
     0
176
     1
 90
       50
176
     1
 40
0.0
176
     1
 40
1.0
176
     1
 90
        0
176
     1
 62
    18
420
        0
176
     1
 90
       50
176
     1
 90
        3
176
     1
 62
     5
420
      255
176
     1
290
     0
176
     1
 90
       50
176
     1
 90
       50
176
     1
 90
       50
176
     1
290
     0
176
     1
 90
       50
176
     1
 62
   256
176
     0
 40
1.0
176
     0
 90
        2
176
     1
  1
strokes_ogs.tif
176
     1
290
     0
176
     1
 40
1.0
176
     1
 40
1.0
176
     1
  0
VISUALSTYLE
  5
37
102
{ACAD_REACTORS
330
2A
102
}
330
2A
100
AcDbVisualStyle
  2
Thicken
 70
    13
177
     3
291
     1
 70
    58
 90
        2
176
     1
 90
        2
176
     1
 90
        0
176
     1
 90
        0
176
     1
 40
0.6
176
     1
 40
30.0
176
     1
 62
     7
420
 16777215
176
     1
 90
        1
176
     1
 90
        4
176
     1
 62
     7
176
     1
 62
   257
176
     1
 90
        1
176
     1
 90
        1
176
     1
 40
1.0
176
     1
 90
       12
176
     1
 62
     7
176
     1
 40
1.0
176
     1
 90
        1
176
     1
 90
        6
176
     1
 90
        2
176
     1
 62
     7
176
     1
 90
        5
176
     1
 90
        0
176
     1
 90
        0
176
     1
290
     0
176
     1
 90
        1
176
     1
 40
0.0
176
     1
 90
        0
176
     1
290
     0
176
     1
290
     1
176
     1
290
     1
176
     1
290
     0
176
     1
290
     0
176
     1
290
     0
176
     1
290
     0
176
     1
290
     0
176
     1
290
     0
176
     1
 90
       50
176
     1
 40
0.0
176
     1
 40
1.0
176
     1
 90
        0
176
     1
 62
    18
420
        0
176
     1
 90
       50
176
     1
 90
        3
176
     1
 62
     5
420
      255
176
     1
290
     0
176
     1
 90
       50
176
     1
 90
       50
176
     1
 90
       50
176
     1
290
     0
176
     1
 90
       50
176
     1
 62
   256
176
     0
 40
1.0
176
     0
 90
        2
176
     1
  1
strokes_ogs.tif
176
     1
290
     0
176
     1
 40
1.0
176
     1
 40
1.0
176
     1
  0
VISUALSTYLE
  5
30
102
{ACAD_REACTORS
330
2A
102
}
330
2A
100
AcDbVisualStyle
  2
Wireframe
 70
     5
177
     3
291
     0
 70
    58
 90
        0
176
     1
 90
        2
176
     1
 90
        0
176
     1
 90
        0
176
     1
 40
0.6
176
     1
 40
30.0
176
     1
 62
     7
420
 16777215
176
     1
 90
        1
176
     1
 90
        4
176
     1
 62
     7
176
     1
 62
   257
176
     1
 90
        1
176
     1
 90
        1
176
     1
 40
1.0
176
     1
 90
        0
176
     1
 62
   257
176
     1
 40
1.0
176
     1
 90
        1
176
     1
 90
        6
176
     1
 90
        2
176
     1
 62
     7
176
     1
 90
        3
176
     1
 90
        0
176
     1
 90
        0
176
     1
290
     0
176
     1
 90
        1
176
     1
 40
0.0
176
     1
 90
        0
176
     1
290
     0
176
     1
290
     1
176
     1
290
     1
176
     1
290
     0
176
     1
290
     0
176
     1
290
     0
176
     1
290
     0
176
     1
290
     0
176
     1
290
     0
176
     1
 90
       50
176
     1
 40
0.0
176
     1
 40
1.0
176
     1
 90
        0
176
     1
 62
    18
420
        0
176
     1
 90
       50
176
     1
 90
        3
176
     1
 62
     5
420
      255
176
     1
290
     0
176
     1
 90
       50
176
     1
 90
       50
176
     1
 90
       50
176
     1
290
     0
176
     1
 90
       50
176
     1
 62
   256
176
     0
 40
1.0
176
     0
 90
        2
176
     1
  1
strokes_ogs.tif
176
     1
290
     0
176
     1
 40
1.0
176
     1
 40
1.0
176
     1
  0
VISUALSTYLE
  5
40
102
{ACAD_REACTORS
330
2A
102
}
330
2A
100
AcDbVisualStyle
  2
X-Ray
 70
    25
177
     3
291
     0
 70
    58
 90
        2
176
     1
 90
        2
176
     1
 90
        1
176
     1
 90
        1
176
     1
 40
0.5
176
     1
 40
30.0
176
     1
 62
     7
420
 16777215
176
     1
 90
        1
176
     1
 90
        0
176
     1
 62
     7
176
     1
 62
   257
176
     1
 90
        1
176
     1
 90
        1
176
     1
 40
1.0
176
     1
 90
        8
176
     1
 62
     7
176
     1
 40
1.0
176
     1
 90
        1
176
     1
 90
        6
176
     1
 90
        2
176
     1
 62
     7
176
     1
 90
        3
176
     1
 90
        0
176
     1
 90
        0
176
     1
290
     0
176
     1
 90
       13
176
     1
 40
0.0
176
     1
 90
        0
176
     1
290
     0
176
     1
290
     1
176
     1
290
     1
176
     1
290
     0
176
     1
290
     0
176
     1
290
     0
176
     1
290
     0
176
     1
290
     0
176
     1
290
     0
176
     1
 90
       50
176
     1
 40
0.0
176
     1
 40
1.0
176
     1
 90
        0
176
     1
 62
    18
420
        0
176
     1
 90
       50
176
     1
 90
        3
176
     1
 62
     5
420
      255
176
     1
290
     0
176
     1
 90
       50
176
     1
 90
       50
176
     1
 90
       50
176
     1
290
     0
176
     1
 90
       50
176
     1
 62
   256
176
     0
 40
1.0
176
     0
 90
        2
176
     1
  1
strokes_ogs.tif
176
     1
290
     0
176
     1
 40
1.0
176
     1
 40
1.0
176
     1
  0
DICTIONARYVAR
  5
1DD
102
{ACAD_REACTORS
330
1DC
102
}
330
1DC
100
DictionaryVariables
280
     0
  1
1:1
  0
DICTIONARYVAR
  5
1E2
102
{ACAD_REACTORS
330
1DC
102
}
330
1DC
100
DictionaryVariables
280
     0
  1
Standard
  0
DICTIONARYVAR
  5
1E1
102
{ACAD_REACTORS
330
1DC
102
}
330
1DC
100
DictionaryVariables
280
     0
  1
Standard
  0
DICTIONARY
  5
1DE
330
6A
100
AcDbDictionary
280
     1
281
     1
  3
ACAD_ROUNDTRIP_2008_TABLESTYLE_CELLSTYLEMAP
360
1DF
  0
CELLSTYLEMAP
  5
1DF
102
{ACAD_REACTORS
330
1DE
102
}
330
1DE
100
AcDbCellStyleMap
 90
        3
300
CELLSTYLE
  1
TABLEFORMAT_BEGIN
 90
        5
170
     1
 91
        0
 92
    32768
 62
   257
 93
        1
300
CONTENTFORMAT
  1
CONTENTFORMAT_BEGIN
 90
        0
 91
        0
 92
        4
 93
        0
300

 40
0.0
140
1.0
 94
        5
 62
     0
340
11
144
0.25
309
CONTENTFORMAT_END
171
     1
301
MARGIN
  1
CELLMARGIN_BEGIN
 40
0.06
 40
0.06
 40
0.06
 40
0.06
 40
0.06
 40
0.06
309
CELLMARGIN_END
 94
        6
 95
        1
302
GRIDFORMAT
  1
GRIDFORMAT_BEGIN
 90
        0
 91
        1
 62
     0
 92
       -2
340
14
 93
        0
 40
0.045
309
GRIDFORMAT_END
 95
        2
302
GRIDFORMAT
  1
GRIDFORMAT_BEGIN
 90
        0
 91
        1
 62
     0
 92
       -2
340
14
 93
        0
 40
0.045
309
GRIDFORMAT_END
 95
        4
302
GRIDFORMAT
  1
GRIDFORMAT_BEGIN
 90
        0
 91
        1
 62
     0
 92
       -2
340
14
 93
        0
 40
0.045
309
GRIDFORMAT_END
 95
        8
302
GRIDFORMAT
  1
GRIDFORMAT_BEGIN
 90
        0
 91
        1
 62
     0
 92
       -2
340
14
 93
        0
 40
0.045
309
GRIDFORMAT_END
 95
       16
302
GRIDFORMAT
  1
GRIDFORMAT_BEGIN
 90
        0
 91
        1
 62
     0
 92
       -2
340
14
 93
        0
 40
0.045
309
GRIDFORMAT_END
 95
       32
302
GRIDFORMAT
  1
GRIDFORMAT_BEGIN
 90
        0
 91
        1
 62
     0
 92
       -2
340
14
 93
        0
 40
0.045
309
GRIDFORMAT_END
309
TABLEFORMAT_END
  1
CELLSTYLE_BEGIN
 90
        1
 91
        1
300
_TITLE
309
CELLSTYLE_END
300
CELLSTYLE
  1
TABLEFORMAT_BEGIN
 90
        5
170
     1
 91
        0
 92
        0
 62
   257
 93
        1
300
CONTENTFORMAT
  1
CONTENTFORMAT_BEGIN
 90
        0
 91
        0
 92
        4
 93
        0
300

 40
0.0
140
1.0
 94
        5
 62
     0
340
11
144
0.18
309
CONTENTFORMAT_END
171
     1
301
MARGIN
  1
CELLMARGIN_BEGIN
 40
0.06
 40
0.06
 40
0.06
 40
0.06
 40
0.06
 40
0.06
309
CELLMARGIN_END
 94
        6
 95
        1
302
GRIDFORMAT
  1
GRIDFORMAT_BEGIN
 90
        0
 91
        1
 62
     0
 92
       -2
340
14
 93
        0
 40
0.045
309
GRIDFORMAT_END
 95
        2
302
GRIDFORMAT
  1
GRIDFORMAT_BEGIN
 90
        0
 91
        1
 62
     0
 92
       -2
340
14
 93
        0
 40
0.045
309
GRIDFORMAT_END
 95
        4
302
GRIDFORMAT
  1
GRIDFORMAT_BEGIN
 90
        0
 91
        1
 62
     0
 92
       -2
340
14
 93
        0
 40
0.045
309
GRIDFORMAT_END
 95
        8
302
GRIDFORMAT
  1
GRIDFORMAT_BEGIN
 90
        0
 91
        1
 62
     0
 92
       -2
340
14
 93
        0
 40
0.045
309
GRIDFORMAT_END
 95
       16
302
GRIDFORMAT
  1
GRIDFORMAT_BEGIN
 90
        0
 91
        1
 62
     0
 92
       -2
340
14
 93
        0
 40
0.045
309
GRIDFORMAT_END
 95
       32
302
GRIDFORMAT
  1
GRIDFORMAT_BEGIN
 90
        0
 91
        1
 62
     0
 92
       -2
340
14
 93
        0
 40
0.045
309
GRIDFORMAT_END
309
TABLEFORMAT_END
  1
CELLSTYLE_BEGIN
 90
        2
 91
        1
300
_HEADER
309
CELLSTYLE_END
300
CELLSTYLE
  1
TABLEFORMAT_BEGIN
 90
        5
170
     1
 91
        0
 92
        0
 62
   257
 93
        1
300
CONTENTFORMAT
  1
CONTENTFORMAT_BEGIN
 90
        0
 91
        0
 92
        4
 93
        0
300

 40
0.0
140
1.0
 94
        2
 62
     0
340
11
144
0.18
309
CONTENTFORMAT_END
171
     1
301
MARGIN
  1
CELLMARGIN_BEGIN
 40
0.06
 40
0.06
 40
0.06
 40
0.06
 40
0.06
 40
0.06
309
CELLMARGIN_END
 94
        6
 95
        1
302
GRIDFORMAT
  1
GRIDFORMAT_BEGIN
 90
        0
 91
        1
 62
     0
 92
       -2
340
14
 93
        0
 40
0.045
309
GRIDFORMAT_END
 95
        2
302
GRIDFORMAT
  1
GRIDFORMAT_BEGIN
 90
        0
 91
        1
 62
     0
 92
       -2
340
14
 93
        0
 40
0.045
309
GRIDFORMAT_END
 95
        4
302
GRIDFORMAT
  1
GRIDFORMAT_BEGIN
 90
        0
 91
        1
 62
     0
 92
       -2
340
14
 93
        0
 40
0.045
309
GRIDFORMAT_END
 95
        8
302
GRIDFORMAT
  1
GRIDFORMAT_BEGIN
 90
        0
 91
        1
 62
     0
 92
       -2
340
14
 93
        0
 40
0.045
309
GRIDFORMAT_END
 95
       16
302
GRIDFORMAT
  1
GRIDFORMAT_BEGIN
 90
        0
 91
        1
 62
     0
 92
       -2
340
14
 93
        0
 40
0.045
309
GRIDFORMAT_END
 95
       32
302
GRIDFORMAT
  1
GRIDFORMAT_BEGIN
 90
        0
 91
        1
 62
     0
 92
       -2
340
14
 93
        0
 40
0.045
309
GRIDFORMAT_END
309
TABLEFORMAT_END
  1
CELLSTYLE_BEGIN
 90
        3
 91
        2
300
_DATA
309
CELLSTYLE_END
  0
ENDSEC
  0
EOF