0
SECTION
  2
HEADER
  9
$ACADVER
  1
AC1027
  9
$ACADMAINTVER
 70
     8
  9
$DWGCODEPAGE
  3
ANSI_1252
  9
$REQUIREDVERSIONS
160
                 0
  9
$COMMENTS
  1
File was created by Cadenas
  9
$CUSTOMPROPERTYTAG
  1
NN
  9
$CUSTOMPROPERTY
  1
Eccentric Collar Intermediate Duty Narrow Slot Take Up Inch Bore
  9
$CUSTOMPROPERTYTAG
  1
NT
  9
$CUSTOMPROPERTY
  1
Eccentric Collar Take-Up Bearings -(Intermediate Duty) -Narrow Slot
  9
$CUSTOMPROPERTYTAG
  1
NB
  9
$CUSTOMPROPERTY
  1
130340
  9
$CUSTOMPROPERTYTAG
  1
NBSYN
  9
$CUSTOMPROPERTY
  1
$PN.
  9
$CUSTOMPROPERTYTAG
  1
LINA
  9
$CUSTOMPROPERTY
  1
130340
  9
$CUSTOMPROPERTYTAG
  1
SERIES
  9
$CUSTOMPROPERTY
  1
209
  9
$CUSTOMPROPERTYTAG
  1
SS
  9
$CUSTOMPROPERTY
  1
1-11/16
  9
$CUSTOMPROPERTYTAG
  1
PN
  9
$CUSTOMPROPERTY
  1
130340
  9
$CUSTOMPROPERTYTAG
  1
DESCRIPTION
  9
$CUSTOMPROPERTY
  1
NSTU-SXV-111
  9
$CUSTOMPROPERTYTAG
  1
W
  9
$CUSTOMPROPERTY
  1
4.8
  9
$CUSTOMPROPERTYTAG
  1
FS
  9
$CUSTOMPROPERTY
  1
NS400
  9
$CUSTOMPROPERTYTAG
  1
A
  9
$CUSTOMPROPERTY
  1
1.69
  9
$CUSTOMPROPERTYTAG
  1
B
  9
$CUSTOMPROPERTY
  1
5.44
  9
$CUSTOMPROPERTYTAG
  1
C
  9
$CUSTOMPROPERTY
  1
0.313
  9
$CUSTOMPROPERTYTAG
  1
D
  9
$CUSTOMPROPERTY
  1
3.00
  9
$CUSTOMPROPERTYTAG
  1
E
  9
$CUSTOMPROPERTY
  1
3.25
  9
$CUSTOMPROPERTYTAG
  1
F
  9
$CUSTOMPROPERTY
  1
7/8
  9
$CUSTOMPROPERTYTAG
  1
G
  9
$CUSTOMPROPERTY
  1
0.72
  9
$CUSTOMPROPERTYTAG
  1
H
  9
$CUSTOMPROPERTY
  1
1.22
  9
$CUSTOMPROPERTYTAG
  1
J
  9
$CUSTOMPROPERTY
  1
1.63
  9
$CUSTOMPROPERTYTAG
  1
L
  9
$CUSTOMPROPERTY
  1
2.50
  9
$CUSTOMPROPERTYTAG
  1
M
  9
$CUSTOMPROPERTY
  1
4.015 / 3.985
  9
$CUSTOMPROPERTYTAG
  1
N
  9
$CUSTOMPROPERTY
  1
4.75
  9
$CUSTOMPROPERTYTAG
  1
P
  9
$CUSTOMPROPERTY
  1
0.38
  9
$CUSTOMPROPERTYTAG
  1
R
  9
$CUSTOMPROPERTY
  1
0.43
  9
$CUSTOMPROPERTYTAG
  1
S
  9
$CUSTOMPROPERTY
  1
1.26
  9
$CUSTOMPROPERTYTAG
  1
COMPANY
  9
$CUSTOMPROPERTY
  1
baldor
  9
$INSBASE
 10
0.0
 20
0.0
 30
0.0
  9
$EXTMIN
 10
1.000000000000000E+20
 20
1.000000000000000E+20
 30
1.000000000000000E+20
  9
$EXTMAX
 10
-1.000000000000000E+20
 20
-1.000000000000000E+20
 30
-1.000000000000000E+20
  9
$LIMMIN
 10
0.0
 20
0.0
  9
$LIMMAX
 10
12.0
 20
9.0
  9
$ORTHOMODE
 70
     0
  9
$REGENMODE
 70
     1
  9
$FILLMODE
 70
     1
  9
$QTEXTMODE
 70
     0
  9
$MIRRTEXT
 70
     1
  9
$LTSCALE
 40
1.0
  9
$ATTMODE
 70
     1
  9
$TEXTSIZE
 40
0.2
  9
$TRACEWID
 40
0.05
  9
$TEXTSTYLE
  7
Standard
  9
$CLAYER
  8
0
  9
$CELTYPE
  6
ByLayer
  9
$CECOLOR
 62
   256
  9
$CELTSCALE
 40
1.0
  9
$DISPSILH
 70
     0
  9
$DIMSCALE
 40
1.0
  9
$DIMASZ
 40
0.18
  9
$DIMEXO
 40
0.0625
  9
$DIMDLI
 40
0.38
  9
$DIMRND
 40
0.0
  9
$DIMDLE
 40
0.0
  9
$DIMEXE
 40
0.18
  9
$DIMTP
 40
0.0
  9
$DIMTM
 40
0.0
  9
$DIMTXT
 40
0.18
  9
$DIMCEN
 40
0.09
  9
$DIMTSZ
 40
0.0
  9
$DIMTOL
 70
     0
  9
$DIMLIM
 70
     0
  9
$DIMTIH
 70
     1
  9
$DIMTOH
 70
     1
  9
$DIMSE1
 70
     0
  9
$DIMSE2
 70
     0
  9
$DIMTAD
 70
     0
  9
$DIMZIN
 70
     0
  9
$DIMBLK
  1

  9
$DIMASO
 70
     1
  9
$DIMSHO
 70
     1
  9
$DIMPOST
  1

  9
$DIMAPOST
  1

  9
$DIMALT
 70
     0
  9
$DIMALTD
 70
     2
  9
$DIMALTF
 40
25.4
  9
$DIMLFAC
 40
1.0
  9
$DIMTOFL
 70
     0
  9
$DIMTVP
 40
0.0
  9
$DIMTIX
 70
     0
  9
$DIMSOXD
 70
     0
  9
$DIMSAH
 70
     0
  9
$DIMBLK1
  1

  9
$DIMBLK2
  1

  9
$DIMSTYLE
  2
Standard
  9
$DIMCLRD
 70
     0
  9
$DIMCLRE
 70
     0
  9
$DIMCLRT
 70
     0
  9
$DIMTFAC
 40
1.0
  9
$DIMGAP
 40
0.09
  9
$DIMJUST
 70
     0
  9
$DIMSD1
 70
     0
  9
$DIMSD2
 70
     0
  9
$DIMTOLJ
 70
     1
  9
$DIMTZIN
 70
     0
  9
$DIMALTZ
 70
     0
  9
$DIMALTTZ
 70
     0
  9
$DIMUPT
 70
     0
  9
$DIMDEC
 70
     4
  9
$DIMTDEC
 70
     4
  9
$DIMALTU
 70
     2
  9
$DIMALTTD
 70
     2
  9
$DIMTXSTY
  7
Standard
  9
$DIMAUNIT
 70
     0
  9
$DIMADEC
 70
     0
  9
$DIMALTRND
 40
0.0
  9
$DIMAZIN
 70
     0
  9
$DIMDSEP
 70
    46
  9
$DIMATFIT
 70
     3
  9
$DIMFRAC
 70
     0
  9
$DIMLDRBLK
  1

  9
$DIMLUNIT
 70
     2
  9
$DIMLWD
 70
    -2
  9
$DIMLWE
 70
    -2
  9
$DIMTMOVE
 70
     0
  9
$DIMFXL
 40
1.0
  9
$DIMFXLON
 70
     0
  9
$DIMJOGANG
 40
0.7853981633974483
  9
$DIMTFILL
 70
     0
  9
$DIMTFILLCLR
 70
     0
  9
$DIMARCSYM
 70
     0
  9
$DIMLTYPE
  6

  9
$DIMLTEX1
  6

  9
$DIMLTEX2
  6

  9
$DIMTXTDIRECTION
 70
     0
  9
$LUNITS
 70
     2
  9
$LUPREC
 70
     4
  9
$SKETCHINC
 40
0.1
  9
$FILLETRAD
 40
0.5
  9
$AUNITS
 70
     0
  9
$AUPREC
 70
     0
  9
$MENU
  1
.
  9
$ELEVATION
 40
0.0
  9
$PELEVATION
 40
0.0
  9
$THICKNESS
 40
0.0
  9
$LIMCHECK
 70
     0
  9
$CHAMFERA
 40
0.0
  9
$CHAMFERB
 40
0.0
  9
$CHAMFERC
 40
0.0
  9
$CHAMFERD
 40
0.0
  9
$SKPOLY
 70
     0
  9
$TDCREATE
 40
2458169.003849826
  9
$TDUCREATE
 40
2458168.96218316
  9
$TDUPDATE
 40
2458169.003849826
  9
$TDUUPDATE
 40
2458168.96218316
  9
$TDINDWG
 40
0.0000000116
  9
$TDUSRTIMER
 40
0.0000000116
  9
$USRTIMER
 70
     1
  9
$ANGBASE
 50
0.0
  9
$ANGDIR
 70
     0
  9
$PDMODE
 70
     0
  9
$PDSIZE
 40
0.0
  9
$PLINEWID
 40
0.0
  9
$SPLFRAME
 70
     0
  9
$SPLINETYPE
 70
     6
  9
$SPLINESEGS
 70
     8
  9
$HANDSEED
  5
1D5
  9
$SURFTAB1
 70
     6
  9
$SURFTAB2
 70
     6
  9
$SURFTYPE
 70
     6
  9
$SURFU
 70
     6
  9
$SURFV
 70
     6
  9
$UCSBASE
  2

  9
$UCSNAME
  2

  9
$UCSORG
 10
0.0
 20
0.0
 30
0.0
  9
$UCSXDIR
 10
1.0
 20
0.0
 30
0.0
  9
$UCSYDIR
 10
0.0
 20
1.0
 30
0.0
  9
$UCSORTHOREF
  2

  9
$UCSORTHOVIEW
 70
     0
  9
$UCSORGTOP
 10
0.0
 20
0.0
 30
0.0
  9
$UCSORGBOTTOM
 10
0.0
 20
0.0
 30
0.0
  9
$UCSORGLEFT
 10
0.0
 20
0.0
 30
0.0
  9
$UCSORGRIGHT
 10
0.0
 20
0.0
 30
0.0
  9
$UCSORGFRONT
 10
0.0
 20
0.0
 30
0.0
  9
$UCSORGBACK
 10
0.0
 20
0.0
 30
0.0
  9
$PUCSBASE
  2

  9
$PUCSNAME
  2

  9
$PUCSORG
 10
0.0
 20
0.0
 30
0.0
  9
$PUCSXDIR
 10
1.0
 20
0.0
 30
0.0
  9
$PUCSYDIR
 10
0.0
 20
1.0
 30
0.0
  9
$PUCSORTHOREF
  2

  9
$PUCSORTHOVIEW
 70
     0
  9
$PUCSORGTOP
 10
0.0
 20
0.0
 30
0.0
  9
$PUCSORGBOTTOM
 10
0.0
 20
0.0
 30
0.0
  9
$PUCSORGLEFT
 10
0.0
 20
0.0
 30
0.0
  9
$PUCSORGRIGHT
 10
0.0
 20
0.0
 30
0.0
  9
$PUCSORGFRONT
 10
0.0
 20
0.0
 30
0.0
  9
$PUCSORGBACK
 10
0.0
 20
0.0
 30
0.0
  9
$USERI1
 70
     0
  9
$USERI2
 70
     0
  9
$USERI3
 70
     0
  9
$USERI4
 70
     0
  9
$USERI5
 70
     0
  9
$USERR1
 40
0.0
  9
$USERR2
 40
0.0
  9
$USERR3
 40
0.0
  9
$USERR4
 40
0.0
  9
$USERR5
 40
0.0
  9
$WORLDVIEW
 70
     1
  9
$SHADEDGE
 70
     3
  9
$SHADEDIF
 70
    70
  9
$TILEMODE
 70
     1
  9
$MAXACTVP
 70
    64
  9
$PINSBASE
 10
0.0
 20
0.0
 30
0.0
  9
$PLIMCHECK
 70
     0
  9
$PEXTMIN
 10
1.000000000000000E+20
 20
1.000000000000000E+20
 30
1.000000000000000E+20
  9
$PEXTMAX
 10
-1.000000000000000E+20
 20
-1.000000000000000E+20
 30
-1.000000000000000E+20
  9
$PLIMMIN
 10
0.0
 20
0.0
  9
$PLIMMAX
 10
12.0
 20
9.0
  9
$UNITMODE
 70
     0
  9
$VISRETAIN
 70
     1
  9
$PLINEGEN
 70
     0
  9
$PSLTSCALE
 70
     1
  9
$TREEDEPTH
 70
  3020
  9
$CMLSTYLE
  2
Standard
  9
$CMLJUST
 70
     0
  9
$CMLSCALE
 40
1.0
  9
$PROXYGRAPHICS
 70
     1
  9
$MEASUREMENT
 70
     0
  9
$CELWEIGHT
370
    -1
  9
$ENDCAPS
280
     0
  9
$JOINSTYLE
280
     0
  9
$LWDISPLAY
290
     0
  9
$INSUNITS
 70
     1
  9
$HYPERLINKBASE
  1

  9
$STYLESHEET
  1

  9
$XEDIT
290
     1
  9
$CEPSNTYPE
380
     0
  9
$PSTYLEMODE
290
     1
  9
$FINGERPRINTGUID
  2
{7625EC14-3557-4C1F-972C-2B1BC92C9D4D}
  9
$VERSIONGUID
  2
{FAEB1C32-E019-11D5-929B-00C0DF256EC4}
  9
$EXTNAMES
290
     1
  9
$PSVPSCALE
 40
0.0
  9
$OLESTARTUP
290
     0
  9
$SORTENTS
280
   127
  9
$INDEXCTL
280
     0
  9
$HIDETEXT
280
     1
  9
$XCLIPFRAME
280
     2
  9
$HALOGAP
280
     0
  9
$OBSCOLOR
 70
   257
  9
$OBSLTYPE
280
     0
  9
$INTERSECTIONDISPLAY
280
     0
  9
$INTERSECTIONCOLOR
 70
   257
  9
$DIMASSOC
280
     2
  9
$PROJECTNAME
  1

  9
$CAMERADISPLAY
290
     0
  9
$LENSLENGTH
 40
50.0
  9
$CAMERAHEIGHT
 40
0.0
  9
$STEPSPERSEC
 40
2.0
  9
$STEPSIZE
 40
6.0
  9
$3DDWFPREC
 40
2.0
  9
$PSOLWIDTH
 40
0.25
  9
$PSOLHEIGHT
 40
4.0
  9
$LOFTANG1
 40
1.570796326794897
  9
$LOFTANG2
 40
1.570796326794897
  9
$LOFTMAG1
 40
0.0
  9
$LOFTMAG2
 40
0.0
  9
$LOFTPARAM
 70
     7
  9
$LOFTNORMALS
280
     1
  9
$LATITUDE
 40
37.795
  9
$LONGITUDE
 40
-122.394
  9
$NORTHDIRECTION
 40
0.0
  9
$TIMEZONE
 70
 -8000
  9
$LIGHTGLYPHDISPLAY
280
     1
  9
$TILEMODELIGHTSYNCH
280
     1
  9
$CMATERIAL
347
44
  9
$SOLIDHIST
280
     0
  9
$SHOWHIST
280
     1
  9
$DWFFRAME
280
     2
  9
$DGNFRAME
280
     2
  9
$REALWORLDSCALE
290
     1
  9
$INTERFERECOLOR
 62
   256
  9
$CSHADOW
280
     0
  9
$SHADOWPLANELOCATION
 40
0.0
  0
ENDSEC
  0
SECTION
  2
CLASSES
  0
CLASS
  1
ACDBDICTIONARYWDFLT
  2
AcDbDictionaryWithDefault
  3
ObjectDBX Classes
 90
        0
 91
        4
280
     0
281
     0
  0
CLASS
  1
VISUALSTYLE
  2
AcDbVisualStyle
  3
ObjectDBX Classes
 90
     4095
 91
        4
280
     0
281
     0
  0
CLASS
  1
MATERIAL
  2
AcDbMaterial
  3
ObjectDBX Classes
 90
     1153
 91
        4
280
     0
281
     0
  0
CLASS
  1
SCALE
  2
AcDbScale
  3
ObjectDBX Classes
 90
     1153
 91
        4
280
     0
281
     0
  0
CLASS
  1
TABLESTYLE
  2
AcDbTableStyle
  3
ObjectDBX Classes
 90
     4095
 91
        4
280
     0
281
     0
  0
CLASS
  1
MLEADERSTYLE
  2
AcDbMLeaderStyle
  3
ACDB_MLEADERSTYLE_CLASS
 90
     4095
 91
        4
280
     0
281
     0
  0
CLASS
  1
SUN
  2
AcDbSun
  3
SCENEOE
 90
     1153
 91
        4
280
     0
281
     0
  0
CLASS
  1
DICTIONARYVAR
  2
AcDbDictionaryVar
  3
ObjectDBX Classes
 90
        0
 91
        4
280
     0
281
     0
  0
CLASS
  1
CELLSTYLEMAP
  2
AcDbCellStyleMap
  3
ObjectDBX Classes
 90
     1152
 91
        4
280
     0
281
     0
  0
ENDSEC
  0
SECTION
  2
TABLES
  0
TABLE
  2
VPORT
  5
8
330
0
100
AcDbSymbolTable
 70
     1
  0
VPORT
  5
29
330
8
100
AcDbSymbolTableRecord
100
AcDbViewportTableRecord
  2
*Active
 70
     0
 10
0.0
 20
0.0
 11
1.0
 21
1.0
 12
-0.2241250000000008
 22
0.0
 13
0.0
 23
0.0
 14
0.5
 24
0.5
 15
0.5
 25
0.5
 16
0.0
 26
0.0
 36
1.0
 17
0.0
 27
0.0
 37
0.0
 40
4.845
 41
0.4718421052631581
 42
50.0
 43
0.0
 44
0.0
 50
0.0
 51
0.0
 71
     0
 72
   100
 73
     1
 74
     3
 75
     0
 76
     0
 77
     0
 78
     0
281
     0
 65
     1
110
0.0
120
0.0
130
0.0
111
1.0
121
0.0
131
0.0
112
0.0
122
1.0
132
0.0
 79
     0
146
0.0
348
2F
 60
     3
 61
     5
292
     1
282
     1
141
0.0
142
0.0
 63
   250
361
6D
  0
ENDTAB
  0
TABLE
  2
LTYPE
  5
5
330
0
100
AcDbSymbolTable
 70
     3
  0
LTYPE
  5
14
330
5
100
AcDbSymbolTableRecord
100
AcDbLinetypeTableRecord
  2
ByBlock
 70
     0
  3

 72
    65
 73
     0
 40
0.0
  0
LTYPE
  5
15
330
5
100
AcDbSymbolTableRecord
100
AcDbLinetypeTableRecord
  2
ByLayer
 70
     0
  3

 72
    65
 73
     0
 40
0.0
  0
LTYPE
  5
16
330
5
100
AcDbSymbolTableRecord
100
AcDbLinetypeTableRecord
  2
Continuous
 70
     0
  3
Solid line
 72
    65
 73
     0
 40
0.0
  0
LTYPE
  5
9F
330
5
100
AcDbSymbolTableRecord
100
AcDbLinetypeTableRecord
  2
Dashed
 70
     0
  3

 72
    65
 73
     2
 40
2.0
 49
1.0
 74
     0
 49
-1.0
 74
     0
  0
LTYPE
  5
14A
330
5
100
AcDbSymbolTableRecord
100
AcDbLinetypeTableRecord
  2
Center
 70
     0
  3

 72
    65
 73
     4
 40
1.5
 49
0.45
 74
     0
 49
-0.5
 74
     0
 49
0.05
 74
     0
 49
-0.5
 74
     0
  0
ENDTAB
  0
TABLE
  2
LAYER
  5
2
330
0
100
AcDbSymbolTable
 70
     7
  0
LAYER
  5
10
330
2
100
AcDbSymbolTableRecord
100
AcDbLayerTableRecord
  2
0
 70
     0
 62
     7
  6
Continuous
370
    -3
390
F
347
46
348
0
  0
LAYER
  5
72
330
2
100
AcDbSymbolTableRecord
100
AcDbLayerTableRecord
  2
AM_6
 70
     0
 62
    -2
  6
Continuous
370
    35
390
F
347
46
348
0
  0
LAYER
  5
A0
330
2
100
AcDbSymbolTableRecord
100
AcDbLayerTableRecord
  2
AM_9
 70
     0
 62
     6
  6
Dashed
370
    25
390
F
347
46
348
0
  0
LAYER
  5
148
330
2
100
AcDbSymbolTableRecord
100
AcDbLayerTableRecord
  2
AM_5
 70
     0
 62
     3
  6
Continuous
370
    25
390
F
347
46
348
0
  0
LAYER
  5
14B
330
2
100
AcDbSymbolTableRecord
100
AcDbLayerTableRecord
  2
AM_7
 70
     0
 62
     7
  6
Center
370
    25
390
F
347
46
348
0
  0
LAYER
  5
14E
330
2
100
AcDbSymbolTableRecord
100
AcDbLayerTableRecord
  2
AM_4
 70
     0
 62
     7
  6
Continuous
370
    50
390
F
347
46
348
0
  0
LAYER
  5
1C8
330
2
100
AcDbSymbolTableRecord
100
AcDbLayerTableRecord
  2
ConnectionPoints
 70
     0
 62
     7
  6
Continuous
370
    50
390
F
347
46
348
0
  0
ENDTAB
  0
TABLE
  2
STYLE
  5
3
330
0
100
AcDbSymbolTable
 70
     1
  0
STYLE
  5
11
330
3
100
AcDbSymbolTableRecord
100
AcDbTextStyleTableRecord
  2
Standard
 70
     0
 40
0.0
 41
1.0
 50
0.0
 71
     0
 42
0.2
  3
txt
  4

  0
ENDTAB
  0
TABLE
  2
VIEW
  5
6
330
0
100
AcDbSymbolTable
 70
     0
  0
ENDTAB
  0
TABLE
  2
UCS
  5
7
330
0
100
AcDbSymbolTable
 70
     0
  0
ENDTAB
  0
TABLE
  2
APPID
  5
9
330
0
100
AcDbSymbolTable
 70
     1
  0
APPID
  5
12
330
9
100
AcDbSymbolTableRecord
100
AcDbRegAppTableRecord
  2
ACAD
 70
     0
  0
ENDTAB
  0
TABLE
  2
DIMSTYLE
  5
A
330
0
100
AcDbSymbolTable
 70
     1
100
AcDbDimStyleTable
  0
DIMSTYLE
105
27
330
A
100
AcDbSymbolTableRecord
100
AcDbDimStyleTableRecord
  2
Standard
 70
     0
178
     0
340
11
  0
ENDTAB
  0
TABLE
  2
BLOCK_RECORD
  5
1
330
0
100
AcDbSymbolTable
 70
     5
  0
BLOCK_RECORD
  5
1F
330
1
100
AcDbSymbolTableRecord
100
AcDbBlockTableRecord
  2
*Model_Space
340
22
 70
     0
280
     1
281
     0
  0
BLOCK_RECORD
  5
1B
330
1
100
AcDbSymbolTableRecord
100
AcDbBlockTableRecord
  2
*Paper_Space
340
1E
 70
     0
280
     1
281
     0
  0
BLOCK_RECORD
  5
23
330
1
100
AcDbSymbolTableRecord
100
AcDbBlockTableRecord
  2
*Paper_Space0
340
26
 70
     0
280
     1
281
     0
  0
BLOCK_RECORD
  5
6E
330
1
100
AcDbSymbolTableRecord
100
AcDbBlockTableRecord
  2
1_130340_2
340
0
102
{BLKREFS
331
6F
102
}
 70
     0
280
     1
281
     0
  0
BLOCK_RECORD
  5
8E
330
1
100
AcDbSymbolTableRecord
100
AcDbBlockTableRecord
  2
2_405016_Inch_0_in_130340_2
340
0
102
{BLKREFS
331
8F
102
}
 70
     0
280
     1
281
     0
  0
BLOCK_RECORD
  5
103
330
1
100
AcDbSymbolTableRecord
100
AcDbBlockTableRecord
  2
3_130302_0_in_130340_2
340
0
102
{BLKREFS
331
104
102
}
 70
     0
280
     1
281
     0
  0
BLOCK_RECORD
  5
168
330
1
100
AcDbSymbolTableRecord
100
AcDbBlockTableRecord
  2
4_130340H_0_in_130340_2
340
0
102
{BLKREFS
331
169
102
}
 70
     0
280
     1
281
     0
  0
ENDTAB
  0
ENDSEC
  0
SECTION
  2
BLOCKS
  0
BLOCK
  5
20
330
1F
100
AcDbEntity
  8
0
100
AcDbBlockBegin
  2
*Model_Space
 70
     0
 10
0.0
 20
0.0
 30
0.0
  3
*Model_Space
  1

  0
ENDBLK
  5
21
330
1F
100
AcDbEntity
  8
0
100
AcDbBlockEnd
  0
BLOCK
  5
1C
330
1B
100
AcDbEntity
 67
     1
  8
0
100
AcDbBlockBegin
  2
*Paper_Space
 70
     0
 10
0.0
 20
0.0
 30
0.0
  3
*Paper_Space
  1

  0
ENDBLK
  5
1D
330
1B
100
AcDbEntity
 67
     1
  8
0
100
AcDbBlockEnd
  0
BLOCK
  5
24
330
23
100
AcDbEntity
  8
0
100
AcDbBlockBegin
  2
*Paper_Space0
 70
     0
 10
0.0
 20
0.0
 30
0.0
  3
*Paper_Space0
  1

  0
ENDBLK
  5
25
330
23
100
AcDbEntity
  8
0
100
AcDbBlockEnd
  0
BLOCK
  5
70
330
6E
100
AcDbEntity
  8
0
100
AcDbBlockBegin
  2
1_130340_2
 70
     2
 10
0.0
 20
0.0
 30
0.0
  3
1_130340_2
  1

  0
ATTDEF
  5
73
330
6E
100
AcDbEntity
  8
AM_6
100
AcDbText
 10
5.8965
 20
2.375
 30
0.0
 40
0.5
  1
Eccentric Collar Intermediate Duty Narrow Slot Take Up Inch Bore
100
AcDbAttributeDefinition
  3

  2
NN
 70
     8
280
     0
  0
ATTDEF
  5
74
330
6E
100
AcDbEntity
  8
AM_6
100
AcDbText
 10
5.8965
 20
1.875
 30
0.0
 40
0.5
  1
Eccentric Collar Take-Up Bearings -(Intermediate Duty) -Narrow Slot
100
AcDbAttributeDefinition
  3

  2
NT
 70
     8
280
     0
  0
ATTDEF
  5
75
330
6E
100
AcDbEntity
  8
AM_6
100
AcDbText
 10
5.8965
 20
1.375
 30
0.0
 40
0.5
  1
130340
100
AcDbAttributeDefinition
  3

  2
NB
 70
     8
280
     0
  0
ATTDEF
  5
76
330
6E
100
AcDbEntity
  8
AM_6
100
AcDbText
 10
5.8965
 20
0.875
 30
0.0
 40
0.5
  1
$PN.
100
AcDbAttributeDefinition
  3

  2
NBSYN
 70
     8
280
     0
  0
ATTDEF
  5
77
330
6E
100
AcDbEntity
  8
AM_6
100
AcDbText
 10
5.8965
 20
0.375
 30
0.0
 40
0.5
  1
130340
100
AcDbAttributeDefinition
  3

  2
LINA
 70
     8
280
     0
  0
ATTDEF
  5
78
330
6E
100
AcDbEntity
  8
AM_6
100
AcDbText
 10
5.8965
 20
-0.125
 30
0.0
 40
0.5
  1
209
100
AcDbAttributeDefinition
  3

  2
SERIES
 70
     8
280
     0
  0
ATTDEF
  5
79
330
6E
100
AcDbEntity
  8
AM_6
100
AcDbText
 10
5.8965
 20
-0.625
 30
0.0
 40
0.5
  1
1-11/16
100
AcDbAttributeDefinition
  3

  2
SS
 70
     8
280
     0
  0
ATTDEF
  5
7A
330
6E
100
AcDbEntity
  8
AM_6
100
AcDbText
 10
5.8965
 20
-1.125
 30
0.0
 40
0.5
  1
130340
100
AcDbAttributeDefinition
  3

  2
PN
 70
     8
280
     0
  0
ATTDEF
  5
7B
330
6E
100
AcDbEntity
  8
AM_6
100
AcDbText
 10
5.8965
 20
-1.625
 30
0.0
 40
0.5
  1
NSTU-SXV-111
100
AcDbAttributeDefinition
  3

  2
DESCRIPTION
 70
     8
280
     0
  0
ATTDEF
  5
7C
330
6E
100
AcDbEntity
  8
AM_6
100
AcDbText
 10
5.8965
 20
-2.125
 30
0.0
 40
0.5
  1
4.8
100
AcDbAttributeDefinition
  3

  2
W
 70
     8
280
     0
  0
ATTDEF
  5
7D
330
6E
100
AcDbEntity
  8
AM_6
100
AcDbText
 10
5.8965
 20
-2.625
 30
0.0
 40
0.5
  1
NS400
100
AcDbAttributeDefinition
  3

  2
FS
 70
     8
280
     0
  0
ATTDEF
  5
7E
330
6E
100
AcDbEntity
  8
AM_6
100
AcDbText
 10
5.8965
 20
-3.125
 30
0.0
 40
0.5
  1
1.69
100
AcDbAttributeDefinition
  3

  2
A
 70
     8
280
     0
  0
ATTDEF
  5
7F
330
6E
100
AcDbEntity
  8
AM_6
100
AcDbText
 10
5.8965
 20
-3.625
 30
0.0
 40
0.5
  1
5.44
100
AcDbAttributeDefinition
  3

  2
B
 70
     8
280
     0
  0
ATTDEF
  5
80
330
6E
100
AcDbEntity
  8
AM_6
100
AcDbText
 10
5.8965
 20
-4.125
 30
0.0
 40
0.5
  1
0.313
100
AcDbAttributeDefinition
  3

  2
C
 70
     8
280
     0
  0
ATTDEF
  5
81
330
6E
100
AcDbEntity
  8
AM_6
100
AcDbText
 10
5.8965
 20
-4.625
 30
0.0
 40
0.5
  1
3.00
100
AcDbAttributeDefinition
  3

  2
D
 70
     8
280
     0
  0
ATTDEF
  5
82
330
6E
100
AcDbEntity
  8
AM_6
100
AcDbText
 10
5.8965
 20
-5.125
 30
0.0
 40
0.5
  1
3.25
100
AcDbAttributeDefinition
  3

  2
E
 70
     8
280
     0
  0
ATTDEF
  5
83
330
6E
100
AcDbEntity
  8
AM_6
100
AcDbText
 10
5.8965
 20
-5.625
 30
0.0
 40
0.5
  1
7/8
100
AcDbAttributeDefinition
  3

  2
F
 70
     8
280
     0
  0
ATTDEF
  5
84
330
6E
100
AcDbEntity
  8
AM_6
100
AcDbText
 10
5.8965
 20
-6.125
 30
0.0
 40
0.5
  1
0.72
100
AcDbAttributeDefinition
  3

  2
G
 70
     8
280
     0
  0
ATTDEF
  5
85
330
6E
100
AcDbEntity
  8
AM_6
100
AcDbText
 10
5.8965
 20
-6.625
 30
0.0
 40
0.5
  1
1.22
100
AcDbAttributeDefinition
  3

  2
H
 70
     8
280
     0
  0
ATTDEF
  5
86
330
6E
100
AcDbEntity
  8
AM_6
100
AcDbText
 10
5.8965
 20
-7.125
 30
0.0
 40
0.5
  1
1.63
100
AcDbAttributeDefinition
  3

  2
J
 70
     8
280
     0
  0
ATTDEF
  5
87
330
6E
100
AcDbEntity
  8
AM_6
100
AcDbText
 10
5.8965
 20
-7.625
 30
0.0
 40
0.5
  1
2.50
100
AcDbAttributeDefinition
  3

  2
L
 70
     8
280
     0
  0
ATTDEF
  5
88
330
6E
100
AcDbEntity
  8
AM_6
100
AcDbText
 10
5.8965
 20
-8.125
 30
0.0
 40
0.5
  1
4.015 / 3.985
100
AcDbAttributeDefinition
  3

  2
M
 70
     8
280
     0
  0
ATTDEF
  5
89
330
6E
100
AcDbEntity
  8
AM_6
100
AcDbText
 10
5.8965
 20
-8.625
 30
0.0
 40
0.5
  1
4.75
100
AcDbAttributeDefinition
  3

  2
N
 70
     8
280
     0
  0
ATTDEF
  5
8A
330
6E
100
AcDbEntity
  8
AM_6
100
AcDbText
 10
5.8965
 20
-9.125
 30
0.0
 40
0.5
  1
0.38
100
AcDbAttributeDefinition
  3

  2
P
 70
     8
280
     0
  0
ATTDEF
  5
8B
330
6E
100
AcDbEntity
  8
AM_6
100
AcDbText
 10
5.8965
 20
-9.625
 30
0.0
 40
0.5
  1
0.43
100
AcDbAttributeDefinition
  3

  2
R
 70
     8
280
     0
  0
ATTDEF
  5
8C
330
6E
100
AcDbEntity
  8
AM_6
100
AcDbText
 10
5.8965
 20
-10.125
 30
0.0
 40
0.5
  1
1.26
100
AcDbAttributeDefinition
  3

  2
S
 70
     8
280
     0
  0
ATTDEF
  5
8D
330
6E
100
AcDbEntity
  8
AM_6
100
AcDbText
 10
5.8965
 20
-10.625
 30
0.0
 40
0.5
  1
baldor
100
AcDbAttributeDefinition
  3

  2
COMPANY
 70
     8
280
     0
  0
INSERT
  5
8F
330
6E
100
AcDbEntity
  8
0
100
AcDbBlockReference
  2
2_405016_Inch_0_in_130340_2
 10
0.0
 20
0.0
 30
0.0
  0
INSERT
  5
104
330
6E
100
AcDbEntity
  8
0
100
AcDbBlockReference
  2
3_130302_0_in_130340_2
 10
0.0
 20
0.0
 30
0.0
  0
INSERT
  5
169
330
6E
100
AcDbEntity
  8
0
100
AcDbBlockReference
  2
4_130340H_0_in_130340_2
 10
0.0
 20
0.0
 30
0.0
  0
ENDBLK
  5
71
330
6E
100
AcDbEntity
  8
0
100
AcDbBlockEnd
  0
BLOCK
  5
90
330
8E
100
AcDbEntity
  8
0
100
AcDbBlockBegin
  2
2_405016_Inch_0_in_130340_2
 70
     2
 10
0.0
 20
0.0
 30
0.0
  3
2_405016_Inch_0_in_130340_2
  1

  0
ATTDEF
  5
92
330
8E
100
AcDbEntity
  8
AM_6
100
AcDbText
 10
5.21875
 20
-0.836925698355158
 30
0.0
 40
0.5
  1
405016 -Inch
100
AcDbAttributeDefinition
  3

  2
NN
 70
     8
280
     0
  0
ATTDEF
  5
93
330
8E
100
AcDbEntity
  8
AM_6
100
AcDbText
 10
5.21875
 20
-1.336925698355158
 30
0.0
 40
0.5
  1
Grease Fitting
100
AcDbAttributeDefinition
  3

  2
NT
 70
     8
280
     0
  0
ATTDEF
  5
94
330
8E
100
AcDbEntity
  8
AM_6
100
AcDbText
 10
5.21875
 20
-1.836925698355158
 30
0.0
 40
0.5
  1
405016-Inch
100
AcDbAttributeDefinition
  3

  2
NB
 70
     8
280
     0
  0
ATTDEF
  5
95
330
8E
100
AcDbEntity
  8
AM_6
100
AcDbText
 10
5.21875
 20
-2.336925698355158
 30
0.0
 40
0.5
  1
$MN.-Inch
100
AcDbAttributeDefinition
  3

  2
NBSYN
 70
     8
280
     0
  0
ATTDEF
  5
96
330
8E
100
AcDbEntity
  8
AM_6
100
AcDbText
 10
5.21875
 20
-2.836925698355158
 30
0.0
 40
0.5
  1
405016
100
AcDbAttributeDefinition
  3

  2
LINA
 70
     8
280
     0
  0
ATTDEF
  5
97
330
8E
100
AcDbEntity
  8
AM_6
100
AcDbText
 10
5.21875
 20
-3.336925698355158
 30
0.0
 40
0.5
  1
405016
100
AcDbAttributeDefinition
  3

  2
MN
 70
     8
280
     0
  0
ATTDEF
  5
98
330
8E
100
AcDbEntity
  8
AM_6
100
AcDbText
 10
5.21875
 20
-3.836925698355158
 30
0.0
 40
0.5
  1
7/16 HEX
100
AcDbAttributeDefinition
  3

  2
H
 70
     8
280
     0
  0
ATTDEF
  5
99
330
8E
100
AcDbEntity
  8
AM_6
100
AcDbText
 10
5.21875
 20
-4.336925698355158
 30
0.0
 40
0.5
  1
0.383
100
AcDbAttributeDefinition
  3

  2
NDR
 70
     8
280
     0
  0
ATTDEF
  5
9A
330
8E
100
AcDbEntity
  8
AM_6
100
AcDbText
 10
5.21875
 20
-4.836925698355158
 30
0.0
 40
0.5
  1
0.337
100
AcDbAttributeDefinition
  3

  2
KDR
 70
     8
280
     0
  0
ATTDEF
  5
9B
330
8E
100
AcDbEntity
  8
AM_6
100
AcDbText
 10
5.21875
 20
-5.336925698355158
 30
0.0
 40
0.5
  1
0.1575
100
AcDbAttributeDefinition
  3

  2
BZE
 70
     8
280
     0
  0
ATTDEF
  5
9C
330
8E
100
AcDbEntity
  8
AM_6
100
AcDbText
 10
5.21875
 20
-5.836925698355158
 30
0.0
 40
0.5
  1
0.4375
100
AcDbAttributeDefinition
  3

  2
HEX
 70
     8
280
     0
  0
ATTDEF
  5
9D
330
8E
100
AcDbEntity
  8
AM_6
100
AcDbText
 10
5.21875
 20
-6.336925698355158
 30
0.0
 40
0.5
  1
0.281250
100
AcDbAttributeDefinition
  3

  2
HEX2
 70
     8
280
     0
  0
ATTDEF
  5
9E
330
8E
100
AcDbEntity
  8
AM_6
100
AcDbText
 10
5.21875
 20
-6.836925698355158
 30
0.0
 40
0.5
  1
baldor
100
AcDbAttributeDefinition
  3

  2
COMPANY
 70
     8
280
     0
  0
LWPOLYLINE
  5
A1
330
8E
100
AcDbEntity
  8
AM_9
100
AcDbPolyline
 90
        5
 70
     0
 43
0.0
 10
-0.1791093260592888
 20
-1.441738809059826
 10
-0.1842540823997055
 20
-1.408670119967152
 10
-0.1862220679364952
 20
-1.374312409178915
 10
-0.1844124966919382
 20
-1.338126446285356
 10
-0.1791093260592888
 20
-1.301113809059826
  0
LINE
  5
A2
330
8E
100
AcDbEntity
  8
AM_9
100
AcDbLine
 10
-0.1510741298357571
 20
-1.29457729571137
 30
0.0
 11
-0.1791093260592888
 21
-1.301113809059826
 31
0.0
  0
LWPOLYLINE
  5
A3
330
8E
100
AcDbEntity
  8
AM_9
100
AcDbPolyline
 90
        5
 70
     0
 43
0.0
 10
-0.1791093260592888
 20
-1.301113809059826
 10
-0.1988355121406939
 20
-1.269688517736611
 10
-0.2156330920108725
 20
-1.236997724328328
 10
-0.2290462109660021
 20
-1.202506153690794
 10
-0.2389369657326277
 20
-1.167169092407284
  0
LINE
  5
A4
330
8E
100
AcDbEntity
  8
AM_9
100
AcDbLine
 10
-0.2099962668917054
 20
-1.160421457656344
 30
0.0
 11
-0.2389369657326277
 21
-1.167169092407284
 31
0.0
  0
LINE
  5
A5
330
8E
100
AcDbEntity
  8
AM_9
100
AcDbLine
 10
-0.2389369657326277
 20
-1.167169092407284
 30
0.0
 11
-0.2711532636537957
 21
-1.171618123437406
 31
0.0
  0
LWPOLYLINE
  5
A6
330
8E
100
AcDbEntity
  8
AM_9
100
AcDbPolyline
 90
        3
 70
     0
 43
0.0
 10
-0.28139190003636
 20
-1.172753048956784
 10
-0.2911775952746243
 20
-1.17355559349426
 10
-0.2987675689889718
 20
-1.173850066725467
  0
LWPOLYLINE
  5
A7
330
8E
100
AcDbEntity
  8
AM_9
100
AcDbPolyline
 90
        5
 70
     0
 43
0.0
 10
-0.2389369657326277
 20
-1.448419092407284
 10
-0.2295338871417797
 20
-1.44799806213629
 10
-0.2166871171046321
 20
-1.446802555641742
 10
-0.1996402057054679
 20
-1.444676787031713
 10
-0.1791093260592888
 20
-1.441738809059826
  0
LINE
  5
A8
330
8E
100
AcDbEntity
  8
AM_9
100
AcDbLine
 10
-0.1510741298357571
 20
-1.43520229571137
 30
0.0
 11
-0.1791093260592888
 21
-1.441738809059826
 31
0.0
  0
LINE
  5
A9
330
8E
100
AcDbEntity
  8
AM_9
100
AcDbLine
 10
-0.452415808934145
 20
-1.461254016496842
 30
0.0
 11
-0.3774664534000949
 21
-1.479780662014441
 31
0.0
  0
LINE
  5
AA
330
8E
100
AcDbEntity
  8
AM_9
100
AcDbLine
 10
-0.4395859245204076
 20
-1.213349390582632
 30
0.0
 11
-0.4986131040655764
 21
-1.263113178260487
 31
0.0
  0
LWPOLYLINE
  5
AB
330
8E
100
AcDbEntity
  8
AM_9
100
AcDbPolyline
 90
        3
 70
     0
 43
0.0
 10
-0.2689146070947223
 20
-1.166889734350518
 10
-0.251275593729576
 20
-1.164238843014548
 10
-0.2360765106845275
 20
-1.162187592413267
  0
LWPOLYLINE
  5
AC
330
8E
100
AcDbEntity
  8
AM_9
100
AcDbPolyline
 90
       10
 70
     0
 43
0.0
 10
-0.3779138634547413
 20
-1.218090998240747
 10
-0.3849505143313089
 20
-1.212598642068221
 10
-0.3924326682787986
 20
-1.208231363579286
 10
-0.3998759660338481
 20
-1.205294721572932
 10
-0.4073292234697973
 20
-1.203691770680495
 10
-0.4147665285790333
 20
-1.203403744756147
 10
-0.4227384955532559
 20
-1.204600597167087
 10
-0.4300654340467434
 20
-1.207223579345455
 10
-0.4366292979389736
 20
-1.211058829040131
 10
-0.439878768941186
 20
-1.213598376563112
  0
LWPOLYLINE
  5
AD
330
8E
100
AcDbEntity
  8
AM_9
100
AcDbPolyline
 90
       10
 70
     0
 43
0.0
 10
-0.3780742996504965
 20
-1.479626012565931
 10
-0.3723852415099294
 20
-1.48073102814499
 10
-0.3649478983024653
 20
-1.481019926729126
 10
-0.3569755781807072
 20
-1.479823978759267
 10
-0.3496482174322991
 20
-1.477201777770512
 10
-0.3430838890177135
 20
-1.47336718953966
 10
-0.3372797043637202
 20
-1.468468333537972
 10
-0.332165186193673
 20
-1.462530870731118
 10
-0.3276666787116179
 20
-1.455450060712062
 10
-0.324210343686658
 20
-1.448154077746832
  0
LWPOLYLINE
  5
AE
330
8E
100
AcDbEntity
  8
AM_9
100
AcDbPolyline
 90
        3
 70
     0
 43
0.0
 10
-0.0000000000000001
 20
-0.9607787001516928
 10
0.0544416102741494
 20
-0.9913260426622648
 10
0.1093749999999998
 20
-1.02
  0
LWPOLYLINE
  5
AF
330
8E
100
AcDbEntity
  8
AM_9
100
AcDbPolyline
 90
        3
 70
     0
 43
0.0
 10
-0.109375
 20
-1.02
 10
-0.0546875000000001
 20
-0.9914595596074827
 10
-0.0000000000000001
 20
-0.9607787001516928
  0
LWPOLYLINE
  5
B0
330
8E
100
AcDbEntity
  8
AM_9
100
AcDbPolyline
 90
        6
 70
     0
 43
0.0
 10
-0.1510741298357571
 20
-1.43520229571137
 10
-0.1564222384464443
 20
-1.435146258798399
 10
-0.1639940363880805
 20
-1.435585121917566
 10
-0.1744063212866123
 20
-1.436646289109958
 10
-0.1876759562813858
 20
-1.438363121169831
 10
-0.2099962668917054
 20
-1.441671457656344
  0
LINE
  5
B1
330
8E
100
AcDbEntity
  8
AM_9
100
AcDbLine
 10
-0.1423588828767167
 20
-1.348627920353429
 30
0.0
 11
-0.1419585098156051
 21
-1.362769408754154
 31
0.0
  0
LWPOLYLINE
  5
B2
330
8E
100
AcDbEntity
  8
AM_9
100
AcDbPolyline
 90
        3
 70
     0
 43
0.0
 10
-0.1510741298357571
 20
-1.29457729571137
 10
-0.1458778226760521
 20
-1.318510622598914
 10
-0.1430324646566425
 20
-1.339644086290079
  0
LINE
  5
B3
330
8E
100
AcDbEntity
  8
AM_9
100
AcDbLine
 10
-0.1778186149260164
 20
-1.211723224566971
 30
0.0
 11
-0.1765789831125443
 21
-1.214205855542361
 31
0.0
  0
LWPOLYLINE
  5
B4
330
8E
100
AcDbEntity
  8
AM_9
100
AcDbPolyline
 90
        3
 70
     0
 43
0.0
 10
-0.1826997545840937
 20
-1.202483856779908
 10
-0.1805491420332304
 20
-1.206456884363538
 10
-0.1778186149260164
 20
-1.211723224566971
  0
LWPOLYLINE
  5
B5
330
8E
100
AcDbEntity
  8
AM_9
100
AcDbPolyline
 90
        3
 70
     0
 43
0.0
 10
-0.2099962668917054
 20
-1.160421457656344
 10
-0.1943573015029059
 20
-1.182992854288234
 10
-0.1826997545840937
 20
-1.202483856779908
  0
LWPOLYLINE
  5
B6
330
8E
100
AcDbEntity
  8
AM_9
100
AcDbPolyline
 90
        4
 70
     0
 43
0.0
 10
-0.2258378743019628
 20
-1.161052666893888
 10
-0.2189176876709015
 20
-1.160510369847584
 10
-0.2138633349839128
 20
-1.1603309118622
 10
-0.2099962668917054
 20
-1.160421457656344
  0
LWPOLYLINE
  5
B7
330
8E
100
AcDbEntity
  8
AM_9
100
AcDbPolyline
 90
        4
 70
     0
 43
0.0
 10
-0.1428441108995778
 20
-1.384177045495781
 10
-0.1441228263802215
 20
-1.396595324422914
 10
-0.1470795994472238
 20
-1.415838298137269
 10
-0.1510741298357571
 20
-1.43520229571137
  0
LWPOLYLINE
  5
B8
330
8E
100
AcDbEntity
  8
AM_9
100
AcDbPolyline
 90
        4
 70
     0
 43
0.0
 10
-0.1672352847522709
 20
-1.235361807886341
 10
-0.1598729403210871
 20
-1.256768689712644
 10
-0.1549033058439656
 20
-1.275607171961479
 10
-0.1510741298357571
 20
-1.29457729571137
  0
LINE
  5
B9
330
8E
100
AcDbEntity
  8
AM_9
100
AcDbLine
 10
-0.1765789831125443
 20
-1.214205855542361
 30
0.0
 11
-0.1719793010732603
 21
-1.22401172896151
 31
0.0
  0
ELLIPSE
  5
BA
330
8E
100
AcDbEntity
  8
AM_9
100
AcDbEllipse
 10
-0.2013892028241885
 20
-1.298270244837341
 30
0.0
 11
-0.03193085011438272
 21
0.1369518580960947
 31
0.0
210
0.0
220
0.0
230
1.0
 40
0.3659981507706674
 41
2.150416404658207
 42
6.139946939636884
  0
LINE
  5
BB
330
8E
100
AcDbEntity
  8
AM_9
100
AcDbLine
 10
-0.3001604473578121
 20
-1.307227923681266
 30
0.0
 11
-0.2987675689889718
 21
-1.314475066725467
 31
0.0
  0
LWPOLYLINE
  5
BC
330
8E
100
AcDbEntity
  8
AM_9
100
AcDbPolyline
 90
        3
 70
     0
 43
0.0
 10
-0.3055458577949631
 20
-1.262852494962034
 10
-0.3030753670497809
 20
-1.288922855181632
 10
-0.3001604473578121
 20
-1.307227923681266
  0
LWPOLYLINE
  5
BD
330
8E
100
AcDbEntity
  8
AM_9
100
AcDbPolyline
 90
        4
 70
     0
 43
0.0
 10
-0.2602304684431209
 20
-1.218067949924796
 10
-0.2616913382589204
 20
-1.2034112730526
 10
-0.2647402074337707
 20
-1.18495477011276
 10
-0.2689146070947223
 20
-1.166889734350518
  0
LINE
  5
BE
330
8E
100
AcDbEntity
  8
AM_9
100
AcDbLine
 10
-0.2689146070947223
 20
-1.166889734350518
 30
0.0
 11
-0.2987675689889718
 21
-1.173850066725467
 31
0.0
  0
LWPOLYLINE
  5
BF
330
8E
100
AcDbEntity
  8
AM_9
100
AcDbPolyline
 90
        3
 70
     0
 43
0.0
 10
-0.3001593436617023
 20
-1.181740185070576
 10
-0.3030606061861223
 20
-1.201294122408012
 10
-0.3055458577949631
 20
-1.22863340646832
  0
LINE
  5
C0
330
8E
100
AcDbEntity
  8
AM_9
100
AcDbLine
 10
-0.2987675689889718
 20
-1.173850066725467
 30
0.0
 11
-0.3001593436617023
 21
-1.181740185070576
 31
0.0
  0
LINE
  5
C1
330
8E
100
AcDbEntity
  8
AM_9
100
AcDbLine
 10
-0.2711532636537957
 20
-1.171618123437406
 30
0.0
 11
-0.28139190003636
 21
-1.172753048956784
 31
0.0
  0
ELLIPSE
  5
C2
330
8E
100
AcDbEntity
  8
AM_9
100
AcDbEllipse
 10
-0.2467045921760209
 20
-1.308835701380858
 30
0.0
 11
-0.03193085011438269
 21
0.1369518580960944
 31
0.0
210
0.0
220
0.0
230
1.0
 40
0.3659981507706656
 41
2.240821611063328
 42
6.139946939636892
  0
ELLIPSE
  5
C3
330
8E
100
AcDbEntity
  8
AM_9
100
AcDbEllipse
 10
-0.2467045921760195
 20
-1.308835701380858
 30
0.0
 11
-0.03193085011438369
 21
0.1369518580960978
 31
0.0
210
0.0
220
0.0
230
1.0
 40
0.3659981507706652
 41
1.144545279139747
 42
1.951156734850488
  0
LWPOLYLINE
  5
C4
330
8E
100
AcDbEntity
  8
AM_9
100
AcDbPolyline
 90
        3
 70
     0
 43
0.0
 10
-0.3055458577949631
 20
-1.22863340646832
 10
-0.3064767622622302
 20
-1.245869806845232
 10
-0.3055458577949631
 20
-1.262852494962034
  0
ELLIPSE
  5
C5
330
8E
100
AcDbEntity
  8
AM_9
100
AcDbEllipse
 10
-0.2467045921760141
 20
-1.30883570138086
 30
0.0
 11
-0.03193085011438772
 21
0.136951858096098
 31
0.0
210
0.0
220
0.0
230
1.0
 40
0.36599815077069
 41
0.0560213022650364
 42
0.8626327579757571
  0
LWPOLYLINE
  5
C6
330
8E
100
AcDbEntity
  8
AM_9
100
AcDbPolyline
 90
       17
 70
     0
 43
0.0
 10
-0.3250061401863995
 20
-1.450025863947091
 10
-0.3249030720157192
 20
-1.449806241752956
 10
-0.3240527107049962
 20
-1.44826134055275
 10
-0.3221710953644707
 20
-1.445483100109545
 10
-0.3190127133595281
 20
-1.441732248167035
 10
-0.3143406198654047
 20
-1.43734179559393
 10
-0.3079993426156593
 20
-1.432764212076189
 10
-0.3000576737881346
 20
-1.428583645232264
 10
-0.2909404673235955
 20
-1.4254062197455
 10
-0.2813678731923174
 20
-1.423637174774302
 10
-0.2721363913791798
 20
-1.4233387210524
 10
-0.2639401597688871
 20
-1.424252086871604
 10
-0.2572167244568151
 20
-1.425922378029615
 10
-0.2521414663423958
 20
-1.427850941178372
 10
-0.2486555089171422
 20
-1.429618872072339
 10
-0.2465878638596326
 20
-1.43092325384183
 10
-0.2457577337726412
 20
-1.431544558941247
  0
LWPOLYLINE
  5
C7
330
8E
100
AcDbEntity
  8
AM_9
100
AcDbPolyline
 90
        3
 70
     0
 43
0.0
 10
-0.245724988250897
 20
-1.431571960916105
 10
-0.2460125155890046
 20
-1.431306729259585
 10
-0.2470317041283609
 20
-1.43026678032834
  0
LWPOLYLINE
  5
C8
330
8E
100
AcDbEntity
  8
AM_9
100
AcDbPolyline
 90
        3
 70
     0
 43
0.0
 10
-0.3007172894175952
 20
-1.200119112373727
 10
-0.3002435805226397
 20
-1.198673517766256
 10
-0.3001080482840255
 20
-1.198322263717043
  0
LWPOLYLINE
  5
C9
330
8E
100
AcDbEntity
  8
AM_9
100
AcDbPolyline
 90
       17
 70
     0
 43
0.0
 10
-0.3001429524956376
 20
-1.198400201823466
 10
-0.3007633954376503
 20
-1.199586769315908
 10
-0.3023512484947932
 20
-1.202064931157806
 10
-0.3051506996013823
 20
-1.205589120398791
 10
-0.3094053593112564
 20
-1.209849923416345
 10
-0.3153032770025456
 20
-1.214430232417688
 10
-0.3228506697274668
 20
-1.21877620625059
 10
-0.3317208136377522
 20
-1.222268166068818
 10
-0.3412510985650102
 20
-1.224427211208044
 10
-0.3506544801191264
 20
-1.225097988488032
 10
-0.3591733271366589
 20
-1.224462918525631
 10
-0.3663103143355195
 20
-1.222941665579815
 10
-0.3718188616887199
 20
-1.221035508795601
 10
-0.3757063750929908
 20
-1.219191859698194
 10
-0.378126931475457
 20
-1.217742406180278
 10
-0.3792648044541188
 20
-1.216924144627205
 10
-0.3793739426381599
 20
-1.216835946682685
  0
LINE
  5
CA
330
8E
100
AcDbEntity
  8
AM_9
100
AcDbLine
 10
-0.1771207715546619
 20
-1.179661692407327
 30
0.0
 11
-0.2263662233581053
 21
-1.191143458059951
 31
0.0
  0
LINE
  5
CB
330
8E
100
AcDbEntity
  8
AM_9
100
AcDbLine
 10
-0.176412182290271
 20
-1.40539703161473
 30
0.0
 11
-0.1343592486638227
 21
-1.395592229115782
 31
0.0
  0
LWPOLYLINE
  5
CC
330
8E
100
AcDbEntity
  8
AM_9
100
AcDbPolyline
 90
       20
 70
     0
 43
0.0
 10
-0.1343659249938089
 20
-1.39559378540361
 10
-0.1293028157827817
 20
-1.392990967168628
 10
-0.1247141396218193
 20
-1.387417196040507
 10
-0.1208880884981782
 20
-1.378797239076489
 10
-0.1181545989145989
 20
-1.367880991490922
 10
-0.1164278875396129
 20
-1.354336212655024
 10
-0.1158549073091555
 20
-1.339330271317741
 10
-0.1164156227038168
 20
-1.322408286749774
 10
-0.1180609686233502
 20
-1.305004703027538
 10
-0.1208367673933812
 20
-1.286607393511457
 10
-0.1245107513506023
 20
-1.268747455120003
 10
-0.1291842652280563
 20
-1.250922481606624
 10
-0.134472979061152
 20
-1.2345960564441
 10
-0.140518627090196
 20
-1.219328872764631
 10
-0.1468270783017121
 20
-1.206370478489194
 10
-0.1535654953592165
 20
-1.195381372029879
 10
-0.1601799433259584
 20
-1.187268942862664
 10
-0.1668493358980662
 20
-1.181820477436415
 10
-0.1731116383367606
 20
-1.179480939756073
 10
-0.1771125901748264
 20
-1.179659785344162
  0
LINE
  5
CD
330
8E
100
AcDbEntity
  8
AM_9
100
AcDbLine
 10
-0.1771125901748264
 20
-1.179659785344162
 30
0.0
 11
-0.1790373738502116
 21
-1.180304054033761
 31
0.0
  0
LWPOLYLINE
  5
CE
330
8E
100
AcDbEntity
  8
AM_9
100
AcDbPolyline
 90
        3
 70
     0
 43
0.0
 10
-0.2689146070947223
 20
-1.307514734350518
 10
-0.2634308483997529
 20
-1.279890958955647
 10
-0.2602304684431306
 20
-1.252287038418517
  0
LWPOLYLINE
  5
CF
330
8E
100
AcDbEntity
  8
AM_9
100
AcDbPolyline
 90
        5
 70
     0
 43
0.0
 10
-0.179037373850178
 20
-1.334695945966246
 10
-0.1733931390117468
 20
-1.350209976006311
 10
-0.1670729780242511
 20
-1.36435797563067
 10
-0.1606047421316796
 20
-1.375955943415793
 10
-0.1545926232091585
 20
-1.38439013350583
  0
ARC
  5
D0
330
8E
100
AcDbEntity
  8
AM_9
100
AcDbCircle
 10
0.0
 20
-1.2575
 30
0.0
 40
0.1999999999999998
100
AcDbArc
 50
219.3457104762762
 51
0.0000008537736463
  0
LWPOLYLINE
  5
D1
330
8E
100
AcDbEntity
  8
AM_9
100
AcDbPolyline
 90
        6
 70
     0
 43
0.0
 10
-0.1545926232091585
 20
-1.38439013350583
 10
-0.1538031670974777
 20
-1.385334802540261
 10
-0.1472336073736394
 20
-1.391712011960484
 10
-0.1407130262602577
 20
-1.395261709638181
 10
-0.1347930597680668
 20
-1.395684256104104
 10
-0.1343659249938089
 20
-1.39559378540361
  0
LINE
  5
D2
330
8E
100
AcDbEntity
  8
AM_9
100
AcDbLine
 10
-0.2360765106845275
 20
-1.162187592413267
 30
0.0
 11
-0.2258378743019628
 21
-1.161052666893888
 31
0.0
  0
ELLIPSE
  5
D3
330
8E
100
AcDbEntity
  8
AM_9
100
AcDbEllipse
 10
-0.2013892028241867
 20
-1.298270244837345
 30
0.0
 11
-0.03193085011438468
 21
0.1369518580960984
 31
0.0
210
0.0
220
0.0
230
1.0
 40
0.3659981507705684
 41
0.056021302265008
 42
0.8626327579757226
  0
LINE
  5
D4
330
8E
100
AcDbEntity
  8
AM_9
100
AcDbLine
 10
-0.2602304684431306
 20
-1.252287038418517
 30
0.0
 11
-0.2602304684431209
 21
-1.218067949924796
 31
0.0
  0
ELLIPSE
  5
D5
330
8E
100
AcDbEntity
  8
AM_9
100
AcDbEllipse
 10
-0.2013892028241903
 20
-1.298270244837341
 30
0.0
 11
-0.03193085011438183
 21
0.1369518580960912
 31
0.0
210
0.0
220
0.0
230
1.0
 40
0.3659981507706604
 41
1.14454527913973
 42
1.951156734850507
  0
LWPOLYLINE
  5
D6
330
8E
100
AcDbEntity
  8
AM_9
100
AcDbPolyline
 90
        3
 70
     0
 43
0.0
 10
-0.2099962668917054
 20
-1.441671457656344
 10
-0.2163479371246913
 20
-1.412339189975666
 10
-0.2258378743019629
 20
-1.383057477599441
  0
LINE
  5
D7
330
8E
100
AcDbEntity
  8
AM_9
100
AcDbLine
 10
-0.2258378743019629
 20
-1.383057477599441
 30
0.0
 11
-0.2360765106845278
 21
-1.359965725501071
 31
0.0
  0
LWPOLYLINE
  5
D8
330
8E
100
AcDbEntity
  8
AM_9
100
AcDbPolyline
 90
        4
 70
     0
 43
0.0
 10
-0.2360765106845278
 20
-1.359965725501071
 10
-0.2462091938631852
 20
-1.341421611213502
 10
-0.2570505402207574
 20
-1.324284690571682
 10
-0.2689146070947223
 20
-1.307514734350518
  0
LINE
  5
D9
330
8E
100
AcDbEntity
  8
AM_9
100
AcDbLine
 10
-0.2689146070947223
 20
-1.307514734350518
 30
0.0
 11
-0.2987675689889718
 21
-1.314475066725467
 31
0.0
  0
LWPOLYLINE
  5
DA
330
8E
100
AcDbEntity
  8
AM_9
100
AcDbPolyline
 90
        3
 70
     0
 43
0.0
 10
-0.2987675689889718
 20
-1.314475066725467
 10
-0.2912216284034025
 20
-1.342576183495197
 10
-0.2813919000363599
 20
-1.370531182044589
  0
LINE
  5
DB
330
8E
100
AcDbEntity
  8
AM_9
100
AcDbLine
 10
-0.2813919000363599
 20
-1.370531182044589
 30
0.0
 11
-0.2711532636537957
 21
-1.393622934142958
 31
0.0
  0
LWPOLYLINE
  5
DC
330
8E
100
AcDbEntity
  8
AM_9
100
AcDbPolyline
 90
        3
 70
     0
 43
0.0
 10
-0.2711532636537957
 20
-1.393622934142958
 10
-0.2561815527589921
 20
-1.421327936735335
 10
-0.2389369657326277
 20
-1.448419092407284
  0
LINE
  5
DD
330
8E
100
AcDbEntity
  8
AM_9
100
AcDbLine
 10
-0.2099962668917054
 20
-1.441671457656344
 30
0.0
 11
-0.2389369657326277
 21
-1.448419092407284
 31
0.0
  0
LWPOLYLINE
  5
DE
330
8E
100
AcDbEntity
  8
AM_9
100
AcDbPolyline
 90
        3
 70
     0
 43
0.0
 10
0.1093749999999999
 20
-0.9699999999999999
 10
0.0546874999999999
 20
-0.9438529403925173
 10
-0.0000000000000001
 20
-0.9198462998483071
  0
LWPOLYLINE
  5
DF
330
8E
100
AcDbEntity
  8
AM_9
100
AcDbPolyline
 90
        3
 70
     0
 43
0.0
 10
-0.0000000000000001
 20
-0.9198462998483071
 10
-0.0544416102741497
 20
-0.9437405676118847
 10
-0.1093750000000001
 20
-0.9699999999999999
  0
LWPOLYLINE
  5
E0
330
8E
100
AcDbEntity
  8
AM_9
100
AcDbPolyline
 90
        3
 70
     0
 43
0.0
 10
-0.2187500000000001
 20
-1.070153700151693
 10
-0.1643083897258505
 20
-1.046259432388115
 10
-0.109375
 20
-1.02
  0
LWPOLYLINE
  5
E1
330
8E
100
AcDbEntity
  8
AM_9
100
AcDbPolyline
 90
        3
 70
     0
 43
0.0
 10
0.1093749999999998
 20
-1.02
 10
0.1640624999999999
 20
-1.046147059607482
 10
0.2187499999999999
 20
-1.070153700151693
  0
LINE
  5
E2
330
8E
100
AcDbEntity
  8
AM_9
100
AcDbLine
 10
-0.0000000000000001
 20
-0.9607787001516928
 30
0.0
 11
-0.0000000000000001
 21
-0.9198462998483071
 31
0.0
  0
LWPOLYLINE
  5
E3
330
8E
100
AcDbEntity
  8
AM_9
100
AcDbPolyline
 90
        3
 70
     0
 43
0.0
 10
-0.1093750000000001
 20
-0.9699999999999999
 10
-0.1640625000000001
 20
-0.9985404403925172
 10
-0.2187500000000001
 20
-1.029221299848307
  0
LWPOLYLINE
  5
E4
330
8E
100
AcDbEntity
  8
AM_9
100
AcDbPolyline
 90
        3
 70
     0
 43
0.0
 10
0.2187499999999999
 20
-1.029221299848307
 10
0.1643083897258503
 20
-0.9986739573377351
 10
0.1093749999999999
 20
-0.9699999999999999
  0
ELLIPSE
  5
E5
330
8E
100
AcDbEntity
  8
AM_9
100
AcDbEllipse
 10
-0.0000000000000001
 20
-1.2575
 30
0.0
 11
-0.2
 21
2.449293598294707E-17
 31
0.0
210
0.0
220
0.0
230
1.0
 40
0.8660254037844395
 41
0.4619460205669643
 42
5.82123928661262
  0
LWPOLYLINE
  5
E6
330
8E
100
AcDbEntity
  8
AM_9
100
AcDbPolyline
 90
        7
 70
     0
 43
0.0
 10
-0.1790373738501785
 20
-1.334695945966246
 10
-0.1842628795203941
 20
-1.318701216295605
 10
-0.1891729979031394
 20
-1.302644458256412
 10
-0.1936098952159724
 20
-1.285877825105296
 10
-0.1971856748420371
 20
-1.268429808725254
 10
-0.1994144431868155
 20
-1.250957633207593
 10
-0.1999999999699529
 20
-1.23725755900097
  0
LINE
  5
E7
330
8E
100
AcDbEntity
  8
AM_9
100
AcDbLine
 10
0.1999999999999998
 20
-1.2575
 30
0.0
 11
0.1999999999999999
 21
-1.1840625
 31
0.0
  0
LWPOLYLINE
  5
E8
330
8E
100
AcDbEntity
  8
AM_9
100
AcDbPolyline
 90
        8
 70
     0
 43
0.0
 10
-0.1999999999699529
 20
-1.23725755900097
 10
-0.1999786710855128
 20
-1.234747492794572
 10
-0.1988321115509053
 20
-1.219477046299115
 10
-0.196164942998426
 20
-1.206547828583382
 10
-0.1920694300574958
 20
-1.195495849846331
 10
-0.1870948030566195
 20
-1.187226804053058
 10
-0.181500594761393
 20
-1.181703487144152
 10
-0.1790373738501785
 20
-1.180304054033754
  0
LINE
  5
E9
330
8E
100
AcDbEntity
  8
AM_9
100
AcDbLine
 10
-0.2187500000000001
 20
-1.288903700151693
 30
0.0
 11
-0.2187500000000001
 21
-1.029221299848307
 31
0.0
  0
LWPOLYLINE
  5
EA
330
8E
100
AcDbEntity
  8
AM_9
100
AcDbPolyline
 90
        3
 70
     0
 43
0.0
 10
-0.109375
 20
-1.348125
 10
-0.1640625000000001
 20
-1.319584559607483
 10
-0.2187500000000001
 20
-1.288903700151693
  0
LWPOLYLINE
  5
EB
330
8E
100
AcDbEntity
  8
AM_9
100
AcDbPolyline
 90
        3
 70
     0
 43
0.0
 10
-0.0000000000000001
 20
-1.398278700151693
 10
-0.0544416102741497
 20
-1.374384432388115
 10
-0.109375
 20
-1.348125
  0
LWPOLYLINE
  5
EC
330
8E
100
AcDbEntity
  8
AM_9
100
AcDbPolyline
 90
        3
 70
     0
 43
0.0
 10
-0.2187500000000001
 20
-1.247971299848307
 10
-0.1643083897258505
 20
-1.271865567611885
 10
-0.1093750000000001
 20
-1.298125
  0
LWPOLYLINE
  5
ED
330
8E
100
AcDbEntity
  8
AM_9
100
AcDbPolyline
 90
        3
 70
     0
 43
0.0
 10
-0.1093750000000001
 20
-1.298125
 10
-0.0546875000000001
 20
-1.326665440392517
 10
-0.0000000000000001
 20
-1.357346299848307
  0
LINE
  5
EE
330
8E
100
AcDbEntity
  8
AM_9
100
AcDbLine
 10
-0.0000000000000001
 20
-1.398278700151693
 30
0.0
 11
-0.0000000000000001
 21
-1.357346299848307
 31
0.0
  0
LWPOLYLINE
  5
EF
330
8E
100
AcDbEntity
  8
AM_9
100
AcDbPolyline
 90
        3
 70
     0
 43
0.0
 10
0.1093749999999998
 20
-1.348125
 10
0.0546874999999999
 20
-1.374272059607482
 10
-0.0000000000000001
 20
-1.398278700151693
  0
LWPOLYLINE
  5
F0
330
8E
100
AcDbEntity
  8
AM_9
100
AcDbPolyline
 90
        3
 70
     0
 43
0.0
 10
0.2187499999999999
 20
-1.288903700151693
 10
0.1643083897258503
 20
-1.319451042662265
 10
0.1093749999999998
 20
-1.348125
  0
LINE
  5
F1
330
8E
100
AcDbEntity
  8
AM_9
100
AcDbLine
 10
0.2187499999999999
 20
-1.288903700151693
 30
0.0
 11
0.2187499999999999
 21
-1.029221299848307
 31
0.0
  0
LWPOLYLINE
  5
F2
330
8E
100
AcDbEntity
  8
AM_9
100
AcDbPolyline
 90
        3
 70
     0
 43
0.0
 10
0.1093749999999999
 20
-1.298125
 10
0.1640624999999999
 20
-1.271977940392517
 10
0.2187499999999999
 20
-1.247971299848307
  0
LWPOLYLINE
  5
F3
330
8E
100
AcDbEntity
  8
AM_9
100
AcDbPolyline
 90
        3
 70
     0
 43
0.0
 10
-0.0000000000000001
 20
-1.357346299848307
 10
0.0544416102741495
 20
-1.326798957337735
 10
0.1093749999999999
 20
-1.298125
  0
LINE
  5
F4
330
8E
100
AcDbEntity
  8
AM_9
100
AcDbLine
 10
0.1999999999999998
 20
-1.1340625
 30
0.0
 11
0.1999999999999998
 21
-1.095
 31
0.0
  0
LINE
  5
F5
330
8E
100
AcDbEntity
  8
AM_9
100
AcDbLine
 10
-0.1851454569549802
 20
-0.9888099125707269
 30
0.0
 11
-0.1912304659644924
 21
-1.086022462287446
 31
0.0
  0
LINE
  5
F6
330
8E
100
AcDbEntity
  8
AM_9
100
AcDbLine
 10
0.1912304659644922
 20
-1.086022462287446
 30
0.0
 11
0.18514545695498
 21
-0.9888099125707269
 31
0.0
  0
ELLIPSE
  5
F7
330
8E
100
AcDbEntity
  8
AM_9
100
AcDbEllipse
 10
-0.0000000000000001
 20
-0.985625
 30
0.0
 11
0.1616637258772237
 21
0.0
 31
0.0
210
0.0
220
0.0
230
1.0
 40
0.8660254037844384
 41
0.0
 42
6.283185307179586
  0
ELLIPSE
  5
F8
330
8E
100
AcDbEntity
  8
AM_9
100
AcDbEllipse
 10
-0.4687500000000015
 20
-1.360606438444093
 30
0.0
 11
-0.02349716402074742
 21
0.1007796617096768
 31
0.0
210
0.0
220
0.0
230
1.0
 40
0.3659981507706702
 41
0.0
 42
6.283185307179586
  0
ELLIPSE
  5
F9
330
8E
100
AcDbEntity
  8
AM_9
100
AcDbEllipse
 10
-0.3994303217889762
 20
-1.344444290038774
 30
0.0
 11
-0.03159560311146641
 21
0.1355139790604261
 31
0.0
210
0.0
220
0.0
230
1.0
 40
0.3659981507706658
 41
0.0
 42
6.283185307179586
  0
ELLIPSE
  5
FA
330
8E
100
AcDbEntity
  8
AM_9
100
AcDbEllipse
 10
-0.3729962569746648
 20
-1.338281086609234
 30
0.0
 11
-0.03024351534849234
 21
0.1297148559307584
 31
0.0
210
0.0
220
0.0
230
1.0
 40
0.365998150770671
 41
0.0
 42
6.283185307179586
  0
ELLIPSE
  5
FB
330
8E
100
AcDbEntity
  8
AM_9
100
AcDbEllipse
 10
-0.201389202824188
 20
-1.298270244837341
 30
0.0
 11
-0.02497702053391717
 21
0.1071267867773897
 31
0.0
210
0.0
220
0.0
230
1.0
 40
0.3659981507706674
 41
0.0
 42
6.283185307179586
  0
ELLIPSE
  5
FC
330
8E
100
AcDbEntity
  8
AM_9
100
AcDbEllipse
 10
0.0000000000000005
 20
-1.1840625
 30
0.0
 11
-0.2000000000000005
 21
2.980232263262474E-9
 31
0.0
210
0.0
220
0.0
230
1.0
 40
0.8660254037844374
 41
0.0
 42
6.283185307179586
  0
ELLIPSE
  5
FD
330
8E
100
AcDbEntity
  8
AM_9
100
AcDbEllipse
 10
-0.0000000000000001
 20
-1.1840625
 30
0.0
 11
-0.2187499999999997
 21
2.678914873134831E-17
 31
0.0
210
0.0
220
0.0
230
1.0
 40
0.8660254037844418
 41
0.0
 42
6.283185307179586
  0
ELLIPSE
  5
FE
330
8E
100
AcDbEntity
  8
AM_9
100
AcDbEllipse
 10
-0.0000000000000005
 20
-1.1340625
 30
0.0
 11
-0.2187500000000004
 21
2.678914873134840E-17
 31
0.0
210
0.0
220
0.0
230
1.0
 40
0.8660254037844395
 41
0.0
 42
6.283185307179586
  0
ELLIPSE
  5
FF
330
8E
100
AcDbEntity
  8
AM_9
100
AcDbEllipse
 10
-0.0000000000000005
 20
-1.1340625
 30
0.0
 11
-0.1999999999999994
 21
2.980232263262459E-9
 31
0.0
210
0.0
220
0.0
230
1.0
 40
0.866025403784439
 41
0.0
 42
6.283185307179586
  0
ELLIPSE
  5
100
330
8E
100
AcDbEntity
  8
AM_9
100
AcDbEllipse
 10
-0.0000000000000001
 20
-1.095
 30
0.0
 11
-0.2000000000000001
 21
2.449293598294708E-17
 31
0.0
210
0.0
220
0.0
230
1.0
 40
0.8660254037844384
 41
0.0
 42
6.283185307179586
  0
ELLIPSE
  5
101
330
8E
100
AcDbEntity
  8
AM_9
100
AcDbEllipse
 10
-0.0000000000000001
 20
-1.095
 30
0.0
 11
-0.1915112338502294
 21
2.853739789488285E-9
 31
0.0
210
0.0
220
0.0
230
1.0
 40
0.8660254037844378
 41
0.0
 42
6.283185307179586
  0
ELLIPSE
  5
102
330
8E
100
AcDbEntity
  8
AM_9
100
AcDbEllipse
 10
-0.0000000000000001
 20
-0.9975017824238808
 30
0.0
 11
-0.1854172907249859
 21
2.270706915929282E-17
 31
0.0
210
0.0
220
0.0
230
1.0
 40
0.8660254037844397
 41
0.0
 42
6.283185307179586
  0
ENDBLK
  5
91
330
8E
100
AcDbEntity
  8
0
100
AcDbBlockEnd
  0
BLOCK
  5
105
330
103
100
AcDbEntity
  8
0
100
AcDbBlockBegin
  2
3_130302_0_in_130340_2
 70
     2
 10
0.0
 20
0.0
 30
0.0
  3
3_130302_0_in_130340_2
  1

  0
ATTDEF
  5
107
330
103
100
AcDbEntity
  8
AM_6
100
AcDbText
 10
5.435
 20
1.672639608421231
 30
0.0
 40
0.5
  1
Eccentric Collar Intermediate Duty Insert Inch Bore
100
AcDbAttributeDefinition
  3

  2
NN
 70
     8
280
     0
  0
ATTDEF
  5
108
330
103
100
AcDbEntity
  8
AM_6
100
AcDbText
 10
5.435
 20
1.172639608421231
 30
0.0
 40
0.5
  1
Eccentric Collar Bearing Inserts -(Intermediate Duty)
100
AcDbAttributeDefinition
  3

  2
NT
 70
     8
280
     0
  0
ATTDEF
  5
109
330
103
100
AcDbEntity
  8
AM_6
100
AcDbText
 10
5.435
 20
0.6726396084212312
 30
0.0
 40
0.5
  1
130302
100
AcDbAttributeDefinition
  3

  2
NB
 70
     8
280
     0
  0
ATTDEF
  5
10A
330
103
100
AcDbEntity
  8
AM_6
100
AcDbText
 10
5.435
 20
0.1726396084212312
 30
0.0
 40
0.5
  1
$PN.
100
AcDbAttributeDefinition
  3

  2
NBSYN
 70
     8
280
     0
  0
ATTDEF
  5
10B
330
103
100
AcDbEntity
  8
AM_6
100
AcDbText
 10
5.435
 20
-0.3273603915787688
 30
0.0
 40
0.5
  1
130302
100
AcDbAttributeDefinition
  3

  2
LINA
 70
     8
280
     0
  0
ATTDEF
  5
10C
330
103
100
AcDbEntity
  8
AM_6
100
AcDbText
 10
5.435
 20
-0.8273603915787688
 30
0.0
 40
0.5
  1
209
100
AcDbAttributeDefinition
  3

  2
SERIES
 70
     8
280
     0
  0
ATTDEF
  5
10D
330
103
100
AcDbEntity
  8
AM_6
100
AcDbText
 10
5.435
 20
-1.327360391578769
 30
0.0
 40
0.5
  1
1-11/16
100
AcDbAttributeDefinition
  3

  2
SS
 70
     8
280
     0
  0
ATTDEF
  5
10E
330
103
100
AcDbEntity
  8
AM_6
100
AcDbText
 10
5.435
 20
-1.827360391578769
 30
0.0
 40
0.5
  1
130302
100
AcDbAttributeDefinition
  3

  2
PN
 70
     8
280
     0
  0
ATTDEF
  5
10F
330
103
100
AcDbEntity
  8
AM_6
100
AcDbText
 10
5.435
 20
-2.327360391578769
 30
0.0
 40
0.5
  1
INS-SXV-111
100
AcDbAttributeDefinition
  3

  2
DESCRIPTION
 70
     8
280
     0
  0
ATTDEF
  5
110
330
103
100
AcDbEntity
  8
AM_6
100
AcDbText
 10
5.435
 20
-2.827360391578769
 30
0.0
 40
0.5
  1
1.9
100
AcDbAttributeDefinition
  3

  2
WEIGHT
 70
     8
280
     0
  0
ATTDEF
  5
111
330
103
100
AcDbEntity
  8
AM_6
100
AcDbText
 10
5.435
 20
-3.327360391578769
 30
0.0
 40
0.5
  1
1.69
100
AcDbAttributeDefinition
  3

  2
A
 70
     8
280
     0
  0
ATTDEF
  5
112
330
103
100
AcDbEntity
  8
AM_6
100
AcDbText
 10
5.435
 20
-3.827360391578769
 30
0.0
 40
0.5
  1
0.87
100
AcDbAttributeDefinition
  3

  2
C
 70
     8
280
     0
  0
ATTDEF
  5
113
330
103
100
AcDbEntity
  8
AM_6
100
AcDbText
 10
5.435
 20
-4.327360391578769
 30
0.0
 40
0.5
  1
3.3465
100
AcDbAttributeDefinition
  3

  2
D
 70
     8
280
     0
  0
ATTDEF
  5
114
330
103
100
AcDbEntity
  8
AM_6
100
AcDbText
 10
5.435
 20
-4.827360391578769
 30
0.0
 40
0.5
  1
0.25
100
AcDbAttributeDefinition
  3

  2
J
 70
     8
280
     0
  0
ATTDEF
  5
115
330
103
100
AcDbEntity
  8
AM_6
100
AcDbText
 10
5.435
 20
-5.327360391578769
 30
0.0
 40
0.5
  1
2.50
100
AcDbAttributeDefinition
  3

  2
L
 70
     8
280
     0
  0
ATTDEF
  5
116
330
103
100
AcDbEntity
  8
AM_6
100
AcDbText
 10
5.435
 20
-5.827360391578769
 30
0.0
 40
0.5
  1
5/16 - 24
100
AcDbAttributeDefinition
  3

  2
N
 70
     8
280
     0
  0
ATTDEF
  5
117
330
103
100
AcDbEntity
  8
AM_6
100
AcDbText
 10
5.435
 20
-6.327360391578769
 30
0.0
 40
0.5
  1
0.43
100
AcDbAttributeDefinition
  3

  2
W
 70
     8
280
     0
  0
ATTDEF
  5
118
330
103
100
AcDbEntity
  8
AM_6
100
AcDbText
 10
5.435
 20
-6.827360391578769
 30
0.0
 40
0.5
  1
1.26
100
AcDbAttributeDefinition
  3

  2
Y
 70
     8
280
     0
  0
ATTDEF
  5
119
330
103
100
AcDbEntity
  8
AM_6
100
AcDbText
 10
5.435
 20
-7.327360391578769
 30
0.0
 40
0.5
  1
2.22
100
AcDbAttributeDefinition
  3

  2
Z
 70
     8
280
     0
  0
ATTDEF
  5
11A
330
103
100
AcDbEntity
  8
AM_6
100
AcDbText
 10
5.435
 20
-7.827360391578769
 30
0.0
 40
0.5
  1
baldor
100
AcDbAttributeDefinition
  3

  2
COMPANY
 70
     8
280
     0
  0
LINE
  5
11B
330
103
100
AcDbEntity
  8
AM_9
100
AcDbLine
 10
0.171875
 20
-1.66438798497287
 30
0.0
 11
0.171875
 21
-1.6795
 31
0.0
  0
LINE
  5
11C
330
103
100
AcDbEntity
  8
AM_9
100
AcDbLine
 10
0.328125
 20
-1.6795
 30
0.0
 11
0.328125
 21
-1.640801681974185
 31
0.0
  0
LINE
  5
11D
330
103
100
AcDbEntity
  8
AM_9
100
AcDbLine
 10
0.328125
 20
-1.6795
 30
0.0
 11
0.1718749999999996
 21
-1.6795
 31
0.0
  0
ARC
  5
11E
330
103
100
AcDbEntity
  8
AM_9
100
AcDbCircle
 10
0.2499999999999998
 20
-1.6795
 30
0.0
 40
0.0781250000000002
100
AcDbArc
 50
180.0
 51
0.0
  0
LINE
  5
11F
330
103
100
AcDbEntity
  8
AM_9
100
AcDbLine
 10
-0.7743749999999998
 20
-0.84375
 30
0.0
 11
0.4299999999999999
 21
-0.84375
 31
0.0
  0
LINE
  5
120
330
103
100
AcDbEntity
  8
AM_9
100
AcDbLine
 10
0.4299999999999999
 20
0.84375
 30
0.0
 11
-0.7743749999999998
 21
0.84375
 31
0.0
  0
LINE
  5
121
330
103
100
AcDbEntity
  8
AM_9
100
AcDbLine
 10
-1.236135146134954
 20
-0.84375
 30
0.0
 11
-0.808125
 21
-0.84375
 31
0.0
  0
LINE
  5
122
330
103
100
AcDbEntity
  8
AM_9
100
AcDbLine
 10
-0.808125
 20
0.84375
 30
0.0
 11
-1.236135146134954
 21
0.84375
 31
0.0
  0
LINE
  5
123
330
103
100
AcDbEntity
  8
AM_9
100
AcDbLine
 10
-0.7743749999999998
 20
0.84375
 30
0.0
 11
-0.7743749999999998
 21
-0.84375
 31
0.0
  0
LINE
  5
124
330
103
100
AcDbEntity
  8
AM_9
100
AcDbLine
 10
-0.7743749999999998
 20
0.84375
 30
0.0
 11
-0.7912499999999999
 21
0.860625
 31
0.0
  0
LINE
  5
125
330
103
100
AcDbEntity
  8
AM_9
100
AcDbLine
 10
-0.7912499999999999
 20
-0.860625
 30
0.0
 11
-0.7743749999999998
 21
-0.84375
 31
0.0
  0
LINE
  5
126
330
103
100
AcDbEntity
  8
AM_9
100
AcDbLine
 10
-0.7912499999999999
 20
0.860625
 30
0.0
 11
-0.7912499999999999
 21
-0.860625
 31
0.0
  0
LINE
  5
127
330
103
100
AcDbEntity
  8
AM_9
100
AcDbLine
 10
-0.808125
 20
0.84375
 30
0.0
 11
-0.808125
 21
-0.84375
 31
0.0
  0
LINE
  5
128
330
103
100
AcDbEntity
  8
AM_9
100
AcDbLine
 10
-0.808125
 20
-0.84375
 30
0.0
 11
-0.7912499999999999
 21
-0.860625
 31
0.0
  0
LINE
  5
129
330
103
100
AcDbEntity
  8
AM_9
100
AcDbLine
 10
-0.7912499999999999
 20
0.860625
 30
0.0
 11
-0.808125
 21
0.84375
 31
0.0
  0
LINE
  5
12A
330
103
100
AcDbEntity
  8
AM_9
100
AcDbLine
 10
-1.236135146134954
 20
0.84375
 30
0.0
 11
-1.236135146134954
 21
-0.84375
 31
0.0
  0
LINE
  5
12B
330
103
100
AcDbEntity
  8
AM_9
100
AcDbLine
 10
-1.236135146134954
 20
0.84375
 30
0.0
 11
-1.26
 21
0.867614853865046
 31
0.0
  0
LINE
  5
12C
330
103
100
AcDbEntity
  8
AM_9
100
AcDbLine
 10
-1.26
 20
-0.867614853865046
 30
0.0
 11
-1.236135146134954
 21
-0.84375
 31
0.0
  0
LINE
  5
12D
330
103
100
AcDbEntity
  8
AM_9
100
AcDbLine
 10
-0.66625
 20
0.4693995499571764
 30
0.0
 11
-0.66625
 21
-0.4693995499571764
 31
0.0
  0
LINE
  5
12E
330
103
100
AcDbEntity
  8
AM_9
100
AcDbLine
 10
-0.6259999999999998
 20
-1.11
 30
0.0
 11
-0.4349999999999999
 21
-1.11
 31
0.0
  0
LINE
  5
12F
330
103
100
AcDbEntity
  8
AM_9
100
AcDbLine
 10
-0.4349999999999999
 20
1.11
 30
0.0
 11
-0.6259999999999998
 21
1.11
 31
0.0
  0
LINE
  5
130
330
103
100
AcDbEntity
  8
AM_9
100
AcDbLine
 10
0.43
 20
1.11
 30
0.0
 11
0.43
 21
-1.11
 31
0.0
  0
LINE
  5
131
330
103
100
AcDbEntity
  8
AM_9
100
AcDbLine
 10
0.43
 20
-1.11
 30
0.0
 11
0.435
 21
-1.11
 31
0.0
  0
LINE
  5
132
330
103
100
AcDbEntity
  8
AM_9
100
AcDbLine
 10
0.435
 20
1.11
 30
0.0
 11
0.43
 21
1.11
 31
0.0
  0
LINE
  5
133
330
103
100
AcDbEntity
  8
AM_9
100
AcDbLine
 10
-0.6974999999999999
 20
0.4215670172107871
 30
0.0
 11
-0.6974999999999999
 21
-0.4215670172107871
 31
0.0
  0
LINE
  5
134
330
103
100
AcDbEntity
  8
AM_9
100
AcDbLine
 10
-0.765
 20
0.2810693864511032
 30
0.0
 11
-0.765
 21
-0.2810693864511032
 31
0.0
  0
LINE
  5
135
330
103
100
AcDbEntity
  8
AM_9
100
AcDbLine
 10
-0.3
 20
-1.593571428571429
 30
0.0
 11
-0.2
 21
-1.593571428571429
 31
0.0
  0
LINE
  5
136
330
103
100
AcDbEntity
  8
AM_9
100
AcDbLine
 10
-0.2
 20
1.593571428571429
 30
0.0
 11
-0.3
 21
1.593571428571429
 31
0.0
  0
LINE
  5
137
330
103
100
AcDbEntity
  8
AM_9
100
AcDbLine
 10
0.435
 20
1.589641056182181
 30
0.0
 11
0.435
 21
-1.589641056181137
 31
0.0
  0
ARC
  5
138
330
103
100
AcDbEntity
  8
AM_9
100
AcDbCircle
 10
0.4012499999999998
 20
-1.589641056182181
 30
0.0
 40
0.0337500000000003
100
AcDbArc
 50
284.1664321454066
 51
0.0
  0
ARC
  5
139
330
103
100
AcDbEntity
  8
AM_9
100
AcDbCircle
 10
0.4012499999999998
 20
1.589641056182181
 30
0.0
 40
0.0337500000000002
100
AcDbArc
 50
0.0
 51
75.83356785459337
  0
LINE
  5
13A
330
103
100
AcDbEntity
  8
AM_9
100
AcDbLine
 10
-0.4350000000000001
 20
1.589641056182181
 30
0.0
 11
-0.4350000000000001
 21
-1.589641056181137
 31
0.0
  0
ARC
  5
13B
330
103
100
AcDbEntity
  8
AM_9
100
AcDbCircle
 10
-0.4012499999999999
 20
-1.589641056182181
 30
0.0
 40
0.0337500000000001
100
AcDbArc
 50
180.0
 51
255.8335752704334
  0
ARC
  5
13C
330
103
100
AcDbEntity
  8
AM_9
100
AcDbCircle
 10
-0.4012500000000006
 20
1.589641056182181
 30
0.0
 40
0.0337499999999995
100
AcDbArc
 50
104.1664247295658
 51
180.0
  0
LINE
  5
13D
330
103
100
AcDbEntity
  8
AM_9
100
AcDbLine
 10
-0.4095099496797802
 20
1.622364682681814
 30
0.0
 11
-0.4095099496797802
 21
-1.622364682681878
 31
0.0
  0
LINE
  5
13E
330
103
100
AcDbEntity
  8
AM_9
100
AcDbLine
 10
-0.3
 20
1.646136556455752
 30
0.0
 11
-0.3
 21
-1.646136556455815
 31
0.0
  0
ARC
  5
13F
330
103
100
AcDbEntity
  8
AM_9
100
AcDbCircle
 10
-0.0000000000236417
 20
-0.0000000001089766
 30
0.0
 40
1.673249999888613
100
AcDbArc
 50
255.8335752703052
 51
259.6714882664373
  0
ARC
  5
140
330
103
100
AcDbEntity
  8
AM_9
100
AcDbCircle
 10
-0.0000000000236351
 20
0.000000000108946
 30
0.0
 40
1.673249999888645
100
AcDbArc
 50
100.3285117335628
 51
104.1664247296947
  0
LINE
  5
141
330
103
100
AcDbEntity
  8
AM_9
100
AcDbLine
 10
-0.1999999999999998
 20
1.661254213689163
 30
0.0
 11
-0.1999999999999998
 21
-1.661254213689161
 31
0.0
  0
LINE
  5
142
330
103
100
AcDbEntity
  8
AM_9
100
AcDbLine
 10
0.409509953915226
 20
1.622364681612722
 30
0.0
 11
0.409509953915226
 21
-1.62236468161272
 31
0.0
  0
LINE
  5
143
330
103
100
AcDbEntity
  8
AM_9
100
AcDbLine
 10
0.3056870208917571
 20
-1.644177160901192
 30
0.0
 11
0.2981082710312382
 21
-1.645329119464967
 31
0.0
  0
ARC
  5
144
330
103
100
AcDbEntity
  8
AM_9
100
AcDbCircle
 10
-0.0000000000000095
 20
0.000000000000226
 30
0.0
 40
1.673250000000221
100
AcDbArc
 50
263.1351448840011
 51
275.8984124361175
  0
ARC
  5
145
330
103
100
AcDbEntity
  8
AM_9
100
AcDbCircle
 10
-0.0000000000007956
 20
0.0000000000037719
 30
0.0
 40
1.67325000000385
100
AcDbArc
 50
281.2999220319876
 51
284.1664248791417
  0
ARC
  5
146
330
103
100
AcDbEntity
  8
AM_9
100
AcDbCircle
 10
-0.0000000000000083
 20
-0.0000000000001401
 30
0.0
 40
1.673250000000136
100
AcDbArc
 50
75.83357512085404
 51
96.86485511599933
  0
LINE
  5
147
330
103
100
AcDbEntity
  8
AM_9
100
AcDbLine
 10
0.171875000059064
 20
-1.664399154904091
 30
0.0
 11
0.3281249999998743
 21
-1.64076188000424
 31
0.0
  0
ARC
  5
149
330
103
100
AcDbEntity
  8
AM_5
100
AcDbCircle
 10
-1.025625
 20
0.0
 30
0.0
 40
0.15625
100
AcDbArc
 50
75.00000000000001
 51
14.99999999999997
  0
LINE
  5
14C
330
103
100
AcDbEntity
  8
AM_7
100
AcDbLine
 10
0.25
 20
-1.07761875
 30
0.0
 11
0.25
 21
-1.79000625
 31
0.0
  0
LINE
  5
14D
330
103
100
AcDbEntity
  8
AM_7
100
AcDbLine
 10
0.1679687499999996
 20
-1.6795
 30
0.0
 11
0.33203125
 21
-1.6795
 31
0.0
  0
LINE
  5
14F
330
103
100
AcDbEntity
  8
AM_4
100
AcDbLine
 10
-0.6974999999999999
 20
-1.057142857142857
 30
0.0
 11
-0.66625
 21
-1.057142857142857
 31
0.0
  0
LINE
  5
150
330
103
100
AcDbEntity
  8
AM_4
100
AcDbLine
 10
-0.66625
 20
1.057142857142857
 30
0.0
 11
-0.6974999999999999
 21
1.057142857142857
 31
0.0
  0
LINE
  5
151
330
103
100
AcDbEntity
  8
AM_4
100
AcDbLine
 10
-0.66625
 20
-0.4693995499571764
 30
0.0
 11
-0.66625
 21
-1.11
 31
0.0
  0
LINE
  5
152
330
103
100
AcDbEntity
  8
AM_4
100
AcDbLine
 10
-0.66625
 20
1.11
 30
0.0
 11
-0.66625
 21
0.4693995499571764
 31
0.0
  0
LINE
  5
153
330
103
100
AcDbEntity
  8
AM_4
100
AcDbLine
 10
-0.66625
 20
-1.11
 30
0.0
 11
-0.6259999999999998
 21
-1.11
 31
0.0
  0
LINE
  5
154
330
103
100
AcDbEntity
  8
AM_4
100
AcDbLine
 10
-0.6259999999999998
 20
1.11
 30
0.0
 11
-0.66625
 21
1.11
 31
0.0
  0
LINE
  5
155
330
103
100
AcDbEntity
  8
AM_4
100
AcDbLine
 10
-0.6974999999999999
 20
-0.4215670172107871
 30
0.0
 11
-0.6974999999999999
 21
-1.182499999997315
 31
0.0
  0
LINE
  5
156
330
103
100
AcDbEntity
  8
AM_4
100
AcDbLine
 10
-0.6974999999999999
 20
1.1825
 30
0.0
 11
-0.6974999999999999
 21
0.4215670172107871
 31
0.0
  0
ARC
  5
157
330
103
100
AcDbEntity
  8
AM_4
100
AcDbCircle
 10
-0.7650000000000007
 20
-1.182499999999999
 30
0.0
 40
0.0675000000000008
100
AcDbArc
 50
270.0
 51
0.0
  0
ARC
  5
158
330
103
100
AcDbEntity
  8
AM_4
100
AcDbCircle
 10
-0.7650000000000007
 20
1.182499999999999
 30
0.0
 40
0.0675000000000008
100
AcDbArc
 50
0.0
 51
90.0
  0
LINE
  5
159
330
103
100
AcDbEntity
  8
AM_4
100
AcDbLine
 10
-1.26
 20
1.1825
 30
0.0
 11
-1.26
 21
-1.182499999997315
 31
0.0
  0
ARC
  5
15A
330
103
100
AcDbEntity
  8
AM_4
100
AcDbCircle
 10
-1.1925
 20
-1.1825
 30
0.0
 40
0.0675000000000003
100
AcDbArc
 50
180.0
 51
270.0
  0
ARC
  5
15B
330
103
100
AcDbEntity
  8
AM_4
100
AcDbCircle
 10
-1.1925
 20
1.1825
 30
0.0
 40
0.0675000000000003
100
AcDbArc
 50
90.0
 51
180.0
  0
LINE
  5
15C
330
103
100
AcDbEntity
  8
AM_4
100
AcDbLine
 10
-1.1925
 20
1.25
 30
0.0
 11
-1.1925
 21
-1.25
 31
0.0
  0
LWPOLYLINE
  5
15D
330
103
100
AcDbEntity
  8
AM_4
100
AcDbPolyline
 90
       10
 70
     0
 43
0.0
 10
-1.123343344473382
 20
0.0993455970508073
 10
-1.105289615488853
 20
0.1143158942177225
 10
-1.084988089463264
 20
0.1260731775968879
 10
-1.062975648100037
 20
0.1342363080626467
 10
-1.039900495751479
 20
0.1386168558330822
 10
-1.016507793346194
 20
0.1390372307655932
 10
-0.9933731311049931
 20
0.1355663654922536
 10
-0.9712162861961015
 20
0.1282743059244581
 10
-0.9505829342864162
 20
0.1174185286632318
 10
-0.9279066555266174
 20
0.0993455970508073
  0
LWPOLYLINE
  5
15E
330
103
100
AcDbEntity
  8
AM_4
100
AcDbPolyline
 90
       10
 70
     0
 43
0.0
 10
-0.9279066555266174
 20
-0.0993455970508073
 10
-0.9459603845111471
 20
-0.1143158942177225
 10
-0.9662619105367352
 20
-0.1260731775968879
 10
-0.9882743518999627
 20
-0.1342363080626467
 10
-1.01134950424852
 20
-0.1386168558330822
 10
-1.034742206653806
 20
-0.1390372307655932
 10
-1.057876868895006
 20
-0.1355663654922536
 10
-1.080033713803898
 20
-0.1282743059244581
 10
-1.100667065713584
 20
-0.1174185286632318
 10
-1.123343344473382
 20
-0.0993455970508073
  0
LINE
  5
15F
330
103
100
AcDbEntity
  8
AM_4
100
AcDbLine
 10
-0.765
 20
-0.2810693864511032
 30
0.0
 11
-0.7650000000000001
 21
-1.25
 31
0.0
  0
LINE
  5
160
330
103
100
AcDbEntity
  8
AM_4
100
AcDbLine
 10
-0.7650000000000001
 20
1.25
 30
0.0
 11
-0.765
 21
0.2810693864511032
 31
0.0
  0
LINE
  5
161
330
103
100
AcDbEntity
  8
AM_4
100
AcDbLine
 10
-1.1925
 20
-1.25
 30
0.0
 11
-0.7650000000000001
 21
-1.25
 31
0.0
  0
LINE
  5
162
330
103
100
AcDbEntity
  8
AM_4
100
AcDbLine
 10
-0.7650000000000001
 20
1.25
 30
0.0
 11
-1.1925
 21
1.25
 31
0.0
  0
ARC
  5
163
330
103
100
AcDbEntity
  8
AM_4
100
AcDbCircle
 10
-1.025625000000011
 20
-0.0000000000000049
 30
0.0
 40
0.1393500000000115
100
AcDbArc
 50
314.5268917025059
 51
45.47310829749464
  0
LWPOLYLINE
  5
164
330
103
100
AcDbEntity
  8
AM_4
100
AcDbPolyline
 90
       12
 70
     0
 43
0.0
 10
-0.9279066555266174
 20
0.0993455970508073
 10
-0.9160410146837078
 20
0.0875034713182003
 10
-0.9056905118546902
 20
0.0743164650588219
 10
-0.8941167428813852
 20
0.0538962338739737
 10
-0.8862983562934328
 20
0.0317592918255586
 10
-0.8827061085294584
 20
0.0097315451765682
 10
-0.8829384802391382
 20
-0.012587789751289
 10
-0.8868569834813458
 20
-0.0338313329428912
 10
-0.8942085724782965
 20
-0.0541385332294574
 10
-0.9049058299152594
 20
-0.0731455606822355
 10
-0.9184968147183068
 20
-0.0902011392472876
 10
-0.9279066555266163
 20
-0.099345597050816
  0
ARC
  5
165
330
103
100
AcDbEntity
  8
AM_4
100
AcDbCircle
 10
-1.025625
 20
0.0
 30
0.0
 40
0.1393499999999999
100
AcDbArc
 50
134.5268917025033
 51
225.4731082974966
  0
LWPOLYLINE
  5
166
330
103
100
AcDbEntity
  8
AM_4
100
AcDbPolyline
 90
       12
 70
     0
 43
0.0
 10
-1.123343344473382
 20
-0.0993455970508073
 10
-1.135208985316292
 20
-0.0875034713182003
 10
-1.145559488145309
 20
-0.0743164650588219
 10
-1.157133257118614
 20
-0.0538962338739737
 10
-1.164951643706567
 20
-0.0317592918255586
 10
-1.168543891470541
 20
-0.0097315451765682
 10
-1.168311519760861
 20
0.012587789751289
 10
-1.164393016518654
 20
0.0338313329428912
 10
-1.157041427521703
 20
0.0541385332294574
 10
-1.14634417008474
 20
0.0731455606822355
 10
-1.132753185281693
 20
0.0902011392472876
 10
-1.123343344473382
 20
0.0993455970508073
  0
ARC
  5
167
330
103
100
AcDbEntity
  8
AM_5
100
AcDbCircle
 10
-1.025625
 20
0.0
 30
0.0
 40
0.1562499999999999
100
AcDbArc
 50
345.0
 51
285.0
  0
ENDBLK
  5
106
330
103
100
AcDbEntity
  8
0
100
AcDbBlockEnd
  0
BLOCK
  5
16A
330
168
100
AcDbEntity
  8
0
100
AcDbBlockBegin
  2
4_130340H_0_in_130340_2
 70
     2
 10
0.0
 20
0.0
 30
0.0
  3
4_130340H_0_in_130340_2
  1

  0
ATTDEF
  5
16C
330
168
100
AcDbEntity
  8
AM_6
100
AcDbText
 10
5.8965
 20
2.375
 30
0.0
 40
0.5
  1
NSTU-SXV -I-Housing
100
AcDbAttributeDefinition
  3

  2
NN
 70
     8
280
     0
  0
ATTDEF
  5
16D
330
168
100
AcDbEntity
  8
AM_6
100
AcDbText
 10
5.8965
 20
1.875
 30
0.0
 40
0.5
  1
Eccentric Collar Take-Up Bearings -(Intermediate Duty) -Narrow Slot
100
AcDbAttributeDefinition
  3

  2
NT
 70
     8
280
     0
  0
ATTDEF
  5
16E
330
168
100
AcDbEntity
  8
AM_6
100
AcDbText
 10
5.8965
 20
1.375
 30
0.0
 40
0.5
  1
130340H
100
AcDbAttributeDefinition
  3

  2
NB
 70
     8
280
     0
  0
ATTDEF
  5
16F
330
168
100
AcDbEntity
  8
AM_6
100
AcDbText
 10
5.8965
 20
0.875
 30
0.0
 40
0.5
  1
$PN.H
100
AcDbAttributeDefinition
  3

  2
NBSYN
 70
     8
280
     0
  0
ATTDEF
  5
170
330
168
100
AcDbEntity
  8
AM_6
100
AcDbText
 10
5.8965
 20
0.375
 30
0.0
 40
0.5
  1
130340
100
AcDbAttributeDefinition
  3

  2
LINA
 70
     8
280
     0
  0
ATTDEF
  5
171
330
168
100
AcDbEntity
  8
AM_6
100
AcDbText
 10
5.8965
 20
-0.125
 30
0.0
 40
0.5
  1
209
100
AcDbAttributeDefinition
  3

  2
SERIES
 70
     8
280
     0
  0
ATTDEF
  5
172
330
168
100
AcDbEntity
  8
AM_6
100
AcDbText
 10
5.8965
 20
-0.625
 30
0.0
 40
0.5
  1
1-11/16
100
AcDbAttributeDefinition
  3

  2
SS
 70
     8
280
     0
  0
ATTDEF
  5
173
330
168
100
AcDbEntity
  8
AM_6
100
AcDbText
 10
5.8965
 20
-1.125
 30
0.0
 40
0.5
  1
130340
100
AcDbAttributeDefinition
  3

  2
PN
 70
     8
280
     0
  0
ATTDEF
  5
174
330
168
100
AcDbEntity
  8
AM_6
100
AcDbText
 10
5.8965
 20
-1.625
 30
0.0
 40
0.5
  1
NSTU-SXV-111
100
AcDbAttributeDefinition
  3

  2
DESCRIPTION
 70
     8
280
     0
  0
ATTDEF
  5
175
330
168
100
AcDbEntity
  8
AM_6
100
AcDbText
 10
5.8965
 20
-2.125
 30
0.0
 40
0.5
  1
4.8
100
AcDbAttributeDefinition
  3

  2
W
 70
     8
280
     0
  0
ATTDEF
  5
176
330
168
100
AcDbEntity
  8
AM_6
100
AcDbText
 10
5.8965
 20
-2.625
 30
0.0
 40
0.5
  1
NS400
100
AcDbAttributeDefinition
  3

  2
FS
 70
     8
280
     0
  0
ATTDEF
  5
177
330
168
100
AcDbEntity
  8
AM_6
100
AcDbText
 10
5.8965
 20
-3.125
 30
0.0
 40
0.5
  1
1.69
100
AcDbAttributeDefinition
  3

  2
A
 70
     8
280
     0
  0
ATTDEF
  5
178
330
168
100
AcDbEntity
  8
AM_6
100
AcDbText
 10
5.8965
 20
-3.625
 30
0.0
 40
0.5
  1
5.44
100
AcDbAttributeDefinition
  3

  2
B
 70
     8
280
     0
  0
ATTDEF
  5
179
330
168
100
AcDbEntity
  8
AM_6
100
AcDbText
 10
5.8965
 20
-4.125
 30
0.0
 40
0.5
  1
0.313
100
AcDbAttributeDefinition
  3

  2
C
 70
     8
280
     0
  0
ATTDEF
  5
17A
330
168
100
AcDbEntity
  8
AM_6
100
AcDbText
 10
5.8965
 20
-4.625
 30
0.0
 40
0.5
  1
3.00
100
AcDbAttributeDefinition
  3

  2
D
 70
     8
280
     0
  0
ATTDEF
  5
17B
330
168
100
AcDbEntity
  8
AM_6
100
AcDbText
 10
5.8965
 20
-5.125
 30
0.0
 40
0.5
  1
3.25
100
AcDbAttributeDefinition
  3

  2
E
 70
     8
280
     0
  0
ATTDEF
  5
17C
330
168
100
AcDbEntity
  8
AM_6
100
AcDbText
 10
5.8965
 20
-5.625
 30
0.0
 40
0.5
  1
7/8
100
AcDbAttributeDefinition
  3

  2
F
 70
     8
280
     0
  0
ATTDEF
  5
17D
330
168
100
AcDbEntity
  8
AM_6
100
AcDbText
 10
5.8965
 20
-6.125
 30
0.0
 40
0.5
  1
0.72
100
AcDbAttributeDefinition
  3

  2
G
 70
     8
280
     0
  0
ATTDEF
  5
17E
330
168
100
AcDbEntity
  8
AM_6
100
AcDbText
 10
5.8965
 20
-6.625
 30
0.0
 40
0.5
  1
1.22
100
AcDbAttributeDefinition
  3

  2
H
 70
     8
280
     0
  0
ATTDEF
  5
17F
330
168
100
AcDbEntity
  8
AM_6
100
AcDbText
 10
5.8965
 20
-7.125
 30
0.0
 40
0.5
  1
1.63
100
AcDbAttributeDefinition
  3

  2
J
 70
     8
280
     0
  0
ATTDEF
  5
180
330
168
100
AcDbEntity
  8
AM_6
100
AcDbText
 10
5.8965
 20
-7.625
 30
0.0
 40
0.5
  1
2.50
100
AcDbAttributeDefinition
  3

  2
L
 70
     8
280
     0
  0
ATTDEF
  5
181
330
168
100
AcDbEntity
  8
AM_6
100
AcDbText
 10
5.8965
 20
-8.125
 30
0.0
 40
0.5
  1
4.015 / 3.985
100
AcDbAttributeDefinition
  3

  2
M
 70
     8
280
     0
  0
ATTDEF
  5
182
330
168
100
AcDbEntity
  8
AM_6
100
AcDbText
 10
5.8965
 20
-8.625
 30
0.0
 40
0.5
  1
4.75
100
AcDbAttributeDefinition
  3

  2
N
 70
     8
280
     0
  0
ATTDEF
  5
183
330
168
100
AcDbEntity
  8
AM_6
100
AcDbText
 10
5.8965
 20
-9.125
 30
0.0
 40
0.5
  1
0.38
100
AcDbAttributeDefinition
  3

  2
P
 70
     8
280
     0
  0
ATTDEF
  5
184
330
168
100
AcDbEntity
  8
AM_6
100
AcDbText
 10
5.8965
 20
-9.625
 30
0.0
 40
0.5
  1
0.43
100
AcDbAttributeDefinition
  3

  2
R
 70
     8
280
     0
  0
ATTDEF
  5
185
330
168
100
AcDbEntity
  8
AM_6
100
AcDbText
 10
5.8965
 20
-10.125
 30
0.0
 40
0.5
  1
1.26
100
AcDbAttributeDefinition
  3

  2
S
 70
     8
280
     0
  0
ATTDEF
  5
186
330
168
100
AcDbEntity
  8
AM_6
100
AcDbText
 10
5.8965
 20
-10.625
 30
0.0
 40
0.5
  1
4450
100
AcDbAttributeDefinition
  3

  2
CAPS
 70
     8
280
     0
  0
ATTDEF
  5
187
330
168
100
AcDbEntity
  8
AM_6
100
AcDbText
 10
5.8965
 20
-11.125
 30
0.0
 40
0.5
  1
7891
100
AcDbAttributeDefinition
  3

  2
CAPD
 70
     8
280
     0
  0
ATTDEF
  5
188
330
168
100
AcDbEntity
  8
AM_6
100
AcDbText
 10
5.8965
 20
-11.625
 30
0.0
 40
0.5
  1
baldor
100
AcDbAttributeDefinition
  3

  2
COMPANY
 70
     8
280
     0
  0
LINE
  5
189
330
168
100
AcDbEntity
  8
AM_9
100
AcDbLine
 10
-0.313
 20
-1.665184491467837
 30
0.0
 11
0.626
 21
-1.665184491467837
 31
0.0
  0
LINE
  5
18A
330
168
100
AcDbEntity
  8
AM_9
100
AcDbLine
 10
-0.3130000000000001
 20
-1.757625
 30
0.0
 11
0.626
 21
-1.757625
 31
0.0
  0
LINE
  5
18B
330
168
100
AcDbEntity
  8
AM_9
100
AcDbLine
 10
-0.3130000000000001
 20
-1.757625
 30
0.0
 11
-0.313
 21
-1.575867796644122
 31
0.0
  0
LINE
  5
18C
330
168
100
AcDbEntity
  8
AM_9
100
AcDbLine
 10
-0.313
 20
1.575867796644122
 30
0.0
 11
-0.3130000000000001
 21
1.757625
 31
0.0
  0
LINE
  5
18D
330
168
100
AcDbEntity
  8
AM_9
100
AcDbLine
 10
-0.313
 20
1.665184491467837
 30
0.0
 11
0.626
 21
1.665184491467837
 31
0.0
  0
LINE
  5
18E
330
168
100
AcDbEntity
  8
AM_9
100
AcDbLine
 10
0.626
 20
1.757625
 30
0.0
 11
-0.3130000000000001
 21
1.757625
 31
0.0
  0
LINE
  5
18F
330
168
100
AcDbEntity
  8
AM_9
100
AcDbLine
 10
-0.313
 20
1.575867796644122
 30
0.0
 11
0.626
 21
1.575867796644122
 31
0.0
  0
LINE
  5
190
330
168
100
AcDbEntity
  8
AM_9
100
AcDbLine
 10
0.626
 20
-1.575867796644122
 30
0.0
 11
-0.313
 21
-1.575867796644122
 31
0.0
  0
LINE
  5
191
330
168
100
AcDbEntity
  8
AM_9
100
AcDbLine
 10
-0.626
 20
-1.67325
 30
0.0
 11
-0.3130000000000001
 21
-1.67325
 31
0.0
  0
LINE
  5
192
330
168
100
AcDbEntity
  8
AM_9
100
AcDbLine
 10
-0.3130000000000001
 20
1.67325
 30
0.0
 11
-0.626
 21
1.67325
 31
0.0
  0
LINE
  5
193
330
168
100
AcDbEntity
  8
AM_9
100
AcDbLine
 10
-0.6259999999999998
 20
-0.5218706736347616
 30
0.0
 11
-0.6259999999999998
 21
0.5218706736347615
 31
0.0
  0
LINE
  5
194
330
168
100
AcDbEntity
  8
AM_9
100
AcDbLine
 10
0.6260000000000001
 20
0.5218706736347616
 30
0.0
 11
0.6260000000000001
 21
-0.5218706736347615
 31
0.0
  0
LINE
  5
195
330
168
100
AcDbEntity
  8
AM_9
100
AcDbLine
 10
0.3923736194461882
 20
-0.7143304156779954
 30
0.0
 11
0.3923736194461882
 21
0.7143304156779954
 31
0.0
  0
LINE
  5
196
330
168
100
AcDbEntity
  8
AM_9
100
AcDbLine
 10
-0.3923736194461882
 20
-0.7143304156779954
 30
0.0
 11
-0.3923736194461882
 21
0.7143304156779954
 31
0.0
  0
LINE
  5
197
330
168
100
AcDbEntity
  8
AM_9
100
AcDbLine
 10
-0.7927006851445461
 20
-0.19
 30
0.0
 11
-0.3944182410204063
 21
-0.19
 31
0.0
  0
LINE
  5
198
330
168
100
AcDbEntity
  8
AM_9
100
AcDbLine
 10
-0.3942856976681975
 20
0.19
 30
0.0
 11
-0.792640077503367
 21
0.19
 31
0.0
  0
LINE
  5
199
330
168
100
AcDbEntity
  8
AM_9
100
AcDbLine
 10
0.3942856976681977
 20
-0.19
 30
0.0
 11
0.7926400775033671
 21
-0.19
 31
0.0
  0
LINE
  5
19A
330
168
100
AcDbEntity
  8
AM_9
100
AcDbLine
 10
0.7927006851445462
 20
0.19
 30
0.0
 11
0.3944182410204066
 21
0.19
 31
0.0
  0
LINE
  5
19B
330
168
100
AcDbEntity
  8
AM_7
100
AcDbLine
 10
0.0000000000000002
 20
-0.85575
 30
0.0
 11
0.0000000000000002
 21
0.85575
 31
0.0
  0
LINE
  5
19C
330
168
100
AcDbEntity
  8
AM_7
100
AcDbLine
 10
0.8965000000000001
 20
0.0
 30
0.0
 11
-1.34475
 21
0.0
 31
0.0
  0
LINE
  5
19D
330
168
100
AcDbEntity
  8
AM_4
100
AcDbLine
 10
-0.1564999999999999
 20
2.007500000000001
 30
0.0
 11
-0.1564999999999999
 21
2.375
 31
0.0
  0
LINE
  5
19E
330
168
100
AcDbEntity
  8
AM_4
100
AcDbLine
 10
0.1565000000000001
 20
2.0075
 30
0.0
 11
-0.1564999999999999
 21
2.007500000000001
 31
0.0
  0
LINE
  5
19F
330
168
100
AcDbEntity
  8
AM_4
100
AcDbLine
 10
-0.4694999999999999
 20
2.3124
 30
0.0
 11
-0.4694999999999999
 21
1.567166300838042
 31
0.0
  0
LINE
  5
1A0
330
168
100
AcDbEntity
  8
AM_4
100
AcDbLine
 10
0.4695000000000001
 20
1.567166300838042
 30
0.0
 11
0.4695000000000001
 21
2.312400000000001
 31
0.0
  0
LINE
  5
1A1
330
168
100
AcDbEntity
  8
AM_4
100
AcDbLine
 10
0.1565000000000001
 20
2.375
 30
0.0
 11
0.1565000000000001
 21
2.0075
 31
0.0
  0
LWPOLYLINE
  5
1A2
330
168
100
AcDbEntity
  8
AM_4
100
AcDbPolyline
 90
       19
 70
     0
 43
0.0
 10
0.4694999999999994
 20
-2.3124
 10
0.4692617881005426
 20
-2.317855949496003
 10
0.4685489653385636
 20
-2.32327037592195
 10
0.4673669567256951
 20
-2.328602072223418
 10
0.4657247580611972
 20
-2.333810460972187
 10
0.4636348674684937
 20
-2.338855903184968
 10
0.4611131902769053
 20
-2.3437
 10
0.4581789179724903
 20
-2.348305884915576
 10
0.4548543821392474
 20
-2.352638504366377
 10
0.4511648845022774
 20
-2.356664884502278
 10
0.4471385043663769
 20
-2.360354382139248
 10
0.442805884915575
 20
-2.363678917972491
 10
0.4381999999999995
 20
-2.366613190276906
 10
0.4333559031849673
 20
-2.369134867468494
 10
0.4283104609721864
 20
-2.371224758061198
 10
0.4231020722234173
 20
-2.372866956725696
 10
0.4177703759219494
 20
-2.374048965338564
 10
0.412355949496003
 20
-2.374761788100543
 10
0.4068999999999997
 20
-2.375
  0
LINE
  5
1A3
330
168
100
AcDbEntity
  8
AM_4
100
AcDbLine
 10
0.1565000000000001
 20
-2.375
 30
0.0
 11
0.1565000000000001
 21
-2.007500000000001
 31
0.0
  0
LINE
  5
1A4
330
168
100
AcDbEntity
  8
AM_4
100
AcDbLine
 10
0.1565000000000001
 20
-2.375
 30
0.0
 11
0.4068999999999995
 21
-2.375
 31
0.0
  0
LWPOLYLINE
  5
1A5
330
168
100
AcDbEntity
  8
AM_4
100
AcDbPolyline
 90
       19
 70
     0
 43
0.0
 10
-0.4068999999999989
 20
-2.375
 10
-0.4123559494960023
 20
-2.374761788100543
 10
-0.4177703759219487
 20
-2.374048965338564
 10
-0.4231020722234167
 20
-2.372866956725696
 10
-0.4283104609721857
 20
-2.371224758061198
 10
-0.4333559031849667
 20
-2.369134867468495
 10
-0.4381999999999989
 20
-2.366613190276906
 10
-0.4428058849155744
 20
-2.363678917972491
 10
-0.4471385043663763
 20
-2.360354382139248
 10
-0.4511648845022768
 20
-2.356664884502278
 10
-0.4548543821392469
 20
-2.352638504366378
 10
-0.4581789179724899
 20
-2.348305884915576
 10
-0.4611131902769049
 20
-2.343700000000001
 10
-0.4636348674684934
 20
-2.338855903184969
 10
-0.465724758061197
 20
-2.333810460972188
 10
-0.4673669567256948
 20
-2.328602072223418
 10
-0.4685489653385634
 20
-2.32327037592195
 10
-0.4692617881005425
 20
-2.317855949496004
 10
-0.4694999999999993
 20
-2.312400000000001
  0
LINE
  5
1A6
330
168
100
AcDbEntity
  8
AM_4
100
AcDbLine
 10
-0.1564999999999999
 20
-2.0075
 30
0.0
 11
-0.1564999999999999
 21
-2.375
 31
0.0
  0
LINE
  5
1A7
330
168
100
AcDbEntity
  8
AM_4
100
AcDbLine
 10
-0.4068999999999995
 20
-2.375
 30
0.0
 11
-0.1564999999999999
 21
-2.375
 31
0.0
  0
LINE
  5
1A8
330
168
100
AcDbEntity
  8
AM_4
100
AcDbLine
 10
-0.1564999999999999
 20
-2.0075
 30
0.0
 11
0.1565000000000001
 21
-2.007500000000001
 31
0.0
  0
LINE
  5
1A9
330
168
100
AcDbEntity
  8
AM_4
100
AcDbLine
 10
0.4695000000000001
 20
-2.312399999999999
 30
0.0
 11
0.4695000000000001
 21
-1.567166300838042
 31
0.0
  0
LINE
  5
1AA
330
168
100
AcDbEntity
  8
AM_4
100
AcDbLine
 10
-0.4694999999999999
 20
-1.567166300838042
 30
0.0
 11
-0.4694999999999999
 21
-2.312400000000001
 31
0.0
  0
LINE
  5
1AB
330
168
100
AcDbEntity
  8
AM_4
100
AcDbLine
 10
-0.1564999999999999
 20
-2.3124
 30
0.0
 11
-0.4694999999999999
 21
-2.312400000000001
 31
0.0
  0
LINE
  5
1AC
330
168
100
AcDbEntity
  8
AM_4
100
AcDbLine
 10
0.4695000000000001
 20
-2.312399999999999
 30
0.0
 11
0.1565000000000001
 21
-2.312400000000001
 31
0.0
  0
LWPOLYLINE
  5
1AD
330
168
100
AcDbEntity
  8
AM_4
100
AcDbPolyline
 90
       19
 70
     0
 43
0.0
 10
0.4069000000000004
 20
2.375
 10
0.4123559494960038
 20
2.374761788100543
 10
0.4177703759219502
 20
2.374048965338564
 10
0.4231020722234182
 20
2.372866956725696
 10
0.4283104609721872
 20
2.371224758061198
 10
0.4333559031849682
 20
2.369134867468494
 10
0.4382000000000003
 20
2.366613190276906
 10
0.4428058849155758
 20
2.363678917972491
 10
0.4471385043663777
 20
2.360354382139248
 10
0.4511648845022782
 20
2.356664884502278
 10
0.4548543821392483
 20
2.352638504366377
 10
0.4581789179724912
 20
2.348305884915576
 10
0.4611131902769062
 20
2.3437
 10
0.4636348674684946
 20
2.338855903184968
 10
0.4657247580611982
 20
2.333810460972187
 10
0.4673669567256959
 20
2.328602072223418
 10
0.4685489653385645
 20
2.32327037592195
 10
0.4692617881005436
 20
2.317855949496003
 10
0.4695000000000003
 20
2.312400002085833
  0
LINE
  5
1AE
330
168
100
AcDbEntity
  8
AM_4
100
AcDbLine
 10
0.4695000000000001
 20
2.312400000000001
 30
0.0
 11
0.1565000000000001
 21
2.3124
 31
0.0
  0
LINE
  5
1AF
330
168
100
AcDbEntity
  8
AM_4
100
AcDbLine
 10
0.1565000000000001
 20
2.375
 30
0.0
 11
0.4069000000000004
 21
2.375
 31
0.0
  0
LINE
  5
1B0
330
168
100
AcDbEntity
  8
AM_4
100
AcDbLine
 10
-0.4068999999999998
 20
2.375
 30
0.0
 11
-0.1564999999999999
 21
2.375
 31
0.0
  0
LWPOLYLINE
  5
1B1
330
168
100
AcDbEntity
  8
AM_4
100
AcDbPolyline
 90
       19
 70
     0
 43
0.0
 10
-0.4694999999999996
 20
2.3124
 10
-0.4692617881005429
 20
2.317855949496003
 10
-0.4685489653385639
 20
2.32327037592195
 10
-0.4673669567256953
 20
2.328602072223418
 10
-0.4657247580611975
 20
2.333810460972186
 10
-0.463634867468494
 20
2.338855903184967
 10
-0.4611131902769055
 20
2.3437
 10
-0.4581789179724905
 20
2.348305884915575
 10
-0.4548543821392477
 20
2.352638504366377
 10
-0.4511648845022775
 20
2.356664884502278
 10
-0.4471385043663769
 20
2.360354382139248
 10
-0.442805884915575
 20
2.363678917972491
 10
-0.4381999999999996
 20
2.366613190276905
 10
-0.4333559031849674
 20
2.369134867468494
 10
-0.4283104609721864
 20
2.371224758061198
 10
-0.4231020722234173
 20
2.372866956725696
 10
-0.4177703759219493
 20
2.374048965338564
 10
-0.4123559494960028
 20
2.374761788100543
 10
-0.4068999999999995
 20
2.375
  0
LINE
  5
1B2
330
168
100
AcDbEntity
  8
AM_4
100
AcDbLine
 10
-0.1564999999999999
 20
2.3124
 30
0.0
 11
-0.4694999999999999
 21
2.3124
 31
0.0
  0
LINE
  5
1B3
330
168
100
AcDbEntity
  8
AM_4
100
AcDbLine
 10
-0.3923736194461881
 20
1.595650337636665
 30
0.0
 11
0.3923736194461883
 21
1.595650337636665
 31
0.0
  0
LINE
  5
1B4
330
168
100
AcDbEntity
  8
AM_4
100
AcDbLine
 10
0.3923736194461882
 20
-1.595650337636665
 30
0.0
 11
-0.3923736194461881
 21
-1.595650337636665
 31
0.0
  0
LINE
  5
1B5
330
168
100
AcDbEntity
  8
AM_4
100
AcDbLine
 10
0.6260000000000001
 20
-0.5218706736347616
 30
0.0
 11
0.626
 21
-2.1274
 31
0.0
  0
LINE
  5
1B6
330
168
100
AcDbEntity
  8
AM_4
100
AcDbLine
 10
0.3923736194461884
 20
-0.7143304156779954
 30
0.0
 11
0.3923736194461882
 21
-1.595650337636665
 31
0.0
  0
LINE
  5
1B7
330
168
100
AcDbEntity
  8
AM_4
100
AcDbLine
 10
0.4695000000000001
 20
-1.567166300838042
 30
0.0
 11
0.3923736194461882
 21
-1.595650337636665
 31
0.0
  0
LINE
  5
1B8
330
168
100
AcDbEntity
  8
AM_4
100
AcDbLine
 10
0.3923736194461883
 20
1.595650337636665
 30
0.0
 11
0.4695000000000001
 21
1.567166300838042
 31
0.0
  0
LINE
  5
1B9
330
168
100
AcDbEntity
  8
AM_4
100
AcDbLine
 10
0.3923736194461883
 20
1.595650337636665
 30
0.0
 11
0.3923736194461884
 21
0.7143304156779954
 31
0.0
  0
LINE
  5
1BA
330
168
100
AcDbEntity
  8
AM_4
100
AcDbLine
 10
0.626
 20
2.1274
 30
0.0
 11
0.4695
 21
2.169334048615471
 31
0.0
  0
LINE
  5
1BB
330
168
100
AcDbEntity
  8
AM_4
100
AcDbLine
 10
0.4695
 20
-2.169334048615471
 30
0.0
 11
0.626
 21
-2.1274
 31
0.0
  0
LINE
  5
1BC
330
168
100
AcDbEntity
  8
AM_4
100
AcDbLine
 10
0.626
 20
2.1274
 30
0.0
 11
0.6260000000000001
 21
0.5218706736347616
 31
0.0
  0
LINE
  5
1BD
330
168
100
AcDbEntity
  8
AM_4
100
AcDbLine
 10
-0.3923736194461881
 20
1.595650337636665
 30
0.0
 11
-0.3923736194461881
 21
0.7143304156779954
 31
0.0
  0
LINE
  5
1BE
330
168
100
AcDbEntity
  8
AM_4
100
AcDbLine
 10
-0.4694999999999999
 20
1.567166300838042
 30
0.0
 11
-0.3923736194461881
 21
1.595650337636665
 31
0.0
  0
LINE
  5
1BF
330
168
100
AcDbEntity
  8
AM_4
100
AcDbLine
 10
-0.3923736194461881
 20
-1.595650337636665
 30
0.0
 11
-0.4694999999999999
 21
-1.567166300838042
 31
0.0
  0
LINE
  5
1C0
330
168
100
AcDbEntity
  8
AM_4
100
AcDbLine
 10
-0.3923736194461881
 20
-0.7143304156779954
 30
0.0
 11
-0.3923736194461881
 21
-1.595650337636665
 31
0.0
  0
LINE
  5
1C1
330
168
100
AcDbEntity
  8
AM_4
100
AcDbLine
 10
-0.6259999999999998
 20
-0.5218706736347616
 30
0.0
 11
-0.626
 21
-2.1274
 31
0.0
  0
LINE
  5
1C2
330
168
100
AcDbEntity
  8
AM_4
100
AcDbLine
 10
-0.626
 20
-2.1274
 30
0.0
 11
-0.4695
 21
-2.169334048615471
 31
0.0
  0
LINE
  5
1C3
330
168
100
AcDbEntity
  8
AM_4
100
AcDbLine
 10
-0.4695
 20
2.169334048615471
 30
0.0
 11
-0.626
 21
2.1274
 31
0.0
  0
LINE
  5
1C4
330
168
100
AcDbEntity
  8
AM_4
100
AcDbLine
 10
-0.626
 20
2.1274
 30
0.0
 11
-0.6259999999999998
 21
0.5218706736347616
 31
0.0
  0
CIRCLE
  5
1C5
330
168
100
AcDbEntity
  8
AM_4
100
AcDbCircle
 10
0.0000000000000002
 20
0.0
 30
0.0
 40
0.815
  0
CIRCLE
  5
1C6
330
168
100
AcDbEntity
  8
AM_4
100
AcDbCircle
 10
0.0000000000000002
 20
0.0
 30
0.0
 40
0.4375
  0
CIRCLE
  5
1C7
330
168
100
AcDbEntity
  8
AM_4
100
AcDbCircle
 10
0.0000000000000002
 20
0.0
 30
0.0
 40
0.7106666666666666
  0
ENDBLK
  5
16B
330
168
100
AcDbEntity
  8
0
100
AcDbBlockEnd
  0
ENDSEC
  0
SECTION
  2
ENTITIES
  0
INSERT
  5
6F
330
1F
100
AcDbEntity
  8
0
100
AcDbBlockReference
  2
1_130340_2
 10
0.0
 20
0.0
 30
0.0
  0
POINT
  5
1C9
330
1F
100
AcDbEntity
  8
ConnectionPoints
100
AcDbPoint
 10
-1.26
 20
0.0
 30
0.0000000000000001
  0
POINT
  5
1CA
330
1F
100
AcDbEntity
  8
ConnectionPoints
100
AcDbPoint
 10
-0.0000000000000001
 20
-1.095
 30
-1.896595634287921
  0
POINT
  5
1CB
330
1F
100
AcDbEntity
  8
ConnectionPoints
100
AcDbPoint
 10
-1.26
 20
0.0
 30
0.0000000000000001
  0
ENDSEC
  0
SECTION
  2
OBJECTS
  0
DICTIONARY
  5
C
330
0
100
AcDbDictionary
281
     1
  3
ACAD_DETAILVIEWSTYLE
350
1D3
  3
ACAD_GROUP
350
D
  3
ACAD_LAYOUT
350
1A
  3
ACAD_MATERIAL
350
43
  3
ACAD_MLEADERSTYLE
350
6B
  3
ACAD_MLINESTYLE
350
17
  3
ACAD_PLOTSETTINGS
350
19
  3
ACAD_PLOTSTYLENAME
350
E
  3
ACAD_SCALELIST
350
47
  3
ACAD_SECTIONVIEWSTYLE
350
1D4
  3
ACAD_TABLESTYLE
350
69
  3
ACAD_VISUALSTYLE
350
2A
  3
ACDB_RECOMPOSE_DATA
350
1D0
  3
AcDbVariableDictionary
350
1CC
  0
SUN
  5
6D
330
29
100
AcDbSun
 90
        1
290
     0
 63
     7
421
 16777215
 40
1.0
291
     1
 91
  2455826
 92
 54000000
292
     0
 70
     2
 71
   256
280
     1
  0
DICTIONARY
  5
1D3
102
{ACAD_REACTORS
330
C
102
}
330
C
100
AcDbDictionary
281
     1
  0
DICTIONARY
  5
D
102
{ACAD_REACTORS
330
C
102
}
330
C
100
AcDbDictionary
281
     1
  0
DICTIONARY
  5
1A
102
{ACAD_REACTORS
330
C
102
}
330
C
100
AcDbDictionary
281
     1
  3
Layout1
350
1E
  3
Layout2
350
26
  3
Model
350
22
  0
DICTIONARY
  5
43
102
{ACAD_REACTORS
330
C
102
}
330
C
100
AcDbDictionary
281
     1
  3
ByBlock
350
45
  3
ByLayer
350
44
  3
Global
350
46
  0
DICTIONARY
  5
6B
102
{ACAD_REACTORS
330
C
102
}
330
C
100
AcDbDictionary
281
     1
  3
Standard
350
6C
  0
DICTIONARY
  5
17
102
{ACAD_REACTORS
330
C
102
}
330
C
100
AcDbDictionary
281
     1
  3
Standard
350
18
  0
DICTIONARY
  5
19
102
{ACAD_REACTORS
330
C
102
}
330
C
100
AcDbDictionary
281
     1
  0
ACDBDICTIONARYWDFLT
  5
E
102
{ACAD_REACTORS
330
C
102
}
330
C
100
AcDbDictionary
281
     1
  3
Normal
350
F
100
AcDbDictionaryWithDefault
340
F
  0
DICTIONARY
  5
47
102
{ACAD_REACTORS
330
C
102
}
330
C
100
AcDbDictionary
281
     1
  3
A0
350
48
  3
A1
350
49
  3
A2
350
4A
  3
A3
350
4B
  3
A4
350
4C
  3
A5
350
4D
  3
A6
350
4E
  3
A7
350
4F
  3
A8
350
50
  3
A9
350
51
  3
B0
350
52
  3
B1
350
53
  3
B2
350
54
  3
B3
350
55
  3
B4
350
56
  3
B5
350
57
  3
B6
350
58
  3
B7
350
59
  3
B8
350
5A
  3
B9
350
5B
  3
C0
350
5C
  3
C1
350
5D
  3
C2
350
5E
  3
C3
350
5F
  3
C4
350
60
  3
C5
350
61
  3
C6
350
62
  3
C7
350
63
  3
C8
350
64
  3
C9
350
65
  3
D0
350
66
  3
D1
350
67
  3
D2
350
68
  0
DICTIONARY
  5
1D4
102
{ACAD_REACTORS
330
C
102
}
330
C
100
AcDbDictionary
281
     1
  0
DICTIONARY
  5
69
102
{ACAD_REACTORS
330
C
102
}
330
C
100
AcDbDictionary
281
     1
  3
Standard
350
6A
  0
DICTIONARY
  5
2A
102
{ACAD_REACTORS
330
C
102
}
330
C
100
AcDbDictionary
281
     1
  3
2dWireframe
350
2F
  3
Basic
350
32
  3
Brighten
350
36
  3
ColorChange
350
3A
  3
Conceptual
350
34
  3
Dim
350
35
  3
EdgeColorOff
350
3D
  3
Facepattern
350
39
  3
Flat
350
2B
  3
FlatWithEdges
350
2C
  3
Gouraud
350
2D
  3
GouraudWithEdges
350
2E
  3
Hidden
350
31
  3
JitterOff
350
3B
  3
Linepattern
350
38
  3
OverhangOff
350
3C
  3
Realistic
350
33
  3
Shaded
350
42
  3
Shaded with edges
350
41
  3
Shades of Gray
350
3E
  3
Sketchy
350
3F
  3
Thicken
350
37
  3
Wireframe
350
30
  3
X-Ray
350
40
  0
XRECORD
  5
1D0
102
{ACAD_REACTORS
330
C
102
}
330
C
100
AcDbXrecord
280
     1
 90
        1
330
6A
  0
DICTIONARY
  5
1CC
102
{ACAD_REACTORS
330
C
102
}
330
C
100
AcDbDictionary
281
     1
  3
CANNOSCALE
350
1CD
  3
CMLEADERSTYLE
350
1D2
  3
CTABLESTYLE
350
1D1
  0
LAYOUT
  5
1E
102
{ACAD_REACTORS
330
1A
102
}
330
1A
100
AcDbPlotSettings
  1

  2
none_device
  4

  6

 40
0.0
 41
0.0
 42
0.0
 43
0.0
 44
0.0
 45
0.0
 46
0.0
 47
0.0
 48
0.0
 49
0.0
140
0.0
141
0.0
142
1.0
143
1.0
 70
   688
 72
     0
 73
     0
 74
     5
  7

 75
    16
 76
     0
 77
     2
 78
   300
147
1.0
148
0.0
149
0.0
100
AcDbLayout
  1
Layout1
 70
     1
 71
     1
 10
0.0
 20
0.0
 11
12.0
 21
9.0
 12
0.0
 22
0.0
 32
0.0
 14
1.000000000000000E+20
 24
1.000000000000000E+20
 34
1.000000000000000E+20
 15
-1.000000000000000E+20
 25
-1.000000000000000E+20
 35
-1.000000000000000E+20
146
0.0
 13
0.0
 23
0.0
 33
0.0
 16
1.0
 26
0.0
 36
0.0
 17
0.0
 27
1.0
 37
0.0
 76
     0
330
1B
  0
LAYOUT
  5
26
102
{ACAD_REACTORS
330
1A
102
}
330
1A
100
AcDbPlotSettings
  1

  2
none_device
  4

  6

 40
0.0
 41
0.0
 42
0.0
 43
0.0
 44
0.0
 45
0.0
 46
0.0
 47
0.0
 48
0.0
 49
0.0
140
0.0
141
0.0
142
1.0
143
1.0
 70
   688
 72
     0
 73
     0
 74
     5
  7

 75
    16
 76
     0
 77
     2
 78
   300
147
1.0
148
0.0
149
0.0
100
AcDbLayout
  1
Layout2
 70
     1
 71
     2
 10
0.0
 20
0.0
 11
0.0
 21
0.0
 12
0.0
 22
0.0
 32
0.0
 14
0.0
 24
0.0
 34
0.0
 15
0.0
 25
0.0
 35
0.0
146
0.0
 13
0.0
 23
0.0
 33
0.0
 16
1.0
 26
0.0
 36
0.0
 17
0.0
 27
1.0
 37
0.0
 76
     0
330
23
  0
LAYOUT
  5
22
102
{ACAD_REACTORS
330
1A
102
}
330
1A
100
AcDbPlotSettings
  1

  2
none_device
  4
Letter_(8.50_x_11.00_Inches)
  6

 40
6.35
 41
6.35
 42
6.35000508
 43
6.35000508
 44
215.9
 45
279.4
 46
0.0
 47
0.0
 48
0.0
 49
0.0
140
0.0
141
0.0
142
1.0
143
1.0
 70
  1712
 72
     0
 73
     0
 74
     0
  7

 75
     0
 76
     0
 77
     2
 78
   300
147
1.0
148
0.0
149
0.0
100
AcDbLayout
  1
Model
 70
     1
 71
     0
 10
0.0
 20
0.0
 11
12.0
 21
9.0
 12
0.0
 22
0.0
 32
0.0
 14
1.000000000000000E+20
 24
1.000000000000000E+20
 34
1.000000000000000E+20
 15
-1.000000000000000E+20
 25
-1.000000000000000E+20
 35
-1.000000000000000E+20
146
0.0
 13
0.0
 23
0.0
 33
0.0
 16
1.0
 26
0.0
 36
0.0
 17
0.0
 27
1.0
 37
0.0
 76
     0
330
1F
331
29
  0
MATERIAL
  5
45
102
{ACAD_REACTORS
330
43
102
}
330
43
100
AcDbMaterial
  1
ByBlock
 72
     1
 94
      127
  0
MATERIAL
  5
44
102
{ACAD_REACTORS
330
43
102
}
330
43
100
AcDbMaterial
  1
ByLayer
 72
     1
 94
      127
  0
MATERIAL
  5
46
102
{ACAD_REACTORS
330
43
102
}
330
43
100
AcDbMaterial
  1
Global
 72
     1
 94
      127
  0
MLEADERSTYLE
  5
6C
102
{ACAD_REACTORS
330
6B
102
}
330
6B
100
AcDbMLeaderStyle
179
     2
170
     2
171
     1
172
     0
 90
        2
 40
0.0
 41
0.0
173
     1
 91
-1056964608
340
14
 92
       -2
290
     1
 42
0.09
291
     1
 43
0.36
  3
Standard
341
0
 44
0.18
300

342
11
174
     1
178
     6
175
     1
176
     0
 93
-1056964608
 45
0.18
292
     0
297
     0
 46
0.18
343
0
 94
-1056964608
 47
1.0
 49
1.0
140
1.0
293
     1
141
0.0
294
     1
177
     0
142
1.0
295
     0
296
     0
143
0.125
271
     0
272
     9
273
     9
298
     0
  0
MLINESTYLE
  5
18
102
{ACAD_REACTORS
330
17
102
}
330
17
100
AcDbMlineStyle
  2
Standard
 70
     0
  3

 62
   256
 51
90.0
 52
90.0
 71
     2
 49
0.5
 62
   256
  6
BYLAYER
 49
-0.5
 62
   256
  6
BYLAYER
  0
ACDBPLACEHOLDER
  5
F
102
{ACAD_REACTORS
330
E
102
}
330
E
  0
SCALE
  5
48
102
{ACAD_REACTORS
330
47
102
}
330
47
100
AcDbScale
 70
     0
300
1:1
140
1.0
141
1.0
290
     1
  0
SCALE
  5
49
102
{ACAD_REACTORS
330
47
102
}
330
47
100
AcDbScale
 70
     0
300
1:2
140
1.0
141
2.0
290
     0
  0
SCALE
  5
4A
102
{ACAD_REACTORS
330
47
102
}
330
47
100
AcDbScale
 70
     0
300
1:4
140
1.0
141
4.0
290
     0
  0
SCALE
  5
4B
102
{ACAD_REACTORS
330
47
102
}
330
47
100
AcDbScale
 70
     0
300
1:5
140
1.0
141
5.0
290
     0
  0
SCALE
  5
4C
102
{ACAD_REACTORS
330
47
102
}
330
47
100
AcDbScale
 70
     0
300
1:8
140
1.0
141
8.0
290
     0
  0
SCALE
  5
4D
102
{ACAD_REACTORS
330
47
102
}
330
47
100
AcDbScale
 70
     0
300
1:10
140
1.0
141
10.0
290
     0
  0
SCALE
  5
4E
102
{ACAD_REACTORS
330
47
102
}
330
47
100
AcDbScale
 70
     0
300
1:16
140
1.0
141
16.0
290
     0
  0
SCALE
  5
4F
102
{ACAD_REACTORS
330
47
102
}
330
47
100
AcDbScale
 70
     0
300
1:20
140
1.0
141
20.0
290
     0
  0
SCALE
  5
50
102
{ACAD_REACTORS
330
47
102
}
330
47
100
AcDbScale
 70
     0
300
1:30
140
1.0
141
30.0
290
     0
  0
SCALE
  5
51
102
{ACAD_REACTORS
330
47
102
}
330
47
100
AcDbScale
 70
     0
300
1:40
140
1.0
141
40.0
290
     0
  0
SCALE
  5
52
102
{ACAD_REACTORS
330
47
102
}
330
47
100
AcDbScale
 70
     0
300
1:50
140
1.0
141
50.0
290
     0
  0
SCALE
  5
53
102
{ACAD_REACTORS
330
47
102
}
330
47
100
AcDbScale
 70
     0
300
1:100
140
1.0
141
100.0
290
     0
  0
SCALE
  5
54
102
{ACAD_REACTORS
330
47
102
}
330
47
100
AcDbScale
 70
     0
300
2:1
140
2.0
141
1.0
290
     0
  0
SCALE
  5
55
102
{ACAD_REACTORS
330
47
102
}
330
47
100
AcDbScale
 70
     0
300
4:1
140
4.0
141
1.0
290
     0
  0
SCALE
  5
56
102
{ACAD_REACTORS
330
47
102
}
330
47
100
AcDbScale
 70
     0
300
8:1
140
8.0
141
1.0
290
     0
  0
SCALE
  5
57
102
{ACAD_REACTORS
330
47
102
}
330
47
100
AcDbScale
 70
     0
300
10:1
140
10.0
141
1.0
290
     0
  0
SCALE
  5
58
102
{ACAD_REACTORS
330
47
102
}
330
47
100
AcDbScale
 70
     0
300
100:1
140
100.0
141
1.0
290
     0
  0
SCALE
  5
59
102
{ACAD_REACTORS
330
47
102
}
330
47
100
AcDbScale
 70
     0
300
1/128" = 1'-0"
140
0.0078125
141
12.0
290
     0
  0
SCALE
  5
5A
102
{ACAD_REACTORS
330
47
102
}
330
47
100
AcDbScale
 70
     0
300
1/64" = 1'-0"
140
0.015625
141
12.0
290
     0
  0
SCALE
  5
5B
102
{ACAD_REACTORS
330
47
102
}
330
47
100
AcDbScale
 70
     0
300
1/32" = 1'-0"
140
0.03125
141
12.0
290
     0
  0
SCALE
  5
5C
102
{ACAD_REACTORS
330
47
102
}
330
47
100
AcDbScale
 70
     0
300
1/16" = 1'-0"
140
0.0625
141
12.0
290
     0
  0
SCALE
  5
5D
102
{ACAD_REACTORS
330
47
102
}
330
47
100
AcDbScale
 70
     0
300
3/32" = 1'-0"
140
0.09375
141
12.0
290
     0
  0
SCALE
  5
5E
102
{ACAD_REACTORS
330
47
102
}
330
47
100
AcDbScale
 70
     0
300
1/8" = 1'-0"
140
0.125
141
12.0
290
     0
  0
SCALE
  5
5F
102
{ACAD_REACTORS
330
47
102
}
330
47
100
AcDbScale
 70
     0
300
3/16" = 1'-0"
140
0.1875
141
12.0
290
     0
  0
SCALE
  5
60
102
{ACAD_REACTORS
330
47
102
}
330
47
100
AcDbScale
 70
     0
300
1/4" = 1'-0"
140
0.25
141
12.0
290
     0
  0
SCALE
  5
61
102
{ACAD_REACTORS
330
47
102
}
330
47
100
AcDbScale
 70
     0
300
3/8" = 1'-0"
140
0.375
141
12.0
290
     0
  0
SCALE
  5
62
102
{ACAD_REACTORS
330
47
102
}
330
47
100
AcDbScale
 70
     0
300
1/2" = 1'-0"
140
0.5
141
12.0
290
     0
  0
SCALE
  5
63
102
{ACAD_REACTORS
330
47
102
}
330
47
100
AcDbScale
 70
     0
300
3/4" = 1'-0"
140
0.75
141
12.0
290
     0
  0
SCALE
  5
64
102
{ACAD_REACTORS
330
47
102
}
330
47
100
AcDbScale
 70
     0
300
1" = 1'-0"
140
1.0
141
12.0
290
     0
  0
SCALE
  5
65
102
{ACAD_REACTORS
330
47
102
}
330
47
100
AcDbScale
 70
     0
300
1-1/2" = 1'-0"
140
1.5
141
12.0
290
     0
  0
SCALE
  5
66
102
{ACAD_REACTORS
330
47
102
}
330
47
100
AcDbScale
 70
     0
300
3" = 1'-0"
140
3.0
141
12.0
290
     0
  0
SCALE
  5
67
102
{ACAD_REACTORS
330
47
102
}
330
47
100
AcDbScale
 70
     0
300
6" = 1'-0"
140
6.0
141
12.0
290
     0
  0
SCALE
  5
68
102
{ACAD_REACTORS
330
47
102
}
330
47
100
AcDbScale
 70
     0
300
1'-0" = 1'-0"
140
12.0
141
12.0
290
     0
  0
TABLESTYLE
  5
6A
102
{ACAD_REACTORS
330
69
102
}
102
{ACAD_XDICTIONARY
360
1CE
102
}
330
69
100
AcDbTableStyle
  3
Standard
 70
     0
 71
     0
 40
0.06
 41
0.06
280
     0
281
     0
  7
Standard
140
0.18
170
     2
 62
     0
 63
   257
283
     0
 90
        4
 91
        0
  1

274
    -2
284
     1
 64
     0
275
    -2
285
     1
 65
     0
276
    -2
286
     1
 66
     0
277
    -2
287
     1
 67
     0
278
    -2
288
     1
 68
     0
279
    -2
289
     1
 69
     0
  7
Standard
140
0.25
170
     5
 62
     0
 63
   257
283
     0
 90
        4
 91
        0
  1

274
    -2
284
     1
 64
     0
275
    -2
285
     1
 65
     0
276
    -2
286
     1
 66
     0
277
    -2
287
     1
 67
     0
278
    -2
288
     1
 68
     0
279
    -2
289
     1
 69
     0
  7
Standard
140
0.18
170
     5
 62
     0
 63
   257
283
     0
 90
        4
 91
        0
  1

274
    -2
284
     1
 64
     0
275
    -2
285
     1
 65
     0
276
    -2
286
     1
 66
     0
277
    -2
287
     1
 67
     0
278
    -2
288
     1
 68
     0
279
    -2
289
     1
 69
     0
  0
VISUALSTYLE
  5
2F
102
{ACAD_REACTORS
330
2A
102
}
330
2A
100
AcDbVisualStyle
  2
2dWireframe
 70
     4
177
     3
291
     0
 70
    58
 90
        0
176
     1
 90
        2
176
     1
 90
        0
176
     1
 90
        0
176
     1
 40
0.6
176
     1
 40
30.0
176
     1
 62
     7
420
 16777215
176
     1
 90
        1
176
     1
 90
        4
176
     1
 62
     7
176
     1
 62
   257
176
     1
 90
        1
176
     1
 90
        1
176
     1
 40
1.0
176
     1
 90
        0
176
     1
 62
   257
176
     1
 40
1.0
176
     1
 90
        1
176
     1
 90
        6
176
     1
 90
        2
176
     1
 62
     7
176
     1
 90
        5
176
     1
 90
        0
176
     1
 90
        0
176
     1
290
     0
176
     1
 90
        1
176
     1
 40
0.0
176
     1
 90
        0
176
     1
290
     1
176
     1
290
     1
176
     1
290
     0
176
     1
290
     0
176
     1
290
     0
176
     1
290
     0
176
     1
290
     0
176
     1
290
     0
176
     1
290
     0
176
     1
 90
       50
176
     1
 40
0.0
176
     1
 40
1.0
176
     1
 90
        0
176
     1
 62
    18
420
        0
176
     1
 90
       50
176
     1
 90
        3
176
     1
 62
     5
420
      255
176
     1
290
     0
176
     1
 90
       50
176
     1
 90
       50
176
     1
 90
       50
176
     1
290
     0
176
     1
 90
       50
176
     1
 62
   256
176
     0
 40
1.0
176
     0
 90
        2
176
     1
  1
strokes_ogs.tif
176
     1
290
     0
176
     1
 40
1.0
176
     1
 40
1.0
176
     1
  0
VISUALSTYLE
  5
32
102
{ACAD_REACTORS
330
2A
102
}
330
2A
100
AcDbVisualStyle
  2
Basic
 70
     7
177
     3
291
     1
 70
    58
 90
        1
176
     1
 90
        0
176
     1
 90
        1
176
     1
 90
        0
176
     1
 40
0.6
176
     1
 40
30.0
176
     1
 62
     7
420
 16777215
176
     1
 90
        0
176
     1
 90
        4
176
     1
 62
     7
176
     1
 62
   257
176
     1
 90
        1
176
     1
 90
        1
176
     1
 40
1.0
176
     1
 90
        8
176
     1
 62
     7
176
     1
 40
1.0
176
     1
 90
        1
176
     1
 90
        6
176
     1
 90
        2
176
     1
 62
     7
176
     1
 90
        5
176
     1
 90
        0
176
     1
 90
        0
176
     1
290
     0
176
     1
 90
        1
176
     1
 40
0.0
176
     1
 90
        0
176
     1
290
     0
176
     1
290
     1
176
     1
290
     1
176
     1
290
     0
176
     1
290
     0
176
     1
290
     0
176
     1
290
     0
176
     1
290
     0
176
     1
290
     0
176
     1
 90
       50
176
     1
 40
0.0
176
     1
 40
1.0
176
     1
 90
        0
176
     1
 62
    18
420
        0
176
     1
 90
       50
176
     1
 90
        3
176
     1
 62
     5
420
      255
176
     1
290
     0
176
     1
 90
       50
176
     1
 90
       50
176
     1
 90
       50
176
     1
290
     0
176
     1
 90
       50
176
     1
 62
   256
176
     0
 40
1.0
176
     0
 90
        2
176
     1
  1
strokes_ogs.tif
176
     1
290
     0
176
     1
 40
1.0
176
     1
 40
1.0
176
     1
  0
VISUALSTYLE
  5
36
102
{ACAD_REACTORS
330
2A
102
}
330
2A
100
AcDbVisualStyle
  2
Brighten
 70
    12
177
     3
291
     1
 70
    58
 90
        2
176
     1
 90
        2
176
     1
 90
        0
176
     1
 90
        0
176
     1
 40
0.6
176
     1
 40
30.0
176
     1
 62
     7
420
 16777215
176
     1
 90
        1
176
     1
 90
        4
176
     1
 62
     7
176
     1
 62
   257
176
     1
 90
        1
176
     1
 90
        1
176
     1
 40
1.0
176
     1
 90
        8
176
     1
 62
     7
176
     1
 40
1.0
176
     1
 90
        1
176
     1
 90
        6
176
     1
 90
        2
176
     1
 62
     7
176
     1
 90
        5
176
     1
 90
        0
176
     1
 90
        0
176
     1
290
     0
176
     1
 90
        1
176
     1
 40
50.0
176
     1
 90
        0
176
     1
290
     0
176
     1
290
     1
176
     1
290
     1
176
     1
290
     0
176
     1
290
     0
176
     1
290
     0
176
     1
290
     0
176
     1
290
     0
176
     1
290
     0
176
     1
 90
       50
176
     1
 40
0.0
176
     1
 40
1.0
176
     1
 90
        0
176
     1
 62
    18
420
        0
176
     1
 90
       50
176
     1
 90
        3
176
     1
 62
     5
420
      255
176
     1
290
     0
176
     1
 90
       50
176
     1
 90
       50
176
     1
 90
       50
176
     1
290
     0
176
     1
 90
       50
176
     1
 62
   256
176
     0
 40
1.0
176
     0
 90
        2
176
     1
  1
strokes_ogs.tif
176
     1
290
     0
176
     1
 40
1.0
176
     1
 40
1.0
176
     1
  0
VISUALSTYLE
  5
3A
102
{ACAD_REACTORS
330
2A
102
}
330
2A
100
AcDbVisualStyle
  2
ColorChange
 70
    16
177
     3
291
     1
 70
    58
 90
        2
176
     1
 90
        2
176
     1
 90
        3
176
     1
 90
        0
176
     1
 40
0.6
176
     1
 40
30.0
176
     1
 62
     8
420
  8421504
176
     1
 90
        1
176
     1
 90
        4
176
     1
 62
     7
176
     1
 62
   257
176
     1
 90
        1
176
     1
 90
        1
176
     1
 40
1.0
176
     1
 90
        8
176
     1
 62
     8
420
  8421504
176
     1
 40
1.0
176
     1
 90
        1
176
     1
 90
        6
176
     1
 90
        2
176
     1
 62
     7
176
     1
 90
        5
176
     1
 90
        0
176
     1
 90
        0
176
     1
290
     0
176
     1
 90
        1
176
     1
 40
0.0
176
     1
 90
        0
176
     1
290
     0
176
     1
290
     1
176
     1
290
     1
176
     1
290
     0
176
     1
290
     0
176
     1
290
     0
176
     1
290
     0
176
     1
290
     0
176
     1
290
     0
176
     1
 90
       50
176
     1
 40
0.0
176
     1
 40
1.0
176
     1
 90
        0
176
     1
 62
    18
420
        0
176
     1
 90
       50
176
     1
 90
        3
176
     1
 62
     5
420
      255
176
     1
290
     0
176
     1
 90
       50
176
     1
 90
       50
176
     1
 90
       50
176
     1
290
     0
176
     1
 90
       50
176
     1
 62
   256
176
     0
 40
1.0
176
     0
 90
        2
176
     1
  1
strokes_ogs.tif
176
     1
290
     0
176
     1
 40
1.0
176
     1
 40
1.0
176
     1
  0
VISUALSTYLE
  5
34
102
{ACAD_REACTORS
330
2A
102
}
330
2A
100
AcDbVisualStyle
  2
Conceptual
 70
     9
177
     3
291
     0
 70
    58
 90
        3
176
     1
 90
        2
176
     1
 90
        0
176
     1
 90
        0
176
     1
 40
0.6
176
     1
 40
30.0
176
     1
 62
     7
420
 16777215
176
     1
 90
        2
176
     1
 90
        2
176
     1
 62
     7
176
     1
 62
   257
176
     1
 90
        1
176
     1
 90
        1
176
     1
 40
179.0
176
     1
 90
        8
176
     1
 62
     7
176
     1
 40
1.0
176
     1
 90
        1
176
     1
 90
        6
176
     1
 90
        2
176
     1
 62
     7
176
     1
 90
        3
176
     1
 90
        0
176
     1
 90
        0
176
     1
290
     0
176
     1
 90
        1
176
     1
 40
0.0
176
     1
 90
        0
176
     1
290
     0
176
     1
290
     1
176
     1
290
     1
176
     1
290
     0
176
     1
290
     0
176
     1
290
     0
176
     1
290
     0
176
     1
290
     0
176
     1
290
     0
176
     1
 90
       50
176
     1
 40
0.0
176
     1
 40
1.0
176
     1
 90
        0
176
     1
 62
    18
420
        0
176
     1
 90
       50
176
     1
 90
        3
176
     1
 62
     5
420
      255
176
     1
290
     0
176
     1
 90
       50
176
     1
 90
       50
176
     1
 90
       50
176
     1
290
     0
176
     1
 90
       50
176
     1
 62
   256
176
     0
 40
1.0
176
     0
 90
        2
176
     1
  1
strokes_ogs.tif
176
     1
290
     0
176
     1
 40
1.0
176
     1
 40
1.0
176
     1
  0
VISUALSTYLE
  5
35
102
{ACAD_REACTORS
330
2A
102
}
330
2A
100
AcDbVisualStyle
  2
Dim
 70
    11
177
     3
291
     1
 70
    58
 90
        2
176
     1
 90
        2
176
     1
 90
        0
176
     1
 90
        0
176
     1
 40
0.6
176
     1
 40
30.0
176
     1
 62
     7
420
 16777215
176
     1
 90
        1
176
     1
 90
        4
176
     1
 62
     7
176
     1
 62
   257
176
     1
 90
        1
176
     1
 90
        1
176
     1
 40
1.0
176
     1
 90
        8
176
     1
 62
     7
176
     1
 40
1.0
176
     1
 90
        1
176
     1
 90
        6
176
     1
 90
        2
176
     1
 62
     7
176
     1
 90
        5
176
     1
 90
        0
176
     1
 90
        0
176
     1
290
     0
176
     1
 90
        1
176
     1
 40
-50.0
176
     1
 90
        0
176
     1
290
     0
176
     1
290
     1
176
     1
290
     1
176
     1
290
     0
176
     1
290
     0
176
     1
290
     0
176
     1
290
     0
176
     1
290
     0
176
     1
290
     0
176
     1
 90
       50
176
     1
 40
0.0
176
     1
 40
1.0
176
     1
 90
        0
176
     1
 62
    18
420
        0
176
     1
 90
       50
176
     1
 90
        3
176
     1
 62
     5
420
      255
176
     1
290
     0
176
     1
 90
       50
176
     1
 90
       50
176
     1
 90
       50
176
     1
290
     0
176
     1
 90
       50
176
     1
 62
   256
176
     0
 40
1.0
176
     0
 90
        2
176
     1
  1
strokes_ogs.tif
176
     1
290
     0
176
     1
 40
1.0
176
     1
 40
1.0
176
     1
  0
VISUALSTYLE
  5
3D
102
{ACAD_REACTORS
330
2A
102
}
330
2A
100
AcDbVisualStyle
  2
EdgeColorOff
 70
    22
177
     3
291
     1
 70
    58
 90
        2
176
     0
 90
        2
176
     0
 90
        0
176
     0
 90
        0
176
     0
 40
0.6
176
     0
 40
30.0
176
     0
 62
     7
420
 16777215
176
     0
 90
        1
176
     0
 90
        4
176
     0
 62
     7
176
     0
 62
   257
176
     0
 90
        1
176
     0
 90
        1
176
     0
 40
1.0
176
     0
 90
        8
176
     2
 62
     7
176
     0
 40
1.0
176
     0
 90
        1
176
     0
 90
        6
176
     0
 90
        2
176
     0
 62
     7
176
     0
 90
        5
176
     0
 90
        0
176
     0
 90
        0
176
     0
290
     0
176
     0
 90
        1
176
     0
 40
0.0
176
     0
 90
        0
176
     0
290
     0
176
     0
290
     1
176
     0
290
     1
176
     0
290
     0
176
     0
290
     0
176
     0
290
     0
176
     0
290
     0
176
     0
290
     0
176
     0
290
     0
176
     0
 90
       50
176
     0
 40
0.0
176
     0
 40
1.0
176
     0
 90
        0
176
     0
 62
    18
420
        0
176
     0
 90
       50
176
     0
 90
        3
176
     0
 62
     5
420
      255
176
     0
290
     0
176
     0
 90
       50
176
     0
 90
       50
176
     0
 90
       50
176
     0
290
     0
176
     0
 90
       50
176
     0
 62
   256
176
     0
 40
1.0
176
     0
 90
        2
176
     0
  1
strokes_ogs.tif
176
     0
290
     0
176
     0
 40
1.0
176
     0
 40
1.0
176
     0
  0
VISUALSTYLE
  5
39
102
{ACAD_REACTORS
330
2A
102
}
330
2A
100
AcDbVisualStyle
  2
Facepattern
 70
    15
177
     3
291
     1
 70
    58
 90
        2
176
     1
 90
        2
176
     1
 90
        0
176
     1
 90
        0
176
     1
 40
0.6
176
     1
 40
30.0
176
     1
 62
     7
420
 16777215
176
     1
 90
        1
176
     1
 90
        4
176
     1
 62
     7
176
     1
 62
   257
176
     1
 90
        1
176
     1
 90
        1
176
     1
 40
1.0
176
     1
 90
        8
176
     1
 62
     7
176
     1
 40
1.0
176
     1
 90
        1
176
     1
 90
        6
176
     1
 90
        2
176
     1
 62
     7
176
     1
 90
        5
176
     1
 90
        0
176
     1
 90
        0
176
     1
290
     0
176
     1
 90
        1
176
     1
 40
0.0
176
     1
 90
        0
176
     1
290
     0
176
     1
290
     1
176
     1
290
     1
176
     1
290
     0
176
     1
290
     0
176
     1
290
     0
176
     1
290
     0
176
     1
290
     0
176
     1
290
     0
176
     1
 90
       50
176
     1
 40
0.0
176
     1
 40
1.0
176
     1
 90
        0
176
     1
 62
    18
420
        0
176
     1
 90
       50
176
     1
 90
        3
176
     1
 62
     5
420
      255
176
     1
290
     0
176
     1
 90
       50
176
     1
 90
       50
176
     1
 90
       50
176
     1
290
     0
176
     1
 90
       50
176
     1
 62
   256
176
     0
 40
1.0
176
     0
 90
        2
176
     1
  1
strokes_ogs.tif
176
     1
290
     0
176
     1
 40
1.0
176
     1
 40
1.0
176
     1
  0
VISUALSTYLE
  5
2B
102
{ACAD_REACTORS
330
2A
102
}
330
2A
100
AcDbVisualStyle
  2
Flat
 70
     0
177
     3
291
     1
 70
    58
 90
        2
176
     1
 90
        1
176
     1
 90
        1
176
     1
 90
        2
176
     1
 40
0.6
176
     1
 40
30.0
176
     1
 62
     7
420
 16777215
176
     1
 90
        0
176
     1
 90
        0
176
     1
 62
     7
176
     1
 62
   257
176
     1
 90
        1
176
     1
 90
        1
176
     1
 40
1.0
176
     1
 90
        8
176
     1
 62
     7
176
     1
 40
1.0
176
     1
 90
        1
176
     1
 90
        6
176
     1
 90
        2
176
     1
 62
     7
176
     1
 90
        5
176
     1
 90
        0
176
     1
 90
        0
176
     1
290
     0
176
     1
 90
       13
176
     1
 40
0.0
176
     1
 90
        0
176
     1
290
     0
176
     1
290
     1
176
     1
290
     1
176
     1
290
     0
176
     1
290
     0
176
     1
290
     0
176
     1
290
     0
176
     1
290
     0
176
     1
290
     0
176
     1
 90
       50
176
     1
 40
0.0
176
     1
 40
1.0
176
     1
 90
        0
176
     1
 62
    18
420
        0
176
     1
 90
       50
176
     1
 90
        3
176
     1
 62
     5
420
      255
176
     1
290
     0
176
     1
 90
       50
176
     1
 90
       50
176
     1
 90
       50
176
     1
290
     0
176
     1
 90
       50
176
     1
 62
   256
176
     0
 40
1.0
176
     0
 90
        2
176
     1
  1
strokes_ogs.tif
176
     1
290
     0
176
     1
 40
1.0
176
     1
 40
1.0
176
     1
  0
VISUALSTYLE
  5
2C
102
{ACAD_REACTORS
330
2A
102
}
330
2A
100
AcDbVisualStyle
  2
FlatWithEdges
 70
     1
177
     3
291
     1
 70
    58
 90
        2
176
     1
 90
        1
176
     1
 90
        1
176
     1
 90
        2
176
     1
 40
0.6
176
     1
 40
30.0
176
     1
 62
     7
420
 16777215
176
     1
 90
        1
176
     1
 90
        0
176
     1
 62
     7
176
     1
 62
   257
176
     1
 90
        1
176
     1
 90
        1
176
     1
 40
1.0
176
     1
 90
        0
176
     1
 62
   257
176
     1
 40
1.0
176
     1
 90
        1
176
     1
 90
        6
176
     1
 90
        2
176
     1
 62
     7
176
     1
 90
        5
176
     1
 90
        0
176
     1
 90
        0
176
     1
290
     0
176
     1
 90
       13
176
     1
 40
0.0
176
     1
 90
        0
176
     1
290
     0
176
     1
290
     1
176
     1
290
     1
176
     1
290
     0
176
     1
290
     0
176
     1
290
     0
176
     1
290
     0
176
     1
290
     0
176
     1
290
     0
176
     1
 90
       50
176
     1
 40
0.0
176
     1
 40
1.0
176
     1
 90
        0
176
     1
 62
    18
420
        0
176
     1
 90
       50
176
     1
 90
        3
176
     1
 62
     5
420
      255
176
     1
290
     0
176
     1
 90
       50
176
     1
 90
       50
176
     1
 90
       50
176
     1
290
     0
176
     1
 90
       50
176
     1
 62
   256
176
     0
 40
1.0
176
     0
 90
        2
176
     1
  1
strokes_ogs.tif
176
     1
290
     0
176
     1
 40
1.0
176
     1
 40
1.0
176
     1
  0
VISUALSTYLE
  5
2D
102
{ACAD_REACTORS
330
2A
102
}
330
2A
100
AcDbVisualStyle
  2
Gouraud
 70
     2
177
     3
291
     1
 70
    58
 90
        2
176
     1
 90
        2
176
     1
 90
        1
176
     1
 90
        2
176
     1
 40
0.6
176
     1
 40
30.0
176
     1
 62
     7
420
 16777215
176
     1
 90
        0
176
     1
 90
        0
176
     1
 62
     7
176
     1
 62
   257
176
     1
 90
        1
176
     1
 90
        1
176
     1
 40
1.0
176
     1
 90
        0
176
     1
 62
     7
176
     1
 40
1.0
176
     1
 90
        1
176
     1
 90
        6
176
     1
 90
        2
176
     1
 62
     7
176
     1
 90
        5
176
     1
 90
        0
176
     1
 90
        0
176
     1
290
     0
176
     1
 90
       13
176
     1
 40
0.0
176
     1
 90
        0
176
     1
290
     0
176
     1
290
     1
176
     1
290
     1
176
     1
290
     0
176
     1
290
     0
176
     1
290
     0
176
     1
290
     0
176
     1
290
     0
176
     1
290
     0
176
     1
 90
       50
176
     1
 40
0.0
176
     1
 40
1.0
176
     1
 90
        0
176
     1
 62
    18
420
        0
176
     1
 90
       50
176
     1
 90
        3
176
     1
 62
     5
420
      255
176
     1
290
     0
176
     1
 90
       50
176
     1
 90
       50
176
     1
 90
       50
176
     1
290
     0
176
     1
 90
       50
176
     1
 62
   256
176
     0
 40
1.0
176
     0
 90
        2
176
     1
  1
strokes_ogs.tif
176
     1
290
     0
176
     1
 40
1.0
176
     1
 40
1.0
176
     1
  0
VISUALSTYLE
  5
2E
102
{ACAD_REACTORS
330
2A
102
}
330
2A
100
AcDbVisualStyle
  2
GouraudWithEdges
 70
     3
177
     3
291
     1
 70
    58
 90
        2
176
     1
 90
        2
176
     1
 90
        1
176
     1
 90
        2
176
     1
 40
0.6
176
     1
 40
30.0
176
     1
 62
     7
420
 16777215
176
     1
 90
        1
176
     1
 90
        0
176
     1
 62
     7
176
     1
 62
   257
176
     1
 90
        1
176
     1
 90
        1
176
     1
 40
1.0
176
     1
 90
        0
176
     1
 62
   257
176
     1
 40
1.0
176
     1
 90
        1
176
     1
 90
        6
176
     1
 90
        2
176
     1
 62
     7
176
     1
 90
        5
176
     1
 90
        0
176
     1
 90
        0
176
     1
290
     0
176
     1
 90
       13
176
     1
 40
0.0
176
     1
 90
        0
176
     1
290
     0
176
     1
290
     1
176
     1
290
     1
176
     1
290
     0
176
     1
290
     0
176
     1
290
     0
176
     1
290
     0
176
     1
290
     0
176
     1
290
     0
176
     1
 90
       50
176
     1
 40
0.0
176
     1
 40
1.0
176
     1
 90
        0
176
     1
 62
    18
420
        0
176
     1
 90
       50
176
     1
 90
        3
176
     1
 62
     5
420
      255
176
     1
290
     0
176
     1
 90
       50
176
     1
 90
       50
176
     1
 90
       50
176
     1
290
     0
176
     1
 90
       50
176
     1
 62
   256
176
     0
 40
1.0
176
     0
 90
        2
176
     1
  1
strokes_ogs.tif
176
     1
290
     0
176
     1
 40
1.0
176
     1
 40
1.0
176
     1
  0
VISUALSTYLE
  5
31
102
{ACAD_REACTORS
330
2A
102
}
330
2A
100
AcDbVisualStyle
  2
Hidden
 70
     6
177
     3
291
     0
 70
    58
 90
        1
176
     1
 90
        2
176
     1
 90
        2
176
     1
 90
        0
176
     1
 40
0.6
176
     1
 40
30.0
176
     1
 62
     7
420
 16777215
176
     1
 90
        2
176
     1
 90
        2
176
     1
 62
     7
176
     1
 62
   257
176
     1
 90
        2
176
     1
 90
        1
176
     1
 40
40.0
176
     1
 90
        0
176
     1
 62
   257
176
     1
 40
1.0
176
     1
 90
        1
176
     1
 90
        6
176
     1
 90
        2
176
     1
 62
     7
176
     1
 90
        3
176
     1
 90
        0
176
     1
 90
        0
176
     1
290
     0
176
     1
 90
        1
176
     1
 40
0.0
176
     1
 90
        0
176
     1
290
     0
176
     1
290
     1
176
     1
290
     1
176
     1
290
     0
176
     1
290
     0
176
     1
290
     0
176
     1
290
     0
176
     1
290
     0
176
     1
290
     0
176
     1
 90
       50
176
     1
 40
0.0
176
     1
 40
1.0
176
     1
 90
        0
176
     1
 62
    18
420
        0
176
     1
 90
       50
176
     1
 90
        3
176
     1
 62
     5
420
      255
176
     1
290
     0
176
     1
 90
       50
176
     1
 90
       50
176
     1
 90
       50
176
     1
290
     0
176
     1
 90
       50
176
     1
 62
   256
176
     0
 40
1.0
176
     0
 90
        2
176
     1
  1
strokes_ogs.tif
176
     1
290
     0
176
     1
 40
1.0
176
     1
 40
1.0
176
     1
  0
VISUALSTYLE
  5
3B
102
{ACAD_REACTORS
330
2A
102
}
330
2A
100
AcDbVisualStyle
  2
JitterOff
 70
    20
177
     3
291
     1
 70
    58
 90
        2
176
     0
 90
        2
176
     0
 90
        0
176
     0
 90
        0
176
     0
 40
0.6
176
     0
 40
30.0
176
     0
 62
     7
420
 16777215
176
     0
 90
        1
176
     0
 90
        4
176
     0
 62
     7
176
     0
 62
   257
176
     0
 90
        1
176
     0
 90
        1
176
     0
 40
1.0
176
     0
 90
       10
176
     2
 62
     7
176
     0
 40
1.0
176
     0
 90
        1
176
     0
 90
        6
176
     0
 90
        2
176
     0
 62
     7
176
     0
 90
        5
176
     0
 90
        0
176
     0
 90
        0
176
     0
290
     0
176
     0
 90
        1
176
     0
 40
0.0
176
     0
 90
        0
176
     0
290
     0
176
     0
290
     1
176
     0
290
     1
176
     0
290
     0
176
     0
290
     0
176
     0
290
     0
176
     0
290
     0
176
     0
290
     0
176
     0
290
     0
176
     0
 90
       50
176
     0
 40
0.0
176
     0
 40
1.0
176
     0
 90
        0
176
     0
 62
    18
420
        0
176
     0
 90
       50
176
     0
 90
        3
176
     0
 62
     5
420
      255
176
     0
290
     0
176
     0
 90
       50
176
     0
 90
       50
176
     0
 90
       50
176
     0
290
     0
176
     0
 90
       50
176
     0
 62
   256
176
     0
 40
1.0
176
     0
 90
        2
176
     0
  1
strokes_ogs.tif
176
     0
290
     0
176
     0
 40
1.0
176
     0
 40
1.0
176
     0
  0
VISUALSTYLE
  5
38
102
{ACAD_REACTORS
330
2A
102
}
330
2A
100
AcDbVisualStyle
  2
Linepattern
 70
    14
177
     3
291
     1
 70
    58
 90
        2
176
     1
 90
        2
176
     1
 90
        0
176
     1
 90
        0
176
     1
 40
0.6
176
     1
 40
30.0
176
     1
 62
     7
420
 16777215
176
     1
 90
        1
176
     1
 90
        4
176
     1
 62
     7
176
     1
 62
   257
176
     1
 90
        7
176
     1
 90
        7
176
     1
 40
1.0
176
     1
 90
        8
176
     1
 62
     7
176
     1
 40
1.0
176
     1
 90
        1
176
     1
 90
        6
176
     1
 90
        2
176
     1
 62
     7
176
     1
 90
        5
176
     1
 90
        0
176
     1
 90
        0
176
     1
290
     0
176
     1
 90
        1
176
     1
 40
0.0
176
     1
 90
        0
176
     1
290
     0
176
     1
290
     1
176
     1
290
     1
176
     1
290
     0
176
     1
290
     0
176
     1
290
     0
176
     1
290
     0
176
     1
290
     0
176
     1
290
     0
176
     1
 90
       50
176
     1
 40
0.0
176
     1
 40
1.0
176
     1
 90
        0
176
     1
 62
    18
420
        0
176
     1
 90
       50
176
     1
 90
        3
176
     1
 62
     5
420
      255
176
     1
290
     0
176
     1
 90
       50
176
     1
 90
       50
176
     1
 90
       50
176
     1
290
     0
176
     1
 90
       50
176
     1
 62
   256
176
     0
 40
1.0
176
     0
 90
        2
176
     1
  1
strokes_ogs.tif
176
     1
290
     0
176
     1
 40
1.0
176
     1
 40
1.0
176
     1
  0
VISUALSTYLE
  5
3C
102
{ACAD_REACTORS
330
2A
102
}
330
2A
100
AcDbVisualStyle
  2
OverhangOff
 70
    21
177
     3
291
     1
 70
    58
 90
        2
176
     0
 90
        2
176
     0
 90
        0
176
     0
 90
        0
176
     0
 40
0.6
176
     0
 40
30.0
176
     0
 62
     7
420
 16777215
176
     0
 90
        1
176
     0
 90
        4
176
     0
 62
     7
176
     0
 62
   257
176
     0
 90
        1
176
     0
 90
        1
176
     0
 40
1.0
176
     0
 90
        9
176
     2
 62
     7
176
     0
 40
1.0
176
     0
 90
        1
176
     0
 90
        6
176
     0
 90
        2
176
     0
 62
     7
176
     0
 90
        5
176
     0
 90
        0
176
     0
 90
        0
176
     0
290
     0
176
     0
 90
        1
176
     0
 40
0.0
176
     0
 90
        0
176
     0
290
     0
176
     0
290
     1
176
     0
290
     1
176
     0
290
     0
176
     0
290
     0
176
     0
290
     0
176
     0
290
     0
176
     0
290
     0
176
     0
290
     0
176
     0
 90
       50
176
     0
 40
0.0
176
     0
 40
1.0
176
     0
 90
        0
176
     0
 62
    18
420
        0
176
     0
 90
       50
176
     0
 90
        3
176
     0
 62
     5
420
      255
176
     0
290
     0
176
     0
 90
       50
176
     0
 90
       50
176
     0
 90
       50
176
     0
290
     0
176
     0
 90
       50
176
     0
 62
   256
176
     0
 40
1.0
176
     0
 90
        2
176
     0
  1
strokes_ogs.tif
176
     0
290
     0
176
     0
 40
1.0
176
     0
 40
1.0
176
     0
  0
VISUALSTYLE
  5
33
102
{ACAD_REACTORS
330
2A
102
}
330
2A
100
AcDbVisualStyle
  2
Realistic
 70
     8
177
     3
291
     0
 70
    58
 90
        2
176
     1
 90
        3
176
     1
 90
        0
176
     1
 90
        2
176
     1
 40
0.6
176
     1
 40
30.0
176
     1
 62
     7
420
 16777215
176
     1
 90
        0
176
     1
 90
        0
176
     1
 62
     7
176
     1
 62
   257
176
     1
 90
        1
176
     1
 90
        1
176
     1
 40
1.0
176
     1
 90
        8
176
     1
 62
   257
176
     1
 40
1.0
176
     1
 90
        1
176
     1
 90
        6
176
     1
 90
        2
176
     1
 62
     7
176
     1
 90
        3
176
     1
 90
        0
176
     1
 90
        0
176
     1
290
     0
176
     1
 90
       13
176
     1
 40
0.0
176
     1
 90
        0
176
     1
290
     0
176
     1
290
     1
176
     1
290
     1
176
     1
290
     0
176
     1
290
     0
176
     1
290
     0
176
     1
290
     0
176
     1
290
     0
176
     1
290
     0
176
     1
 90
       50
176
     1
 40
0.0
176
     1
 40
1.0
176
     1
 90
        0
176
     1
 62
    18
420
        0
176
     1
 90
       50
176
     1
 90
        3
176
     1
 62
     5
420
      255
176
     1
290
     0
176
     1
 90
       50
176
     1
 90
       50
176
     1
 90
       50
176
     1
290
     0
176
     1
 90
       50
176
     1
 62
   256
176
     0
 40
1.0
176
     0
 90
        2
176
     1
  1
strokes_ogs.tif
176
     1
290
     0
176
     1
 40
1.0
176
     1
 40
1.0
176
     1
  0
VISUALSTYLE
  5
42
102
{ACAD_REACTORS
330
2A
102
}
330
2A
100
AcDbVisualStyle
  2
Shaded
 70
    27
177
     3
291
     0
 70
    58
 90
        2
176
     1
 90
        2
176
     1
 90
        1
176
     1
 90
        2
176
     1
 40
0.6
176
     1
 40
30.0
176
     1
 62
     7
420
 16777215
176
     1
 90
        0
176
     1
 90
        4
176
     1
 62
     7
176
     1
 62
   257
176
     1
 90
        1
176
     1
 90
        1
176
     1
 40
1.0
176
     1
 90
        8
176
     1
 62
   257
176
     1
 40
1.0
176
     1
 90
        1
176
     1
 90
        6
176
     1
 90
        2
176
     1
 62
     8
420
  7895160
176
     1
 90
        3
176
     1
 90
        0
176
     1
 90
        0
176
     1
290
     0
176
     1
 90
        5
176
     1
 40
0.0
176
     1
 90
        0
176
     1
290
     0
176
     1
290
     1
176
     1
290
     1
176
     1
290
     0
176
     1
290
     0
176
     1
290
     0
176
     1
290
     0
176
     1
290
     0
176
     1
290
     0
176
     1
 90
       50
176
     1
 40
0.0
176
     1
 40
1.0
176
     1
 90
        0
176
     1
 62
    18
420
        0
176
     1
 90
       50
176
     1
 90
        3
176
     1
 62
     5
420
      255
176
     1
290
     0
176
     1
 90
       50
176
     1
 90
       50
176
     1
 90
       50
176
     1
290
     0
176
     1
 90
       50
176
     1
 62
   256
176
     0
 40
1.0
176
     0
 90
        2
176
     1
  1
strokes_ogs.tif
176
     1
290
     0
176
     1
 40
1.0
176
     1
 40
1.0
176
     1
  0
VISUALSTYLE
  5
41
102
{ACAD_REACTORS
330
2A
102
}
330
2A
100
AcDbVisualStyle
  2
Shaded with edges
 70
    26
177
     3
291
     0
 70
    58
 90
        2
176
     1
 90
        2
176
     1
 90
        1
176
     1
 90
        2
176
     1
 40
0.6
176
     1
 40
30.0
176
     1
 62
     7
420
 16777215
176
     1
 90
        1
176
     1
 90
       10
176
     1
 62
     7
176
     1
 62
   257
176
     1
 90
        2
176
     1
 90
        1
176
     1
 40
1.0
176
     1
 90
        8
176
     1
 62
   257
176
     1
 40
1.0
176
     1
 90
        1
176
     1
 90
        6
176
     1
 90
        2
176
     1
 62
     7
176
     1
 90
        3
176
     1
 90
        0
176
     1
 90
        0
176
     1
290
     0
176
     1
 90
        5
176
     1
 40
0.0
176
     1
 90
        0
176
     1
290
     0
176
     1
290
     1
176
     1
290
     1
176
     1
290
     0
176
     1
290
     0
176
     1
290
     0
176
     1
290
     0
176
     1
290
     0
176
     1
290
     0
176
     1
 90
       50
176
     1
 40
0.0
176
     1
 40
1.0
176
     1
 90
        0
176
     1
 62
    18
420
        0
176
     1
 90
       50
176
     1
 90
        3
176
     1
 62
     5
420
      255
176
     1
290
     0
176
     1
 90
       50
176
     1
 90
       50
176
     1
 90
       50
176
     1
290
     0
176
     1
 90
       50
176
     1
 62
   256
176
     0
 40
1.0
176
     0
 90
        2
176
     1
  1
strokes_ogs.tif
176
     1
290
     0
176
     1
 40
1.0
176
     1
 40
1.0
176
     1
  0
VISUALSTYLE
  5
3E
102
{ACAD_REACTORS
330
2A
102
}
330
2A
100
AcDbVisualStyle
  2
Shades of Gray
 70
    23
177
     3
291
     0
 70
    58
 90
        2
176
     1
 90
        2
176
     1
 90
        3
176
     1
 90
        0
176
     1
 40
0.6
176
     1
 40
30.0
176
     1
 62
     7
420
 16777215
176
     1
 90
        2
176
     1
 90
        2
176
     1
 62
     7
176
     1
 62
     7
176
     1
 90
        1
176
     1
 90
        1
176
     1
 40
40.0
176
     1
 90
        8
176
     1
 62
     7
176
     1
 40
1.0
176
     1
 90
        1
176
     1
 90
        6
176
     1
 90
        2
176
     1
 62
     7
176
     1
 90
        3
176
     1
 90
        0
176
     1
 90
        0
176
     1
290
     0
176
     1
 90
        1
176
     1
 40
0.0
176
     1
 90
        0
176
     1
290
     0
176
     1
290
     1
176
     1
290
     1
176
     1
290
     0
176
     1
290
     0
176
     1
290
     0
176
     1
290
     0
176
     1
290
     0
176
     1
290
     0
176
     1
 90
       50
176
     1
 40
0.0
176
     1
 40
1.0
176
     1
 90
        0
176
     1
 62
    18
420
        0
176
     1
 90
       50
176
     1
 90
        3
176
     1
 62
     5
420
      255
176
     1
290
     0
176
     1
 90
       50
176
     1
 90
       50
176
     1
 90
       50
176
     1
290
     0
176
     1
 90
       50
176
     1
 62
   256
176
     0
 40
1.0
176
     0
 90
        2
176
     1
  1
strokes_ogs.tif
176
     1
290
     0
176
     1
 40
1.0
176
     1
 40
1.0
176
     1
  0
VISUALSTYLE
  5
3F
102
{ACAD_REACTORS
330
2A
102
}
330
2A
100
AcDbVisualStyle
  2
Sketchy
 70
    24
177
     3
291
     0
 70
    58
 90
        1
176
     1
 90
        2
176
     1
 90
        2
176
     1
 90
        0
176
     1
 40
0.6
176
     1
 40
30.0
176
     1
 62
     7
420
 16777215
176
     1
 90
        2
176
     1
 90
        2
176
     1
 62
     7
176
     1
 62
     7
176
     1
 90
        1
176
     1
 90
        1
176
     1
 40
40.0
176
     1
 90
       11
176
     1
 62
     7
176
     1
 40
1.0
176
     1
 90
        1
176
     1
 90
        6
176
     1
 90
        2
176
     1
 62
     7
176
     1
 90
        6
176
     1
 90
        0
176
     1
 90
        0
176
     1
290
     0
176
     1
 90
        1
176
     1
 40
0.0
176
     1
 90
        0
176
     1
290
     0
176
     1
290
     1
176
     1
290
     1
176
     1
290
     0
176
     1
290
     0
176
     1
290
     0
176
     1
290
     0
176
     1
290
     0
176
     1
290
     0
176
     1
 90
       50
176
     1
 40
0.0
176
     1
 40
1.0
176
     1
 90
        0
176
     1
 62
    18
420
        0
176
     1
 90
       50
176
     1
 90
        3
176
     1
 62
     5
420
      255
176
     1
290
     0
176
     1
 90
       50
176
     1
 90
       50
176
     1
 90
       50
176
     1
290
     0
176
     1
 90
       50
176
     1
 62
   256
176
     0
 40
1.0
176
     0
 90
        2
176
     1
  1
strokes_ogs.tif
176
     1
290
     0
176
     1
 40
1.0
176
     1
 40
1.0
176
     1
  0
VISUALSTYLE
  5
37
102
{ACAD_REACTORS
330
2A
102
}
330
2A
100
AcDbVisualStyle
  2
Thicken
 70
    13
177
     3
291
     1
 70
    58
 90
        2
176
     1
 90
        2
176
     1
 90
        0
176
     1
 90
        0
176
     1
 40
0.6
176
     1
 40
30.0
176
     1
 62
     7
420
 16777215
176
     1
 90
        1
176
     1
 90
        4
176
     1
 62
     7
176
     1
 62
   257
176
     1
 90
        1
176
     1
 90
        1
176
     1
 40
1.0
176
     1
 90
       12
176
     1
 62
     7
176
     1
 40
1.0
176
     1
 90
        1
176
     1
 90
        6
176
     1
 90
        2
176
     1
 62
     7
176
     1
 90
        5
176
     1
 90
        0
176
     1
 90
        0
176
     1
290
     0
176
     1
 90
        1
176
     1
 40
0.0
176
     1
 90
        0
176
     1
290
     0
176
     1
290
     1
176
     1
290
     1
176
     1
290
     0
176
     1
290
     0
176
     1
290
     0
176
     1
290
     0
176
     1
290
     0
176
     1
290
     0
176
     1
 90
       50
176
     1
 40
0.0
176
     1
 40
1.0
176
     1
 90
        0
176
     1
 62
    18
420
        0
176
     1
 90
       50
176
     1
 90
        3
176
     1
 62
     5
420
      255
176
     1
290
     0
176
     1
 90
       50
176
     1
 90
       50
176
     1
 90
       50
176
     1
290
     0
176
     1
 90
       50
176
     1
 62
   256
176
     0
 40
1.0
176
     0
 90
        2
176
     1
  1
strokes_ogs.tif
176
     1
290
     0
176
     1
 40
1.0
176
     1
 40
1.0
176
     1
  0
VISUALSTYLE
  5
30
102
{ACAD_REACTORS
330
2A
102
}
330
2A
100
AcDbVisualStyle
  2
Wireframe
 70
     5
177
     3
291
     0
 70
    58
 90
        0
176
     1
 90
        2
176
     1
 90
        0
176
     1
 90
        0
176
     1
 40
0.6
176
     1
 40
30.0
176
     1
 62
     7
420
 16777215
176
     1
 90
        1
176
     1
 90
        4
176
     1
 62
     7
176
     1
 62
   257
176
     1
 90
        1
176
     1
 90
        1
176
     1
 40
1.0
176
     1
 90
        0
176
     1
 62
   257
176
     1
 40
1.0
176
     1
 90
        1
176
     1
 90
        6
176
     1
 90
        2
176
     1
 62
     7
176
     1
 90
        3
176
     1
 90
        0
176
     1
 90
        0
176
     1
290
     0
176
     1
 90
        1
176
     1
 40
0.0
176
     1
 90
        0
176
     1
290
     0
176
     1
290
     1
176
     1
290
     1
176
     1
290
     0
176
     1
290
     0
176
     1
290
     0
176
     1
290
     0
176
     1
290
     0
176
     1
290
     0
176
     1
 90
       50
176
     1
 40
0.0
176
     1
 40
1.0
176
     1
 90
        0
176
     1
 62
    18
420
        0
176
     1
 90
       50
176
     1
 90
        3
176
     1
 62
     5
420
      255
176
     1
290
     0
176
     1
 90
       50
176
     1
 90
       50
176
     1
 90
       50
176
     1
290
     0
176
     1
 90
       50
176
     1
 62
   256
176
     0
 40
1.0
176
     0
 90
        2
176
     1
  1
strokes_ogs.tif
176
     1
290
     0
176
     1
 40
1.0
176
     1
 40
1.0
176
     1
  0
VISUALSTYLE
  5
40
102
{ACAD_REACTORS
330
2A
102
}
330
2A
100
AcDbVisualStyle
  2
X-Ray
 70
    25
177
     3
291
     0
 70
    58
 90
        2
176
     1
 90
        2
176
     1
 90
        1
176
     1
 90
        1
176
     1
 40
0.5
176
     1
 40
30.0
176
     1
 62
     7
420
 16777215
176
     1
 90
        1
176
     1
 90
        0
176
     1
 62
     7
176
     1
 62
   257
176
     1
 90
        1
176
     1
 90
        1
176
     1
 40
1.0
176
     1
 90
        8
176
     1
 62
     7
176
     1
 40
1.0
176
     1
 90
        1
176
     1
 90
        6
176
     1
 90
        2
176
     1
 62
     7
176
     1
 90
        3
176
     1
 90
        0
176
     1
 90
        0
176
     1
290
     0
176
     1
 90
       13
176
     1
 40
0.0
176
     1
 90
        0
176
     1
290
     0
176
     1
290
     1
176
     1
290
     1
176
     1
290
     0
176
     1
290
     0
176
     1
290
     0
176
     1
290
     0
176
     1
290
     0
176
     1
290
     0
176
     1
 90
       50
176
     1
 40
0.0
176
     1
 40
1.0
176
     1
 90
        0
176
     1
 62
    18
420
        0
176
     1
 90
       50
176
     1
 90
        3
176
     1
 62
     5
420
      255
176
     1
290
     0
176
     1
 90
       50
176
     1
 90
       50
176
     1
 90
       50
176
     1
290
     0
176
     1
 90
       50
176
     1
 62
   256
176
     0
 40
1.0
176
     0
 90
        2
176
     1
  1
strokes_ogs.tif
176
     1
290
     0
176
     1
 40
1.0
176
     1
 40
1.0
176
     1
  0
DICTIONARYVAR
  5
1CD
102
{ACAD_REACTORS
330
1CC
102
}
330
1CC
100
DictionaryVariables
280
     0
  1
1:1
  0
DICTIONARYVAR
  5
1D2
102
{ACAD_REACTORS
330
1CC
102
}
330
1CC
100
DictionaryVariables
280
     0
  1
Standard
  0
DICTIONARYVAR
  5
1D1
102
{ACAD_REACTORS
330
1CC
102
}
330
1CC
100
DictionaryVariables
280
     0
  1
Standard
  0
DICTIONARY
  5
1CE
330
6A
100
AcDbDictionary
280
     1
281
     1
  3
ACAD_ROUNDTRIP_2008_TABLESTYLE_CELLSTYLEMAP
360
1CF
  0
CELLSTYLEMAP
  5
1CF
102
{ACAD_REACTORS
330
1CE
102
}
330
1CE
100
AcDbCellStyleMap
 90
        3
300
CELLSTYLE
  1
TABLEFORMAT_BEGIN
 90
        5
170
     1
 91
        0
 92
    32768
 62
   257
 93
        1
300
CONTENTFORMAT
  1
CONTENTFORMAT_BEGIN
 90
        0
 91
        0
 92
        4
 93
        0
300

 40
0.0
140
1.0
 94
        5
 62
     0
340
11
144
0.25
309
CONTENTFORMAT_END
171
     1
301
MARGIN
  1
CELLMARGIN_BEGIN
 40
0.06
 40
0.06
 40
0.06
 40
0.06
 40
0.06
 40
0.06
309
CELLMARGIN_END
 94
        6
 95
        1
302
GRIDFORMAT
  1
GRIDFORMAT_BEGIN
 90
        0
 91
        1
 62
     0
 92
       -2
340
14
 93
        0
 40
0.045
309
GRIDFORMAT_END
 95
        2
302
GRIDFORMAT
  1
GRIDFORMAT_BEGIN
 90
        0
 91
        1
 62
     0
 92
       -2
340
14
 93
        0
 40
0.045
309
GRIDFORMAT_END
 95
        4
302
GRIDFORMAT
  1
GRIDFORMAT_BEGIN
 90
        0
 91
        1
 62
     0
 92
       -2
340
14
 93
        0
 40
0.045
309
GRIDFORMAT_END
 95
        8
302
GRIDFORMAT
  1
GRIDFORMAT_BEGIN
 90
        0
 91
        1
 62
     0
 92
       -2
340
14
 93
        0
 40
0.045
309
GRIDFORMAT_END
 95
       16
302
GRIDFORMAT
  1
GRIDFORMAT_BEGIN
 90
        0
 91
        1
 62
     0
 92
       -2
340
14
 93
        0
 40
0.045
309
GRIDFORMAT_END
 95
       32
302
GRIDFORMAT
  1
GRIDFORMAT_BEGIN
 90
        0
 91
        1
 62
     0
 92
       -2
340
14
 93
        0
 40
0.045
309
GRIDFORMAT_END
309
TABLEFORMAT_END
  1
CELLSTYLE_BEGIN
 90
        1
 91
        1
300
_TITLE
309
CELLSTYLE_END
300
CELLSTYLE
  1
TABLEFORMAT_BEGIN
 90
        5
170
     1
 91
        0
 92
        0
 62
   257
 93
        1
300
CONTENTFORMAT
  1
CONTENTFORMAT_BEGIN
 90
        0
 91
        0
 92
        4
 93
        0
300

 40
0.0
140
1.0
 94
        5
 62
     0
340
11
144
0.18
309
CONTENTFORMAT_END
171
     1
301
MARGIN
  1
CELLMARGIN_BEGIN
 40
0.06
 40
0.06
 40
0.06
 40
0.06
 40
0.06
 40
0.06
309
CELLMARGIN_END
 94
        6
 95
        1
302
GRIDFORMAT
  1
GRIDFORMAT_BEGIN
 90
        0
 91
        1
 62
     0
 92
       -2
340
14
 93
        0
 40
0.045
309
GRIDFORMAT_END
 95
        2
302
GRIDFORMAT
  1
GRIDFORMAT_BEGIN
 90
        0
 91
        1
 62
     0
 92
       -2
340
14
 93
        0
 40
0.045
309
GRIDFORMAT_END
 95
        4
302
GRIDFORMAT
  1
GRIDFORMAT_BEGIN
 90
        0
 91
        1
 62
     0
 92
       -2
340
14
 93
        0
 40
0.045
309
GRIDFORMAT_END
 95
        8
302
GRIDFORMAT
  1
GRIDFORMAT_BEGIN
 90
        0
 91
        1
 62
     0
 92
       -2
340
14
 93
        0
 40
0.045
309
GRIDFORMAT_END
 95
       16
302
GRIDFORMAT
  1
GRIDFORMAT_BEGIN
 90
        0
 91
        1
 62
     0
 92
       -2
340
14
 93
        0
 40
0.045
309
GRIDFORMAT_END
 95
       32
302
GRIDFORMAT
  1
GRIDFORMAT_BEGIN
 90
        0
 91
        1
 62
     0
 92
       -2
340
14
 93
        0
 40
0.045
309
GRIDFORMAT_END
309
TABLEFORMAT_END
  1
CELLSTYLE_BEGIN
 90
        2
 91
        1
300
_HEADER
309
CELLSTYLE_END
300
CELLSTYLE
  1
TABLEFORMAT_BEGIN
 90
        5
170
     1
 91
        0
 92
        0
 62
   257
 93
        1
300
CONTENTFORMAT
  1
CONTENTFORMAT_BEGIN
 90
        0
 91
        0
 92
        4
 93
        0
300

 40
0.0
140
1.0
 94
        2
 62
     0
340
11
144
0.18
309
CONTENTFORMAT_END
171
     1
301
MARGIN
  1
CELLMARGIN_BEGIN
 40
0.06
 40
0.06
 40
0.06
 40
0.06
 40
0.06
 40
0.06
309
CELLMARGIN_END
 94
        6
 95
        1
302
GRIDFORMAT
  1
GRIDFORMAT_BEGIN
 90
        0
 91
        1
 62
     0
 92
       -2
340
14
 93
        0
 40
0.045
309
GRIDFORMAT_END
 95
        2
302
GRIDFORMAT
  1
GRIDFORMAT_BEGIN
 90
        0
 91
        1
 62
     0
 92
       -2
340
14
 93
        0
 40
0.045
309
GRIDFORMAT_END
 95
        4
302
GRIDFORMAT
  1
GRIDFORMAT_BEGIN
 90
        0
 91
        1
 62
     0
 92
       -2
340
14
 93
        0
 40
0.045
309
GRIDFORMAT_END
 95
        8
302
GRIDFORMAT
  1
GRIDFORMAT_BEGIN
 90
        0
 91
        1
 62
     0
 92
       -2
340
14
 93
        0
 40
0.045
309
GRIDFORMAT_END
 95
       16
302
GRIDFORMAT
  1
GRIDFORMAT_BEGIN
 90
        0
 91
        1
 62
     0
 92
       -2
340
14
 93
        0
 40
0.045
309
GRIDFORMAT_END
 95
       32
302
GRIDFORMAT
  1
GRIDFORMAT_BEGIN
 90
        0
 91
        1
 62
     0
 92
       -2
340
14
 93
        0
 40
0.045
309
GRIDFORMAT_END
309
TABLEFORMAT_END
  1
CELLSTYLE_BEGIN
 90
        3
 91
        2
300
_DATA
309
CELLSTYLE_END
  0
ENDSEC
  0
EOF