0
SECTION
  2
HEADER
  9
$ACADVER
  1
AC1027
  9
$ACADMAINTVER
 70
     8
  9
$DWGCODEPAGE
  3
ANSI_1252
  9
$REQUIREDVERSIONS
160
                 0
  9
$COMMENTS
  1
File was created by Cadenas
  9
$CUSTOMPROPERTYTAG
  1
NN
  9
$CUSTOMPROPERTY
  1
Eccentric Collar Intermediate Duty Two-Bolt Flange Inch Bore
  9
$CUSTOMPROPERTYTAG
  1
NT
  9
$CUSTOMPROPERTY
  1
Eccentric Collar 2-Bolt Flange Bearings -(Normal Duty)
  9
$CUSTOMPROPERTYTAG
  1
NB
  9
$CUSTOMPROPERTY
  1
130328
  9
$CUSTOMPROPERTYTAG
  1
NBSYN
  9
$CUSTOMPROPERTY
  1
$PN.
  9
$CUSTOMPROPERTYTAG
  1
LINA
  9
$CUSTOMPROPERTY
  1
130328
  9
$CUSTOMPROPERTYTAG
  1
SERIES
  9
$CUSTOMPROPERTY
  1
209
  9
$CUSTOMPROPERTYTAG
  1
SS
  9
$CUSTOMPROPERTY
  1
1-11/16
  9
$CUSTOMPROPERTYTAG
  1
PN
  9
$CUSTOMPROPERTY
  1
130328
  9
$CUSTOMPROPERTYTAG
  1
DESCRIPTION
  9
$CUSTOMPROPERTY
  1
F2B-SXV-111
  9
$CUSTOMPROPERTYTAG
  1
LF
  9
$CUSTOMPROPERTY
  1
RE-LUBE
  9
$CUSTOMPROPERTYTAG
  1
W
  9
$CUSTOMPROPERTY
  1
5.1
  9
$CUSTOMPROPERTYTAG
  1
A
  9
$CUSTOMPROPERTY
  1
1.69
  9
$CUSTOMPROPERTYTAG
  1
B
  9
$CUSTOMPROPERTY
  1
7.06
  9
$CUSTOMPROPERTYTAG
  1
C
  9
$CUSTOMPROPERTY
  1
2.07
  9
$CUSTOMPROPERTYTAG
  1
D
  9
$CUSTOMPROPERTY
  1
5.84
  9
$CUSTOMPROPERTYTAG
  1
F
  9
$CUSTOMPROPERTY
  1
1/2
  9
$CUSTOMPROPERTYTAG
  1
H
  9
$CUSTOMPROPERTY
  1
0.63
  9
$CUSTOMPROPERTYTAG
  1
J
  9
$CUSTOMPROPERTY
  1
0.66
  9
$CUSTOMPROPERTYTAG
  1
L
  9
$CUSTOMPROPERTY
  1
2.5
  9
$CUSTOMPROPERTYTAG
  1
M
  9
$CUSTOMPROPERTY
  1
4.38
  9
$CUSTOMPROPERTYTAG
  1
N
  9
$CUSTOMPROPERTY
  1
1.91
  9
$CUSTOMPROPERTYTAG
  1
COMPANY
  9
$CUSTOMPROPERTY
  1
baldor
  9
$INSBASE
 10
0.0
 20
0.0
 30
0.0
  9
$EXTMIN
 10
1.000000000000000E+20
 20
1.000000000000000E+20
 30
1.000000000000000E+20
  9
$EXTMAX
 10
-1.000000000000000E+20
 20
-1.000000000000000E+20
 30
-1.000000000000000E+20
  9
$LIMMIN
 10
0.0
 20
0.0
  9
$LIMMAX
 10
12.0
 20
9.0
  9
$ORTHOMODE
 70
     0
  9
$REGENMODE
 70
     1
  9
$FILLMODE
 70
     1
  9
$QTEXTMODE
 70
     0
  9
$MIRRTEXT
 70
     1
  9
$LTSCALE
 40
1.0
  9
$ATTMODE
 70
     1
  9
$TEXTSIZE
 40
0.2
  9
$TRACEWID
 40
0.05
  9
$TEXTSTYLE
  7
Standard
  9
$CLAYER
  8
0
  9
$CELTYPE
  6
ByLayer
  9
$CECOLOR
 62
   256
  9
$CELTSCALE
 40
1.0
  9
$DISPSILH
 70
     0
  9
$DIMSCALE
 40
1.0
  9
$DIMASZ
 40
0.18
  9
$DIMEXO
 40
0.0625
  9
$DIMDLI
 40
0.38
  9
$DIMRND
 40
0.0
  9
$DIMDLE
 40
0.0
  9
$DIMEXE
 40
0.18
  9
$DIMTP
 40
0.0
  9
$DIMTM
 40
0.0
  9
$DIMTXT
 40
0.18
  9
$DIMCEN
 40
0.09
  9
$DIMTSZ
 40
0.0
  9
$DIMTOL
 70
     0
  9
$DIMLIM
 70
     0
  9
$DIMTIH
 70
     1
  9
$DIMTOH
 70
     1
  9
$DIMSE1
 70
     0
  9
$DIMSE2
 70
     0
  9
$DIMTAD
 70
     0
  9
$DIMZIN
 70
     0
  9
$DIMBLK
  1

  9
$DIMASO
 70
     1
  9
$DIMSHO
 70
     1
  9
$DIMPOST
  1

  9
$DIMAPOST
  1

  9
$DIMALT
 70
     0
  9
$DIMALTD
 70
     2
  9
$DIMALTF
 40
25.4
  9
$DIMLFAC
 40
1.0
  9
$DIMTOFL
 70
     0
  9
$DIMTVP
 40
0.0
  9
$DIMTIX
 70
     0
  9
$DIMSOXD
 70
     0
  9
$DIMSAH
 70
     0
  9
$DIMBLK1
  1

  9
$DIMBLK2
  1

  9
$DIMSTYLE
  2
Standard
  9
$DIMCLRD
 70
     0
  9
$DIMCLRE
 70
     0
  9
$DIMCLRT
 70
     0
  9
$DIMTFAC
 40
1.0
  9
$DIMGAP
 40
0.09
  9
$DIMJUST
 70
     0
  9
$DIMSD1
 70
     0
  9
$DIMSD2
 70
     0
  9
$DIMTOLJ
 70
     1
  9
$DIMTZIN
 70
     0
  9
$DIMALTZ
 70
     0
  9
$DIMALTTZ
 70
     0
  9
$DIMUPT
 70
     0
  9
$DIMDEC
 70
     4
  9
$DIMTDEC
 70
     4
  9
$DIMALTU
 70
     2
  9
$DIMALTTD
 70
     2
  9
$DIMTXSTY
  7
Standard
  9
$DIMAUNIT
 70
     0
  9
$DIMADEC
 70
     0
  9
$DIMALTRND
 40
0.0
  9
$DIMAZIN
 70
     0
  9
$DIMDSEP
 70
    46
  9
$DIMATFIT
 70
     3
  9
$DIMFRAC
 70
     0
  9
$DIMLDRBLK
  1

  9
$DIMLUNIT
 70
     2
  9
$DIMLWD
 70
    -2
  9
$DIMLWE
 70
    -2
  9
$DIMTMOVE
 70
     0
  9
$DIMFXL
 40
1.0
  9
$DIMFXLON
 70
     0
  9
$DIMJOGANG
 40
0.7853981633974483
  9
$DIMTFILL
 70
     0
  9
$DIMTFILLCLR
 70
     0
  9
$DIMARCSYM
 70
     0
  9
$DIMLTYPE
  6

  9
$DIMLTEX1
  6

  9
$DIMLTEX2
  6

  9
$DIMTXTDIRECTION
 70
     0
  9
$LUNITS
 70
     2
  9
$LUPREC
 70
     4
  9
$SKETCHINC
 40
0.1
  9
$FILLETRAD
 40
0.5
  9
$AUNITS
 70
     0
  9
$AUPREC
 70
     0
  9
$MENU
  1
.
  9
$ELEVATION
 40
0.0
  9
$PELEVATION
 40
0.0
  9
$THICKNESS
 40
0.0
  9
$LIMCHECK
 70
     0
  9
$CHAMFERA
 40
0.0
  9
$CHAMFERB
 40
0.0
  9
$CHAMFERC
 40
0.0
  9
$CHAMFERD
 40
0.0
  9
$SKPOLY
 70
     0
  9
$TDCREATE
 40
2458169.004014583
  9
$TDUCREATE
 40
2458168.962347917
  9
$TDUPDATE
 40
2458169.004014757
  9
$TDUUPDATE
 40
2458168.96234809
  9
$TDINDWG
 40
0.0000000116
  9
$TDUSRTIMER
 40
0.0000000116
  9
$USRTIMER
 70
     1
  9
$ANGBASE
 50
0.0
  9
$ANGDIR
 70
     0
  9
$PDMODE
 70
     0
  9
$PDSIZE
 40
0.0
  9
$PLINEWID
 40
0.0
  9
$SPLFRAME
 70
     0
  9
$SPLINETYPE
 70
     6
  9
$SPLINESEGS
 70
     8
  9
$HANDSEED
  5
1AC
  9
$SURFTAB1
 70
     6
  9
$SURFTAB2
 70
     6
  9
$SURFTYPE
 70
     6
  9
$SURFU
 70
     6
  9
$SURFV
 70
     6
  9
$UCSBASE
  2

  9
$UCSNAME
  2

  9
$UCSORG
 10
0.0
 20
0.0
 30
0.0
  9
$UCSXDIR
 10
1.0
 20
0.0
 30
0.0
  9
$UCSYDIR
 10
0.0
 20
1.0
 30
0.0
  9
$UCSORTHOREF
  2

  9
$UCSORTHOVIEW
 70
     0
  9
$UCSORGTOP
 10
0.0
 20
0.0
 30
0.0
  9
$UCSORGBOTTOM
 10
0.0
 20
0.0
 30
0.0
  9
$UCSORGLEFT
 10
0.0
 20
0.0
 30
0.0
  9
$UCSORGRIGHT
 10
0.0
 20
0.0
 30
0.0
  9
$UCSORGFRONT
 10
0.0
 20
0.0
 30
0.0
  9
$UCSORGBACK
 10
0.0
 20
0.0
 30
0.0
  9
$PUCSBASE
  2

  9
$PUCSNAME
  2

  9
$PUCSORG
 10
0.0
 20
0.0
 30
0.0
  9
$PUCSXDIR
 10
1.0
 20
0.0
 30
0.0
  9
$PUCSYDIR
 10
0.0
 20
1.0
 30
0.0
  9
$PUCSORTHOREF
  2

  9
$PUCSORTHOVIEW
 70
     0
  9
$PUCSORGTOP
 10
0.0
 20
0.0
 30
0.0
  9
$PUCSORGBOTTOM
 10
0.0
 20
0.0
 30
0.0
  9
$PUCSORGLEFT
 10
0.0
 20
0.0
 30
0.0
  9
$PUCSORGRIGHT
 10
0.0
 20
0.0
 30
0.0
  9
$PUCSORGFRONT
 10
0.0
 20
0.0
 30
0.0
  9
$PUCSORGBACK
 10
0.0
 20
0.0
 30
0.0
  9
$USERI1
 70
     0
  9
$USERI2
 70
     0
  9
$USERI3
 70
     0
  9
$USERI4
 70
     0
  9
$USERI5
 70
     0
  9
$USERR1
 40
0.0
  9
$USERR2
 40
0.0
  9
$USERR3
 40
0.0
  9
$USERR4
 40
0.0
  9
$USERR5
 40
0.0
  9
$WORLDVIEW
 70
     1
  9
$SHADEDGE
 70
     3
  9
$SHADEDIF
 70
    70
  9
$TILEMODE
 70
     1
  9
$MAXACTVP
 70
    64
  9
$PINSBASE
 10
0.0
 20
0.0
 30
0.0
  9
$PLIMCHECK
 70
     0
  9
$PEXTMIN
 10
1.000000000000000E+20
 20
1.000000000000000E+20
 30
1.000000000000000E+20
  9
$PEXTMAX
 10
-1.000000000000000E+20
 20
-1.000000000000000E+20
 30
-1.000000000000000E+20
  9
$PLIMMIN
 10
0.0
 20
0.0
  9
$PLIMMAX
 10
12.0
 20
9.0
  9
$UNITMODE
 70
     0
  9
$VISRETAIN
 70
     1
  9
$PLINEGEN
 70
     0
  9
$PSLTSCALE
 70
     1
  9
$TREEDEPTH
 70
  3020
  9
$CMLSTYLE
  2
Standard
  9
$CMLJUST
 70
     0
  9
$CMLSCALE
 40
1.0
  9
$PROXYGRAPHICS
 70
     1
  9
$MEASUREMENT
 70
     0
  9
$CELWEIGHT
370
    -1
  9
$ENDCAPS
280
     0
  9
$JOINSTYLE
280
     0
  9
$LWDISPLAY
290
     0
  9
$INSUNITS
 70
     1
  9
$HYPERLINKBASE
  1

  9
$STYLESHEET
  1

  9
$XEDIT
290
     1
  9
$CEPSNTYPE
380
     0
  9
$PSTYLEMODE
290
     1
  9
$FINGERPRINTGUID
  2
{1C7E8F0D-1BAA-444A-A8F0-01D763E00FEB}
  9
$VERSIONGUID
  2
{FAEB1C32-E019-11D5-929B-00C0DF256EC4}
  9
$EXTNAMES
290
     1
  9
$PSVPSCALE
 40
0.0
  9
$OLESTARTUP
290
     0
  9
$SORTENTS
280
   127
  9
$INDEXCTL
280
     0
  9
$HIDETEXT
280
     1
  9
$XCLIPFRAME
280
     2
  9
$HALOGAP
280
     0
  9
$OBSCOLOR
 70
   257
  9
$OBSLTYPE
280
     0
  9
$INTERSECTIONDISPLAY
280
     0
  9
$INTERSECTIONCOLOR
 70
   257
  9
$DIMASSOC
280
     2
  9
$PROJECTNAME
  1

  9
$CAMERADISPLAY
290
     0
  9
$LENSLENGTH
 40
50.0
  9
$CAMERAHEIGHT
 40
0.0
  9
$STEPSPERSEC
 40
2.0
  9
$STEPSIZE
 40
6.0
  9
$3DDWFPREC
 40
2.0
  9
$PSOLWIDTH
 40
0.25
  9
$PSOLHEIGHT
 40
4.0
  9
$LOFTANG1
 40
1.570796326794897
  9
$LOFTANG2
 40
1.570796326794897
  9
$LOFTMAG1
 40
0.0
  9
$LOFTMAG2
 40
0.0
  9
$LOFTPARAM
 70
     7
  9
$LOFTNORMALS
280
     1
  9
$LATITUDE
 40
37.795
  9
$LONGITUDE
 40
-122.394
  9
$NORTHDIRECTION
 40
0.0
  9
$TIMEZONE
 70
 -8000
  9
$LIGHTGLYPHDISPLAY
280
     1
  9
$TILEMODELIGHTSYNCH
280
     1
  9
$CMATERIAL
347
44
  9
$SOLIDHIST
280
     0
  9
$SHOWHIST
280
     1
  9
$DWFFRAME
280
     2
  9
$DGNFRAME
280
     2
  9
$REALWORLDSCALE
290
     1
  9
$INTERFERECOLOR
 62
   256
  9
$CSHADOW
280
     0
  9
$SHADOWPLANELOCATION
 40
0.0
  0
ENDSEC
  0
SECTION
  2
CLASSES
  0
CLASS
  1
ACDBDICTIONARYWDFLT
  2
AcDbDictionaryWithDefault
  3
ObjectDBX Classes
 90
        0
 91
        4
280
     0
281
     0
  0
CLASS
  1
VISUALSTYLE
  2
AcDbVisualStyle
  3
ObjectDBX Classes
 90
     4095
 91
        4
280
     0
281
     0
  0
CLASS
  1
MATERIAL
  2
AcDbMaterial
  3
ObjectDBX Classes
 90
     1153
 91
        4
280
     0
281
     0
  0
CLASS
  1
SCALE
  2
AcDbScale
  3
ObjectDBX Classes
 90
     1153
 91
        4
280
     0
281
     0
  0
CLASS
  1
TABLESTYLE
  2
AcDbTableStyle
  3
ObjectDBX Classes
 90
     4095
 91
        4
280
     0
281
     0
  0
CLASS
  1
MLEADERSTYLE
  2
AcDbMLeaderStyle
  3
ACDB_MLEADERSTYLE_CLASS
 90
     4095
 91
        4
280
     0
281
     0
  0
CLASS
  1
SUN
  2
AcDbSun
  3
SCENEOE
 90
     1153
 91
        4
280
     0
281
     0
  0
CLASS
  1
DICTIONARYVAR
  2
AcDbDictionaryVar
  3
ObjectDBX Classes
 90
        0
 91
        4
280
     0
281
     0
  0
CLASS
  1
CELLSTYLEMAP
  2
AcDbCellStyleMap
  3
ObjectDBX Classes
 90
     1152
 91
        4
280
     0
281
     0
  0
ENDSEC
  0
SECTION
  2
TABLES
  0
TABLE
  2
VPORT
  5
8
330
0
100
AcDbSymbolTable
 70
     1
  0
VPORT
  5
29
330
8
100
AcDbSymbolTableRecord
100
AcDbViewportTableRecord
  2
*Active
 70
     0
 10
0.0
 20
0.0
 11
1.0
 21
1.0
 12
-1.042125
 22
0.0
 13
0.0
 23
0.0
 14
0.5
 24
0.5
 15
0.5
 25
0.5
 16
0.0
 26
0.0
 36
1.0
 17
0.0
 27
0.0
 37
0.0
 40
7.201200000000002
 41
0.3151912181303114
 42
50.0
 43
0.0
 44
0.0
 50
0.0
 51
0.0
 71
     0
 72
   100
 73
     1
 74
     3
 75
     0
 76
     0
 77
     0
 78
     0
281
     0
 65
     1
110
0.0
120
0.0
130
0.0
111
1.0
121
0.0
131
0.0
112
0.0
122
1.0
132
0.0
 79
     0
146
0.0
348
2F
 60
     3
 61
     5
292
     1
282
     1
141
0.0
142
0.0
 63
   250
361
6D
  0
ENDTAB
  0
TABLE
  2
LTYPE
  5
5
330
0
100
AcDbSymbolTable
 70
     3
  0
LTYPE
  5
14
330
5
100
AcDbSymbolTableRecord
100
AcDbLinetypeTableRecord
  2
ByBlock
 70
     0
  3

 72
    65
 73
     0
 40
0.0
  0
LTYPE
  5
15
330
5
100
AcDbSymbolTableRecord
100
AcDbLinetypeTableRecord
  2
ByLayer
 70
     0
  3

 72
    65
 73
     0
 40
0.0
  0
LTYPE
  5
16
330
5
100
AcDbSymbolTableRecord
100
AcDbLinetypeTableRecord
  2
Continuous
 70
     0
  3
Solid line
 72
    65
 73
     0
 40
0.0
  0
LTYPE
  5
95
330
5
100
AcDbSymbolTableRecord
100
AcDbLinetypeTableRecord
  2
Dashed
 70
     0
  3

 72
    65
 73
     2
 40
2.0
 49
1.0
 74
     0
 49
-1.0
 74
     0
  0
LTYPE
  5
120
330
5
100
AcDbSymbolTableRecord
100
AcDbLinetypeTableRecord
  2
Center
 70
     0
  3

 72
    65
 73
     4
 40
1.5
 49
0.45
 74
     0
 49
-0.5
 74
     0
 49
0.05
 74
     0
 49
-0.5
 74
     0
  0
ENDTAB
  0
TABLE
  2
LAYER
  5
2
330
0
100
AcDbSymbolTable
 70
     7
  0
LAYER
  5
10
330
2
100
AcDbSymbolTableRecord
100
AcDbLayerTableRecord
  2
0
 70
     0
 62
     7
  6
Continuous
370
    -3
390
F
347
46
348
0
  0
LAYER
  5
72
330
2
100
AcDbSymbolTableRecord
100
AcDbLayerTableRecord
  2
AM_6
 70
     0
 62
    -2
  6
Continuous
370
    35
390
F
347
46
348
0
  0
LAYER
  5
96
330
2
100
AcDbSymbolTableRecord
100
AcDbLayerTableRecord
  2
AM_9
 70
     0
 62
     6
  6
Dashed
370
    25
390
F
347
46
348
0
  0
LAYER
  5
BC
330
2
100
AcDbSymbolTableRecord
100
AcDbLayerTableRecord
  2
AM_4
 70
     0
 62
     7
  6
Continuous
370
    50
390
F
347
46
348
0
  0
LAYER
  5
11E
330
2
100
AcDbSymbolTableRecord
100
AcDbLayerTableRecord
  2
AM_5
 70
     0
 62
     3
  6
Continuous
370
    25
390
F
347
46
348
0
  0
LAYER
  5
121
330
2
100
AcDbSymbolTableRecord
100
AcDbLayerTableRecord
  2
AM_7
 70
     0
 62
     7
  6
Center
370
    25
390
F
347
46
348
0
  0
LAYER
  5
19E
330
2
100
AcDbSymbolTableRecord
100
AcDbLayerTableRecord
  2
ConnectionPoints
 70
     0
 62
     7
  6
Continuous
370
    50
390
F
347
46
348
0
  0
ENDTAB
  0
TABLE
  2
STYLE
  5
3
330
0
100
AcDbSymbolTable
 70
     1
  0
STYLE
  5
11
330
3
100
AcDbSymbolTableRecord
100
AcDbTextStyleTableRecord
  2
Standard
 70
     0
 40
0.0
 41
1.0
 50
0.0
 71
     0
 42
0.2
  3
txt
  4

  0
ENDTAB
  0
TABLE
  2
VIEW
  5
6
330
0
100
AcDbSymbolTable
 70
     0
  0
ENDTAB
  0
TABLE
  2
UCS
  5
7
330
0
100
AcDbSymbolTable
 70
     0
  0
ENDTAB
  0
TABLE
  2
APPID
  5
9
330
0
100
AcDbSymbolTable
 70
     1
  0
APPID
  5
12
330
9
100
AcDbSymbolTableRecord
100
AcDbRegAppTableRecord
  2
ACAD
 70
     0
  0
ENDTAB
  0
TABLE
  2
DIMSTYLE
  5
A
330
0
100
AcDbSymbolTable
 70
     1
100
AcDbDimStyleTable
  0
DIMSTYLE
105
27
330
A
100
AcDbSymbolTableRecord
100
AcDbDimStyleTableRecord
  2
Standard
 70
     0
178
     0
340
11
  0
ENDTAB
  0
TABLE
  2
BLOCK_RECORD
  5
1
330
0
100
AcDbSymbolTable
 70
     5
  0
BLOCK_RECORD
  5
1F
330
1
100
AcDbSymbolTableRecord
100
AcDbBlockTableRecord
  2
*Model_Space
340
22
 70
     0
280
     1
281
     0
  0
BLOCK_RECORD
  5
1B
330
1
100
AcDbSymbolTableRecord
100
AcDbBlockTableRecord
  2
*Paper_Space
340
1E
 70
     0
280
     1
281
     0
  0
BLOCK_RECORD
  5
23
330
1
100
AcDbSymbolTableRecord
100
AcDbBlockTableRecord
  2
*Paper_Space0
340
26
 70
     0
280
     1
281
     0
  0
BLOCK_RECORD
  5
6E
330
1
100
AcDbSymbolTableRecord
100
AcDbBlockTableRecord
  2
1_130328_2
340
0
102
{BLKREFS
331
6F
102
}
 70
     0
280
     1
281
     0
  0
BLOCK_RECORD
  5
89
330
1
100
AcDbSymbolTableRecord
100
AcDbBlockTableRecord
  2
2_405015E_Inch_0_in_130328_2
340
0
102
{BLKREFS
331
8A
102
}
 70
     0
280
     1
281
     0
  0
BLOCK_RECORD
  5
DC
330
1
100
AcDbSymbolTableRecord
100
AcDbBlockTableRecord
  2
3_130302_0_in_130328_2
340
0
102
{BLKREFS
331
DD
102
}
 70
     0
280
     1
281
     0
  0
BLOCK_RECORD
  5
13A
330
1
100
AcDbSymbolTableRecord
100
AcDbBlockTableRecord
  2
4_130328H_0_in_130328_2
340
0
102
{BLKREFS
331
13B
102
}
 70
     0
280
     1
281
     0
  0
ENDTAB
  0
ENDSEC
  0
SECTION
  2
BLOCKS
  0
BLOCK
  5
20
330
1F
100
AcDbEntity
  8
0
100
AcDbBlockBegin
  2
*Model_Space
 70
     0
 10
0.0
 20
0.0
 30
0.0
  3
*Model_Space
  1

  0
ENDBLK
  5
21
330
1F
100
AcDbEntity
  8
0
100
AcDbBlockEnd
  0
BLOCK
  5
1C
330
1B
100
AcDbEntity
 67
     1
  8
0
100
AcDbBlockBegin
  2
*Paper_Space
 70
     0
 10
0.0
 20
0.0
 30
0.0
  3
*Paper_Space
  1

  0
ENDBLK
  5
1D
330
1B
100
AcDbEntity
 67
     1
  8
0
100
AcDbBlockEnd
  0
BLOCK
  5
24
330
23
100
AcDbEntity
  8
0
100
AcDbBlockBegin
  2
*Paper_Space0
 70
     0
 10
0.0
 20
0.0
 30
0.0
  3
*Paper_Space0
  1

  0
ENDBLK
  5
25
330
23
100
AcDbEntity
  8
0
100
AcDbBlockEnd
  0
BLOCK
  5
70
330
6E
100
AcDbEntity
  8
0
100
AcDbBlockBegin
  2
1_130328_2
 70
     2
 10
0.0
 20
0.0
 30
0.0
  3
1_130328_2
  1

  0
ATTDEF
  5
73
330
6E
100
AcDbEntity
  8
AM_6
100
AcDbText
 10
5.0705
 20
3.53
 30
0.0
 40
0.5
  1
Eccentric Collar Intermediate Duty Two-Bolt Flange Inch Bore
100
AcDbAttributeDefinition
  3

  2
NN
 70
     8
280
     0
  0
ATTDEF
  5
74
330
6E
100
AcDbEntity
  8
AM_6
100
AcDbText
 10
5.0705
 20
3.03
 30
0.0
 40
0.5
  1
Eccentric Collar 2-Bolt Flange Bearings -(Normal Duty)
100
AcDbAttributeDefinition
  3

  2
NT
 70
     8
280
     0
  0
ATTDEF
  5
75
330
6E
100
AcDbEntity
  8
AM_6
100
AcDbText
 10
5.0705
 20
2.53
 30
0.0
 40
0.5
  1
130328
100
AcDbAttributeDefinition
  3

  2
NB
 70
     8
280
     0
  0
ATTDEF
  5
76
330
6E
100
AcDbEntity
  8
AM_6
100
AcDbText
 10
5.0705
 20
2.03
 30
0.0
 40
0.5
  1
$PN.
100
AcDbAttributeDefinition
  3

  2
NBSYN
 70
     8
280
     0
  0
ATTDEF
  5
77
330
6E
100
AcDbEntity
  8
AM_6
100
AcDbText
 10
5.0705
 20
1.53
 30
0.0
 40
0.5
  1
130328
100
AcDbAttributeDefinition
  3

  2
LINA
 70
     8
280
     0
  0
ATTDEF
  5
78
330
6E
100
AcDbEntity
  8
AM_6
100
AcDbText
 10
5.0705
 20
1.03
 30
0.0
 40
0.5
  1
209
100
AcDbAttributeDefinition
  3

  2
SERIES
 70
     8
280
     0
  0
ATTDEF
  5
79
330
6E
100
AcDbEntity
  8
AM_6
100
AcDbText
 10
5.0705
 20
0.5300000000000002
 30
0.0
 40
0.5
  1
1-11/16
100
AcDbAttributeDefinition
  3

  2
SS
 70
     8
280
     0
  0
ATTDEF
  5
7A
330
6E
100
AcDbEntity
  8
AM_6
100
AcDbText
 10
5.0705
 20
0.0300000000000002
 30
0.0
 40
0.5
  1
130328
100
AcDbAttributeDefinition
  3

  2
PN
 70
     8
280
     0
  0
ATTDEF
  5
7B
330
6E
100
AcDbEntity
  8
AM_6
100
AcDbText
 10
5.0705
 20
-0.4699999999999998
 30
0.0
 40
0.5
  1
F2B-SXV-111
100
AcDbAttributeDefinition
  3

  2
DESCRIPTION
 70
     8
280
     0
  0
ATTDEF
  5
7C
330
6E
100
AcDbEntity
  8
AM_6
100
AcDbText
 10
5.0705
 20
-0.9699999999999998
 30
0.0
 40
0.5
  1
RE-LUBE
100
AcDbAttributeDefinition
  3

  2
LF
 70
     8
280
     0
  0
ATTDEF
  5
7D
330
6E
100
AcDbEntity
  8
AM_6
100
AcDbText
 10
5.0705
 20
-1.47
 30
0.0
 40
0.5
  1
5.1
100
AcDbAttributeDefinition
  3

  2
W
 70
     8
280
     0
  0
ATTDEF
  5
7E
330
6E
100
AcDbEntity
  8
AM_6
100
AcDbText
 10
5.0705
 20
-1.97
 30
0.0
 40
0.5
  1
1.69
100
AcDbAttributeDefinition
  3

  2
A
 70
     8
280
     0
  0
ATTDEF
  5
7F
330
6E
100
AcDbEntity
  8
AM_6
100
AcDbText
 10
5.0705
 20
-2.47
 30
0.0
 40
0.5
  1
7.06
100
AcDbAttributeDefinition
  3

  2
B
 70
     8
280
     0
  0
ATTDEF
  5
80
330
6E
100
AcDbEntity
  8
AM_6
100
AcDbText
 10
5.0705
 20
-2.97
 30
0.0
 40
0.5
  1
2.07
100
AcDbAttributeDefinition
  3

  2
C
 70
     8
280
     0
  0
ATTDEF
  5
81
330
6E
100
AcDbEntity
  8
AM_6
100
AcDbText
 10
5.0705
 20
-3.47
 30
0.0
 40
0.5
  1
5.84
100
AcDbAttributeDefinition
  3

  2
D
 70
     8
280
     0
  0
ATTDEF
  5
82
330
6E
100
AcDbEntity
  8
AM_6
100
AcDbText
 10
5.0705
 20
-3.97
 30
0.0
 40
0.5
  1
1/2
100
AcDbAttributeDefinition
  3

  2
F
 70
     8
280
     0
  0
ATTDEF
  5
83
330
6E
100
AcDbEntity
  8
AM_6
100
AcDbText
 10
5.0705
 20
-4.47
 30
0.0
 40
0.5
  1
0.63
100
AcDbAttributeDefinition
  3

  2
H
 70
     8
280
     0
  0
ATTDEF
  5
84
330
6E
100
AcDbEntity
  8
AM_6
100
AcDbText
 10
5.0705
 20
-4.97
 30
0.0
 40
0.5
  1
0.66
100
AcDbAttributeDefinition
  3

  2
J
 70
     8
280
     0
  0
ATTDEF
  5
85
330
6E
100
AcDbEntity
  8
AM_6
100
AcDbText
 10
5.0705
 20
-5.47
 30
0.0
 40
0.5
  1
2.5
100
AcDbAttributeDefinition
  3

  2
L
 70
     8
280
     0
  0
ATTDEF
  5
86
330
6E
100
AcDbEntity
  8
AM_6
100
AcDbText
 10
5.0705
 20
-5.97
 30
0.0
 40
0.5
  1
4.38
100
AcDbAttributeDefinition
  3

  2
M
 70
     8
280
     0
  0
ATTDEF
  5
87
330
6E
100
AcDbEntity
  8
AM_6
100
AcDbText
 10
5.0705
 20
-6.47
 30
0.0
 40
0.5
  1
1.91
100
AcDbAttributeDefinition
  3

  2
N
 70
     8
280
     0
  0
ATTDEF
  5
88
330
6E
100
AcDbEntity
  8
AM_6
100
AcDbText
 10
5.0705
 20
-6.97
 30
0.0
 40
0.5
  1
baldor
100
AcDbAttributeDefinition
  3

  2
COMPANY
 70
     8
280
     0
  0
INSERT
  5
8A
330
6E
100
AcDbEntity
  8
0
100
AcDbBlockReference
  2
2_405015E_Inch_0_in_130328_2
 10
0.0
 20
0.0
 30
0.0
  0
INSERT
  5
DD
330
6E
100
AcDbEntity
  8
0
100
AcDbBlockReference
  2
3_130302_0_in_130328_2
 10
0.0
 20
0.0
 30
0.0
  0
INSERT
  5
13B
330
6E
100
AcDbEntity
  8
0
100
AcDbBlockReference
  2
4_130328H_0_in_130328_2
 10
0.0
 20
0.0
 30
0.0
  0
ENDBLK
  5
71
330
6E
100
AcDbEntity
  8
0
100
AcDbBlockEnd
  0
BLOCK
  5
8B
330
89
100
AcDbEntity
  8
0
100
AcDbBlockBegin
  2
2_405015E_Inch_0_in_130328_2
 70
     2
 10
0.0
 20
0.0
 30
0.0
  3
2_405015E_Inch_0_in_130328_2
  1

  0
ATTDEF
  5
8D
330
89
100
AcDbEntity
  8
AM_6
100
AcDbText
 10
4.32875
 20
1.983732495126274
 30
0.0
 40
0.5
  1
405015E -Inch
100
AcDbAttributeDefinition
  3

  2
NN
 70
     8
280
     0
  0
ATTDEF
  5
8E
330
89
100
AcDbEntity
  8
AM_6
100
AcDbText
 10
4.32875
 20
1.483732495126274
 30
0.0
 40
0.5
  1
Grease Fitting
100
AcDbAttributeDefinition
  3

  2
NT
 70
     8
280
     0
  0
ATTDEF
  5
8F
330
89
100
AcDbEntity
  8
AM_6
100
AcDbText
 10
4.32875
 20
0.9837324951262745
 30
0.0
 40
0.5
  1
405015E-Inch
100
AcDbAttributeDefinition
  3

  2
NB
 70
     8
280
     0
  0
ATTDEF
  5
90
330
89
100
AcDbEntity
  8
AM_6
100
AcDbText
 10
4.32875
 20
0.4837324951262745
 30
0.0
 40
0.5
  1
$MN.-Inch
100
AcDbAttributeDefinition
  3

  2
NBSYN
 70
     8
280
     0
  0
ATTDEF
  5
91
330
89
100
AcDbEntity
  8
AM_6
100
AcDbText
 10
4.32875
 20
-0.0162675048737255
 30
0.0
 40
0.5
  1
405015E
100
AcDbAttributeDefinition
  3

  2
LINA
 70
     8
280
     0
  0
ATTDEF
  5
92
330
89
100
AcDbEntity
  8
AM_6
100
AcDbText
 10
4.32875
 20
-0.5162675048737255
 30
0.0
 40
0.5
  1
405015E
100
AcDbAttributeDefinition
  3

  2
MN
 70
     8
280
     0
  0
ATTDEF
  5
93
330
89
100
AcDbEntity
  8
AM_6
100
AcDbText
 10
4.32875
 20
-1.016267504873726
 30
0.0
 40
0.5
  1
1/8 x 27PTF
100
AcDbAttributeDefinition
  3

  2
T
 70
     8
280
     0
  0
ATTDEF
  5
94
330
89
100
AcDbEntity
  8
AM_6
100
AcDbText
 10
4.32875
 20
-1.516267504873726
 30
0.0
 40
0.5
  1
baldor
100
AcDbAttributeDefinition
  3

  2
COMPANY
 70
     8
280
     0
  0
ELLIPSE
  5
97
330
89
100
AcDbEntity
  8
AM_9
100
AcDbEllipse
 10
-0.8899999999999999
 20
1.645963211446354
 30
0.0
 11
0.2187499999999987
 21
0.0
 31
0.0
210
0.0
220
0.0
230
1.0
 40
0.7071067811865474
 41
0.0
 42
3.141592653589793
  0
LWPOLYLINE
  5
98
330
89
100
AcDbEntity
  8
AM_9
100
AcDbPolyline
 90
        4
 70
     0
 43
0.0
 10
-0.8899999999999999
 20
1.830983599758854
 10
-0.8355583897258504
 20
1.804053471164992
 10
-0.8081299989092348
 20
1.791583111365012
 10
-0.7806249999999999
 20
1.779919681754808
  0
LWPOLYLINE
  5
99
330
89
100
AcDbEntity
  8
AM_9
100
AcDbPolyline
 90
        4
 70
     0
 43
0.0
 10
-0.9993749999999999
 20
1.779919681754808
 10
-0.9574595297570975
 20
1.798033967621293
 10
-0.9155440595141952
 20
1.818020170964745
 10
-0.8899999999999999
 20
1.830983599758854
  0
ELLIPSE
  5
9A
330
89
100
AcDbEntity
  8
AM_9
100
AcDbEllipse
 10
-0.8899999999999999
 20
1.458579914431918
 30
0.0
 11
-0.1619028724722689
 21
1.982738345459262E-17
 31
0.0
210
0.0
220
0.0
230
1.0
 40
0.7071067811865482
 41
0.0
 42
6.283185307179586
  0
LINE
  5
9B
330
89
100
AcDbEntity
  8
AM_9
100
AcDbLine
 10
-0.8899999999999999
 20
1.888870755408387
 30
0.0
 11
-0.8899999999999999
 21
1.830983599758854
 31
0.0
  0
LWPOLYLINE
  5
9C
330
89
100
AcDbEntity
  8
AM_9
100
AcDbPolyline
 90
        4
 70
     0
 43
0.0
 10
-1.10875
 20
1.741679286219884
 10
-1.05430838972585
 20
1.759200546275065
 10
-1.026879998909235
 20
1.769125373797201
 10
-0.9993749999999999
 20
1.779919681754808
  0
LWPOLYLINE
  5
9D
330
89
100
AcDbEntity
  8
AM_9
100
AcDbPolyline
 90
        3
 70
     0
 43
0.0
 10
-0.7806249999999999
 20
1.850630359873463
 10
-0.8353124999999999
 20
1.871264062475146
 10
-0.8899999999999999
 20
1.888870755408387
  0
LWPOLYLINE
  5
9E
330
89
100
AcDbEntity
  8
AM_9
100
AcDbPolyline
 90
        4
 70
     0
 43
0.0
 10
-0.8899999999999999
 20
1.888870755408387
 10
-0.9155440595141952
 20
1.880977546946141
 10
-0.9573360127177309
 20
1.866784491744798
 10
-0.9993749999999999
 20
1.850630359873463
  0
LWPOLYLINE
  5
9F
330
89
100
AcDbEntity
  8
AM_9
100
AcDbPolyline
 90
        3
 70
     0
 43
0.0
 10
-0.7806249999999999
 20
1.779919681754808
 10
-0.7259375
 20
1.759285979153125
 10
-0.67125
 20
1.741679286219884
  0
LINE
  5
A0
330
89
100
AcDbEntity
  8
AM_9
100
AcDbLine
 10
-0.7568774926590124
 20
1.840611112550608
 30
0.0
 11
-0.7806249999999999
 21
1.850630359873463
 31
0.0
  0
LINE
  5
A1
330
89
100
AcDbEntity
  8
AM_9
100
AcDbLine
 10
-0.9993749999999999
 20
1.850630359873463
 30
0.0
 11
-1.022769056831232
 21
1.840764955727944
 31
0.0
  0
ELLIPSE
  5
A2
330
89
100
AcDbEntity
  8
AM_9
100
AcDbEllipse
 10
-0.8899999999999995
 20
1.645963211446353
 30
0.0
 11
0.2187499999999996
 21
0.0
 31
0.0
210
0.0
220
0.0
230
1.0
 40
0.7071067811865476
 41
5.235987755982985
 42
6.283185307179586
  0
ELLIPSE
  5
A3
330
89
100
AcDbEntity
  8
AM_9
100
AcDbEllipse
 10
-0.89
 20
1.645963211446353
 30
0.0
 11
0.2187499999999999
 21
0.0
 31
0.0
210
0.0
220
0.0
230
1.0
 40
0.7071067811865475
 41
3.141592653589793
 42
4.188790204786391
  0
ELLIPSE
  5
A4
330
89
100
AcDbEntity
  8
AM_9
100
AcDbEllipse
 10
-0.89
 20
1.484541166173372
 30
0.0
 11
0.1986176267812154
 21
0.0
 31
0.0
210
0.0
220
0.0
230
1.0
 40
0.7071067811865466
 41
3.665191429188095
 42
6.251928656212824
  0
LINE
  5
A5
330
89
100
AcDbEntity
  8
AM_9
100
AcDbLine
 10
-0.6914793878686611
 20
1.480152075880345
 30
0.0
 11
-0.6843486021565374
 21
1.641416466681003
 31
0.0
  0
LINE
  5
A6
330
89
100
AcDbEntity
  8
AM_9
100
AcDbLine
 10
-1.095651397843463
 20
1.641416466681003
 30
0.0
 11
-1.088520612131339
 21
1.480152075880345
 31
0.0
  0
ELLIPSE
  5
A7
330
89
100
AcDbEntity
  8
AM_9
100
AcDbEllipse
 10
-0.8899999999999999
 20
1.484541166173372
 30
0.0
 11
0.1986176267812153
 21
0.0
 31
0.0
210
0.0
220
0.0
230
1.0
 40
0.7071067811865257
 41
6.251928656212824
 42
9.948376736367692
  0
ELLIPSE
  5
A8
330
89
100
AcDbEntity
  8
AM_9
100
AcDbEllipse
 10
-0.8899999999999999
 20
1.645963211446353
 30
0.0
 11
0.2187500000000004
 21
0.0
 31
0.0
210
0.0
220
0.0
230
1.0
 40
0.7071067811865477
 41
4.188790204786391
 42
5.235987755982988
  0
LINE
  5
A9
330
89
100
AcDbEntity
  8
AM_9
100
AcDbLine
 10
-0.9848683298050513
 20
1.82273990674299
 30
0.0
 11
-0.9973548910028989
 21
1.804126040313924
 31
0.0
  0
LINE
  5
AA
330
89
100
AcDbEntity
  8
AM_9
100
AcDbLine
 10
-0.782645108997101
 20
1.804126040313924
 30
0.0
 11
-0.7951316701949486
 21
1.82273990674299
 31
0.0
  0
ELLIPSE
  5
AB
330
89
100
AcDbEntity
  8
AM_9
100
AcDbEllipse
 10
-0.89
 20
1.790920101589595
 30
0.0
 11
0.1049999999999996
 21
0.0
 31
0.0
210
0.0
220
0.0
230
1.0
 40
0.7071067811865477
 41
0.0
 42
3.141592653589793
  0
ELLIPSE
  5
AC
330
89
100
AcDbEntity
  8
AM_9
100
AcDbEllipse
 10
-0.890000000000001
 20
1.768118115213988
 30
0.0
 11
0.1188200907348987
 21
0.0
 31
0.0
210
0.0
220
0.0
230
1.0
 40
0.7071067811865522
 41
0.376220626100932
 42
1.407862057867257
  0
ELLIPSE
  5
AD
330
89
100
AcDbEntity
  8
AM_9
100
AcDbEllipse
 10
-0.8899999999999695
 20
1.768118115213981
 30
0.0
 11
0.1188200907349306
 21
0.0
 31
0.0
210
0.0
220
0.0
230
1.0
 40
0.7071067811865477
 41
-3.584503697663422
 42
-3.517813279690719
  0
LINE
  5
AE
330
89
100
AcDbEntity
  8
AM_9
100
AcDbLine
 10
-0.7849999999999999
 20
1.792239092472134
 30
0.0
 11
-0.7849999999999999
 21
1.812133305025192
 31
0.0
  0
LINE
  5
AF
330
89
100
AcDbEntity
  8
AM_9
100
AcDbLine
 10
-0.9949999999999999
 20
1.812133305025192
 30
0.0
 11
-0.9949999999999999
 21
1.792239092472133
 31
0.0
  0
ELLIPSE
  5
B0
330
89
100
AcDbEntity
  8
AM_9
100
AcDbEllipse
 10
-0.8899999999999999
 20
1.812133305025192
 30
0.0
 11
0.105
 21
0.0
 31
0.0
210
0.0
220
0.0
230
1.0
 40
0.7071067811865476
 41
0.0
 42
3.66519142918809
  0
ELLIPSE
  5
B1
330
89
100
AcDbEntity
  8
AM_9
100
AcDbEllipse
 10
-0.8899999999999999
 20
1.716673889565009
 30
0.0
 11
0.2187499999999998
 21
0.0
 31
0.0
210
0.0
220
0.0
230
1.0
 40
0.7071067811865438
 41
0.9156936017147714
 42
2.094395102393196
  0
ELLIPSE
  5
B2
330
89
100
AcDbEntity
  8
AM_9
100
AcDbEllipse
 10
-0.8899999999999841
 20
1.716673889565016
 30
0.0
 11
0.2187500000000291
 21
0.0
 31
0.0
210
0.0
220
0.0
230
1.0
 40
0.7071067811864521
 41
-4.18879020478636
 42
-4.057286255304604
  0
LINE
  5
B3
330
89
100
AcDbEntity
  8
AM_9
100
AcDbLine
 10
-0.9092743186691524
 20
1.851023828533668
 30
0.0
 11
-0.9179874918769162
 21
1.850010988342676
 31
0.0
  0
LINE
  5
B4
330
89
100
AcDbEntity
  8
AM_9
100
AcDbLine
 10
-0.8620125081230837
 20
1.850010988342676
 30
0.0
 11
-0.8707256813308474
 21
1.851023828533668
 31
0.0
  0
ELLIPSE
  5
B5
330
89
100
AcDbEntity
  8
AM_9
100
AcDbEllipse
 10
-0.8899999999999989
 20
1.768118115213973
 30
0.0
 11
0.118820090734909
 21
0.0
 31
0.0
210
0.0
220
0.0
230
1.0
 40
0.7071067811866186
 41
1.407862057867289
 42
1.733730595722521
  0
ELLIPSE
  5
B6
330
89
100
AcDbEntity
  8
AM_9
100
AcDbEllipse
 10
-0.8899999999999999
 20
1.768118115213989
 30
0.0
 11
0.1188200907348977
 21
0.0
 31
0.0
210
0.0
220
0.0
230
1.0
 40
0.7071067811865527
 41
1.733730595722528
 42
2.698681609516149
  0
ELLIPSE
  5
B7
330
89
100
AcDbEntity
  8
AM_9
100
AcDbEllipse
 10
-0.89
 20
1.729626811972403
 30
0.0
 11
0.1725340532829932
 21
0.0
 31
0.0
210
0.0
220
0.0
230
1.0
 40
0.7071067811865471
 41
0.7772913431419566
 42
2.364301310447841
  0
ELLIPSE
  5
B8
330
89
100
AcDbEntity
  8
AM_9
100
AcDbEllipse
 10
-0.89
 20
1.716673889565008
 30
0.0
 11
0.2137499999999995
 21
3.185123205184930E-9
 31
0.0
210
0.0
220
0.0
230
1.0
 40
0.7071067811865459
 41
0.9036552042697581
 42
2.237937420178804
  0
ELLIPSE
  5
B9
330
89
100
AcDbEntity
  8
AM_9
100
AcDbEllipse
 10
-0.8899999999999977
 20
1.81213330502519
 30
0.0
 11
0.1049999999999977
 21
1.564621925353971E-9
 31
0.0
210
0.0
220
0.0
230
1.0
 40
0.7071067811865415
 41
5.759586513142049
 42
6.283187037607677
  0
ELLIPSE
  5
BA
330
89
100
AcDbEntity
  8
AM_9
100
AcDbEllipse
 10
-0.8899999999999998
 20
1.854559711896385
 30
0.0
 11
0.1349999999999998
 21
0.0
 31
0.0
210
0.0
220
0.0
230
1.0
 40
0.7071067811865459
 41
0.4159140521025453
 42
2.725678601487248
  0
ELLIPSE
  5
BB
330
89
100
AcDbEntity
  8
AM_9
100
AcDbEllipse
 10
-0.8899999999999999
 20
1.645963211446353
 30
0.0
 11
0.2057518972230696
 21
0.0
 31
0.0
210
0.0
220
0.0
230
1.0
 40
0.7071067811865472
 41
0.0
 42
6.283185307179586
  0
LWPOLYLINE
  5
BD
330
89
100
AcDbEntity
  8
AM_4
100
AcDbPolyline
 90
        4
 70
     0
 43
0.0
 10
-0.67125
 20
1.799566441869416
 10
-0.7256916102741495
 20
1.826496570463279
 10
-0.7531200010907649
 20
1.838966930263259
 10
-0.7568774926590124
 20
1.840611112550608
  0
LWPOLYLINE
  5
BE
330
89
100
AcDbEntity
  8
AM_4
100
AcDbPolyline
 90
        3
 70
     0
 43
0.0
 10
-1.022769056831232
 20
1.840764955727944
 10
-1.0540625
 20
1.826611905705661
 10
-1.10875
 20
1.799566441869416
  0
LINE
  5
BF
330
89
100
AcDbEntity
  8
AM_4
100
AcDbLine
 10
-0.67125
 20
1.799566441869416
 30
0.0
 11
-0.6712499999999998
 21
1.563070659141944
 31
0.0
  0
LWPOLYLINE
  5
C0
330
89
100
AcDbEntity
  8
AM_4
100
AcDbPolyline
 90
        4
 70
     0
 43
0.0
 10
-0.7806249999999999
 20
1.582717419256553
 10
-0.7387095297570976
 20
1.598826971531375
 10
-0.696794059514195
 20
1.613064606329231
 10
-0.6712499999999998
 20
1.620957814791476
  0
LWPOLYLINE
  5
C1
330
89
100
AcDbEntity
  8
AM_4
100
AcDbPolyline
 90
        3
 70
     0
 43
0.0
 10
-0.7806249999999999
 20
1.512006741137898
 10
-0.8353124999999999
 20
1.491373038536215
 10
-0.8899999999999999
 20
1.473766345602974
  0
LWPOLYLINE
  5
C2
330
89
100
AcDbEntity
  8
AM_4
100
AcDbPolyline
 90
        4
 70
     0
 43
0.0
 10
-0.6712499999999998
 20
1.563070659141944
 10
-0.6967940595141952
 20
1.550107230347835
 10
-0.738586012717731
 20
1.5301772986482
 10
-0.7806249999999999
 20
1.512006741137898
  0
ELLIPSE
  5
C3
330
89
100
AcDbEntity
  8
AM_4
100
AcDbEllipse
 10
-0.8899999999999991
 20
1.768118115213989
 30
0.0
 11
0.1188200907348983
 21
0.0
 31
0.0
210
0.0
220
0.0
230
1.0
 40
0.7071067811865475
 41
2.76537202748887
 42
3.665191429188085
  0
ELLIPSE
  5
C4
330
89
100
AcDbEntity
  8
AM_4
100
AcDbEllipse
 10
-0.8899999999999999
 20
1.790920101589595
 30
0.0
 11
0.105
 21
0.0
 31
0.0
210
0.0
220
0.0
230
1.0
 40
0.7071067811865476
 41
3.141592653589793
 42
6.283185307179586
  0
LINE
  5
C5
330
89
100
AcDbEntity
  8
AM_4
100
AcDbLine
 10
-0.7849999999999999
 20
1.790920101589595
 30
0.0
 11
-0.7849999999999999
 21
1.792239092472134
 31
0.0
  0
LINE
  5
C6
330
89
100
AcDbEntity
  8
AM_4
100
AcDbLine
 10
-0.9949999999999999
 20
1.792239092472133
 30
0.0
 11
-0.9949999999999999
 21
1.790920101589595
 31
0.0
  0
LWPOLYLINE
  5
C7
330
89
100
AcDbEntity
  8
AM_4
100
AcDbPolyline
 90
        4
 70
     0
 43
0.0
 10
-0.8899999999999999
 20
1.531653501252507
 10
-0.8355583897258504
 20
1.558583629846368
 10
-0.8081299989092348
 20
1.571053989646349
 10
-0.7806249999999999
 20
1.582717419256553
  0
ELLIPSE
  5
C8
330
89
100
AcDbEntity
  8
AM_4
100
AcDbEllipse
 10
-0.8899999999999999
 20
1.716673889565006
 30
0.0
 11
0.2187499999999996
 21
0.0
 31
0.0
210
0.0
220
0.0
230
1.0
 40
0.7071067811865435
 41
2.225899051874951
 42
5.23598775598299
  0
ELLIPSE
  5
C9
330
89
100
AcDbEntity
  8
AM_4
100
AcDbEllipse
 10
-0.8899999999999992
 20
1.716673889565007
 30
0.0
 11
0.2187499999999991
 21
0.0
 31
0.0
210
0.0
220
0.0
230
1.0
 40
0.707106781186548
 41
5.235987755982985
 42
6.283185307179586
  0
ELLIPSE
  5
CA
330
89
100
AcDbEntity
  8
AM_4
100
AcDbEllipse
 10
-0.8899999999999999
 20
1.716673889565008
 30
0.0
 11
0.2187499999999999
 21
0.0
 31
0.0
210
0.0
220
0.0
230
1.0
 40
0.7071067811865465
 41
0.0
 42
0.9156936017147704
  0
ELLIPSE
  5
CB
330
89
100
AcDbEntity
  8
AM_4
100
AcDbEllipse
 10
-0.89
 20
1.76811811521399
 30
0.0
 11
0.1188200907348974
 21
1.770557325108311E-9
 31
0.0
210
0.0
220
0.0
230
1.0
 40
0.707106781186549
 41
3.665191410748845
 42
6.659405913629419
  0
ELLIPSE
  5
CC
330
89
100
AcDbEntity
  8
AM_4
100
AcDbEllipse
 10
-0.8899999999999996
 20
1.729626811972387
 30
0.0
 11
0.1725340532830159
 21
0.0
 31
0.0
210
0.0
220
0.0
230
1.0
 40
0.7071067811865482
 41
2.364301310447755
 42
7.060476650321634
  0
ELLIPSE
  5
CD
330
89
100
AcDbEntity
  8
AM_4
100
AcDbEllipse
 10
-0.8899999999999992
 20
1.716673889565007
 30
0.0
 11
0.2137500000000007
 21
0.0
 31
0.0
210
0.0
220
0.0
230
1.0
 40
0.7071067811865475
 41
2.237937434749416
 42
7.186840526019964
  0
LINE
  5
CE
330
89
100
AcDbEntity
  8
AM_4
100
AcDbLine
 10
-0.8899999999999999
 20
1.531653501252507
 30
0.0
 11
-0.8899999999999999
 21
1.473766345602974
 31
0.0
  0
LWPOLYLINE
  5
CF
330
89
100
AcDbEntity
  8
AM_4
100
AcDbPolyline
 90
        3
 70
     0
 43
0.0
 10
-0.999375
 20
1.582717419256553
 10
-0.9446874999999999
 20
1.55869896508875
 10
-0.8899999999999999
 20
1.531653501252507
  0
LWPOLYLINE
  5
D0
330
89
100
AcDbEntity
  8
AM_4
100
AcDbPolyline
 90
        4
 70
     0
 43
0.0
 10
-1.10875
 20
1.620957814791476
 10
-1.05430838972585
 20
1.603436554736296
 10
-1.026879998909235
 20
1.59351172721416
 10
-0.999375
 20
1.582717419256553
  0
LINE
  5
D1
330
89
100
AcDbEntity
  8
AM_4
100
AcDbLine
 10
-1.10875
 20
1.799566441869416
 30
0.0
 11
-1.10875
 21
1.563070659141944
 31
0.0
  0
LWPOLYLINE
  5
D2
330
89
100
AcDbEntity
  8
AM_4
100
AcDbPolyline
 90
        3
 70
     0
 43
0.0
 10
-0.9993749999999999
 20
1.512006741137898
 10
-1.0540625
 20
1.5360251953057
 10
-1.10875
 20
1.563070659141944
  0
LWPOLYLINE
  5
D3
330
89
100
AcDbEntity
  8
AM_4
100
AcDbPolyline
 90
        4
 70
     0
 43
0.0
 10
-0.8899999999999999
 20
1.473766345602974
 10
-0.9444416102741495
 20
1.491287605658155
 10
-0.971870001090765
 20
1.501212433180291
 10
-0.9993749999999999
 20
1.512006741137898
  0
ELLIPSE
  5
D4
330
89
100
AcDbEntity
  8
AM_4
100
AcDbEllipse
 10
-0.89
 20
1.812133305025191
 30
0.0
 11
0.1049999999999995
 21
0.0
 31
0.0
210
0.0
220
0.0
230
1.0
 40
0.7071067811865441
 41
3.665191429188088
 42
5.759586531581292
  0
LINE
  5
D5
330
89
100
AcDbEntity
  8
AM_4
100
AcDbLine
 10
-0.799067332602634
 20
1.775010199012898
 30
0.0
 11
-0.7730865704891008
 21
1.806830004166293
 31
0.0
  0
LINE
  5
D6
330
89
100
AcDbEntity
  8
AM_4
100
AcDbLine
 10
-1.006913429510899
 20
1.806830004166293
 30
0.0
 11
-0.9809326673973661
 21
1.775010199012898
 31
0.0
  0
ELLIPSE
  5
D7
330
89
100
AcDbEntity
  8
AM_4
100
AcDbEllipse
 10
-0.889999999999999
 20
1.854559711896385
 30
0.0
 11
0.1349999999999991
 21
0.0
 31
0.0
210
0.0
220
0.0
230
1.0
 40
0.7071067811865478
 41
3.665191429188091
 42
6.699099359282135
  0
LINE
  5
D8
330
89
100
AcDbEntity
  8
AM_4
100
AcDbLine
 10
-0.9839243440009285
 20
1.940462271755083
 30
0.0
 11
-1.013490899223633
 21
1.893127819245193
 31
0.0
  0
LINE
  5
D9
330
89
100
AcDbEntity
  8
AM_4
100
AcDbLine
 10
-0.7665091007763664
 20
1.893127819245193
 30
0.0
 11
-0.7960756559990712
 21
1.940462271755083
 31
0.0
  0
ELLIPSE
  5
DA
330
89
100
AcDbEntity
  8
AM_4
100
AcDbEllipse
 10
-0.8900000000000021
 20
1.854559711896384
 30
0.0
 11
0.1349999999999979
 21
0.0
 31
0.0
210
0.0
220
0.0
230
1.0
 40
0.7071067811865476
 41
2.725678601487238
 42
3.665191429188098
  0
ELLIPSE
  5
DB
330
89
100
AcDbEntity
  8
AM_4
100
AcDbEllipse
 10
-0.8899999999999999
 20
1.911128254391308
 30
0.0
 11
0.1026779019331874
 21
0.0
 31
0.0
210
0.0
220
0.0
230
1.0
 40
0.7071067811865688
 41
0.0
 42
6.283185307179586
  0
ENDBLK
  5
8C
330
89
100
AcDbEntity
  8
0
100
AcDbBlockEnd
  0
BLOCK
  5
DE
330
DC
100
AcDbEntity
  8
0
100
AcDbBlockBegin
  2
3_130302_0_in_130328_2
 70
     2
 10
0.0
 20
0.0
 30
0.0
  3
3_130302_0_in_130328_2
  1

  0
ATTDEF
  5
E0
330
DC
100
AcDbEntity
  8
AM_6
100
AcDbText
 10
4.625
 20
1.672639608421231
 30
0.0
 40
0.5
  1
Eccentric Collar Intermediate Duty Insert Inch Bore
100
AcDbAttributeDefinition
  3

  2
NN
 70
     8
280
     0
  0
ATTDEF
  5
E1
330
DC
100
AcDbEntity
  8
AM_6
100
AcDbText
 10
4.625
 20
1.172639608421231
 30
0.0
 40
0.5
  1
Eccentric Collar Bearing Inserts -(Intermediate Duty)
100
AcDbAttributeDefinition
  3

  2
NT
 70
     8
280
     0
  0
ATTDEF
  5
E2
330
DC
100
AcDbEntity
  8
AM_6
100
AcDbText
 10
4.625
 20
0.6726396084212312
 30
0.0
 40
0.5
  1
130302
100
AcDbAttributeDefinition
  3

  2
NB
 70
     8
280
     0
  0
ATTDEF
  5
E3
330
DC
100
AcDbEntity
  8
AM_6
100
AcDbText
 10
4.625
 20
0.1726396084212312
 30
0.0
 40
0.5
  1
$PN.
100
AcDbAttributeDefinition
  3

  2
NBSYN
 70
     8
280
     0
  0
ATTDEF
  5
E4
330
DC
100
AcDbEntity
  8
AM_6
100
AcDbText
 10
4.625
 20
-0.3273603915787688
 30
0.0
 40
0.5
  1
130302
100
AcDbAttributeDefinition
  3

  2
LINA
 70
     8
280
     0
  0
ATTDEF
  5
E5
330
DC
100
AcDbEntity
  8
AM_6
100
AcDbText
 10
4.625
 20
-0.8273603915787688
 30
0.0
 40
0.5
  1
209
100
AcDbAttributeDefinition
  3

  2
SERIES
 70
     8
280
     0
  0
ATTDEF
  5
E6
330
DC
100
AcDbEntity
  8
AM_6
100
AcDbText
 10
4.625
 20
-1.327360391578769
 30
0.0
 40
0.5
  1
1-11/16
100
AcDbAttributeDefinition
  3

  2
SS
 70
     8
280
     0
  0
ATTDEF
  5
E7
330
DC
100
AcDbEntity
  8
AM_6
100
AcDbText
 10
4.625
 20
-1.827360391578769
 30
0.0
 40
0.5
  1
130302
100
AcDbAttributeDefinition
  3

  2
PN
 70
     8
280
     0
  0
ATTDEF
  5
E8
330
DC
100
AcDbEntity
  8
AM_6
100
AcDbText
 10
4.625
 20
-2.327360391578769
 30
0.0
 40
0.5
  1
INS-SXV-111
100
AcDbAttributeDefinition
  3

  2
DESCRIPTION
 70
     8
280
     0
  0
ATTDEF
  5
E9
330
DC
100
AcDbEntity
  8
AM_6
100
AcDbText
 10
4.625
 20
-2.827360391578769
 30
0.0
 40
0.5
  1
1.9
100
AcDbAttributeDefinition
  3

  2
WEIGHT
 70
     8
280
     0
  0
ATTDEF
  5
EA
330
DC
100
AcDbEntity
  8
AM_6
100
AcDbText
 10
4.625
 20
-3.327360391578769
 30
0.0
 40
0.5
  1
1.69
100
AcDbAttributeDefinition
  3

  2
A
 70
     8
280
     0
  0
ATTDEF
  5
EB
330
DC
100
AcDbEntity
  8
AM_6
100
AcDbText
 10
4.625
 20
-3.827360391578769
 30
0.0
 40
0.5
  1
0.87
100
AcDbAttributeDefinition
  3

  2
C
 70
     8
280
     0
  0
ATTDEF
  5
EC
330
DC
100
AcDbEntity
  8
AM_6
100
AcDbText
 10
4.625
 20
-4.327360391578769
 30
0.0
 40
0.5
  1
3.3465
100
AcDbAttributeDefinition
  3

  2
D
 70
     8
280
     0
  0
ATTDEF
  5
ED
330
DC
100
AcDbEntity
  8
AM_6
100
AcDbText
 10
4.625
 20
-4.827360391578769
 30
0.0
 40
0.5
  1
0.25
100
AcDbAttributeDefinition
  3

  2
J
 70
     8
280
     0
  0
ATTDEF
  5
EE
330
DC
100
AcDbEntity
  8
AM_6
100
AcDbText
 10
4.625
 20
-5.327360391578769
 30
0.0
 40
0.5
  1
2.50
100
AcDbAttributeDefinition
  3

  2
L
 70
     8
280
     0
  0
ATTDEF
  5
EF
330
DC
100
AcDbEntity
  8
AM_6
100
AcDbText
 10
4.625
 20
-5.827360391578769
 30
0.0
 40
0.5
  1
5/16 - 24
100
AcDbAttributeDefinition
  3

  2
N
 70
     8
280
     0
  0
ATTDEF
  5
F0
330
DC
100
AcDbEntity
  8
AM_6
100
AcDbText
 10
4.625
 20
-6.327360391578769
 30
0.0
 40
0.5
  1
0.43
100
AcDbAttributeDefinition
  3

  2
W
 70
     8
280
     0
  0
ATTDEF
  5
F1
330
DC
100
AcDbEntity
  8
AM_6
100
AcDbText
 10
4.625
 20
-6.827360391578769
 30
0.0
 40
0.5
  1
1.26
100
AcDbAttributeDefinition
  3

  2
Y
 70
     8
280
     0
  0
ATTDEF
  5
F2
330
DC
100
AcDbEntity
  8
AM_6
100
AcDbText
 10
4.625
 20
-7.327360391578769
 30
0.0
 40
0.5
  1
2.22
100
AcDbAttributeDefinition
  3

  2
Z
 70
     8
280
     0
  0
ATTDEF
  5
F3
330
DC
100
AcDbEntity
  8
AM_6
100
AcDbText
 10
4.625
 20
-7.827360391578769
 30
0.0
 40
0.5
  1
baldor
100
AcDbAttributeDefinition
  3

  2
COMPANY
 70
     8
280
     0
  0
ARC
  5
F4
330
DC
100
AcDbEntity
  8
AM_9
100
AcDbCircle
 10
-0.56
 20
-1.6795
 30
0.0
 40
0.0781250000000002
100
AcDbArc
 50
180.0
 51
0.0
  0
LINE
  5
F5
330
DC
100
AcDbEntity
  8
AM_9
100
AcDbLine
 10
-0.4818749999999998
 20
-1.6795
 30
0.0
 11
-0.6381249999999999
 21
-1.6795
 31
0.0
  0
LINE
  5
F6
330
DC
100
AcDbEntity
  8
AM_9
100
AcDbLine
 10
-0.6381249999999999
 20
-1.664399154912963
 30
0.0
 11
-0.6381249999999999
 21
-1.6795
 31
0.0
  0
LINE
  5
F7
330
DC
100
AcDbEntity
  8
AM_9
100
AcDbLine
 10
-0.4818749999999998
 20
-1.6795
 30
0.0
 11
-0.4818749999999998
 21
-1.640801681974185
 31
0.0
  0
LINE
  5
F8
330
DC
100
AcDbEntity
  8
AM_9
100
AcDbLine
 10
-1.584375
 20
-0.84375
 30
0.0
 11
-0.3799999999999999
 21
-0.84375
 31
0.0
  0
LINE
  5
F9
330
DC
100
AcDbEntity
  8
AM_9
100
AcDbLine
 10
-0.3799999999999999
 20
0.84375
 30
0.0
 11
-1.584375
 21
0.84375
 31
0.0
  0
LINE
  5
FA
330
DC
100
AcDbEntity
  8
AM_9
100
AcDbLine
 10
-2.046135146134954
 20
-0.84375
 30
0.0
 11
-1.618125
 21
-0.84375
 31
0.0
  0
LINE
  5
FB
330
DC
100
AcDbEntity
  8
AM_9
100
AcDbLine
 10
-1.618125
 20
0.84375
 30
0.0
 11
-2.046135146134954
 21
0.84375
 31
0.0
  0
LINE
  5
FC
330
DC
100
AcDbEntity
  8
AM_9
100
AcDbLine
 10
-1.618125
 20
0.84375
 30
0.0
 11
-1.618125
 21
-0.84375
 31
0.0
  0
LINE
  5
FD
330
DC
100
AcDbEntity
  8
AM_9
100
AcDbLine
 10
-1.618125
 20
-0.84375
 30
0.0
 11
-1.60125
 21
-0.860625
 31
0.0
  0
LINE
  5
FE
330
DC
100
AcDbEntity
  8
AM_9
100
AcDbLine
 10
-1.60125
 20
0.860625
 30
0.0
 11
-1.618125
 21
0.84375
 31
0.0
  0
LINE
  5
FF
330
DC
100
AcDbEntity
  8
AM_9
100
AcDbLine
 10
-1.584375
 20
0.84375
 30
0.0
 11
-1.584375
 21
-0.84375
 31
0.0
  0
LINE
  5
100
330
DC
100
AcDbEntity
  8
AM_9
100
AcDbLine
 10
-1.60125
 20
0.860625
 30
0.0
 11
-1.60125
 21
-0.860625
 31
0.0
  0
LINE
  5
101
330
DC
100
AcDbEntity
  8
AM_9
100
AcDbLine
 10
-1.584375
 20
0.84375
 30
0.0
 11
-1.60125
 21
0.860625
 31
0.0
  0
LINE
  5
102
330
DC
100
AcDbEntity
  8
AM_9
100
AcDbLine
 10
-1.60125
 20
-0.860625
 30
0.0
 11
-1.584375
 21
-0.84375
 31
0.0
  0
LINE
  5
103
330
DC
100
AcDbEntity
  8
AM_9
100
AcDbLine
 10
-2.046135146134954
 20
0.84375
 30
0.0
 11
-2.046135146134954
 21
-0.84375
 31
0.0
  0
LINE
  5
104
330
DC
100
AcDbEntity
  8
AM_9
100
AcDbLine
 10
-2.046135146134954
 20
0.84375
 30
0.0
 11
-2.07
 21
0.867614853865046
 31
0.0
  0
LINE
  5
105
330
DC
100
AcDbEntity
  8
AM_9
100
AcDbLine
 10
-2.07
 20
-0.867614853865046
 30
0.0
 11
-2.046135146134954
 21
-0.84375
 31
0.0
  0
LINE
  5
106
330
DC
100
AcDbEntity
  8
AM_9
100
AcDbLine
 10
-1.41
 20
-1.11
 30
0.0
 11
-1.245
 21
-1.11
 31
0.0
  0
LINE
  5
107
330
DC
100
AcDbEntity
  8
AM_9
100
AcDbLine
 10
-1.245
 20
1.11
 30
0.0
 11
-1.41
 21
1.11
 31
0.0
  0
LINE
  5
108
330
DC
100
AcDbEntity
  8
AM_9
100
AcDbLine
 10
-0.3799999999999998
 20
1.11
 30
0.0
 11
-0.3799999999999998
 21
-1.11
 31
0.0
  0
LINE
  5
109
330
DC
100
AcDbEntity
  8
AM_9
100
AcDbLine
 10
-0.3799999999999998
 20
-1.11
 30
0.0
 11
-0.3749999999999998
 21
-1.11
 31
0.0
  0
LINE
  5
10A
330
DC
100
AcDbEntity
  8
AM_9
100
AcDbLine
 10
-0.3749999999999998
 20
1.11
 30
0.0
 11
-0.3799999999999998
 21
1.11
 31
0.0
  0
LINE
  5
10B
330
DC
100
AcDbEntity
  8
AM_9
100
AcDbLine
 10
-1.11
 20
-1.593571428571429
 30
0.0
 11
-1.01
 21
-1.593571428571429
 31
0.0
  0
LINE
  5
10C
330
DC
100
AcDbEntity
  8
AM_9
100
AcDbLine
 10
-1.01
 20
1.593571428571429
 30
0.0
 11
-1.11
 21
1.593571428571429
 31
0.0
  0
LINE
  5
10D
330
DC
100
AcDbEntity
  8
AM_9
100
AcDbLine
 10
-0.3749999999999998
 20
1.589641056182181
 30
0.0
 11
-0.3749999999999998
 21
-1.589641056180014
 31
0.0
  0
ARC
  5
10E
330
DC
100
AcDbEntity
  8
AM_9
100
AcDbCircle
 10
-0.4087500000000003
 20
-1.589641056182181
 30
0.0
 40
0.0337500000000004
100
AcDbArc
 50
284.1664321454072
 51
0.0
  0
ARC
  5
10F
330
DC
100
AcDbEntity
  8
AM_9
100
AcDbCircle
 10
-0.4087500000000003
 20
1.589641056182181
 30
0.0
 40
0.0337500000000004
100
AcDbArc
 50
0.0
 51
75.83356785459284
  0
LINE
  5
110
330
DC
100
AcDbEntity
  8
AM_9
100
AcDbLine
 10
-1.245
 20
1.589641056182181
 30
0.0
 11
-1.245
 21
-1.589641056180014
 31
0.0
  0
ARC
  5
111
330
DC
100
AcDbEntity
  8
AM_9
100
AcDbCircle
 10
-1.21125
 20
-1.589641056182181
 30
0.0
 40
0.0337499999999995
100
AcDbArc
 50
180.0
 51
255.8335752704344
  0
ARC
  5
112
330
DC
100
AcDbEntity
  8
AM_9
100
AcDbCircle
 10
-1.21125
 20
1.589641056182181
 30
0.0
 40
0.0337499999999995
100
AcDbArc
 50
104.1664247295656
 51
180.0
  0
LINE
  5
113
330
DC
100
AcDbEntity
  8
AM_9
100
AcDbLine
 10
-1.11
 20
1.620412817435249
 30
0.0
 11
-1.11
 21
-1.646136556455815
 31
0.0
  0
LINE
  5
114
330
DC
100
AcDbEntity
  8
AM_9
100
AcDbLine
 10
-1.21950994967978
 20
1.622364682681814
 30
0.0
 11
-1.21950994967978
 21
-1.622364682681878
 31
0.0
  0
ARC
  5
115
330
DC
100
AcDbEntity
  8
AM_9
100
AcDbCircle
 10
-0.810000000023663
 20
-0.0000000001090785
 30
0.0
 40
1.673249999888509
100
AcDbArc
 50
255.8335752703051
 51
259.6714882664373
  0
ARC
  5
116
330
DC
100
AcDbEntity
  8
AM_9
100
AcDbCircle
 10
-0.810000000023708
 20
0.0000000001092864
 30
0.0
 40
1.673249999888297
100
AcDbArc
 50
100.3285117335624
 51
104.1664247296951
  0
LINE
  5
117
330
DC
100
AcDbEntity
  8
AM_9
100
AcDbLine
 10
-1.01
 20
1.661254213689163
 30
0.0
 11
-1.01
 21
-1.661254213689161
 31
0.0
  0
LINE
  5
118
330
DC
100
AcDbEntity
  8
AM_9
100
AcDbLine
 10
-0.4004900460847737
 20
1.622364681612722
 30
0.0
 11
-0.4004900460847737
 21
-1.62236468161272
 31
0.0
  0
ARC
  5
119
330
DC
100
AcDbEntity
  8
AM_9
100
AcDbCircle
 10
-0.8100000000000102
 20
0.0000000000001599
 30
0.0
 40
1.673250000000155
100
AcDbArc
 50
263.1351448840009
 51
275.8984295798298
  0
ARC
  5
11A
330
DC
100
AcDbEntity
  8
AM_9
100
AcDbCircle
 10
-0.810000000000797
 20
0.0000000000037776
 30
0.0
 40
1.673250000003856
100
AcDbArc
 50
281.2998992031546
 51
284.1664248791417
  0
ARC
  5
11B
330
DC
100
AcDbEntity
  8
AM_9
100
AcDbCircle
 10
-0.810000000000008
 20
-0.0000000000001394
 30
0.0
 40
1.673250000000135
100
AcDbArc
 50
75.83357512085402
 51
96.86485511599933
  0
LINE
  5
11C
330
DC
100
AcDbEntity
  8
AM_9
100
AcDbLine
 10
-0.6381249999392342
 20
-1.664399154903835
 30
0.0
 11
-0.4818750000002637
 21
-1.640761880004261
 31
0.0
  0
LINE
  5
11D
330
DC
100
AcDbEntity
  8
AM_9
100
AcDbLine
 10
-0.4818750000002637
 20
-1.640761880004261
 30
0.0
 11
-0.5043129791082427
 21
-1.644177160901192
 31
0.0
  0
ARC
  5
11F
330
DC
100
AcDbEntity
  8
AM_5
100
AcDbCircle
 10
-1.835625
 20
0.0
 30
0.0
 40
0.15625
100
AcDbArc
 50
74.99999999999996
 51
15.0
  0
LINE
  5
122
330
DC
100
AcDbEntity
  8
AM_7
100
AcDbLine
 10
-0.5599999999999998
 20
-1.07761875
 30
0.0
 11
-0.5599999999999998
 21
-1.79000625
 31
0.0
  0
LINE
  5
123
330
DC
100
AcDbEntity
  8
AM_7
100
AcDbLine
 10
-0.6420312494094443
 20
-1.679500000119325
 30
0.0
 11
-0.4779687500144038
 21
-1.679500000119325
 31
0.0
  0
LINE
  5
124
330
DC
100
AcDbEntity
  8
AM_4
100
AcDbLine
 10
-1.5075
 20
-1.057142857142857
 30
0.0
 11
-1.47625
 21
-1.057142857142857
 31
0.0
  0
LINE
  5
125
330
DC
100
AcDbEntity
  8
AM_4
100
AcDbLine
 10
-1.47625
 20
1.057142857142857
 30
0.0
 11
-1.5075
 21
1.057142857142857
 31
0.0
  0
LINE
  5
126
330
DC
100
AcDbEntity
  8
AM_4
100
AcDbLine
 10
-1.47625
 20
1.11
 30
0.0
 11
-1.47625
 21
-1.11
 31
0.0
  0
LINE
  5
127
330
DC
100
AcDbEntity
  8
AM_4
100
AcDbLine
 10
-1.47625
 20
-1.11
 30
0.0
 11
-1.41
 21
-1.11
 31
0.0
  0
LINE
  5
128
330
DC
100
AcDbEntity
  8
AM_4
100
AcDbLine
 10
-1.41
 20
1.11
 30
0.0
 11
-1.47625
 21
1.11
 31
0.0
  0
LINE
  5
129
330
DC
100
AcDbEntity
  8
AM_4
100
AcDbLine
 10
-1.5075
 20
1.1825
 30
0.0
 11
-1.5075
 21
-1.182499999999539
 31
0.0
  0
ARC
  5
12A
330
DC
100
AcDbEntity
  8
AM_4
100
AcDbCircle
 10
-1.575
 20
-1.182499999999999
 30
0.0
 40
0.0675000000000006
100
AcDbArc
 50
270.0
 51
0.0
  0
ARC
  5
12B
330
DC
100
AcDbEntity
  8
AM_4
100
AcDbCircle
 10
-1.575
 20
1.182499999999999
 30
0.0
 40
0.0675000000000006
100
AcDbArc
 50
0.0
 51
90.0
  0
LWPOLYLINE
  5
12C
330
DC
100
AcDbEntity
  8
AM_4
100
AcDbPolyline
 90
       10
 70
     0
 43
0.0
 10
-1.933343344473382
 20
0.0993455970508073
 10
-1.915289615488852
 20
0.1143158942177225
 10
-1.894988089463264
 20
0.1260731775968879
 10
-1.872975648100037
 20
0.1342363080626467
 10
-1.84990049575148
 20
0.1386168558330822
 10
-1.826507793346194
 20
0.1390372307655932
 10
-1.803373131104993
 20
0.1355663654922536
 10
-1.781216286196101
 20
0.1282743059244581
 10
-1.760582934286416
 20
0.1174185286632318
 10
-1.737906655526617
 20
0.0993455970508073
  0
LWPOLYLINE
  5
12D
330
DC
100
AcDbEntity
  8
AM_4
100
AcDbPolyline
 90
       10
 70
     0
 43
0.0
 10
-1.737906655526617
 20
-0.0993455970508073
 10
-1.755960384511147
 20
-0.1143158942177225
 10
-1.776261910536735
 20
-0.1260731775968879
 10
-1.798274351899963
 20
-0.1342363080626467
 10
-1.82134950424852
 20
-0.1386168558330822
 10
-1.844742206653806
 20
-0.1390372307655932
 10
-1.867876868895006
 20
-0.1355663654922536
 10
-1.890033713803898
 20
-0.1282743059244581
 10
-1.910667065713583
 20
-0.1174185286632318
 10
-1.933343344473382
 20
-0.0993455970508073
  0
LINE
  5
12E
330
DC
100
AcDbEntity
  8
AM_4
100
AcDbLine
 10
-1.575
 20
1.25
 30
0.0
 11
-1.575
 21
-1.25
 31
0.0
  0
LINE
  5
12F
330
DC
100
AcDbEntity
  8
AM_4
100
AcDbLine
 10
-2.0025
 20
-1.25
 30
0.0
 11
-1.575
 21
-1.25
 31
0.0
  0
LINE
  5
130
330
DC
100
AcDbEntity
  8
AM_4
100
AcDbLine
 10
-1.575
 20
1.25
 30
0.0
 11
-2.0025
 21
1.25
 31
0.0
  0
LINE
  5
131
330
DC
100
AcDbEntity
  8
AM_4
100
AcDbLine
 10
-2.07
 20
1.1825
 30
0.0
 11
-2.07
 21
-1.182499999999539
 31
0.0
  0
LINE
  5
132
330
DC
100
AcDbEntity
  8
AM_4
100
AcDbLine
 10
-2.0025
 20
1.25
 30
0.0
 11
-2.0025
 21
-1.25
 31
0.0
  0
ARC
  5
133
330
DC
100
AcDbEntity
  8
AM_4
100
AcDbCircle
 10
-2.0025
 20
-1.1825
 30
0.0
 40
0.0675000000000003
100
AcDbArc
 50
180.0
 51
270.0
  0
ARC
  5
134
330
DC
100
AcDbEntity
  8
AM_4
100
AcDbCircle
 10
-2.0025
 20
1.1825
 30
0.0
 40
0.0675000000000003
100
AcDbArc
 50
90.0
 51
180.0
  0
ARC
  5
135
330
DC
100
AcDbEntity
  8
AM_4
100
AcDbCircle
 10
-1.835625
 20
0.0
 30
0.0
 40
0.1393499999999999
100
AcDbArc
 50
134.5268917025033
 51
225.4731082974966
  0
LWPOLYLINE
  5
136
330
DC
100
AcDbEntity
  8
AM_4
100
AcDbPolyline
 90
       12
 70
     0
 43
0.0
 10
-1.933343344473382
 20
-0.0993455970508073
 10
-1.945129544155653
 20
-0.0875983044213206
 10
-1.955559488145309
 20
-0.0743164650588219
 10
-1.966993007404128
 20
-0.0542439367921216
 10
-1.974951643706566
 20
-0.0317592918255586
 10
-1.978533858330833
 20
-0.0100738614560863
 10
-1.978311519760861
 20
0.012587789751289
 10
-1.974485136331132
 20
0.0335426990932463
 10
-1.967041427521703
 20
0.0541385332294574
 10
-1.956513168738818
 20
0.0729150595117984
 10
-1.942753185281693
 20
0.0902011392472876
 10
-1.933343344473382
 20
0.0993455970508073
  0
ARC
  5
137
330
DC
100
AcDbEntity
  8
AM_4
100
AcDbCircle
 10
-1.835625000000012
 20
-0.0000000000000049
 30
0.0
 40
0.1393500000000119
100
AcDbArc
 50
314.5268917025061
 51
45.47310829749448
  0
LWPOLYLINE
  5
138
330
DC
100
AcDbEntity
  8
AM_4
100
AcDbPolyline
 90
       12
 70
     0
 43
0.0
 10
-1.737906655526617
 20
0.0993455970508073
 10
-1.726120455844346
 20
0.0875983044213206
 10
-1.71569051185469
 20
0.0743164650588219
 10
-1.704256992595871
 20
0.0542439367921216
 10
-1.696298356293433
 20
0.0317592918255586
 10
-1.692716141669166
 20
0.0100738614560863
 10
-1.692938480239138
 20
-0.012587789751289
 10
-1.696764863668867
 20
-0.0335426990932463
 10
-1.704208572478296
 20
-0.0541385332294574
 10
-1.714736831261181
 20
-0.0729150595117984
 10
-1.728496814718306
 20
-0.0902011392472876
 10
-1.737906655526616
 20
-0.099345597050816
  0
ARC
  5
139
330
DC
100
AcDbEntity
  8
AM_5
100
AcDbCircle
 10
-1.835625
 20
0.0
 30
0.0
 40
0.1562500000000001
100
AcDbArc
 50
345.0
 51
285.0
  0
ENDBLK
  5
DF
330
DC
100
AcDbEntity
  8
0
100
AcDbBlockEnd
  0
BLOCK
  5
13C
330
13A
100
AcDbEntity
  8
0
100
AcDbBlockBegin
  2
4_130328H_0_in_130328_2
 70
     2
 10
0.0
 20
0.0
 30
0.0
  3
4_130328H_0_in_130328_2
  1

  0
ATTDEF
  5
13E
330
13A
100
AcDbEntity
  8
AM_6
100
AcDbText
 10
5.0705
 20
3.53
 30
0.0
 40
0.5
  1
F2B-SXV -I-Housing
100
AcDbAttributeDefinition
  3

  2
NN
 70
     8
280
     0
  0
ATTDEF
  5
13F
330
13A
100
AcDbEntity
  8
AM_6
100
AcDbText
 10
5.0705
 20
3.03
 30
0.0
 40
0.5
  1
Eccentric Collar 2-Bolt Flange Bearings -(Normal Duty)
100
AcDbAttributeDefinition
  3

  2
NT
 70
     8
280
     0
  0
ATTDEF
  5
140
330
13A
100
AcDbEntity
  8
AM_6
100
AcDbText
 10
5.0705
 20
2.53
 30
0.0
 40
0.5
  1
130328H
100
AcDbAttributeDefinition
  3

  2
NB
 70
     8
280
     0
  0
ATTDEF
  5
141
330
13A
100
AcDbEntity
  8
AM_6
100
AcDbText
 10
5.0705
 20
2.03
 30
0.0
 40
0.5
  1
$PN.H
100
AcDbAttributeDefinition
  3

  2
NBSYN
 70
     8
280
     0
  0
ATTDEF
  5
142
330
13A
100
AcDbEntity
  8
AM_6
100
AcDbText
 10
5.0705
 20
1.53
 30
0.0
 40
0.5
  1
130328
100
AcDbAttributeDefinition
  3

  2
LINA
 70
     8
280
     0
  0
ATTDEF
  5
143
330
13A
100
AcDbEntity
  8
AM_6
100
AcDbText
 10
5.0705
 20
1.03
 30
0.0
 40
0.5
  1
209
100
AcDbAttributeDefinition
  3

  2
SERIES
 70
     8
280
     0
  0
ATTDEF
  5
144
330
13A
100
AcDbEntity
  8
AM_6
100
AcDbText
 10
5.0705
 20
0.5300000000000002
 30
0.0
 40
0.5
  1
1-11/16
100
AcDbAttributeDefinition
  3

  2
SS
 70
     8
280
     0
  0
ATTDEF
  5
145
330
13A
100
AcDbEntity
  8
AM_6
100
AcDbText
 10
5.0705
 20
0.0300000000000002
 30
0.0
 40
0.5
  1
130328
100
AcDbAttributeDefinition
  3

  2
PN
 70
     8
280
     0
  0
ATTDEF
  5
146
330
13A
100
AcDbEntity
  8
AM_6
100
AcDbText
 10
5.0705
 20
-0.4699999999999998
 30
0.0
 40
0.5
  1
F2B-SXV-111
100
AcDbAttributeDefinition
  3

  2
DESCRIPTION
 70
     8
280
     0
  0
ATTDEF
  5
147
330
13A
100
AcDbEntity
  8
AM_6
100
AcDbText
 10
5.0705
 20
-0.9699999999999998
 30
0.0
 40
0.5
  1
RE-LUBE
100
AcDbAttributeDefinition
  3

  2
LF
 70
     8
280
     0
  0
ATTDEF
  5
148
330
13A
100
AcDbEntity
  8
AM_6
100
AcDbText
 10
5.0705
 20
-1.47
 30
0.0
 40
0.5
  1
5.1
100
AcDbAttributeDefinition
  3

  2
W
 70
     8
280
     0
  0
ATTDEF
  5
149
330
13A
100
AcDbEntity
  8
AM_6
100
AcDbText
 10
5.0705
 20
-1.97
 30
0.0
 40
0.5
  1
1.69
100
AcDbAttributeDefinition
  3

  2
A
 70
     8
280
     0
  0
ATTDEF
  5
14A
330
13A
100
AcDbEntity
  8
AM_6
100
AcDbText
 10
5.0705
 20
-2.47
 30
0.0
 40
0.5
  1
7.06
100
AcDbAttributeDefinition
  3

  2
B
 70
     8
280
     0
  0
ATTDEF
  5
14B
330
13A
100
AcDbEntity
  8
AM_6
100
AcDbText
 10
5.0705
 20
-2.97
 30
0.0
 40
0.5
  1
2.07
100
AcDbAttributeDefinition
  3

  2
C
 70
     8
280
     0
  0
ATTDEF
  5
14C
330
13A
100
AcDbEntity
  8
AM_6
100
AcDbText
 10
5.0705
 20
-3.47
 30
0.0
 40
0.5
  1
5.84
100
AcDbAttributeDefinition
  3

  2
D
 70
     8
280
     0
  0
ATTDEF
  5
14D
330
13A
100
AcDbEntity
  8
AM_6
100
AcDbText
 10
5.0705
 20
-3.97
 30
0.0
 40
0.5
  1
1/2
100
AcDbAttributeDefinition
  3

  2
F
 70
     8
280
     0
  0
ATTDEF
  5
14E
330
13A
100
AcDbEntity
  8
AM_6
100
AcDbText
 10
5.0705
 20
-4.47
 30
0.0
 40
0.5
  1
0.63
100
AcDbAttributeDefinition
  3

  2
H
 70
     8
280
     0
  0
ATTDEF
  5
14F
330
13A
100
AcDbEntity
  8
AM_6
100
AcDbText
 10
5.0705
 20
-4.97
 30
0.0
 40
0.5
  1
0.66
100
AcDbAttributeDefinition
  3

  2
J
 70
     8
280
     0
  0
ATTDEF
  5
150
330
13A
100
AcDbEntity
  8
AM_6
100
AcDbText
 10
5.0705
 20
-5.47
 30
0.0
 40
0.5
  1
2.5
100
AcDbAttributeDefinition
  3

  2
L
 70
     8
280
     0
  0
ATTDEF
  5
151
330
13A
100
AcDbEntity
  8
AM_6
100
AcDbText
 10
5.0705
 20
-5.97
 30
0.0
 40
0.5
  1
4.38
100
AcDbAttributeDefinition
  3

  2
M
 70
     8
280
     0
  0
ATTDEF
  5
152
330
13A
100
AcDbEntity
  8
AM_6
100
AcDbText
 10
5.0705
 20
-6.47
 30
0.0
 40
0.5
  1
1.91
100
AcDbAttributeDefinition
  3

  2
N
 70
     8
280
     0
  0
ATTDEF
  5
153
330
13A
100
AcDbEntity
  8
AM_6
100
AcDbText
 10
5.0705
 20
-6.97
 30
0.0
 40
0.5
  1
4450
100
AcDbAttributeDefinition
  3

  2
CAPS
 70
     8
280
     0
  0
ATTDEF
  5
154
330
13A
100
AcDbEntity
  8
AM_6
100
AcDbText
 10
5.0705
 20
-7.47
 30
0.0
 40
0.5
  1
7891
100
AcDbAttributeDefinition
  3

  2
CAPD
 70
     8
280
     0
  0
ATTDEF
  5
155
330
13A
100
AcDbEntity
  8
AM_6
100
AcDbText
 10
5.0705
 20
-7.97
 30
0.0
 40
0.5
  1
baldor
100
AcDbAttributeDefinition
  3

  2
COMPANY
 70
     8
280
     0
  0
LINE
  5
156
330
13A
100
AcDbEntity
  8
AM_9
100
AcDbLine
 10
-0.8460000716279975
 20
1.750089212710586
 30
0.0
 11
-0.126000063
 21
1.750089212710586
 31
0.0
  0
LINE
  5
157
330
13A
100
AcDbEntity
  8
AM_9
100
AcDbLine
 10
-0.8460000716279975
 20
1.434329977685511
 30
0.0
 11
-0.1260000630000001
 21
1.434329977685511
 31
0.0
  0
LINE
  5
158
330
13A
100
AcDbEntity
  8
AM_9
100
AcDbLine
 10
-0.126000063
 20
1.75762499983125
 30
0.0
 11
-0.8460000716279975
 21
1.75762499983125
 31
0.0
  0
LINE
  5
159
330
13A
100
AcDbEntity
  8
AM_9
100
AcDbLine
 10
-0.63
 20
-3.17
 30
0.0
 11
0.0
 21
-3.17
 31
0.0
  0
LINE
  5
15A
330
13A
100
AcDbEntity
  8
AM_9
100
AcDbLine
 10
0.0
 20
-2.67
 30
0.0
 11
-0.63
 21
-2.67
 31
0.0
  0
LINE
  5
15B
330
13A
100
AcDbEntity
  8
AM_9
100
AcDbLine
 10
-0.63
 20
2.67
 30
0.0
 11
0.0
 21
2.67
 31
0.0
  0
LINE
  5
15C
330
13A
100
AcDbEntity
  8
AM_9
100
AcDbLine
 10
0.0
 20
3.17
 30
0.0
 11
-0.63
 21
3.17
 31
0.0
  0
LINE
  5
15D
330
13A
100
AcDbEntity
  8
AM_9
100
AcDbLine
 10
-0.126000063
 20
-2.19100000003
 30
0.0
 11
0.0
 21
-2.19100000003
 31
0.0
  0
LINE
  5
15E
330
13A
100
AcDbEntity
  8
AM_9
100
AcDbLine
 10
-0.126000063
 20
-2.19100000003
 30
0.0
 11
-0.126000063
 21
-2.115369723703098
 31
0.0
  0
LINE
  5
15F
330
13A
100
AcDbEntity
  8
AM_9
100
AcDbLine
 10
-0.126000063
 20
2.115369723703098
 30
0.0
 11
-0.126000063
 21
2.19100000003
 31
0.0
  0
LINE
  5
160
330
13A
100
AcDbEntity
  8
AM_9
100
AcDbLine
 10
0.0
 20
2.19100000003
 30
0.0
 11
-0.126000063
 21
2.19100000003
 31
0.0
  0
LINE
  5
161
330
13A
100
AcDbEntity
  8
AM_9
100
AcDbLine
 10
-0.8460000716279975
 20
-1.434329977685511
 30
0.0
 11
-0.1260000629999999
 21
-1.434329977685511
 31
0.0
  0
LINE
  5
162
330
13A
100
AcDbEntity
  8
AM_9
100
AcDbLine
 10
-0.8460000716279975
 20
-1.750089212710586
 30
0.0
 11
-0.126000063
 21
-1.750089212710586
 31
0.0
  0
LINE
  5
163
330
13A
100
AcDbEntity
  8
AM_9
100
AcDbLine
 10
-0.8460000716279975
 20
-1.757624999831249
 30
0.0
 11
-0.126000063
 21
-1.757624999831249
 31
0.0
  0
LINE
  5
164
330
13A
100
AcDbEntity
  8
AM_9
100
AcDbLine
 10
-0.8460000716279975
 20
-1.757624999831249
 30
0.0
 11
-0.8460000716279975
 21
-1.347126298010328
 31
0.0
  0
LINE
  5
165
330
13A
100
AcDbEntity
  8
AM_9
100
AcDbLine
 10
-0.1260000629999999
 20
1.962446455676522
 30
0.0
 11
0.0000000000000001
 21
1.962446455676522
 31
0.0
  0
LINE
  5
166
330
13A
100
AcDbEntity
  8
AM_9
100
AcDbLine
 10
-0.1260000629999999
 20
-1.962446460576793
 30
0.0
 11
0.0000000000000001
 21
-1.962446460576793
 31
0.0
  0
LINE
  5
167
330
13A
100
AcDbEntity
  8
AM_9
100
AcDbLine
 10
-0.1260000629999999
 20
1.876614464679642
 30
0.0
 11
-0.5669999684999999
 21
1.876614464679642
 31
0.0
  0
LINE
  5
168
330
13A
100
AcDbEntity
  8
AM_9
100
AcDbLine
 10
-0.5669999685
 20
1.499725886320813
 30
0.0
 11
-0.5669999684999999
 21
1.876614464679642
 31
0.0
  0
LINE
  5
169
330
13A
100
AcDbEntity
  8
AM_9
100
AcDbLine
 10
-0.7586526403656979
 20
1.876614996037575
 30
0.0
 11
-1.021347359634302
 21
1.876614996037575
 31
0.0
  0
LINE
  5
16A
330
13A
100
AcDbEntity
  8
AM_9
100
AcDbLine
 10
-0.8460000716279975
 20
1.662885533035403
 30
0.0
 11
-0.126000063
 21
1.662885533035404
 31
0.0
  0
LINE
  5
16B
330
13A
100
AcDbEntity
  8
AM_9
100
AcDbLine
 10
-0.1260000629999999
 20
-1.347126298010328
 30
0.0
 11
-0.8460000716279975
 21
-1.347126298010328
 31
0.0
  0
LINE
  5
16C
330
13A
100
AcDbEntity
  8
AM_9
100
AcDbLine
 10
-0.8460000716279975
 20
-1.662885533035404
 30
0.0
 11
-0.126000063
 21
-1.662885533035403
 31
0.0
  0
LINE
  5
16D
330
13A
100
AcDbEntity
  8
AM_9
100
AcDbLine
 10
-0.1260000630000001
 20
1.347126298010328
 30
0.0
 11
-0.8460000716279975
 21
1.347126298010328
 31
0.0
  0
LINE
  5
16E
330
13A
100
AcDbEntity
  8
AM_9
100
AcDbLine
 10
-1.41
 20
-1.67325
 30
0.0
 11
-0.8460000716279975
 21
-1.67325
 31
0.0
  0
LINE
  5
16F
330
13A
100
AcDbEntity
  8
AM_9
100
AcDbLine
 10
-0.8460000716279975
 20
1.67325
 30
0.0
 11
-1.41
 21
1.67325
 31
0.0
  0
LINE
  5
170
330
13A
100
AcDbEntity
  8
AM_9
100
AcDbLine
 10
-0.8460000716279975
 20
1.75762499983125
 30
0.0
 11
-0.8460000716279975
 21
1.347126298010328
 31
0.0
  0
LINE
  5
171
330
13A
100
AcDbEntity
  8
AM_9
100
AcDbLine
 10
-1.023356656279307
 20
1.839710432014808
 30
0.0
 11
-0.7548733459943509
 21
1.839710432014808
 31
0.0
  0
LWPOLYLINE
  5
172
330
13A
100
AcDbEntity
  8
AM_9
100
AcDbPolyline
 90
       11
 70
     0
 43
0.0
 10
-1.41
 20
1.7600239640108
 10
-1.409676189721243
 20
1.764616492149556
 10
-1.407704575144497
 20
1.772154100070236
 10
-1.403854416630596
 20
1.779558906082672
 10
-1.3984689748774
 20
1.78617253980768
 10
-1.391363943457765
 20
1.792215832494184
 10
-1.3832631914982
 20
1.797097550290097
 10
-1.373827154351572
 20
1.801043559584133
 10
-1.364044245936068
 20
1.803667339378685
 10
-1.35346692997447
 20
1.805117736638923
 10
-1.3469999685
 20
1.805357085980368
  0
LINE
  5
173
330
13A
100
AcDbEntity
  8
AM_9
100
AcDbLine
 10
-0.5669999685
 20
1.499725886320813
 30
0.0
 11
-0.1260000630000001
 21
1.499725886320813
 31
0.0
  0
LINE
  5
174
330
13A
100
AcDbEntity
  8
AM_9
100
AcDbLine
 10
-0.5669999684999999
 20
1.805357085980368
 30
0.0
 11
-1.3469999685
 21
1.805357085980368
 31
0.0
  0
LINE
  5
175
330
13A
100
AcDbEntity
  8
AM_9
100
AcDbLine
 10
-1.3469999685
 20
1.239671646888995
 30
0.0
 11
-1.3469999685
 21
1.876614996037575
 31
0.0
  0
LINE
  5
176
330
13A
100
AcDbEntity
  8
AM_7
100
AcDbLine
 10
0.0315
 20
2.92
 30
0.0
 11
-0.6615
 21
2.92
 31
0.0
  0
LINE
  5
177
330
13A
100
AcDbEntity
  8
AM_7
100
AcDbLine
 10
0.0315
 20
-2.92
 30
0.0
 11
-0.6615
 21
-2.92
 31
0.0
  0
LINE
  5
178
330
13A
100
AcDbEntity
  8
AM_7
100
AcDbLine
 10
-2.15475
 20
0.0
 30
0.0
 11
0.0705
 21
0.0
 31
0.0
  0
LINE
  5
179
330
13A
100
AcDbEntity
  8
AM_4
100
AcDbLine
 10
-0.63
 20
-3.53
 30
0.0
 11
0.0
 21
-3.53
 31
0.0
  0
LINE
  5
17A
330
13A
100
AcDbEntity
  8
AM_4
100
AcDbLine
 10
-0.63
 20
2.006601048281045
 30
0.0
 11
-0.63
 21
3.53
 31
0.0
  0
LINE
  5
17B
330
13A
100
AcDbEntity
  8
AM_4
100
AcDbLine
 10
0.0
 20
3.53
 30
0.0
 11
-0.63
 21
3.53
 31
0.0
  0
LINE
  5
17C
330
13A
100
AcDbEntity
  8
AM_4
100
AcDbLine
 10
-0.63
 20
-3.53
 30
0.0
 11
-0.63
 21
-2.006601048281047
 31
0.0
  0
LINE
  5
17D
330
13A
100
AcDbEntity
  8
AM_4
100
AcDbLine
 10
-0.5669999684999999
 20
-3.078138436565404
 30
0.0
 11
-0.63
 21
-3.078138436565404
 31
0.0
  0
LINE
  5
17E
330
13A
100
AcDbEntity
  8
AM_4
100
AcDbLine
 10
-0.5669999684999999
 20
3.078138436565406
 30
0.0
 11
-0.63
 21
3.078138436565406
 31
0.0
  0
LINE
  5
17F
330
13A
100
AcDbEntity
  8
AM_4
100
AcDbLine
 10
-0.1260000629999999
 20
1.9450606697291
 30
0.0
 11
0.0000000000000001
 21
1.9450606697291
 31
0.0
  0
LINE
  5
180
330
13A
100
AcDbEntity
  8
AM_4
100
AcDbLine
 10
0.0000000000000001
 20
1.9450606697291
 30
0.0
 11
0.0
 21
3.53
 31
0.0
  0
LINE
  5
181
330
13A
100
AcDbEntity
  8
AM_4
100
AcDbLine
 10
0.0
 20
-3.53
 30
0.0
 11
0.0000000000000001
 21
-1.9450606697291
 31
0.0
  0
LINE
  5
182
330
13A
100
AcDbEntity
  8
AM_4
100
AcDbLine
 10
0.0000000000000001
 20
-1.9450606697291
 30
0.0
 11
-0.1260000629999999
 21
-1.9450606697291
 31
0.0
  0
LINE
  5
183
330
13A
100
AcDbEntity
  8
AM_4
100
AcDbLine
 10
-0.1260000629999999
 20
2.115369723703098
 30
0.0
 11
0.0000000000000001
 21
2.115369723703098
 31
0.0
  0
LINE
  5
184
330
13A
100
AcDbEntity
  8
AM_4
100
AcDbLine
 10
-0.63
 20
3.240918511450685
 30
0.0
 11
0.0
 21
3.240918511450685
 31
0.0
  0
LINE
  5
185
330
13A
100
AcDbEntity
  8
AM_4
100
AcDbLine
 10
-0.5669999685
 20
3.211202263196915
 30
0.0
 11
-0.63
 21
3.211202263196908
 31
0.0
  0
LINE
  5
186
330
13A
100
AcDbEntity
  8
AM_4
100
AcDbLine
 10
-0.5669999684999999
 20
1.876614464679642
 30
0.0
 11
-0.5669999685
 21
3.211202263196915
 31
0.0
  0
LINE
  5
187
330
13A
100
AcDbEntity
  8
AM_4
100
AcDbLine
 10
-1.021347359634302
 20
1.876614996037575
 30
0.0
 11
-1.41
 21
1.876614996037575
 31
0.0
  0
LINE
  5
188
330
13A
100
AcDbEntity
  8
AM_4
100
AcDbLine
 10
-0.1260000629999999
 20
1.876614996037575
 30
0.0
 11
-0.7586526403656979
 21
1.876614996037575
 31
0.0
  0
LINE
  5
189
330
13A
100
AcDbEntity
  8
AM_4
100
AcDbLine
 10
0.0000000000000001
 20
-2.115369723703098
 30
0.0
 11
-0.1260000629999999
 21
-2.115369723703098
 31
0.0
  0
LINE
  5
18A
330
13A
100
AcDbEntity
  8
AM_4
100
AcDbLine
 10
-0.5669999685
 20
-3.211202263196938
 30
0.0
 11
-0.5669999684999999
 21
-1.499725886320815
 31
0.0
  0
LINE
  5
18B
330
13A
100
AcDbEntity
  8
AM_4
100
AcDbLine
 10
-0.63
 20
-3.211202263196938
 30
0.0
 11
-0.5669999685
 21
-3.211202263196938
 31
0.0
  0
LINE
  5
18C
330
13A
100
AcDbEntity
  8
AM_4
100
AcDbLine
 10
-0.63
 20
-3.240918511450685
 30
0.0
 11
0.0
 21
-3.240918511450685
 31
0.0
  0
LINE
  5
18D
330
13A
100
AcDbEntity
  8
AM_4
100
AcDbLine
 10
-0.7548733459943509
 20
1.839710432014808
 30
0.0
 11
-0.1260000629999999
 21
1.839710432014808
 31
0.0
  0
LINE
  5
18E
330
13A
100
AcDbEntity
  8
AM_4
100
AcDbLine
 10
-1.41
 20
1.839710432014808
 30
0.0
 11
-1.024238529959007
 21
1.839710432014808
 31
0.0
  0
LINE
  5
18F
330
13A
100
AcDbEntity
  8
AM_4
100
AcDbLine
 10
-0.1260000629999999
 20
-2.115369723703098
 30
0.0
 11
-0.1260000629999999
 21
2.115369723703098
 31
0.0
  0
LINE
  5
190
330
13A
100
AcDbEntity
  8
AM_4
100
AcDbLine
 10
-1.41
 20
-2.1269999685
 30
0.0
 11
-1.41
 21
2.1269999685
 31
0.0
  0
LINE
  5
191
330
13A
100
AcDbEntity
  8
AM_4
100
AcDbLine
 10
-1.41
 20
1.274024992923434
 30
0.0
 11
-0.1260000629999999
 21
1.274024992923434
 31
0.0
  0
LINE
  5
192
330
13A
100
AcDbEntity
  8
AM_4
100
AcDbLine
 10
-1.41
 20
1.452215990877898
 30
0.0
 11
-0.1260000629999999
 21
1.452215990877898
 31
0.0
  0
LWPOLYLINE
  5
193
330
13A
100
AcDbEntity
  8
AM_4
100
AcDbPolyline
 90
       10
 70
     0
 43
0.0
 10
-1.3469999685
 20
1.239671646888995
 10
-1.357290616110795
 20
1.239063096486893
 10
-1.367581263721589
 20
1.237185538831654
 10
-1.377009240241337
 20
1.234200712289128
 10
-1.385848014056796
 20
1.230030883721879
 10
-1.393426935270165
 20
1.224987162760888
 10
-1.399900811259249
 20
1.218962849672974
 10
-1.404821053458436
 20
1.212343947973965
 10
-1.408220399277865
 20
1.20504154417471
 10
-1.41
 20
1.194338524919426
  0
ARC
  5
194
330
13A
100
AcDbEntity
  8
AM_4
100
AcDbCircle
 10
-1.3469999685
 20
-2.126999968500001
 30
0.0
 40
0.0630000314999994
100
AcDbArc
 50
180.0
 51
270.0
  0
ARC
  5
195
330
13A
100
AcDbEntity
  8
AM_4
100
AcDbCircle
 10
-1.3469999685
 20
2.1269999685
 30
0.0
 40
0.0630000314999997
100
AcDbArc
 50
90.0
 51
180.0
  0
LINE
  5
196
330
13A
100
AcDbEntity
  8
AM_4
100
AcDbLine
 10
-0.5669999684999999
 20
-2.006601048281047
 30
0.0
 11
-0.63
 21
-2.006601048281047
 31
0.0
  0
LINE
  5
197
330
13A
100
AcDbEntity
  8
AM_4
100
AcDbLine
 10
-0.5669999684999999
 20
-1.499725886320815
 30
0.0
 11
-0.1260000629999999
 21
-1.499725886320815
 31
0.0
  0
LINE
  5
198
330
13A
100
AcDbEntity
  8
AM_4
100
AcDbLine
 10
-1.3469999685
 20
1.239671646888995
 30
0.0
 11
-0.1260000629999999
 21
1.239671646888995
 31
0.0
  0
LINE
  5
199
330
13A
100
AcDbEntity
  8
AM_4
100
AcDbLine
 10
-1.3469999685
 20
1.239671646888995
 30
0.0
 11
-1.3469999685
 21
-2.19
 31
0.0
  0
LINE
  5
19A
330
13A
100
AcDbEntity
  8
AM_4
100
AcDbLine
 10
-0.63
 20
2.006601048281045
 30
0.0
 11
-0.5669999684999999
 21
2.006601048281045
 31
0.0
  0
LINE
  5
19B
330
13A
100
AcDbEntity
  8
AM_4
100
AcDbLine
 10
-1.3469999685
 20
-2.19
 30
0.0
 11
-0.63
 21
-2.19
 31
0.0
  0
LINE
  5
19C
330
13A
100
AcDbEntity
  8
AM_4
100
AcDbLine
 10
-0.63
 20
2.19
 30
0.0
 11
-1.3469999685
 21
2.19
 31
0.0
  0
LINE
  5
19D
330
13A
100
AcDbEntity
  8
AM_4
100
AcDbLine
 10
-1.3469999685
 20
2.19
 30
0.0
 11
-1.3469999685
 21
1.876614996037575
 31
0.0
  0
ENDBLK
  5
13D
330
13A
100
AcDbEntity
  8
0
100
AcDbBlockEnd
  0
ENDSEC
  0
SECTION
  2
ENTITIES
  0
INSERT
  5
6F
330
1F
100
AcDbEntity
  8
0
100
AcDbBlockReference
  2
1_130328_2
 10
0.0
 20
0.0
 30
0.0
  0
POINT
  5
19F
330
1F
100
AcDbEntity
  8
ConnectionPoints
100
AcDbPoint
 10
-2.07
 20
0.0
 30
0.0000000000000001
  0
POINT
  5
1A0
330
1F
100
AcDbEntity
  8
ConnectionPoints
100
AcDbPoint
 10
-0.8899999999999999
 20
1.645963211446353
 30
1.645963211446353
  0
POINT
  5
1A1
330
1F
100
AcDbEntity
  8
ConnectionPoints
100
AcDbPoint
 10
-0.8899999999999999
 20
1.645963211446353
 30
1.645963211446353
  0
POINT
  5
1A2
330
1F
100
AcDbEntity
  8
ConnectionPoints
100
AcDbPoint
 10
-2.07
 20
0.0
 30
0.0000000000000001
  0
ENDSEC
  0
SECTION
  2
OBJECTS
  0
DICTIONARY
  5
C
330
0
100
AcDbDictionary
281
     1
  3
ACAD_DETAILVIEWSTYLE
350
1AA
  3
ACAD_GROUP
350
D
  3
ACAD_LAYOUT
350
1A
  3
ACAD_MATERIAL
350
43
  3
ACAD_MLEADERSTYLE
350
6B
  3
ACAD_MLINESTYLE
350
17
  3
ACAD_PLOTSETTINGS
350
19
  3
ACAD_PLOTSTYLENAME
350
E
  3
ACAD_SCALELIST
350
47
  3
ACAD_SECTIONVIEWSTYLE
350
1AB
  3
ACAD_TABLESTYLE
350
69
  3
ACAD_VISUALSTYLE
350
2A
  3
ACDB_RECOMPOSE_DATA
350
1A7
  3
AcDbVariableDictionary
350
1A3
  0
SUN
  5
6D
330
29
100
AcDbSun
 90
        1
290
     0
 63
     7
421
 16777215
 40
1.0
291
     1
 91
  2455826
 92
 54000000
292
     0
 70
     2
 71
   256
280
     1
  0
DICTIONARY
  5
1AA
102
{ACAD_REACTORS
330
C
102
}
330
C
100
AcDbDictionary
281
     1
  0
DICTIONARY
  5
D
102
{ACAD_REACTORS
330
C
102
}
330
C
100
AcDbDictionary
281
     1
  0
DICTIONARY
  5
1A
102
{ACAD_REACTORS
330
C
102
}
330
C
100
AcDbDictionary
281
     1
  3
Layout1
350
1E
  3
Layout2
350
26
  3
Model
350
22
  0
DICTIONARY
  5
43
102
{ACAD_REACTORS
330
C
102
}
330
C
100
AcDbDictionary
281
     1
  3
ByBlock
350
45
  3
ByLayer
350
44
  3
Global
350
46
  0
DICTIONARY
  5
6B
102
{ACAD_REACTORS
330
C
102
}
330
C
100
AcDbDictionary
281
     1
  3
Standard
350
6C
  0
DICTIONARY
  5
17
102
{ACAD_REACTORS
330
C
102
}
330
C
100
AcDbDictionary
281
     1
  3
Standard
350
18
  0
DICTIONARY
  5
19
102
{ACAD_REACTORS
330
C
102
}
330
C
100
AcDbDictionary
281
     1
  0
ACDBDICTIONARYWDFLT
  5
E
102
{ACAD_REACTORS
330
C
102
}
330
C
100
AcDbDictionary
281
     1
  3
Normal
350
F
100
AcDbDictionaryWithDefault
340
F
  0
DICTIONARY
  5
47
102
{ACAD_REACTORS
330
C
102
}
330
C
100
AcDbDictionary
281
     1
  3
A0
350
48
  3
A1
350
49
  3
A2
350
4A
  3
A3
350
4B
  3
A4
350
4C
  3
A5
350
4D
  3
A6
350
4E
  3
A7
350
4F
  3
A8
350
50
  3
A9
350
51
  3
B0
350
52
  3
B1
350
53
  3
B2
350
54
  3
B3
350
55
  3
B4
350
56
  3
B5
350
57
  3
B6
350
58
  3
B7
350
59
  3
B8
350
5A
  3
B9
350
5B
  3
C0
350
5C
  3
C1
350
5D
  3
C2
350
5E
  3
C3
350
5F
  3
C4
350
60
  3
C5
350
61
  3
C6
350
62
  3
C7
350
63
  3
C8
350
64
  3
C9
350
65
  3
D0
350
66
  3
D1
350
67
  3
D2
350
68
  0
DICTIONARY
  5
1AB
102
{ACAD_REACTORS
330
C
102
}
330
C
100
AcDbDictionary
281
     1
  0
DICTIONARY
  5
69
102
{ACAD_REACTORS
330
C
102
}
330
C
100
AcDbDictionary
281
     1
  3
Standard
350
6A
  0
DICTIONARY
  5
2A
102
{ACAD_REACTORS
330
C
102
}
330
C
100
AcDbDictionary
281
     1
  3
2dWireframe
350
2F
  3
Basic
350
32
  3
Brighten
350
36
  3
ColorChange
350
3A
  3
Conceptual
350
34
  3
Dim
350
35
  3
EdgeColorOff
350
3D
  3
Facepattern
350
39
  3
Flat
350
2B
  3
FlatWithEdges
350
2C
  3
Gouraud
350
2D
  3
GouraudWithEdges
350
2E
  3
Hidden
350
31
  3
JitterOff
350
3B
  3
Linepattern
350
38
  3
OverhangOff
350
3C
  3
Realistic
350
33
  3
Shaded
350
42
  3
Shaded with edges
350
41
  3
Shades of Gray
350
3E
  3
Sketchy
350
3F
  3
Thicken
350
37
  3
Wireframe
350
30
  3
X-Ray
350
40
  0
XRECORD
  5
1A7
102
{ACAD_REACTORS
330
C
102
}
330
C
100
AcDbXrecord
280
     1
 90
        1
330
6A
  0
DICTIONARY
  5
1A3
102
{ACAD_REACTORS
330
C
102
}
330
C
100
AcDbDictionary
281
     1
  3
CANNOSCALE
350
1A4
  3
CMLEADERSTYLE
350
1A9
  3
CTABLESTYLE
350
1A8
  0
LAYOUT
  5
1E
102
{ACAD_REACTORS
330
1A
102
}
330
1A
100
AcDbPlotSettings
  1

  2
none_device
  4

  6

 40
0.0
 41
0.0
 42
0.0
 43
0.0
 44
0.0
 45
0.0
 46
0.0
 47
0.0
 48
0.0
 49
0.0
140
0.0
141
0.0
142
1.0
143
1.0
 70
   688
 72
     0
 73
     0
 74
     5
  7

 75
    16
 76
     0
 77
     2
 78
   300
147
1.0
148
0.0
149
0.0
100
AcDbLayout
  1
Layout1
 70
     1
 71
     1
 10
0.0
 20
0.0
 11
12.0
 21
9.0
 12
0.0
 22
0.0
 32
0.0
 14
1.000000000000000E+20
 24
1.000000000000000E+20
 34
1.000000000000000E+20
 15
-1.000000000000000E+20
 25
-1.000000000000000E+20
 35
-1.000000000000000E+20
146
0.0
 13
0.0
 23
0.0
 33
0.0
 16
1.0
 26
0.0
 36
0.0
 17
0.0
 27
1.0
 37
0.0
 76
     0
330
1B
  0
LAYOUT
  5
26
102
{ACAD_REACTORS
330
1A
102
}
330
1A
100
AcDbPlotSettings
  1

  2
none_device
  4

  6

 40
0.0
 41
0.0
 42
0.0
 43
0.0
 44
0.0
 45
0.0
 46
0.0
 47
0.0
 48
0.0
 49
0.0
140
0.0
141
0.0
142
1.0
143
1.0
 70
   688
 72
     0
 73
     0
 74
     5
  7

 75
    16
 76
     0
 77
     2
 78
   300
147
1.0
148
0.0
149
0.0
100
AcDbLayout
  1
Layout2
 70
     1
 71
     2
 10
0.0
 20
0.0
 11
0.0
 21
0.0
 12
0.0
 22
0.0
 32
0.0
 14
0.0
 24
0.0
 34
0.0
 15
0.0
 25
0.0
 35
0.0
146
0.0
 13
0.0
 23
0.0
 33
0.0
 16
1.0
 26
0.0
 36
0.0
 17
0.0
 27
1.0
 37
0.0
 76
     0
330
23
  0
LAYOUT
  5
22
102
{ACAD_REACTORS
330
1A
102
}
330
1A
100
AcDbPlotSettings
  1

  2
none_device
  4
Letter_(8.50_x_11.00_Inches)
  6

 40
6.35
 41
6.35
 42
6.35000508
 43
6.35000508
 44
215.9
 45
279.4
 46
0.0
 47
0.0
 48
0.0
 49
0.0
140
0.0
141
0.0
142
1.0
143
1.0
 70
  1712
 72
     0
 73
     0
 74
     0
  7

 75
     0
 76
     0
 77
     2
 78
   300
147
1.0
148
0.0
149
0.0
100
AcDbLayout
  1
Model
 70
     1
 71
     0
 10
0.0
 20
0.0
 11
12.0
 21
9.0
 12
0.0
 22
0.0
 32
0.0
 14
1.000000000000000E+20
 24
1.000000000000000E+20
 34
1.000000000000000E+20
 15
-1.000000000000000E+20
 25
-1.000000000000000E+20
 35
-1.000000000000000E+20
146
0.0
 13
0.0
 23
0.0
 33
0.0
 16
1.0
 26
0.0
 36
0.0
 17
0.0
 27
1.0
 37
0.0
 76
     0
330
1F
331
29
  0
MATERIAL
  5
45
102
{ACAD_REACTORS
330
43
102
}
330
43
100
AcDbMaterial
  1
ByBlock
 72
     1
 94
      127
  0
MATERIAL
  5
44
102
{ACAD_REACTORS
330
43
102
}
330
43
100
AcDbMaterial
  1
ByLayer
 72
     1
 94
      127
  0
MATERIAL
  5
46
102
{ACAD_REACTORS
330
43
102
}
330
43
100
AcDbMaterial
  1
Global
 72
     1
 94
      127
  0
MLEADERSTYLE
  5
6C
102
{ACAD_REACTORS
330
6B
102
}
330
6B
100
AcDbMLeaderStyle
179
     2
170
     2
171
     1
172
     0
 90
        2
 40
0.0
 41
0.0
173
     1
 91
-1056964608
340
14
 92
       -2
290
     1
 42
0.09
291
     1
 43
0.36
  3
Standard
341
0
 44
0.18
300

342
11
174
     1
178
     6
175
     1
176
     0
 93
-1056964608
 45
0.18
292
     0
297
     0
 46
0.18
343
0
 94
-1056964608
 47
1.0
 49
1.0
140
1.0
293
     1
141
0.0
294
     1
177
     0
142
1.0
295
     0
296
     0
143
0.125
271
     0
272
     9
273
     9
298
     0
  0
MLINESTYLE
  5
18
102
{ACAD_REACTORS
330
17
102
}
330
17
100
AcDbMlineStyle
  2
Standard
 70
     0
  3

 62
   256
 51
90.0
 52
90.0
 71
     2
 49
0.5
 62
   256
  6
BYLAYER
 49
-0.5
 62
   256
  6
BYLAYER
  0
ACDBPLACEHOLDER
  5
F
102
{ACAD_REACTORS
330
E
102
}
330
E
  0
SCALE
  5
48
102
{ACAD_REACTORS
330
47
102
}
330
47
100
AcDbScale
 70
     0
300
1:1
140
1.0
141
1.0
290
     1
  0
SCALE
  5
49
102
{ACAD_REACTORS
330
47
102
}
330
47
100
AcDbScale
 70
     0
300
1:2
140
1.0
141
2.0
290
     0
  0
SCALE
  5
4A
102
{ACAD_REACTORS
330
47
102
}
330
47
100
AcDbScale
 70
     0
300
1:4
140
1.0
141
4.0
290
     0
  0
SCALE
  5
4B
102
{ACAD_REACTORS
330
47
102
}
330
47
100
AcDbScale
 70
     0
300
1:5
140
1.0
141
5.0
290
     0
  0
SCALE
  5
4C
102
{ACAD_REACTORS
330
47
102
}
330
47
100
AcDbScale
 70
     0
300
1:8
140
1.0
141
8.0
290
     0
  0
SCALE
  5
4D
102
{ACAD_REACTORS
330
47
102
}
330
47
100
AcDbScale
 70
     0
300
1:10
140
1.0
141
10.0
290
     0
  0
SCALE
  5
4E
102
{ACAD_REACTORS
330
47
102
}
330
47
100
AcDbScale
 70
     0
300
1:16
140
1.0
141
16.0
290
     0
  0
SCALE
  5
4F
102
{ACAD_REACTORS
330
47
102
}
330
47
100
AcDbScale
 70
     0
300
1:20
140
1.0
141
20.0
290
     0
  0
SCALE
  5
50
102
{ACAD_REACTORS
330
47
102
}
330
47
100
AcDbScale
 70
     0
300
1:30
140
1.0
141
30.0
290
     0
  0
SCALE
  5
51
102
{ACAD_REACTORS
330
47
102
}
330
47
100
AcDbScale
 70
     0
300
1:40
140
1.0
141
40.0
290
     0
  0
SCALE
  5
52
102
{ACAD_REACTORS
330
47
102
}
330
47
100
AcDbScale
 70
     0
300
1:50
140
1.0
141
50.0
290
     0
  0
SCALE
  5
53
102
{ACAD_REACTORS
330
47
102
}
330
47
100
AcDbScale
 70
     0
300
1:100
140
1.0
141
100.0
290
     0
  0
SCALE
  5
54
102
{ACAD_REACTORS
330
47
102
}
330
47
100
AcDbScale
 70
     0
300
2:1
140
2.0
141
1.0
290
     0
  0
SCALE
  5
55
102
{ACAD_REACTORS
330
47
102
}
330
47
100
AcDbScale
 70
     0
300
4:1
140
4.0
141
1.0
290
     0
  0
SCALE
  5
56
102
{ACAD_REACTORS
330
47
102
}
330
47
100
AcDbScale
 70
     0
300
8:1
140
8.0
141
1.0
290
     0
  0
SCALE
  5
57
102
{ACAD_REACTORS
330
47
102
}
330
47
100
AcDbScale
 70
     0
300
10:1
140
10.0
141
1.0
290
     0
  0
SCALE
  5
58
102
{ACAD_REACTORS
330
47
102
}
330
47
100
AcDbScale
 70
     0
300
100:1
140
100.0
141
1.0
290
     0
  0
SCALE
  5
59
102
{ACAD_REACTORS
330
47
102
}
330
47
100
AcDbScale
 70
     0
300
1/128" = 1'-0"
140
0.0078125
141
12.0
290
     0
  0
SCALE
  5
5A
102
{ACAD_REACTORS
330
47
102
}
330
47
100
AcDbScale
 70
     0
300
1/64" = 1'-0"
140
0.015625
141
12.0
290
     0
  0
SCALE
  5
5B
102
{ACAD_REACTORS
330
47
102
}
330
47
100
AcDbScale
 70
     0
300
1/32" = 1'-0"
140
0.03125
141
12.0
290
     0
  0
SCALE
  5
5C
102
{ACAD_REACTORS
330
47
102
}
330
47
100
AcDbScale
 70
     0
300
1/16" = 1'-0"
140
0.0625
141
12.0
290
     0
  0
SCALE
  5
5D
102
{ACAD_REACTORS
330
47
102
}
330
47
100
AcDbScale
 70
     0
300
3/32" = 1'-0"
140
0.09375
141
12.0
290
     0
  0
SCALE
  5
5E
102
{ACAD_REACTORS
330
47
102
}
330
47
100
AcDbScale
 70
     0
300
1/8" = 1'-0"
140
0.125
141
12.0
290
     0
  0
SCALE
  5
5F
102
{ACAD_REACTORS
330
47
102
}
330
47
100
AcDbScale
 70
     0
300
3/16" = 1'-0"
140
0.1875
141
12.0
290
     0
  0
SCALE
  5
60
102
{ACAD_REACTORS
330
47
102
}
330
47
100
AcDbScale
 70
     0
300
1/4" = 1'-0"
140
0.25
141
12.0
290
     0
  0
SCALE
  5
61
102
{ACAD_REACTORS
330
47
102
}
330
47
100
AcDbScale
 70
     0
300
3/8" = 1'-0"
140
0.375
141
12.0
290
     0
  0
SCALE
  5
62
102
{ACAD_REACTORS
330
47
102
}
330
47
100
AcDbScale
 70
     0
300
1/2" = 1'-0"
140
0.5
141
12.0
290
     0
  0
SCALE
  5
63
102
{ACAD_REACTORS
330
47
102
}
330
47
100
AcDbScale
 70
     0
300
3/4" = 1'-0"
140
0.75
141
12.0
290
     0
  0
SCALE
  5
64
102
{ACAD_REACTORS
330
47
102
}
330
47
100
AcDbScale
 70
     0
300
1" = 1'-0"
140
1.0
141
12.0
290
     0
  0
SCALE
  5
65
102
{ACAD_REACTORS
330
47
102
}
330
47
100
AcDbScale
 70
     0
300
1-1/2" = 1'-0"
140
1.5
141
12.0
290
     0
  0
SCALE
  5
66
102
{ACAD_REACTORS
330
47
102
}
330
47
100
AcDbScale
 70
     0
300
3" = 1'-0"
140
3.0
141
12.0
290
     0
  0
SCALE
  5
67
102
{ACAD_REACTORS
330
47
102
}
330
47
100
AcDbScale
 70
     0
300
6" = 1'-0"
140
6.0
141
12.0
290
     0
  0
SCALE
  5
68
102
{ACAD_REACTORS
330
47
102
}
330
47
100
AcDbScale
 70
     0
300
1'-0" = 1'-0"
140
12.0
141
12.0
290
     0
  0
TABLESTYLE
  5
6A
102
{ACAD_REACTORS
330
69
102
}
102
{ACAD_XDICTIONARY
360
1A5
102
}
330
69
100
AcDbTableStyle
  3
Standard
 70
     0
 71
     0
 40
0.06
 41
0.06
280
     0
281
     0
  7
Standard
140
0.18
170
     2
 62
     0
 63
   257
283
     0
 90
        4
 91
        0
  1

274
    -2
284
     1
 64
     0
275
    -2
285
     1
 65
     0
276
    -2
286
     1
 66
     0
277
    -2
287
     1
 67
     0
278
    -2
288
     1
 68
     0
279
    -2
289
     1
 69
     0
  7
Standard
140
0.25
170
     5
 62
     0
 63
   257
283
     0
 90
        4
 91
        0
  1

274
    -2
284
     1
 64
     0
275
    -2
285
     1
 65
     0
276
    -2
286
     1
 66
     0
277
    -2
287
     1
 67
     0
278
    -2
288
     1
 68
     0
279
    -2
289
     1
 69
     0
  7
Standard
140
0.18
170
     5
 62
     0
 63
   257
283
     0
 90
        4
 91
        0
  1

274
    -2
284
     1
 64
     0
275
    -2
285
     1
 65
     0
276
    -2
286
     1
 66
     0
277
    -2
287
     1
 67
     0
278
    -2
288
     1
 68
     0
279
    -2
289
     1
 69
     0
  0
VISUALSTYLE
  5
2F
102
{ACAD_REACTORS
330
2A
102
}
330
2A
100
AcDbVisualStyle
  2
2dWireframe
 70
     4
177
     3
291
     0
 70
    58
 90
        0
176
     1
 90
        2
176
     1
 90
        0
176
     1
 90
        0
176
     1
 40
0.6
176
     1
 40
30.0
176
     1
 62
     7
420
 16777215
176
     1
 90
        1
176
     1
 90
        4
176
     1
 62
     7
176
     1
 62
   257
176
     1
 90
        1
176
     1
 90
        1
176
     1
 40
1.0
176
     1
 90
        0
176
     1
 62
   257
176
     1
 40
1.0
176
     1
 90
        1
176
     1
 90
        6
176
     1
 90
        2
176
     1
 62
     7
176
     1
 90
        5
176
     1
 90
        0
176
     1
 90
        0
176
     1
290
     0
176
     1
 90
        1
176
     1
 40
0.0
176
     1
 90
        0
176
     1
290
     1
176
     1
290
     1
176
     1
290
     0
176
     1
290
     0
176
     1
290
     0
176
     1
290
     0
176
     1
290
     0
176
     1
290
     0
176
     1
290
     0
176
     1
 90
       50
176
     1
 40
0.0
176
     1
 40
1.0
176
     1
 90
        0
176
     1
 62
    18
420
        0
176
     1
 90
       50
176
     1
 90
        3
176
     1
 62
     5
420
      255
176
     1
290
     0
176
     1
 90
       50
176
     1
 90
       50
176
     1
 90
       50
176
     1
290
     0
176
     1
 90
       50
176
     1
 62
   256
176
     0
 40
1.0
176
     0
 90
        2
176
     1
  1
strokes_ogs.tif
176
     1
290
     0
176
     1
 40
1.0
176
     1
 40
1.0
176
     1
  0
VISUALSTYLE
  5
32
102
{ACAD_REACTORS
330
2A
102
}
330
2A
100
AcDbVisualStyle
  2
Basic
 70
     7
177
     3
291
     1
 70
    58
 90
        1
176
     1
 90
        0
176
     1
 90
        1
176
     1
 90
        0
176
     1
 40
0.6
176
     1
 40
30.0
176
     1
 62
     7
420
 16777215
176
     1
 90
        0
176
     1
 90
        4
176
     1
 62
     7
176
     1
 62
   257
176
     1
 90
        1
176
     1
 90
        1
176
     1
 40
1.0
176
     1
 90
        8
176
     1
 62
     7
176
     1
 40
1.0
176
     1
 90
        1
176
     1
 90
        6
176
     1
 90
        2
176
     1
 62
     7
176
     1
 90
        5
176
     1
 90
        0
176
     1
 90
        0
176
     1
290
     0
176
     1
 90
        1
176
     1
 40
0.0
176
     1
 90
        0
176
     1
290
     0
176
     1
290
     1
176
     1
290
     1
176
     1
290
     0
176
     1
290
     0
176
     1
290
     0
176
     1
290
     0
176
     1
290
     0
176
     1
290
     0
176
     1
 90
       50
176
     1
 40
0.0
176
     1
 40
1.0
176
     1
 90
        0
176
     1
 62
    18
420
        0
176
     1
 90
       50
176
     1
 90
        3
176
     1
 62
     5
420
      255
176
     1
290
     0
176
     1
 90
       50
176
     1
 90
       50
176
     1
 90
       50
176
     1
290
     0
176
     1
 90
       50
176
     1
 62
   256
176
     0
 40
1.0
176
     0
 90
        2
176
     1
  1
strokes_ogs.tif
176
     1
290
     0
176
     1
 40
1.0
176
     1
 40
1.0
176
     1
  0
VISUALSTYLE
  5
36
102
{ACAD_REACTORS
330
2A
102
}
330
2A
100
AcDbVisualStyle
  2
Brighten
 70
    12
177
     3
291
     1
 70
    58
 90
        2
176
     1
 90
        2
176
     1
 90
        0
176
     1
 90
        0
176
     1
 40
0.6
176
     1
 40
30.0
176
     1
 62
     7
420
 16777215
176
     1
 90
        1
176
     1
 90
        4
176
     1
 62
     7
176
     1
 62
   257
176
     1
 90
        1
176
     1
 90
        1
176
     1
 40
1.0
176
     1
 90
        8
176
     1
 62
     7
176
     1
 40
1.0
176
     1
 90
        1
176
     1
 90
        6
176
     1
 90
        2
176
     1
 62
     7
176
     1
 90
        5
176
     1
 90
        0
176
     1
 90
        0
176
     1
290
     0
176
     1
 90
        1
176
     1
 40
50.0
176
     1
 90
        0
176
     1
290
     0
176
     1
290
     1
176
     1
290
     1
176
     1
290
     0
176
     1
290
     0
176
     1
290
     0
176
     1
290
     0
176
     1
290
     0
176
     1
290
     0
176
     1
 90
       50
176
     1
 40
0.0
176
     1
 40
1.0
176
     1
 90
        0
176
     1
 62
    18
420
        0
176
     1
 90
       50
176
     1
 90
        3
176
     1
 62
     5
420
      255
176
     1
290
     0
176
     1
 90
       50
176
     1
 90
       50
176
     1
 90
       50
176
     1
290
     0
176
     1
 90
       50
176
     1
 62
   256
176
     0
 40
1.0
176
     0
 90
        2
176
     1
  1
strokes_ogs.tif
176
     1
290
     0
176
     1
 40
1.0
176
     1
 40
1.0
176
     1
  0
VISUALSTYLE
  5
3A
102
{ACAD_REACTORS
330
2A
102
}
330
2A
100
AcDbVisualStyle
  2
ColorChange
 70
    16
177
     3
291
     1
 70
    58
 90
        2
176
     1
 90
        2
176
     1
 90
        3
176
     1
 90
        0
176
     1
 40
0.6
176
     1
 40
30.0
176
     1
 62
     8
420
  8421504
176
     1
 90
        1
176
     1
 90
        4
176
     1
 62
     7
176
     1
 62
   257
176
     1
 90
        1
176
     1
 90
        1
176
     1
 40
1.0
176
     1
 90
        8
176
     1
 62
     8
420
  8421504
176
     1
 40
1.0
176
     1
 90
        1
176
     1
 90
        6
176
     1
 90
        2
176
     1
 62
     7
176
     1
 90
        5
176
     1
 90
        0
176
     1
 90
        0
176
     1
290
     0
176
     1
 90
        1
176
     1
 40
0.0
176
     1
 90
        0
176
     1
290
     0
176
     1
290
     1
176
     1
290
     1
176
     1
290
     0
176
     1
290
     0
176
     1
290
     0
176
     1
290
     0
176
     1
290
     0
176
     1
290
     0
176
     1
 90
       50
176
     1
 40
0.0
176
     1
 40
1.0
176
     1
 90
        0
176
     1
 62
    18
420
        0
176
     1
 90
       50
176
     1
 90
        3
176
     1
 62
     5
420
      255
176
     1
290
     0
176
     1
 90
       50
176
     1
 90
       50
176
     1
 90
       50
176
     1
290
     0
176
     1
 90
       50
176
     1
 62
   256
176
     0
 40
1.0
176
     0
 90
        2
176
     1
  1
strokes_ogs.tif
176
     1
290
     0
176
     1
 40
1.0
176
     1
 40
1.0
176
     1
  0
VISUALSTYLE
  5
34
102
{ACAD_REACTORS
330
2A
102
}
330
2A
100
AcDbVisualStyle
  2
Conceptual
 70
     9
177
     3
291
     0
 70
    58
 90
        3
176
     1
 90
        2
176
     1
 90
        0
176
     1
 90
        0
176
     1
 40
0.6
176
     1
 40
30.0
176
     1
 62
     7
420
 16777215
176
     1
 90
        2
176
     1
 90
        2
176
     1
 62
     7
176
     1
 62
   257
176
     1
 90
        1
176
     1
 90
        1
176
     1
 40
179.0
176
     1
 90
        8
176
     1
 62
     7
176
     1
 40
1.0
176
     1
 90
        1
176
     1
 90
        6
176
     1
 90
        2
176
     1
 62
     7
176
     1
 90
        3
176
     1
 90
        0
176
     1
 90
        0
176
     1
290
     0
176
     1
 90
        1
176
     1
 40
0.0
176
     1
 90
        0
176
     1
290
     0
176
     1
290
     1
176
     1
290
     1
176
     1
290
     0
176
     1
290
     0
176
     1
290
     0
176
     1
290
     0
176
     1
290
     0
176
     1
290
     0
176
     1
 90
       50
176
     1
 40
0.0
176
     1
 40
1.0
176
     1
 90
        0
176
     1
 62
    18
420
        0
176
     1
 90
       50
176
     1
 90
        3
176
     1
 62
     5
420
      255
176
     1
290
     0
176
     1
 90
       50
176
     1
 90
       50
176
     1
 90
       50
176
     1
290
     0
176
     1
 90
       50
176
     1
 62
   256
176
     0
 40
1.0
176
     0
 90
        2
176
     1
  1
strokes_ogs.tif
176
     1
290
     0
176
     1
 40
1.0
176
     1
 40
1.0
176
     1
  0
VISUALSTYLE
  5
35
102
{ACAD_REACTORS
330
2A
102
}
330
2A
100
AcDbVisualStyle
  2
Dim
 70
    11
177
     3
291
     1
 70
    58
 90
        2
176
     1
 90
        2
176
     1
 90
        0
176
     1
 90
        0
176
     1
 40
0.6
176
     1
 40
30.0
176
     1
 62
     7
420
 16777215
176
     1
 90
        1
176
     1
 90
        4
176
     1
 62
     7
176
     1
 62
   257
176
     1
 90
        1
176
     1
 90
        1
176
     1
 40
1.0
176
     1
 90
        8
176
     1
 62
     7
176
     1
 40
1.0
176
     1
 90
        1
176
     1
 90
        6
176
     1
 90
        2
176
     1
 62
     7
176
     1
 90
        5
176
     1
 90
        0
176
     1
 90
        0
176
     1
290
     0
176
     1
 90
        1
176
     1
 40
-50.0
176
     1
 90
        0
176
     1
290
     0
176
     1
290
     1
176
     1
290
     1
176
     1
290
     0
176
     1
290
     0
176
     1
290
     0
176
     1
290
     0
176
     1
290
     0
176
     1
290
     0
176
     1
 90
       50
176
     1
 40
0.0
176
     1
 40
1.0
176
     1
 90
        0
176
     1
 62
    18
420
        0
176
     1
 90
       50
176
     1
 90
        3
176
     1
 62
     5
420
      255
176
     1
290
     0
176
     1
 90
       50
176
     1
 90
       50
176
     1
 90
       50
176
     1
290
     0
176
     1
 90
       50
176
     1
 62
   256
176
     0
 40
1.0
176
     0
 90
        2
176
     1
  1
strokes_ogs.tif
176
     1
290
     0
176
     1
 40
1.0
176
     1
 40
1.0
176
     1
  0
VISUALSTYLE
  5
3D
102
{ACAD_REACTORS
330
2A
102
}
330
2A
100
AcDbVisualStyle
  2
EdgeColorOff
 70
    22
177
     3
291
     1
 70
    58
 90
        2
176
     0
 90
        2
176
     0
 90
        0
176
     0
 90
        0
176
     0
 40
0.6
176
     0
 40
30.0
176
     0
 62
     7
420
 16777215
176
     0
 90
        1
176
     0
 90
        4
176
     0
 62
     7
176
     0
 62
   257
176
     0
 90
        1
176
     0
 90
        1
176
     0
 40
1.0
176
     0
 90
        8
176
     2
 62
     7
176
     0
 40
1.0
176
     0
 90
        1
176
     0
 90
        6
176
     0
 90
        2
176
     0
 62
     7
176
     0
 90
        5
176
     0
 90
        0
176
     0
 90
        0
176
     0
290
     0
176
     0
 90
        1
176
     0
 40
0.0
176
     0
 90
        0
176
     0
290
     0
176
     0
290
     1
176
     0
290
     1
176
     0
290
     0
176
     0
290
     0
176
     0
290
     0
176
     0
290
     0
176
     0
290
     0
176
     0
290
     0
176
     0
 90
       50
176
     0
 40
0.0
176
     0
 40
1.0
176
     0
 90
        0
176
     0
 62
    18
420
        0
176
     0
 90
       50
176
     0
 90
        3
176
     0
 62
     5
420
      255
176
     0
290
     0
176
     0
 90
       50
176
     0
 90
       50
176
     0
 90
       50
176
     0
290
     0
176
     0
 90
       50
176
     0
 62
   256
176
     0
 40
1.0
176
     0
 90
        2
176
     0
  1
strokes_ogs.tif
176
     0
290
     0
176
     0
 40
1.0
176
     0
 40
1.0
176
     0
  0
VISUALSTYLE
  5
39
102
{ACAD_REACTORS
330
2A
102
}
330
2A
100
AcDbVisualStyle
  2
Facepattern
 70
    15
177
     3
291
     1
 70
    58
 90
        2
176
     1
 90
        2
176
     1
 90
        0
176
     1
 90
        0
176
     1
 40
0.6
176
     1
 40
30.0
176
     1
 62
     7
420
 16777215
176
     1
 90
        1
176
     1
 90
        4
176
     1
 62
     7
176
     1
 62
   257
176
     1
 90
        1
176
     1
 90
        1
176
     1
 40
1.0
176
     1
 90
        8
176
     1
 62
     7
176
     1
 40
1.0
176
     1
 90
        1
176
     1
 90
        6
176
     1
 90
        2
176
     1
 62
     7
176
     1
 90
        5
176
     1
 90
        0
176
     1
 90
        0
176
     1
290
     0
176
     1
 90
        1
176
     1
 40
0.0
176
     1
 90
        0
176
     1
290
     0
176
     1
290
     1
176
     1
290
     1
176
     1
290
     0
176
     1
290
     0
176
     1
290
     0
176
     1
290
     0
176
     1
290
     0
176
     1
290
     0
176
     1
 90
       50
176
     1
 40
0.0
176
     1
 40
1.0
176
     1
 90
        0
176
     1
 62
    18
420
        0
176
     1
 90
       50
176
     1
 90
        3
176
     1
 62
     5
420
      255
176
     1
290
     0
176
     1
 90
       50
176
     1
 90
       50
176
     1
 90
       50
176
     1
290
     0
176
     1
 90
       50
176
     1
 62
   256
176
     0
 40
1.0
176
     0
 90
        2
176
     1
  1
strokes_ogs.tif
176
     1
290
     0
176
     1
 40
1.0
176
     1
 40
1.0
176
     1
  0
VISUALSTYLE
  5
2B
102
{ACAD_REACTORS
330
2A
102
}
330
2A
100
AcDbVisualStyle
  2
Flat
 70
     0
177
     3
291
     1
 70
    58
 90
        2
176
     1
 90
        1
176
     1
 90
        1
176
     1
 90
        2
176
     1
 40
0.6
176
     1
 40
30.0
176
     1
 62
     7
420
 16777215
176
     1
 90
        0
176
     1
 90
        0
176
     1
 62
     7
176
     1
 62
   257
176
     1
 90
        1
176
     1
 90
        1
176
     1
 40
1.0
176
     1
 90
        8
176
     1
 62
     7
176
     1
 40
1.0
176
     1
 90
        1
176
     1
 90
        6
176
     1
 90
        2
176
     1
 62
     7
176
     1
 90
        5
176
     1
 90
        0
176
     1
 90
        0
176
     1
290
     0
176
     1
 90
       13
176
     1
 40
0.0
176
     1
 90
        0
176
     1
290
     0
176
     1
290
     1
176
     1
290
     1
176
     1
290
     0
176
     1
290
     0
176
     1
290
     0
176
     1
290
     0
176
     1
290
     0
176
     1
290
     0
176
     1
 90
       50
176
     1
 40
0.0
176
     1
 40
1.0
176
     1
 90
        0
176
     1
 62
    18
420
        0
176
     1
 90
       50
176
     1
 90
        3
176
     1
 62
     5
420
      255
176
     1
290
     0
176
     1
 90
       50
176
     1
 90
       50
176
     1
 90
       50
176
     1
290
     0
176
     1
 90
       50
176
     1
 62
   256
176
     0
 40
1.0
176
     0
 90
        2
176
     1
  1
strokes_ogs.tif
176
     1
290
     0
176
     1
 40
1.0
176
     1
 40
1.0
176
     1
  0
VISUALSTYLE
  5
2C
102
{ACAD_REACTORS
330
2A
102
}
330
2A
100
AcDbVisualStyle
  2
FlatWithEdges
 70
     1
177
     3
291
     1
 70
    58
 90
        2
176
     1
 90
        1
176
     1
 90
        1
176
     1
 90
        2
176
     1
 40
0.6
176
     1
 40
30.0
176
     1
 62
     7
420
 16777215
176
     1
 90
        1
176
     1
 90
        0
176
     1
 62
     7
176
     1
 62
   257
176
     1
 90
        1
176
     1
 90
        1
176
     1
 40
1.0
176
     1
 90
        0
176
     1
 62
   257
176
     1
 40
1.0
176
     1
 90
        1
176
     1
 90
        6
176
     1
 90
        2
176
     1
 62
     7
176
     1
 90
        5
176
     1
 90
        0
176
     1
 90
        0
176
     1
290
     0
176
     1
 90
       13
176
     1
 40
0.0
176
     1
 90
        0
176
     1
290
     0
176
     1
290
     1
176
     1
290
     1
176
     1
290
     0
176
     1
290
     0
176
     1
290
     0
176
     1
290
     0
176
     1
290
     0
176
     1
290
     0
176
     1
 90
       50
176
     1
 40
0.0
176
     1
 40
1.0
176
     1
 90
        0
176
     1
 62
    18
420
        0
176
     1
 90
       50
176
     1
 90
        3
176
     1
 62
     5
420
      255
176
     1
290
     0
176
     1
 90
       50
176
     1
 90
       50
176
     1
 90
       50
176
     1
290
     0
176
     1
 90
       50
176
     1
 62
   256
176
     0
 40
1.0
176
     0
 90
        2
176
     1
  1
strokes_ogs.tif
176
     1
290
     0
176
     1
 40
1.0
176
     1
 40
1.0
176
     1
  0
VISUALSTYLE
  5
2D
102
{ACAD_REACTORS
330
2A
102
}
330
2A
100
AcDbVisualStyle
  2
Gouraud
 70
     2
177
     3
291
     1
 70
    58
 90
        2
176
     1
 90
        2
176
     1
 90
        1
176
     1
 90
        2
176
     1
 40
0.6
176
     1
 40
30.0
176
     1
 62
     7
420
 16777215
176
     1
 90
        0
176
     1
 90
        0
176
     1
 62
     7
176
     1
 62
   257
176
     1
 90
        1
176
     1
 90
        1
176
     1
 40
1.0
176
     1
 90
        0
176
     1
 62
     7
176
     1
 40
1.0
176
     1
 90
        1
176
     1
 90
        6
176
     1
 90
        2
176
     1
 62
     7
176
     1
 90
        5
176
     1
 90
        0
176
     1
 90
        0
176
     1
290
     0
176
     1
 90
       13
176
     1
 40
0.0
176
     1
 90
        0
176
     1
290
     0
176
     1
290
     1
176
     1
290
     1
176
     1
290
     0
176
     1
290
     0
176
     1
290
     0
176
     1
290
     0
176
     1
290
     0
176
     1
290
     0
176
     1
 90
       50
176
     1
 40
0.0
176
     1
 40
1.0
176
     1
 90
        0
176
     1
 62
    18
420
        0
176
     1
 90
       50
176
     1
 90
        3
176
     1
 62
     5
420
      255
176
     1
290
     0
176
     1
 90
       50
176
     1
 90
       50
176
     1
 90
       50
176
     1
290
     0
176
     1
 90
       50
176
     1
 62
   256
176
     0
 40
1.0
176
     0
 90
        2
176
     1
  1
strokes_ogs.tif
176
     1
290
     0
176
     1
 40
1.0
176
     1
 40
1.0
176
     1
  0
VISUALSTYLE
  5
2E
102
{ACAD_REACTORS
330
2A
102
}
330
2A
100
AcDbVisualStyle
  2
GouraudWithEdges
 70
     3
177
     3
291
     1
 70
    58
 90
        2
176
     1
 90
        2
176
     1
 90
        1
176
     1
 90
        2
176
     1
 40
0.6
176
     1
 40
30.0
176
     1
 62
     7
420
 16777215
176
     1
 90
        1
176
     1
 90
        0
176
     1
 62
     7
176
     1
 62
   257
176
     1
 90
        1
176
     1
 90
        1
176
     1
 40
1.0
176
     1
 90
        0
176
     1
 62
   257
176
     1
 40
1.0
176
     1
 90
        1
176
     1
 90
        6
176
     1
 90
        2
176
     1
 62
     7
176
     1
 90
        5
176
     1
 90
        0
176
     1
 90
        0
176
     1
290
     0
176
     1
 90
       13
176
     1
 40
0.0
176
     1
 90
        0
176
     1
290
     0
176
     1
290
     1
176
     1
290
     1
176
     1
290
     0
176
     1
290
     0
176
     1
290
     0
176
     1
290
     0
176
     1
290
     0
176
     1
290
     0
176
     1
 90
       50
176
     1
 40
0.0
176
     1
 40
1.0
176
     1
 90
        0
176
     1
 62
    18
420
        0
176
     1
 90
       50
176
     1
 90
        3
176
     1
 62
     5
420
      255
176
     1
290
     0
176
     1
 90
       50
176
     1
 90
       50
176
     1
 90
       50
176
     1
290
     0
176
     1
 90
       50
176
     1
 62
   256
176
     0
 40
1.0
176
     0
 90
        2
176
     1
  1
strokes_ogs.tif
176
     1
290
     0
176
     1
 40
1.0
176
     1
 40
1.0
176
     1
  0
VISUALSTYLE
  5
31
102
{ACAD_REACTORS
330
2A
102
}
330
2A
100
AcDbVisualStyle
  2
Hidden
 70
     6
177
     3
291
     0
 70
    58
 90
        1
176
     1
 90
        2
176
     1
 90
        2
176
     1
 90
        0
176
     1
 40
0.6
176
     1
 40
30.0
176
     1
 62
     7
420
 16777215
176
     1
 90
        2
176
     1
 90
        2
176
     1
 62
     7
176
     1
 62
   257
176
     1
 90
        2
176
     1
 90
        1
176
     1
 40
40.0
176
     1
 90
        0
176
     1
 62
   257
176
     1
 40
1.0
176
     1
 90
        1
176
     1
 90
        6
176
     1
 90
        2
176
     1
 62
     7
176
     1
 90
        3
176
     1
 90
        0
176
     1
 90
        0
176
     1
290
     0
176
     1
 90
        1
176
     1
 40
0.0
176
     1
 90
        0
176
     1
290
     0
176
     1
290
     1
176
     1
290
     1
176
     1
290
     0
176
     1
290
     0
176
     1
290
     0
176
     1
290
     0
176
     1
290
     0
176
     1
290
     0
176
     1
 90
       50
176
     1
 40
0.0
176
     1
 40
1.0
176
     1
 90
        0
176
     1
 62
    18
420
        0
176
     1
 90
       50
176
     1
 90
        3
176
     1
 62
     5
420
      255
176
     1
290
     0
176
     1
 90
       50
176
     1
 90
       50
176
     1
 90
       50
176
     1
290
     0
176
     1
 90
       50
176
     1
 62
   256
176
     0
 40
1.0
176
     0
 90
        2
176
     1
  1
strokes_ogs.tif
176
     1
290
     0
176
     1
 40
1.0
176
     1
 40
1.0
176
     1
  0
VISUALSTYLE
  5
3B
102
{ACAD_REACTORS
330
2A
102
}
330
2A
100
AcDbVisualStyle
  2
JitterOff
 70
    20
177
     3
291
     1
 70
    58
 90
        2
176
     0
 90
        2
176
     0
 90
        0
176
     0
 90
        0
176
     0
 40
0.6
176
     0
 40
30.0
176
     0
 62
     7
420
 16777215
176
     0
 90
        1
176
     0
 90
        4
176
     0
 62
     7
176
     0
 62
   257
176
     0
 90
        1
176
     0
 90
        1
176
     0
 40
1.0
176
     0
 90
       10
176
     2
 62
     7
176
     0
 40
1.0
176
     0
 90
        1
176
     0
 90
        6
176
     0
 90
        2
176
     0
 62
     7
176
     0
 90
        5
176
     0
 90
        0
176
     0
 90
        0
176
     0
290
     0
176
     0
 90
        1
176
     0
 40
0.0
176
     0
 90
        0
176
     0
290
     0
176
     0
290
     1
176
     0
290
     1
176
     0
290
     0
176
     0
290
     0
176
     0
290
     0
176
     0
290
     0
176
     0
290
     0
176
     0
290
     0
176
     0
 90
       50
176
     0
 40
0.0
176
     0
 40
1.0
176
     0
 90
        0
176
     0
 62
    18
420
        0
176
     0
 90
       50
176
     0
 90
        3
176
     0
 62
     5
420
      255
176
     0
290
     0
176
     0
 90
       50
176
     0
 90
       50
176
     0
 90
       50
176
     0
290
     0
176
     0
 90
       50
176
     0
 62
   256
176
     0
 40
1.0
176
     0
 90
        2
176
     0
  1
strokes_ogs.tif
176
     0
290
     0
176
     0
 40
1.0
176
     0
 40
1.0
176
     0
  0
VISUALSTYLE
  5
38
102
{ACAD_REACTORS
330
2A
102
}
330
2A
100
AcDbVisualStyle
  2
Linepattern
 70
    14
177
     3
291
     1
 70
    58
 90
        2
176
     1
 90
        2
176
     1
 90
        0
176
     1
 90
        0
176
     1
 40
0.6
176
     1
 40
30.0
176
     1
 62
     7
420
 16777215
176
     1
 90
        1
176
     1
 90
        4
176
     1
 62
     7
176
     1
 62
   257
176
     1
 90
        7
176
     1
 90
        7
176
     1
 40
1.0
176
     1
 90
        8
176
     1
 62
     7
176
     1
 40
1.0
176
     1
 90
        1
176
     1
 90
        6
176
     1
 90
        2
176
     1
 62
     7
176
     1
 90
        5
176
     1
 90
        0
176
     1
 90
        0
176
     1
290
     0
176
     1
 90
        1
176
     1
 40
0.0
176
     1
 90
        0
176
     1
290
     0
176
     1
290
     1
176
     1
290
     1
176
     1
290
     0
176
     1
290
     0
176
     1
290
     0
176
     1
290
     0
176
     1
290
     0
176
     1
290
     0
176
     1
 90
       50
176
     1
 40
0.0
176
     1
 40
1.0
176
     1
 90
        0
176
     1
 62
    18
420
        0
176
     1
 90
       50
176
     1
 90
        3
176
     1
 62
     5
420
      255
176
     1
290
     0
176
     1
 90
       50
176
     1
 90
       50
176
     1
 90
       50
176
     1
290
     0
176
     1
 90
       50
176
     1
 62
   256
176
     0
 40
1.0
176
     0
 90
        2
176
     1
  1
strokes_ogs.tif
176
     1
290
     0
176
     1
 40
1.0
176
     1
 40
1.0
176
     1
  0
VISUALSTYLE
  5
3C
102
{ACAD_REACTORS
330
2A
102
}
330
2A
100
AcDbVisualStyle
  2
OverhangOff
 70
    21
177
     3
291
     1
 70
    58
 90
        2
176
     0
 90
        2
176
     0
 90
        0
176
     0
 90
        0
176
     0
 40
0.6
176
     0
 40
30.0
176
     0
 62
     7
420
 16777215
176
     0
 90
        1
176
     0
 90
        4
176
     0
 62
     7
176
     0
 62
   257
176
     0
 90
        1
176
     0
 90
        1
176
     0
 40
1.0
176
     0
 90
        9
176
     2
 62
     7
176
     0
 40
1.0
176
     0
 90
        1
176
     0
 90
        6
176
     0
 90
        2
176
     0
 62
     7
176
     0
 90
        5
176
     0
 90
        0
176
     0
 90
        0
176
     0
290
     0
176
     0
 90
        1
176
     0
 40
0.0
176
     0
 90
        0
176
     0
290
     0
176
     0
290
     1
176
     0
290
     1
176
     0
290
     0
176
     0
290
     0
176
     0
290
     0
176
     0
290
     0
176
     0
290
     0
176
     0
290
     0
176
     0
 90
       50
176
     0
 40
0.0
176
     0
 40
1.0
176
     0
 90
        0
176
     0
 62
    18
420
        0
176
     0
 90
       50
176
     0
 90
        3
176
     0
 62
     5
420
      255
176
     0
290
     0
176
     0
 90
       50
176
     0
 90
       50
176
     0
 90
       50
176
     0
290
     0
176
     0
 90
       50
176
     0
 62
   256
176
     0
 40
1.0
176
     0
 90
        2
176
     0
  1
strokes_ogs.tif
176
     0
290
     0
176
     0
 40
1.0
176
     0
 40
1.0
176
     0
  0
VISUALSTYLE
  5
33
102
{ACAD_REACTORS
330
2A
102
}
330
2A
100
AcDbVisualStyle
  2
Realistic
 70
     8
177
     3
291
     0
 70
    58
 90
        2
176
     1
 90
        3
176
     1
 90
        0
176
     1
 90
        2
176
     1
 40
0.6
176
     1
 40
30.0
176
     1
 62
     7
420
 16777215
176
     1
 90
        0
176
     1
 90
        0
176
     1
 62
     7
176
     1
 62
   257
176
     1
 90
        1
176
     1
 90
        1
176
     1
 40
1.0
176
     1
 90
        8
176
     1
 62
   257
176
     1
 40
1.0
176
     1
 90
        1
176
     1
 90
        6
176
     1
 90
        2
176
     1
 62
     7
176
     1
 90
        3
176
     1
 90
        0
176
     1
 90
        0
176
     1
290
     0
176
     1
 90
       13
176
     1
 40
0.0
176
     1
 90
        0
176
     1
290
     0
176
     1
290
     1
176
     1
290
     1
176
     1
290
     0
176
     1
290
     0
176
     1
290
     0
176
     1
290
     0
176
     1
290
     0
176
     1
290
     0
176
     1
 90
       50
176
     1
 40
0.0
176
     1
 40
1.0
176
     1
 90
        0
176
     1
 62
    18
420
        0
176
     1
 90
       50
176
     1
 90
        3
176
     1
 62
     5
420
      255
176
     1
290
     0
176
     1
 90
       50
176
     1
 90
       50
176
     1
 90
       50
176
     1
290
     0
176
     1
 90
       50
176
     1
 62
   256
176
     0
 40
1.0
176
     0
 90
        2
176
     1
  1
strokes_ogs.tif
176
     1
290
     0
176
     1
 40
1.0
176
     1
 40
1.0
176
     1
  0
VISUALSTYLE
  5
42
102
{ACAD_REACTORS
330
2A
102
}
330
2A
100
AcDbVisualStyle
  2
Shaded
 70
    27
177
     3
291
     0
 70
    58
 90
        2
176
     1
 90
        2
176
     1
 90
        1
176
     1
 90
        2
176
     1
 40
0.6
176
     1
 40
30.0
176
     1
 62
     7
420
 16777215
176
     1
 90
        0
176
     1
 90
        4
176
     1
 62
     7
176
     1
 62
   257
176
     1
 90
        1
176
     1
 90
        1
176
     1
 40
1.0
176
     1
 90
        8
176
     1
 62
   257
176
     1
 40
1.0
176
     1
 90
        1
176
     1
 90
        6
176
     1
 90
        2
176
     1
 62
     8
420
  7895160
176
     1
 90
        3
176
     1
 90
        0
176
     1
 90
        0
176
     1
290
     0
176
     1
 90
        5
176
     1
 40
0.0
176
     1
 90
        0
176
     1
290
     0
176
     1
290
     1
176
     1
290
     1
176
     1
290
     0
176
     1
290
     0
176
     1
290
     0
176
     1
290
     0
176
     1
290
     0
176
     1
290
     0
176
     1
 90
       50
176
     1
 40
0.0
176
     1
 40
1.0
176
     1
 90
        0
176
     1
 62
    18
420
        0
176
     1
 90
       50
176
     1
 90
        3
176
     1
 62
     5
420
      255
176
     1
290
     0
176
     1
 90
       50
176
     1
 90
       50
176
     1
 90
       50
176
     1
290
     0
176
     1
 90
       50
176
     1
 62
   256
176
     0
 40
1.0
176
     0
 90
        2
176
     1
  1
strokes_ogs.tif
176
     1
290
     0
176
     1
 40
1.0
176
     1
 40
1.0
176
     1
  0
VISUALSTYLE
  5
41
102
{ACAD_REACTORS
330
2A
102
}
330
2A
100
AcDbVisualStyle
  2
Shaded with edges
 70
    26
177
     3
291
     0
 70
    58
 90
        2
176
     1
 90
        2
176
     1
 90
        1
176
     1
 90
        2
176
     1
 40
0.6
176
     1
 40
30.0
176
     1
 62
     7
420
 16777215
176
     1
 90
        1
176
     1
 90
       10
176
     1
 62
     7
176
     1
 62
   257
176
     1
 90
        2
176
     1
 90
        1
176
     1
 40
1.0
176
     1
 90
        8
176
     1
 62
   257
176
     1
 40
1.0
176
     1
 90
        1
176
     1
 90
        6
176
     1
 90
        2
176
     1
 62
     7
176
     1
 90
        3
176
     1
 90
        0
176
     1
 90
        0
176
     1
290
     0
176
     1
 90
        5
176
     1
 40
0.0
176
     1
 90
        0
176
     1
290
     0
176
     1
290
     1
176
     1
290
     1
176
     1
290
     0
176
     1
290
     0
176
     1
290
     0
176
     1
290
     0
176
     1
290
     0
176
     1
290
     0
176
     1
 90
       50
176
     1
 40
0.0
176
     1
 40
1.0
176
     1
 90
        0
176
     1
 62
    18
420
        0
176
     1
 90
       50
176
     1
 90
        3
176
     1
 62
     5
420
      255
176
     1
290
     0
176
     1
 90
       50
176
     1
 90
       50
176
     1
 90
       50
176
     1
290
     0
176
     1
 90
       50
176
     1
 62
   256
176
     0
 40
1.0
176
     0
 90
        2
176
     1
  1
strokes_ogs.tif
176
     1
290
     0
176
     1
 40
1.0
176
     1
 40
1.0
176
     1
  0
VISUALSTYLE
  5
3E
102
{ACAD_REACTORS
330
2A
102
}
330
2A
100
AcDbVisualStyle
  2
Shades of Gray
 70
    23
177
     3
291
     0
 70
    58
 90
        2
176
     1
 90
        2
176
     1
 90
        3
176
     1
 90
        0
176
     1
 40
0.6
176
     1
 40
30.0
176
     1
 62
     7
420
 16777215
176
     1
 90
        2
176
     1
 90
        2
176
     1
 62
     7
176
     1
 62
     7
176
     1
 90
        1
176
     1
 90
        1
176
     1
 40
40.0
176
     1
 90
        8
176
     1
 62
     7
176
     1
 40
1.0
176
     1
 90
        1
176
     1
 90
        6
176
     1
 90
        2
176
     1
 62
     7
176
     1
 90
        3
176
     1
 90
        0
176
     1
 90
        0
176
     1
290
     0
176
     1
 90
        1
176
     1
 40
0.0
176
     1
 90
        0
176
     1
290
     0
176
     1
290
     1
176
     1
290
     1
176
     1
290
     0
176
     1
290
     0
176
     1
290
     0
176
     1
290
     0
176
     1
290
     0
176
     1
290
     0
176
     1
 90
       50
176
     1
 40
0.0
176
     1
 40
1.0
176
     1
 90
        0
176
     1
 62
    18
420
        0
176
     1
 90
       50
176
     1
 90
        3
176
     1
 62
     5
420
      255
176
     1
290
     0
176
     1
 90
       50
176
     1
 90
       50
176
     1
 90
       50
176
     1
290
     0
176
     1
 90
       50
176
     1
 62
   256
176
     0
 40
1.0
176
     0
 90
        2
176
     1
  1
strokes_ogs.tif
176
     1
290
     0
176
     1
 40
1.0
176
     1
 40
1.0
176
     1
  0
VISUALSTYLE
  5
3F
102
{ACAD_REACTORS
330
2A
102
}
330
2A
100
AcDbVisualStyle
  2
Sketchy
 70
    24
177
     3
291
     0
 70
    58
 90
        1
176
     1
 90
        2
176
     1
 90
        2
176
     1
 90
        0
176
     1
 40
0.6
176
     1
 40
30.0
176
     1
 62
     7
420
 16777215
176
     1
 90
        2
176
     1
 90
        2
176
     1
 62
     7
176
     1
 62
     7
176
     1
 90
        1
176
     1
 90
        1
176
     1
 40
40.0
176
     1
 90
       11
176
     1
 62
     7
176
     1
 40
1.0
176
     1
 90
        1
176
     1
 90
        6
176
     1
 90
        2
176
     1
 62
     7
176
     1
 90
        6
176
     1
 90
        0
176
     1
 90
        0
176
     1
290
     0
176
     1
 90
        1
176
     1
 40
0.0
176
     1
 90
        0
176
     1
290
     0
176
     1
290
     1
176
     1
290
     1
176
     1
290
     0
176
     1
290
     0
176
     1
290
     0
176
     1
290
     0
176
     1
290
     0
176
     1
290
     0
176
     1
 90
       50
176
     1
 40
0.0
176
     1
 40
1.0
176
     1
 90
        0
176
     1
 62
    18
420
        0
176
     1
 90
       50
176
     1
 90
        3
176
     1
 62
     5
420
      255
176
     1
290
     0
176
     1
 90
       50
176
     1
 90
       50
176
     1
 90
       50
176
     1
290
     0
176
     1
 90
       50
176
     1
 62
   256
176
     0
 40
1.0
176
     0
 90
        2
176
     1
  1
strokes_ogs.tif
176
     1
290
     0
176
     1
 40
1.0
176
     1
 40
1.0
176
     1
  0
VISUALSTYLE
  5
37
102
{ACAD_REACTORS
330
2A
102
}
330
2A
100
AcDbVisualStyle
  2
Thicken
 70
    13
177
     3
291
     1
 70
    58
 90
        2
176
     1
 90
        2
176
     1
 90
        0
176
     1
 90
        0
176
     1
 40
0.6
176
     1
 40
30.0
176
     1
 62
     7
420
 16777215
176
     1
 90
        1
176
     1
 90
        4
176
     1
 62
     7
176
     1
 62
   257
176
     1
 90
        1
176
     1
 90
        1
176
     1
 40
1.0
176
     1
 90
       12
176
     1
 62
     7
176
     1
 40
1.0
176
     1
 90
        1
176
     1
 90
        6
176
     1
 90
        2
176
     1
 62
     7
176
     1
 90
        5
176
     1
 90
        0
176
     1
 90
        0
176
     1
290
     0
176
     1
 90
        1
176
     1
 40
0.0
176
     1
 90
        0
176
     1
290
     0
176
     1
290
     1
176
     1
290
     1
176
     1
290
     0
176
     1
290
     0
176
     1
290
     0
176
     1
290
     0
176
     1
290
     0
176
     1
290
     0
176
     1
 90
       50
176
     1
 40
0.0
176
     1
 40
1.0
176
     1
 90
        0
176
     1
 62
    18
420
        0
176
     1
 90
       50
176
     1
 90
        3
176
     1
 62
     5
420
      255
176
     1
290
     0
176
     1
 90
       50
176
     1
 90
       50
176
     1
 90
       50
176
     1
290
     0
176
     1
 90
       50
176
     1
 62
   256
176
     0
 40
1.0
176
     0
 90
        2
176
     1
  1
strokes_ogs.tif
176
     1
290
     0
176
     1
 40
1.0
176
     1
 40
1.0
176
     1
  0
VISUALSTYLE
  5
30
102
{ACAD_REACTORS
330
2A
102
}
330
2A
100
AcDbVisualStyle
  2
Wireframe
 70
     5
177
     3
291
     0
 70
    58
 90
        0
176
     1
 90
        2
176
     1
 90
        0
176
     1
 90
        0
176
     1
 40
0.6
176
     1
 40
30.0
176
     1
 62
     7
420
 16777215
176
     1
 90
        1
176
     1
 90
        4
176
     1
 62
     7
176
     1
 62
   257
176
     1
 90
        1
176
     1
 90
        1
176
     1
 40
1.0
176
     1
 90
        0
176
     1
 62
   257
176
     1
 40
1.0
176
     1
 90
        1
176
     1
 90
        6
176
     1
 90
        2
176
     1
 62
     7
176
     1
 90
        3
176
     1
 90
        0
176
     1
 90
        0
176
     1
290
     0
176
     1
 90
        1
176
     1
 40
0.0
176
     1
 90
        0
176
     1
290
     0
176
     1
290
     1
176
     1
290
     1
176
     1
290
     0
176
     1
290
     0
176
     1
290
     0
176
     1
290
     0
176
     1
290
     0
176
     1
290
     0
176
     1
 90
       50
176
     1
 40
0.0
176
     1
 40
1.0
176
     1
 90
        0
176
     1
 62
    18
420
        0
176
     1
 90
       50
176
     1
 90
        3
176
     1
 62
     5
420
      255
176
     1
290
     0
176
     1
 90
       50
176
     1
 90
       50
176
     1
 90
       50
176
     1
290
     0
176
     1
 90
       50
176
     1
 62
   256
176
     0
 40
1.0
176
     0
 90
        2
176
     1
  1
strokes_ogs.tif
176
     1
290
     0
176
     1
 40
1.0
176
     1
 40
1.0
176
     1
  0
VISUALSTYLE
  5
40
102
{ACAD_REACTORS
330
2A
102
}
330
2A
100
AcDbVisualStyle
  2
X-Ray
 70
    25
177
     3
291
     0
 70
    58
 90
        2
176
     1
 90
        2
176
     1
 90
        1
176
     1
 90
        1
176
     1
 40
0.5
176
     1
 40
30.0
176
     1
 62
     7
420
 16777215
176
     1
 90
        1
176
     1
 90
        0
176
     1
 62
     7
176
     1
 62
   257
176
     1
 90
        1
176
     1
 90
        1
176
     1
 40
1.0
176
     1
 90
        8
176
     1
 62
     7
176
     1
 40
1.0
176
     1
 90
        1
176
     1
 90
        6
176
     1
 90
        2
176
     1
 62
     7
176
     1
 90
        3
176
     1
 90
        0
176
     1
 90
        0
176
     1
290
     0
176
     1
 90
       13
176
     1
 40
0.0
176
     1
 90
        0
176
     1
290
     0
176
     1
290
     1
176
     1
290
     1
176
     1
290
     0
176
     1
290
     0
176
     1
290
     0
176
     1
290
     0
176
     1
290
     0
176
     1
290
     0
176
     1
 90
       50
176
     1
 40
0.0
176
     1
 40
1.0
176
     1
 90
        0
176
     1
 62
    18
420
        0
176
     1
 90
       50
176
     1
 90
        3
176
     1
 62
     5
420
      255
176
     1
290
     0
176
     1
 90
       50
176
     1
 90
       50
176
     1
 90
       50
176
     1
290
     0
176
     1
 90
       50
176
     1
 62
   256
176
     0
 40
1.0
176
     0
 90
        2
176
     1
  1
strokes_ogs.tif
176
     1
290
     0
176
     1
 40
1.0
176
     1
 40
1.0
176
     1
  0
DICTIONARYVAR
  5
1A4
102
{ACAD_REACTORS
330
1A3
102
}
330
1A3
100
DictionaryVariables
280
     0
  1
1:1
  0
DICTIONARYVAR
  5
1A9
102
{ACAD_REACTORS
330
1A3
102
}
330
1A3
100
DictionaryVariables
280
     0
  1
Standard
  0
DICTIONARYVAR
  5
1A8
102
{ACAD_REACTORS
330
1A3
102
}
330
1A3
100
DictionaryVariables
280
     0
  1
Standard
  0
DICTIONARY
  5
1A5
330
6A
100
AcDbDictionary
280
     1
281
     1
  3
ACAD_ROUNDTRIP_2008_TABLESTYLE_CELLSTYLEMAP
360
1A6
  0
CELLSTYLEMAP
  5
1A6
102
{ACAD_REACTORS
330
1A5
102
}
330
1A5
100
AcDbCellStyleMap
 90
        3
300
CELLSTYLE
  1
TABLEFORMAT_BEGIN
 90
        5
170
     1
 91
        0
 92
    32768
 62
   257
 93
        1
300
CONTENTFORMAT
  1
CONTENTFORMAT_BEGIN
 90
        0
 91
        0
 92
        4
 93
        0
300

 40
0.0
140
1.0
 94
        5
 62
     0
340
11
144
0.25
309
CONTENTFORMAT_END
171
     1
301
MARGIN
  1
CELLMARGIN_BEGIN
 40
0.06
 40
0.06
 40
0.06
 40
0.06
 40
0.06
 40
0.06
309
CELLMARGIN_END
 94
        6
 95
        1
302
GRIDFORMAT
  1
GRIDFORMAT_BEGIN
 90
        0
 91
        1
 62
     0
 92
       -2
340
14
 93
        0
 40
0.045
309
GRIDFORMAT_END
 95
        2
302
GRIDFORMAT
  1
GRIDFORMAT_BEGIN
 90
        0
 91
        1
 62
     0
 92
       -2
340
14
 93
        0
 40
0.045
309
GRIDFORMAT_END
 95
        4
302
GRIDFORMAT
  1
GRIDFORMAT_BEGIN
 90
        0
 91
        1
 62
     0
 92
       -2
340
14
 93
        0
 40
0.045
309
GRIDFORMAT_END
 95
        8
302
GRIDFORMAT
  1
GRIDFORMAT_BEGIN
 90
        0
 91
        1
 62
     0
 92
       -2
340
14
 93
        0
 40
0.045
309
GRIDFORMAT_END
 95
       16
302
GRIDFORMAT
  1
GRIDFORMAT_BEGIN
 90
        0
 91
        1
 62
     0
 92
       -2
340
14
 93
        0
 40
0.045
309
GRIDFORMAT_END
 95
       32
302
GRIDFORMAT
  1
GRIDFORMAT_BEGIN
 90
        0
 91
        1
 62
     0
 92
       -2
340
14
 93
        0
 40
0.045
309
GRIDFORMAT_END
309
TABLEFORMAT_END
  1
CELLSTYLE_BEGIN
 90
        1
 91
        1
300
_TITLE
309
CELLSTYLE_END
300
CELLSTYLE
  1
TABLEFORMAT_BEGIN
 90
        5
170
     1
 91
        0
 92
        0
 62
   257
 93
        1
300
CONTENTFORMAT
  1
CONTENTFORMAT_BEGIN
 90
        0
 91
        0
 92
        4
 93
        0
300

 40
0.0
140
1.0
 94
        5
 62
     0
340
11
144
0.18
309
CONTENTFORMAT_END
171
     1
301
MARGIN
  1
CELLMARGIN_BEGIN
 40
0.06
 40
0.06
 40
0.06
 40
0.06
 40
0.06
 40
0.06
309
CELLMARGIN_END
 94
        6
 95
        1
302
GRIDFORMAT
  1
GRIDFORMAT_BEGIN
 90
        0
 91
        1
 62
     0
 92
       -2
340
14
 93
        0
 40
0.045
309
GRIDFORMAT_END
 95
        2
302
GRIDFORMAT
  1
GRIDFORMAT_BEGIN
 90
        0
 91
        1
 62
     0
 92
       -2
340
14
 93
        0
 40
0.045
309
GRIDFORMAT_END
 95
        4
302
GRIDFORMAT
  1
GRIDFORMAT_BEGIN
 90
        0
 91
        1
 62
     0
 92
       -2
340
14
 93
        0
 40
0.045
309
GRIDFORMAT_END
 95
        8
302
GRIDFORMAT
  1
GRIDFORMAT_BEGIN
 90
        0
 91
        1
 62
     0
 92
       -2
340
14
 93
        0
 40
0.045
309
GRIDFORMAT_END
 95
       16
302
GRIDFORMAT
  1
GRIDFORMAT_BEGIN
 90
        0
 91
        1
 62
     0
 92
       -2
340
14
 93
        0
 40
0.045
309
GRIDFORMAT_END
 95
       32
302
GRIDFORMAT
  1
GRIDFORMAT_BEGIN
 90
        0
 91
        1
 62
     0
 92
       -2
340
14
 93
        0
 40
0.045
309
GRIDFORMAT_END
309
TABLEFORMAT_END
  1
CELLSTYLE_BEGIN
 90
        2
 91
        1
300
_HEADER
309
CELLSTYLE_END
300
CELLSTYLE
  1
TABLEFORMAT_BEGIN
 90
        5
170
     1
 91
        0
 92
        0
 62
   257
 93
        1
300
CONTENTFORMAT
  1
CONTENTFORMAT_BEGIN
 90
        0
 91
        0
 92
        4
 93
        0
300

 40
0.0
140
1.0
 94
        2
 62
     0
340
11
144
0.18
309
CONTENTFORMAT_END
171
     1
301
MARGIN
  1
CELLMARGIN_BEGIN
 40
0.06
 40
0.06
 40
0.06
 40
0.06
 40
0.06
 40
0.06
309
CELLMARGIN_END
 94
        6
 95
        1
302
GRIDFORMAT
  1
GRIDFORMAT_BEGIN
 90
        0
 91
        1
 62
     0
 92
       -2
340
14
 93
        0
 40
0.045
309
GRIDFORMAT_END
 95
        2
302
GRIDFORMAT
  1
GRIDFORMAT_BEGIN
 90
        0
 91
        1
 62
     0
 92
       -2
340
14
 93
        0
 40
0.045
309
GRIDFORMAT_END
 95
        4
302
GRIDFORMAT
  1
GRIDFORMAT_BEGIN
 90
        0
 91
        1
 62
     0
 92
       -2
340
14
 93
        0
 40
0.045
309
GRIDFORMAT_END
 95
        8
302
GRIDFORMAT
  1
GRIDFORMAT_BEGIN
 90
        0
 91
        1
 62
     0
 92
       -2
340
14
 93
        0
 40
0.045
309
GRIDFORMAT_END
 95
       16
302
GRIDFORMAT
  1
GRIDFORMAT_BEGIN
 90
        0
 91
        1
 62
     0
 92
       -2
340
14
 93
        0
 40
0.045
309
GRIDFORMAT_END
 95
       32
302
GRIDFORMAT
  1
GRIDFORMAT_BEGIN
 90
        0
 91
        1
 62
     0
 92
       -2
340
14
 93
        0
 40
0.045
309
GRIDFORMAT_END
309
TABLEFORMAT_END
  1
CELLSTYLE_BEGIN
 90
        3
 91
        2
300
_DATA
309
CELLSTYLE_END
  0
ENDSEC
  0
EOF