0
SECTION
  2
HEADER
  9
$ACADVER
  1
AC1027
  9
$ACADMAINTVER
 70
     8
  9
$DWGCODEPAGE
  3
ANSI_1252
  9
$REQUIREDVERSIONS
160
                 0
  9
$COMMENTS
  1
File was created by Cadenas
  9
$CUSTOMPROPERTYTAG
  1
NN
  9
$CUSTOMPROPERTY
  1
Eccentric Collar Low Backing Height Intermediate Duty Two-Bolt Pillow Block Inch Bore
  9
$CUSTOMPROPERTYTAG
  1
NT
  9
$CUSTOMPROPERTY
  1
Eccentric Collar Pillow Block Bearings -(Intermediate Duty) -Low Backing Height
  9
$CUSTOMPROPERTYTAG
  1
NB
  9
$CUSTOMPROPERTY
  1
130321
  9
$CUSTOMPROPERTYTAG
  1
NBSYN
  9
$CUSTOMPROPERTY
  1
$PN.
  9
$CUSTOMPROPERTYTAG
  1
LINA
  9
$CUSTOMPROPERTY
  1
130321
  9
$CUSTOMPROPERTYTAG
  1
SERIES
  9
$CUSTOMPROPERTY
  1
210
  9
$CUSTOMPROPERTYTAG
  1
SS
  9
$CUSTOMPROPERTY
  1
2
  9
$CUSTOMPROPERTYTAG
  1
PN
  9
$CUSTOMPROPERTY
  1
130321
  9
$CUSTOMPROPERTYTAG
  1
DESCRIPTION
  9
$CUSTOMPROPERTY
  1
P2B-SXVB-200
  9
$CUSTOMPROPERTYTAG
  1
WEIGHT
  9
$CUSTOMPROPERTY
  1
5.6
  9
$CUSTOMPROPERTYTAG
  1
A
  9
$CUSTOMPROPERTY
  1
1.72
  9
$CUSTOMPROPERTYTAG
  1
B
  9
$CUSTOMPROPERTY
  1
8.12
  9
$CUSTOMPROPERTYTAG
  1
C
  9
$CUSTOMPROPERTY
  1
2.25
  9
$CUSTOMPROPERTYTAG
  1
DMIN
  9
$CUSTOMPROPERTY
  1
6.00
  9
$CUSTOMPROPERTYTAG
  1
DMAX
  9
$CUSTOMPROPERTY
  1
6.68
  9
$CUSTOMPROPERTYTAG
  1
F
  9
$CUSTOMPROPERTY
  1
5/8
  9
$CUSTOMPROPERTYTAG
  1
G
  9
$CUSTOMPROPERTY
  1
1.02
  9
$CUSTOMPROPERTYTAG
  1
H
  9
$CUSTOMPROPERTY
  1
0.68
  9
$CUSTOMPROPERTYTAG
  1
J
  9
$CUSTOMPROPERTY
  1
4.47
  9
$CUSTOMPROPERTYTAG
  1
L
  9
$CUSTOMPROPERTY
  1
2.75
  9
$CUSTOMPROPERTYTAG
  1
M
  9
$CUSTOMPROPERTY
  1
2.19
  9
$CUSTOMPROPERTYTAG
  1
R
  9
$CUSTOMPROPERTY
  1
0.43
  9
$CUSTOMPROPERTYTAG
  1
S
  9
$CUSTOMPROPERTY
  1
1.29
  9
$CUSTOMPROPERTYTAG
  1
U
  9
$CUSTOMPROPERTY
  1
3.69
  9
$CUSTOMPROPERTYTAG
  1
V
  9
$CUSTOMPROPERTY
  1
7.38
  9
$CUSTOMPROPERTYTAG
  1
W
  9
$CUSTOMPROPERTY
  1
0.81
  9
$CUSTOMPROPERTYTAG
  1
X
  9
$CUSTOMPROPERTY
  1
0.12
  9
$CUSTOMPROPERTYTAG
  1
COMPANY
  9
$CUSTOMPROPERTY
  1
baldor
  9
$INSBASE
 10
0.0
 20
0.0
 30
0.0
  9
$EXTMIN
 10
1.000000000000000E+20
 20
1.000000000000000E+20
 30
1.000000000000000E+20
  9
$EXTMAX
 10
-1.000000000000000E+20
 20
-1.000000000000000E+20
 30
-1.000000000000000E+20
  9
$LIMMIN
 10
0.0
 20
0.0
  9
$LIMMAX
 10
12.0
 20
9.0
  9
$ORTHOMODE
 70
     0
  9
$REGENMODE
 70
     1
  9
$FILLMODE
 70
     1
  9
$QTEXTMODE
 70
     0
  9
$MIRRTEXT
 70
     1
  9
$LTSCALE
 40
1.0
  9
$ATTMODE
 70
     1
  9
$TEXTSIZE
 40
0.2
  9
$TRACEWID
 40
0.05
  9
$TEXTSTYLE
  7
Standard
  9
$CLAYER
  8
0
  9
$CELTYPE
  6
ByLayer
  9
$CECOLOR
 62
   256
  9
$CELTSCALE
 40
1.0
  9
$DISPSILH
 70
     0
  9
$DIMSCALE
 40
1.0
  9
$DIMASZ
 40
0.18
  9
$DIMEXO
 40
0.0625
  9
$DIMDLI
 40
0.38
  9
$DIMRND
 40
0.0
  9
$DIMDLE
 40
0.0
  9
$DIMEXE
 40
0.18
  9
$DIMTP
 40
0.0
  9
$DIMTM
 40
0.0
  9
$DIMTXT
 40
0.18
  9
$DIMCEN
 40
0.09
  9
$DIMTSZ
 40
0.0
  9
$DIMTOL
 70
     0
  9
$DIMLIM
 70
     0
  9
$DIMTIH
 70
     1
  9
$DIMTOH
 70
     1
  9
$DIMSE1
 70
     0
  9
$DIMSE2
 70
     0
  9
$DIMTAD
 70
     0
  9
$DIMZIN
 70
     0
  9
$DIMBLK
  1

  9
$DIMASO
 70
     1
  9
$DIMSHO
 70
     1
  9
$DIMPOST
  1

  9
$DIMAPOST
  1

  9
$DIMALT
 70
     0
  9
$DIMALTD
 70
     2
  9
$DIMALTF
 40
25.4
  9
$DIMLFAC
 40
1.0
  9
$DIMTOFL
 70
     0
  9
$DIMTVP
 40
0.0
  9
$DIMTIX
 70
     0
  9
$DIMSOXD
 70
     0
  9
$DIMSAH
 70
     0
  9
$DIMBLK1
  1

  9
$DIMBLK2
  1

  9
$DIMSTYLE
  2
Standard
  9
$DIMCLRD
 70
     0
  9
$DIMCLRE
 70
     0
  9
$DIMCLRT
 70
     0
  9
$DIMTFAC
 40
1.0
  9
$DIMGAP
 40
0.09
  9
$DIMJUST
 70
     0
  9
$DIMSD1
 70
     0
  9
$DIMSD2
 70
     0
  9
$DIMTOLJ
 70
     1
  9
$DIMTZIN
 70
     0
  9
$DIMALTZ
 70
     0
  9
$DIMALTTZ
 70
     0
  9
$DIMUPT
 70
     0
  9
$DIMDEC
 70
     4
  9
$DIMTDEC
 70
     4
  9
$DIMALTU
 70
     2
  9
$DIMALTTD
 70
     2
  9
$DIMTXSTY
  7
Standard
  9
$DIMAUNIT
 70
     0
  9
$DIMADEC
 70
     0
  9
$DIMALTRND
 40
0.0
  9
$DIMAZIN
 70
     0
  9
$DIMDSEP
 70
    46
  9
$DIMATFIT
 70
     3
  9
$DIMFRAC
 70
     0
  9
$DIMLDRBLK
  1

  9
$DIMLUNIT
 70
     2
  9
$DIMLWD
 70
    -2
  9
$DIMLWE
 70
    -2
  9
$DIMTMOVE
 70
     0
  9
$DIMFXL
 40
1.0
  9
$DIMFXLON
 70
     0
  9
$DIMJOGANG
 40
0.7853981633974483
  9
$DIMTFILL
 70
     0
  9
$DIMTFILLCLR
 70
     0
  9
$DIMARCSYM
 70
     0
  9
$DIMLTYPE
  6

  9
$DIMLTEX1
  6

  9
$DIMLTEX2
  6

  9
$DIMTXTDIRECTION
 70
     0
  9
$LUNITS
 70
     2
  9
$LUPREC
 70
     4
  9
$SKETCHINC
 40
0.1
  9
$FILLETRAD
 40
0.5
  9
$AUNITS
 70
     0
  9
$AUPREC
 70
     0
  9
$MENU
  1
.
  9
$ELEVATION
 40
0.0
  9
$PELEVATION
 40
0.0
  9
$THICKNESS
 40
0.0
  9
$LIMCHECK
 70
     0
  9
$CHAMFERA
 40
0.0
  9
$CHAMFERB
 40
0.0
  9
$CHAMFERC
 40
0.0
  9
$CHAMFERD
 40
0.0
  9
$SKPOLY
 70
     0
  9
$TDCREATE
 40
2458169.003678241
  9
$TDUCREATE
 40
2458168.962011574
  9
$TDUPDATE
 40
2458169.003678426
  9
$TDUUPDATE
 40
2458168.962011759
  9
$TDINDWG
 40
0.0000000116
  9
$TDUSRTIMER
 40
0.0000000116
  9
$USRTIMER
 70
     1
  9
$ANGBASE
 50
0.0
  9
$ANGDIR
 70
     0
  9
$PDMODE
 70
     0
  9
$PDSIZE
 40
0.0
  9
$PLINEWID
 40
0.0
  9
$SPLFRAME
 70
     0
  9
$SPLINETYPE
 70
     6
  9
$SPLINESEGS
 70
     8
  9
$HANDSEED
  5
1E6
  9
$SURFTAB1
 70
     6
  9
$SURFTAB2
 70
     6
  9
$SURFTYPE
 70
     6
  9
$SURFU
 70
     6
  9
$SURFV
 70
     6
  9
$UCSBASE
  2

  9
$UCSNAME
  2

  9
$UCSORG
 10
0.0
 20
0.0
 30
0.0
  9
$UCSXDIR
 10
1.0
 20
0.0
 30
0.0
  9
$UCSYDIR
 10
0.0
 20
1.0
 30
0.0
  9
$UCSORTHOREF
  2

  9
$UCSORTHOVIEW
 70
     0
  9
$UCSORGTOP
 10
0.0
 20
0.0
 30
0.0
  9
$UCSORGBOTTOM
 10
0.0
 20
0.0
 30
0.0
  9
$UCSORGLEFT
 10
0.0
 20
0.0
 30
0.0
  9
$UCSORGRIGHT
 10
0.0
 20
0.0
 30
0.0
  9
$UCSORGFRONT
 10
0.0
 20
0.0
 30
0.0
  9
$UCSORGBACK
 10
0.0
 20
0.0
 30
0.0
  9
$PUCSBASE
  2

  9
$PUCSNAME
  2

  9
$PUCSORG
 10
0.0
 20
0.0
 30
0.0
  9
$PUCSXDIR
 10
1.0
 20
0.0
 30
0.0
  9
$PUCSYDIR
 10
0.0
 20
1.0
 30
0.0
  9
$PUCSORTHOREF
  2

  9
$PUCSORTHOVIEW
 70
     0
  9
$PUCSORGTOP
 10
0.0
 20
0.0
 30
0.0
  9
$PUCSORGBOTTOM
 10
0.0
 20
0.0
 30
0.0
  9
$PUCSORGLEFT
 10
0.0
 20
0.0
 30
0.0
  9
$PUCSORGRIGHT
 10
0.0
 20
0.0
 30
0.0
  9
$PUCSORGFRONT
 10
0.0
 20
0.0
 30
0.0
  9
$PUCSORGBACK
 10
0.0
 20
0.0
 30
0.0
  9
$USERI1
 70
     0
  9
$USERI2
 70
     0
  9
$USERI3
 70
     0
  9
$USERI4
 70
     0
  9
$USERI5
 70
     0
  9
$USERR1
 40
0.0
  9
$USERR2
 40
0.0
  9
$USERR3
 40
0.0
  9
$USERR4
 40
0.0
  9
$USERR5
 40
0.0
  9
$WORLDVIEW
 70
     1
  9
$SHADEDGE
 70
     3
  9
$SHADEDIF
 70
    70
  9
$TILEMODE
 70
     1
  9
$MAXACTVP
 70
    64
  9
$PINSBASE
 10
0.0
 20
0.0
 30
0.0
  9
$PLIMCHECK
 70
     0
  9
$PEXTMIN
 10
1.000000000000000E+20
 20
1.000000000000000E+20
 30
1.000000000000000E+20
  9
$PEXTMAX
 10
-1.000000000000000E+20
 20
-1.000000000000000E+20
 30
-1.000000000000000E+20
  9
$PLIMMIN
 10
0.0
 20
0.0
  9
$PLIMMAX
 10
12.0
 20
9.0
  9
$UNITMODE
 70
     0
  9
$VISRETAIN
 70
     1
  9
$PLINEGEN
 70
     0
  9
$PSLTSCALE
 70
     1
  9
$TREEDEPTH
 70
  3020
  9
$CMLSTYLE
  2
Standard
  9
$CMLJUST
 70
     0
  9
$CMLSCALE
 40
1.0
  9
$PROXYGRAPHICS
 70
     1
  9
$MEASUREMENT
 70
     0
  9
$CELWEIGHT
370
    -1
  9
$ENDCAPS
280
     0
  9
$JOINSTYLE
280
     0
  9
$LWDISPLAY
290
     0
  9
$INSUNITS
 70
     1
  9
$HYPERLINKBASE
  1

  9
$STYLESHEET
  1

  9
$XEDIT
290
     1
  9
$CEPSNTYPE
380
     0
  9
$PSTYLEMODE
290
     1
  9
$FINGERPRINTGUID
  2
{45BF46F9-7EE8-41E8-A985-FB5D15FFF3D4}
  9
$VERSIONGUID
  2
{FAEB1C32-E019-11D5-929B-00C0DF256EC4}
  9
$EXTNAMES
290
     1
  9
$PSVPSCALE
 40
0.0
  9
$OLESTARTUP
290
     0
  9
$SORTENTS
280
   127
  9
$INDEXCTL
280
     0
  9
$HIDETEXT
280
     1
  9
$XCLIPFRAME
280
     2
  9
$HALOGAP
280
     0
  9
$OBSCOLOR
 70
   257
  9
$OBSLTYPE
280
     0
  9
$INTERSECTIONDISPLAY
280
     0
  9
$INTERSECTIONCOLOR
 70
   257
  9
$DIMASSOC
280
     2
  9
$PROJECTNAME
  1

  9
$CAMERADISPLAY
290
     0
  9
$LENSLENGTH
 40
50.0
  9
$CAMERAHEIGHT
 40
0.0
  9
$STEPSPERSEC
 40
2.0
  9
$STEPSIZE
 40
6.0
  9
$3DDWFPREC
 40
2.0
  9
$PSOLWIDTH
 40
0.25
  9
$PSOLHEIGHT
 40
4.0
  9
$LOFTANG1
 40
1.570796326794897
  9
$LOFTANG2
 40
1.570796326794897
  9
$LOFTMAG1
 40
0.0
  9
$LOFTMAG2
 40
0.0
  9
$LOFTPARAM
 70
     7
  9
$LOFTNORMALS
280
     1
  9
$LATITUDE
 40
37.795
  9
$LONGITUDE
 40
-122.394
  9
$NORTHDIRECTION
 40
0.0
  9
$TIMEZONE
 70
 -8000
  9
$LIGHTGLYPHDISPLAY
280
     1
  9
$TILEMODELIGHTSYNCH
280
     1
  9
$CMATERIAL
347
44
  9
$SOLIDHIST
280
     0
  9
$SHOWHIST
280
     1
  9
$DWFFRAME
280
     2
  9
$DGNFRAME
280
     2
  9
$REALWORLDSCALE
290
     1
  9
$INTERFERECOLOR
 62
   256
  9
$CSHADOW
280
     0
  9
$SHADOWPLANELOCATION
 40
0.0
  0
ENDSEC
  0
SECTION
  2
CLASSES
  0
CLASS
  1
ACDBDICTIONARYWDFLT
  2
AcDbDictionaryWithDefault
  3
ObjectDBX Classes
 90
        0
 91
        4
280
     0
281
     0
  0
CLASS
  1
VISUALSTYLE
  2
AcDbVisualStyle
  3
ObjectDBX Classes
 90
     4095
 91
        4
280
     0
281
     0
  0
CLASS
  1
MATERIAL
  2
AcDbMaterial
  3
ObjectDBX Classes
 90
     1153
 91
        4
280
     0
281
     0
  0
CLASS
  1
SCALE
  2
AcDbScale
  3
ObjectDBX Classes
 90
     1153
 91
        4
280
     0
281
     0
  0
CLASS
  1
TABLESTYLE
  2
AcDbTableStyle
  3
ObjectDBX Classes
 90
     4095
 91
        4
280
     0
281
     0
  0
CLASS
  1
MLEADERSTYLE
  2
AcDbMLeaderStyle
  3
ACDB_MLEADERSTYLE_CLASS
 90
     4095
 91
        4
280
     0
281
     0
  0
CLASS
  1
SUN
  2
AcDbSun
  3
SCENEOE
 90
     1153
 91
        4
280
     0
281
     0
  0
CLASS
  1
DICTIONARYVAR
  2
AcDbDictionaryVar
  3
ObjectDBX Classes
 90
        0
 91
        4
280
     0
281
     0
  0
CLASS
  1
CELLSTYLEMAP
  2
AcDbCellStyleMap
  3
ObjectDBX Classes
 90
     1152
 91
        4
280
     0
281
     0
  0
ENDSEC
  0
SECTION
  2
TABLES
  0
TABLE
  2
VPORT
  5
8
330
0
100
AcDbSymbolTable
 70
     1
  0
VPORT
  5
29
330
8
100
AcDbSymbolTableRecord
100
AcDbViewportTableRecord
  2
*Active
 70
     0
 10
0.0
 20
0.0
 11
1.0
 21
1.0
 12
0.0
 22
-0.069375
 13
0.0
 23
0.0
 14
0.5
 24
0.5
 15
0.5
 25
0.5
 16
0.0
 26
0.0
 36
1.0
 17
0.0
 27
0.0
 37
0.0
 40
2.666024999999999
 41
3.106647537063606
 42
50.0
 43
0.0
 44
0.0
 50
0.0
 51
0.0
 71
     0
 72
   100
 73
     1
 74
     3
 75
     0
 76
     0
 77
     0
 78
     0
281
     0
 65
     1
110
0.0
120
0.0
130
0.0
111
1.0
121
0.0
131
0.0
112
0.0
122
1.0
132
0.0
 79
     0
146
0.0
348
2F
 60
     3
 61
     5
292
     1
282
     1
141
0.0
142
0.0
 63
   250
361
6D
  0
ENDTAB
  0
TABLE
  2
LTYPE
  5
5
330
0
100
AcDbSymbolTable
 70
     3
  0
LTYPE
  5
14
330
5
100
AcDbSymbolTableRecord
100
AcDbLinetypeTableRecord
  2
ByBlock
 70
     0
  3

 72
    65
 73
     0
 40
0.0
  0
LTYPE
  5
15
330
5
100
AcDbSymbolTableRecord
100
AcDbLinetypeTableRecord
  2
ByLayer
 70
     0
  3

 72
    65
 73
     0
 40
0.0
  0
LTYPE
  5
16
330
5
100
AcDbSymbolTableRecord
100
AcDbLinetypeTableRecord
  2
Continuous
 70
     0
  3
Solid line
 72
    65
 73
     0
 40
0.0
  0
LTYPE
  5
9B
330
5
100
AcDbSymbolTableRecord
100
AcDbLinetypeTableRecord
  2
Dashed
 70
     0
  3

 72
    65
 73
     2
 40
2.0
 49
1.0
 74
     0
 49
-1.0
 74
     0
  0
LTYPE
  5
122
330
5
100
AcDbSymbolTableRecord
100
AcDbLinetypeTableRecord
  2
Center
 70
     0
  3

 72
    65
 73
     4
 40
1.5
 49
0.45
 74
     0
 49
-0.5
 74
     0
 49
0.05
 74
     0
 49
-0.5
 74
     0
  0
ENDTAB
  0
TABLE
  2
LAYER
  5
2
330
0
100
AcDbSymbolTable
 70
     7
  0
LAYER
  5
10
330
2
100
AcDbSymbolTableRecord
100
AcDbLayerTableRecord
  2
0
 70
     0
 62
     7
  6
Continuous
370
    -3
390
F
347
46
348
0
  0
LAYER
  5
72
330
2
100
AcDbSymbolTableRecord
100
AcDbLayerTableRecord
  2
AM_6
 70
     0
 62
    -2
  6
Continuous
370
    35
390
F
347
46
348
0
  0
LAYER
  5
9C
330
2
100
AcDbSymbolTableRecord
100
AcDbLayerTableRecord
  2
AM_9
 70
     0
 62
     6
  6
Dashed
370
    25
390
F
347
46
348
0
  0
LAYER
  5
B9
330
2
100
AcDbSymbolTableRecord
100
AcDbLayerTableRecord
  2
AM_4
 70
     0
 62
     7
  6
Continuous
370
    50
390
F
347
46
348
0
  0
LAYER
  5
123
330
2
100
AcDbSymbolTableRecord
100
AcDbLayerTableRecord
  2
AM_7
 70
     0
 62
     7
  6
Center
370
    25
390
F
347
46
348
0
  0
LAYER
  5
133
330
2
100
AcDbSymbolTableRecord
100
AcDbLayerTableRecord
  2
AM_5
 70
     0
 62
     3
  6
Continuous
370
    25
390
F
347
46
348
0
  0
LAYER
  5
1D8
330
2
100
AcDbSymbolTableRecord
100
AcDbLayerTableRecord
  2
ConnectionPoints
 70
     0
 62
     7
  6
Continuous
370
    50
390
F
347
46
348
0
  0
ENDTAB
  0
TABLE
  2
STYLE
  5
3
330
0
100
AcDbSymbolTable
 70
     1
  0
STYLE
  5
11
330
3
100
AcDbSymbolTableRecord
100
AcDbTextStyleTableRecord
  2
Standard
 70
     0
 40
0.0
 41
1.0
 50
0.0
 71
     0
 42
0.2
  3
txt
  4

  0
ENDTAB
  0
TABLE
  2
VIEW
  5
6
330
0
100
AcDbSymbolTable
 70
     0
  0
ENDTAB
  0
TABLE
  2
UCS
  5
7
330
0
100
AcDbSymbolTable
 70
     0
  0
ENDTAB
  0
TABLE
  2
APPID
  5
9
330
0
100
AcDbSymbolTable
 70
     1
  0
APPID
  5
12
330
9
100
AcDbSymbolTableRecord
100
AcDbRegAppTableRecord
  2
ACAD
 70
     0
  0
ENDTAB
  0
TABLE
  2
DIMSTYLE
  5
A
330
0
100
AcDbSymbolTable
 70
     1
100
AcDbDimStyleTable
  0
DIMSTYLE
105
27
330
A
100
AcDbSymbolTableRecord
100
AcDbDimStyleTableRecord
  2
Standard
 70
     0
178
     0
340
11
  0
ENDTAB
  0
TABLE
  2
BLOCK_RECORD
  5
1
330
0
100
AcDbSymbolTable
 70
     5
  0
BLOCK_RECORD
  5
1F
330
1
100
AcDbSymbolTableRecord
100
AcDbBlockTableRecord
  2
*Model_Space
340
22
 70
     0
280
     1
281
     0
  0
BLOCK_RECORD
  5
1B
330
1
100
AcDbSymbolTableRecord
100
AcDbBlockTableRecord
  2
*Paper_Space
340
1E
 70
     0
280
     1
281
     0
  0
BLOCK_RECORD
  5
23
330
1
100
AcDbSymbolTableRecord
100
AcDbBlockTableRecord
  2
*Paper_Space0
340
26
 70
     0
280
     1
281
     0
  0
BLOCK_RECORD
  5
6E
330
1
100
AcDbSymbolTableRecord
100
AcDbBlockTableRecord
  2
1_130321_4
340
0
102
{BLKREFS
331
6F
102
}
 70
     0
280
     1
281
     0
  0
BLOCK_RECORD
  5
8F
330
1
100
AcDbSymbolTableRecord
100
AcDbBlockTableRecord
  2
2_405015E_Inch_0_in_130321_4
340
0
102
{BLKREFS
331
90
102
}
 70
     0
280
     1
281
     0
  0
BLOCK_RECORD
  5
D5
330
1
100
AcDbSymbolTableRecord
100
AcDbBlockTableRecord
  2
3_130306_0_in_130321_4
340
0
102
{BLKREFS
331
D6
102
}
 70
     0
280
     1
281
     0
  0
BLOCK_RECORD
  5
135
330
1
100
AcDbSymbolTableRecord
100
AcDbBlockTableRecord
  2
4_130321H_0_in_130321_4
340
0
102
{BLKREFS
331
136
102
}
 70
     0
280
     1
281
     0
  0
ENDTAB
  0
ENDSEC
  0
SECTION
  2
BLOCKS
  0
BLOCK
  5
20
330
1F
100
AcDbEntity
  8
0
100
AcDbBlockBegin
  2
*Model_Space
 70
     0
 10
0.0
 20
0.0
 30
0.0
  3
*Model_Space
  1

  0
ENDBLK
  5
21
330
1F
100
AcDbEntity
  8
0
100
AcDbBlockEnd
  0
BLOCK
  5
1C
330
1B
100
AcDbEntity
 67
     1
  8
0
100
AcDbBlockBegin
  2
*Paper_Space
 70
     0
 10
0.0
 20
0.0
 30
0.0
  3
*Paper_Space
  1

  0
ENDBLK
  5
1D
330
1B
100
AcDbEntity
 67
     1
  8
0
100
AcDbBlockEnd
  0
BLOCK
  5
24
330
23
100
AcDbEntity
  8
0
100
AcDbBlockBegin
  2
*Paper_Space0
 70
     0
 10
0.0
 20
0.0
 30
0.0
  3
*Paper_Space0
  1

  0
ENDBLK
  5
25
330
23
100
AcDbEntity
  8
0
100
AcDbBlockEnd
  0
BLOCK
  5
70
330
6E
100
AcDbEntity
  8
0
100
AcDbBlockBegin
  2
1_130321_4
 70
     2
 10
0.0
 20
0.0
 30
0.0
  3
1_130321_4
  1

  0
ATTDEF
  5
73
330
6E
100
AcDbEntity
  8
AM_6
100
AcDbText
 10
9.059999999999999
 20
1.2375
 30
0.0
 40
0.5
  1
Eccentric Collar Low Backing Height Intermediate Duty Two-Bolt Pillow Block Inch Bore
100
AcDbAttributeDefinition
  3

  2
NN
 70
     8
280
     0
  0
ATTDEF
  5
74
330
6E
100
AcDbEntity
  8
AM_6
100
AcDbText
 10
9.059999999999999
 20
0.7375
 30
0.0
 40
0.5
  1
Eccentric Collar Pillow Block Bearings -(Intermediate Duty) -Low Backing Height
100
AcDbAttributeDefinition
  3

  2
NT
 70
     8
280
     0
  0
ATTDEF
  5
75
330
6E
100
AcDbEntity
  8
AM_6
100
AcDbText
 10
9.059999999999999
 20
0.2375
 30
0.0
 40
0.5
  1
130321
100
AcDbAttributeDefinition
  3

  2
NB
 70
     8
280
     0
  0
ATTDEF
  5
76
330
6E
100
AcDbEntity
  8
AM_6
100
AcDbText
 10
9.059999999999999
 20
-0.2625
 30
0.0
 40
0.5
  1
$PN.
100
AcDbAttributeDefinition
  3

  2
NBSYN
 70
     8
280
     0
  0
ATTDEF
  5
77
330
6E
100
AcDbEntity
  8
AM_6
100
AcDbText
 10
9.059999999999999
 20
-0.7625
 30
0.0
 40
0.5
  1
130321
100
AcDbAttributeDefinition
  3

  2
LINA
 70
     8
280
     0
  0
ATTDEF
  5
78
330
6E
100
AcDbEntity
  8
AM_6
100
AcDbText
 10
9.059999999999999
 20
-1.2625
 30
0.0
 40
0.5
  1
210
100
AcDbAttributeDefinition
  3

  2
SERIES
 70
     8
280
     0
  0
ATTDEF
  5
79
330
6E
100
AcDbEntity
  8
AM_6
100
AcDbText
 10
9.059999999999999
 20
-1.7625
 30
0.0
 40
0.5
  1
2
100
AcDbAttributeDefinition
  3

  2
SS
 70
     8
280
     0
  0
ATTDEF
  5
7A
330
6E
100
AcDbEntity
  8
AM_6
100
AcDbText
 10
9.059999999999999
 20
-2.2625
 30
0.0
 40
0.5
  1
130321
100
AcDbAttributeDefinition
  3

  2
PN
 70
     8
280
     0
  0
ATTDEF
  5
7B
330
6E
100
AcDbEntity
  8
AM_6
100
AcDbText
 10
9.059999999999999
 20
-2.7625
 30
0.0
 40
0.5
  1
P2B-SXVB-200
100
AcDbAttributeDefinition
  3

  2
DESCRIPTION
 70
     8
280
     0
  0
ATTDEF
  5
7C
330
6E
100
AcDbEntity
  8
AM_6
100
AcDbText
 10
9.059999999999999
 20
-3.2625
 30
0.0
 40
0.5
  1
5.6
100
AcDbAttributeDefinition
  3

  2
WEIGHT
 70
     8
280
     0
  0
ATTDEF
  5
7D
330
6E
100
AcDbEntity
  8
AM_6
100
AcDbText
 10
9.059999999999999
 20
-3.7625
 30
0.0
 40
0.5
  1
1.72
100
AcDbAttributeDefinition
  3

  2
A
 70
     8
280
     0
  0
ATTDEF
  5
7E
330
6E
100
AcDbEntity
  8
AM_6
100
AcDbText
 10
9.059999999999999
 20
-4.2625
 30
0.0
 40
0.5
  1
8.12
100
AcDbAttributeDefinition
  3

  2
B
 70
     8
280
     0
  0
ATTDEF
  5
7F
330
6E
100
AcDbEntity
  8
AM_6
100
AcDbText
 10
9.059999999999999
 20
-4.7625
 30
0.0
 40
0.5
  1
2.25
100
AcDbAttributeDefinition
  3

  2
C
 70
     8
280
     0
  0
ATTDEF
  5
80
330
6E
100
AcDbEntity
  8
AM_6
100
AcDbText
 10
9.059999999999999
 20
-5.2625
 30
0.0
 40
0.5
  1
6.00
100
AcDbAttributeDefinition
  3

  2
DMIN
 70
     8
280
     0
  0
ATTDEF
  5
81
330
6E
100
AcDbEntity
  8
AM_6
100
AcDbText
 10
9.059999999999999
 20
-5.7625
 30
0.0
 40
0.5
  1
6.68
100
AcDbAttributeDefinition
  3

  2
DMAX
 70
     8
280
     0
  0
ATTDEF
  5
82
330
6E
100
AcDbEntity
  8
AM_6
100
AcDbText
 10
9.059999999999999
 20
-6.2625
 30
0.0
 40
0.5
  1
5/8
100
AcDbAttributeDefinition
  3

  2
F
 70
     8
280
     0
  0
ATTDEF
  5
83
330
6E
100
AcDbEntity
  8
AM_6
100
AcDbText
 10
9.059999999999999
 20
-6.7625
 30
0.0
 40
0.5
  1
1.02
100
AcDbAttributeDefinition
  3

  2
G
 70
     8
280
     0
  0
ATTDEF
  5
84
330
6E
100
AcDbEntity
  8
AM_6
100
AcDbText
 10
9.059999999999999
 20
-7.2625
 30
0.0
 40
0.5
  1
0.68
100
AcDbAttributeDefinition
  3

  2
H
 70
     8
280
     0
  0
ATTDEF
  5
85
330
6E
100
AcDbEntity
  8
AM_6
100
AcDbText
 10
9.059999999999999
 20
-7.7625
 30
0.0
 40
0.5
  1
4.47
100
AcDbAttributeDefinition
  3

  2
J
 70
     8
280
     0
  0
ATTDEF
  5
86
330
6E
100
AcDbEntity
  8
AM_6
100
AcDbText
 10
9.059999999999999
 20
-8.2625
 30
0.0
 40
0.5
  1
2.75
100
AcDbAttributeDefinition
  3

  2
L
 70
     8
280
     0
  0
ATTDEF
  5
87
330
6E
100
AcDbEntity
  8
AM_6
100
AcDbText
 10
9.059999999999999
 20
-8.7625
 30
0.0
 40
0.5
  1
2.19
100
AcDbAttributeDefinition
  3

  2
M
 70
     8
280
     0
  0
ATTDEF
  5
88
330
6E
100
AcDbEntity
  8
AM_6
100
AcDbText
 10
9.059999999999999
 20
-9.2625
 30
0.0
 40
0.5
  1
0.43
100
AcDbAttributeDefinition
  3

  2
R
 70
     8
280
     0
  0
ATTDEF
  5
89
330
6E
100
AcDbEntity
  8
AM_6
100
AcDbText
 10
9.059999999999999
 20
-9.7625
 30
0.0
 40
0.5
  1
1.29
100
AcDbAttributeDefinition
  3

  2
S
 70
     8
280
     0
  0
ATTDEF
  5
8A
330
6E
100
AcDbEntity
  8
AM_6
100
AcDbText
 10
9.059999999999999
 20
-10.2625
 30
0.0
 40
0.5
  1
3.69
100
AcDbAttributeDefinition
  3

  2
U
 70
     8
280
     0
  0
ATTDEF
  5
8B
330
6E
100
AcDbEntity
  8
AM_6
100
AcDbText
 10
9.059999999999999
 20
-10.7625
 30
0.0
 40
0.5
  1
7.38
100
AcDbAttributeDefinition
  3

  2
V
 70
     8
280
     0
  0
ATTDEF
  5
8C
330
6E
100
AcDbEntity
  8
AM_6
100
AcDbText
 10
9.059999999999999
 20
-11.2625
 30
0.0
 40
0.5
  1
0.81
100
AcDbAttributeDefinition
  3

  2
W
 70
     8
280
     0
  0
ATTDEF
  5
8D
330
6E
100
AcDbEntity
  8
AM_6
100
AcDbText
 10
9.059999999999999
 20
-11.7625
 30
0.0
 40
0.5
  1
0.12
100
AcDbAttributeDefinition
  3

  2
X
 70
     8
280
     0
  0
ATTDEF
  5
8E
330
6E
100
AcDbEntity
  8
AM_6
100
AcDbText
 10
9.059999999999999
 20
-12.2625
 30
0.0
 40
0.5
  1
baldor
100
AcDbAttributeDefinition
  3

  2
COMPANY
 70
     8
280
     0
  0
INSERT
  5
90
330
6E
100
AcDbEntity
  8
0
100
AcDbBlockReference
  2
2_405015E_Inch_0_in_130321_4
 10
0.0
 20
0.0
 30
0.0
  0
INSERT
  5
D6
330
6E
100
AcDbEntity
  8
0
100
AcDbBlockReference
  2
3_130306_0_in_130321_4
 10
0.0
 20
0.0
 30
0.0
  0
INSERT
  5
136
330
6E
100
AcDbEntity
  8
0
100
AcDbBlockReference
  2
4_130321H_0_in_130321_4
 10
0.0
 20
0.0
 30
0.0
  0
ENDBLK
  5
71
330
6E
100
AcDbEntity
  8
0
100
AcDbBlockEnd
  0
BLOCK
  5
91
330
8F
100
AcDbEntity
  8
0
100
AcDbBlockBegin
  2
2_405015E_Inch_0_in_130321_4
 70
     2
 10
0.0
 20
0.0
 30
0.0
  3
2_405015E_Inch_0_in_130321_4
  1

  0
ATTDEF
  5
93
330
8F
100
AcDbEntity
  8
AM_6
100
AcDbText
 10
6.949972744785248
 20
0.2187500000000001
 30
0.0
 40
0.5
  1
405015E -Inch
100
AcDbAttributeDefinition
  3

  2
NN
 70
     8
280
     0
  0
ATTDEF
  5
94
330
8F
100
AcDbEntity
  8
AM_6
100
AcDbText
 10
6.949972744785248
 20
-0.2812499999999999
 30
0.0
 40
0.5
  1
Grease Fitting
100
AcDbAttributeDefinition
  3

  2
NT
 70
     8
280
     0
  0
ATTDEF
  5
95
330
8F
100
AcDbEntity
  8
AM_6
100
AcDbText
 10
6.949972744785248
 20
-0.7812499999999999
 30
0.0
 40
0.5
  1
405015E-Inch
100
AcDbAttributeDefinition
  3

  2
NB
 70
     8
280
     0
  0
ATTDEF
  5
96
330
8F
100
AcDbEntity
  8
AM_6
100
AcDbText
 10
6.949972744785248
 20
-1.28125
 30
0.0
 40
0.5
  1
$MN.-Inch
100
AcDbAttributeDefinition
  3

  2
NBSYN
 70
     8
280
     0
  0
ATTDEF
  5
97
330
8F
100
AcDbEntity
  8
AM_6
100
AcDbText
 10
6.949972744785248
 20
-1.78125
 30
0.0
 40
0.5
  1
405015E
100
AcDbAttributeDefinition
  3

  2
LINA
 70
     8
280
     0
  0
ATTDEF
  5
98
330
8F
100
AcDbEntity
  8
AM_6
100
AcDbText
 10
6.949972744785248
 20
-2.28125
 30
0.0
 40
0.5
  1
405015E
100
AcDbAttributeDefinition
  3

  2
MN
 70
     8
280
     0
  0
ATTDEF
  5
99
330
8F
100
AcDbEntity
  8
AM_6
100
AcDbText
 10
6.949972744785248
 20
-2.78125
 30
0.0
 40
0.5
  1
1/8 x 27PTF
100
AcDbAttributeDefinition
  3

  2
T
 70
     8
280
     0
  0
ATTDEF
  5
9A
330
8F
100
AcDbEntity
  8
AM_6
100
AcDbText
 10
6.949972744785248
 20
-3.28125
 30
0.0
 40
0.5
  1
baldor
100
AcDbAttributeDefinition
  3

  2
COMPANY
 70
     8
280
     0
  0
LWPOLYLINE
  5
9D
330
8F
100
AcDbEntity
  8
AM_9
100
AcDbPolyline
 90
        3
 70
     0
 43
0.0
 10
1.797223849417829
 20
0.0000000000000001
 10
1.770293720823967
 20
-0.0544416102741495
 10
1.746159931413783
 20
-0.1093749999999999
  0
LWPOLYLINE
  5
9E
330
8F
100
AcDbEntity
  8
AM_9
100
AcDbPolyline
 90
        3
 70
     0
 43
0.0
 10
1.746159931413783
 20
0.1093750000000001
 10
1.770178385581585
 20
0.0546875000000001
 10
1.797223849417829
 20
0.0000000000000001
  0
ELLIPSE
  5
9F
330
8F
100
AcDbEntity
  8
AM_9
100
AcDbEllipse
 10
1.424820164090892
 20
0.0000000000000001
 30
0.0
 11
9.913691727296317E-18
 21
0.161902872472269
 31
0.0
210
0.0
220
0.0
230
1.0
 40
0.7071067811865478
 41
0.0
 42
6.283185307179586
  0
LWPOLYLINE
  5
A0
330
8F
100
AcDbEntity
  8
AM_9
100
AcDbPolyline
 90
        3
 70
     0
 43
0.0
 10
1.816870609532438
 20
-0.1093749999999999
 10
1.83750431213412
 20
-0.0546874999999999
 10
1.855111005067361
 20
0.0000000000000001
  0
LWPOLYLINE
  5
A1
330
8F
100
AcDbEntity
  8
AM_9
100
AcDbPolyline
 90
        3
 70
     0
 43
0.0
 10
1.855111005067361
 20
0.0000000000000001
 10
1.837589745012181
 20
0.0544416102741497
 10
1.816870609532438
 20
0.109375
  0
LWPOLYLINE
  5
A2
330
8F
100
AcDbEntity
  8
AM_9
100
AcDbPolyline
 90
        3
 70
     0
 43
0.0
 10
1.707919535878859
 20
0.2187500000000001
 10
1.725440795934039
 20
0.1643083897258505
 10
1.746159931413783
 20
0.1093750000000001
  0
LINE
  5
A3
330
8F
100
AcDbEntity
  8
AM_9
100
AcDbLine
 10
1.855111005067361
 20
0.0000000000000001
 30
0.0
 11
1.797223849417829
 21
0.0000000000000001
 31
0.0
  0
LWPOLYLINE
  5
A4
330
8F
100
AcDbEntity
  8
AM_9
100
AcDbPolyline
 90
        3
 70
     0
 43
0.0
 10
1.746159931413783
 20
-0.1093749999999999
 10
1.7255262288121
 20
-0.1640624999999999
 10
1.707919535878859
 20
-0.2187499999999999
  0
LINE
  5
A5
330
8F
100
AcDbEntity
  8
AM_9
100
AcDbLine
 10
1.816870609532438
 20
0.109375
 30
0.0
 11
1.806948364857182
 21
0.1328996841354946
 31
0.0
  0
LINE
  5
A6
330
8F
100
AcDbEntity
  8
AM_9
100
AcDbLine
 10
1.806782030740137
 20
-0.1332816887381446
 30
0.0
 11
1.816870609532438
 21
-0.1093749999999999
 31
0.0
  0
LINE
  5
A7
330
8F
100
AcDbEntity
  8
AM_9
100
AcDbLine
 10
1.44639232553932
 20
-0.1985206121313387
 30
0.0
 11
1.60765031122975
 21
-0.2056511146224223
 31
0.0
  0
LINE
  5
A8
330
8F
100
AcDbEntity
  8
AM_9
100
AcDbLine
 10
1.60765031122975
 20
0.2056511146224226
 30
0.0
 11
1.44639232553932
 21
0.1985206121313389
 31
0.0
  0
ELLIPSE
  5
A9
330
8F
100
AcDbEntity
  8
AM_9
100
AcDbEllipse
 10
1.682914139223984
 20
-0.0000000000000225
 30
0.0
 11
-4.018372309703000E-17
 21
-0.2187500000000407
 31
0.0
210
0.0
220
0.0
230
1.0
 40
0.7071067811864521
 41
0.9156936017148016
 42
2.225899051875156
  0
LINE
  5
AA
330
8F
100
AcDbEntity
  8
AM_9
100
AcDbLine
 10
1.788980156401965
 20
0.0948683298050515
 30
0.0
 11
1.770366289972899
 21
0.1073548910028991
 31
0.0
  0
LINE
  5
AB
330
8F
100
AcDbEntity
  8
AM_9
100
AcDbLine
 10
1.770366289972899
 20
-0.1073548910028989
 30
0.0
 11
1.788980156401965
 21
-0.0948683298050513
 31
0.0
  0
ELLIPSE
  5
AC
330
8F
100
AcDbEntity
  8
AM_9
100
AcDbEllipse
 10
1.75716035124857
 20
0.0000000000000002
 30
0.0
 11
-1.928818708657080E-17
 21
-0.105
 31
0.0
210
0.0
220
0.0
230
1.0
 40
0.7071067811865456
 41
0.0
 42
3.141592653589793
  0
ELLIPSE
  5
AD
330
8F
100
AcDbEntity
  8
AM_9
100
AcDbEllipse
 10
1.682914139223983
 20
-0.0000000000000006
 30
0.0
 11
-3.926523799766182E-17
 21
-0.2137499999999989
 31
0.0
210
0.0
220
0.0
230
1.0
 40
0.7071067811865478
 41
0.903655218840413
 42
2.237937434749384
  0
LINE
  5
AE
330
8F
100
AcDbEntity
  8
AM_9
100
AcDbLine
 10
1.758479342131108
 20
-0.1049999999999999
 30
0.0
 11
1.778373554684166
 21
-0.1049999999999999
 31
0.0
  0
LINE
  5
AF
330
8F
100
AcDbEntity
  8
AM_9
100
AcDbLine
 10
1.778373554684166
 20
0.1050000000000001
 30
0.0
 11
1.758479342131108
 21
0.1050000000000001
 31
0.0
  0
ELLIPSE
  5
B0
330
8F
100
AcDbEntity
  8
AM_9
100
AcDbEllipse
 10
1.778373554684166
 20
0.0000000000000001
 30
0.0
 11
-1.928818708657081E-17
 21
-0.105
 31
0.0
210
0.0
220
0.0
230
1.0
 40
0.7071067811865516
 41
5.759586531581293
 42
9.948376736367672
  0
ELLIPSE
  5
B1
330
8F
100
AcDbEntity
  8
AM_9
100
AcDbEllipse
 10
1.734358364873014
 20
0.0000000000000013
 30
0.0
 11
-2.182689656892945E-17
 21
-0.1188200907348752
 31
0.0
210
0.0
220
0.0
230
1.0
 40
0.7071067811862662
 41
0.3762206261005048
 42
2.765372027489283
  0
LINE
  5
B2
330
8F
100
AcDbEntity
  8
AM_9
100
AcDbLine
 10
1.817264078192643
 20
0.0192743186691521
 30
0.0
 11
1.816251238001651
 21
0.0279874918769155
 31
0.0
  0
LINE
  5
B3
330
8F
100
AcDbEntity
  8
AM_9
100
AcDbLine
 10
1.816251238001651
 20
-0.0279874918769153
 30
0.0
 11
1.817264078192643
 21
-0.0192743186691519
 31
0.0
  0
ELLIPSE
  5
B4
330
8F
100
AcDbEntity
  8
AM_9
100
AcDbEllipse
 10
1.695867061631365
 20
-0.0000000000000015
 30
0.0
 11
-3.169399141454397E-17
 21
-0.1725340532830122
 31
0.0
210
0.0
220
0.0
230
1.0
 40
0.7071067811865411
 41
0.777291343142072
 42
2.364301310447734
  0
ELLIPSE
  5
B5
330
8F
100
AcDbEntity
  8
AM_9
100
AcDbEllipse
 10
1.820799961555359
 20
-0.0000000000000002
 30
0.0
 11
-2.479909768273398E-17
 21
-0.1350000000000005
 31
0.0
210
0.0
220
0.0
230
1.0
 40
0.707106781186549
 41
0.4159140521025524
 42
2.725678601487243
  0
ELLIPSE
  5
B6
330
8F
100
AcDbEntity
  8
AM_9
100
AcDbEllipse
 10
1.612203461105328
 20
0.0
 30
0.0
 11
-3.779601035290912E-17
 21
-0.2057518972230697
 31
0.0
210
0.0
220
0.0
230
1.0
 40
0.7071067811865481
 41
0.0
 42
6.283185307179586
  0
ELLIPSE
  5
B7
330
8F
100
AcDbEntity
  8
AM_9
100
AcDbEllipse
 10
1.450781415832347
 20
0.0000000000000004
 30
0.0
 11
-3.648546613377881E-17
 21
-0.1986176267812151
 31
0.0
210
0.0
220
0.0
230
1.0
 40
0.7071067811865476
 41
0.0
 42
6.283185307179586
  0
ELLIPSE
  5
B8
330
8F
100
AcDbEntity
  8
AM_9
100
AcDbEllipse
 10
1.612203461105327
 20
0.0000000000000006
 30
0.0
 11
-4.018372309702245E-17
 21
-0.2187499999999996
 31
0.0
210
0.0
220
0.0
230
1.0
 40
0.7071067811865455
 41
0.0
 42
6.283185307179586
  0
LWPOLYLINE
  5
BA
330
8F
100
AcDbEntity
  8
AM_4
100
AcDbPolyline
 90
        3
 70
     0
 43
0.0
 10
1.806948364857182
 20
0.1328996841354946
 10
1.792852155364635
 20
0.1640625000000001
 10
1.765806691528391
 20
0.2187500000000001
  0
LWPOLYLINE
  5
BB
330
8F
100
AcDbEntity
  8
AM_4
100
AcDbPolyline
 90
        3
 70
     0
 43
0.0
 10
1.765806691528391
 20
-0.2187499999999999
 10
1.792736820122254
 20
-0.1643083897258503
 10
1.806782030740137
 20
-0.1332816887381446
  0
ELLIPSE
  5
BC
330
8F
100
AcDbEntity
  8
AM_4
100
AcDbEllipse
 10
1.682914139223983
 20
-0.0000000000000012
 30
0.0
 11
-4.018372309702277E-17
 21
-0.2187500000000013
 31
0.0
210
0.0
220
0.0
230
1.0
 40
0.7071067811865449
 41
2.225899051875138
 42
7.198878908894251
  0
ELLIPSE
  5
BD
330
8F
100
AcDbEntity
  8
AM_4
100
AcDbEllipse
 10
1.734358364872965
 20
0.0000000000000001
 30
0.0
 11
-2.182689656893357E-17
 21
-0.1188200907348977
 31
0.0
210
0.0
220
0.0
230
1.0
 40
0.7071067811865475
 41
2.765372027488877
 42
6.659405933280503
  0
ELLIPSE
  5
BE
330
8F
100
AcDbEntity
  8
AM_4
100
AcDbEllipse
 10
1.682914139223983
 20
0.0000000000000001
 30
0.0
 11
-3.926523799766201E-17
 21
-0.21375
 31
0.0
210
0.0
220
0.0
230
1.0
 40
0.7071067811865485
 41
2.237937434749381
 42
7.186840526019999
  0
LINE
  5
BF
330
8F
100
AcDbEntity
  8
AM_4
100
AcDbLine
 10
1.75716035124857
 20
-0.1049999999999999
 30
0.0
 11
1.758479342131108
 21
-0.1049999999999999
 31
0.0
  0
LINE
  5
C0
330
8F
100
AcDbEntity
  8
AM_4
100
AcDbLine
 10
1.758479342131108
 20
0.1050000000000001
 30
0.0
 11
1.75716035124857
 21
0.1050000000000001
 31
0.0
  0
ELLIPSE
  5
C1
330
8F
100
AcDbEntity
  8
AM_4
100
AcDbEllipse
 10
1.75716035124857
 20
0.0000000000000001
 30
0.0
 11
-1.928818708657087E-17
 21
-0.1050000000000003
 31
0.0
210
0.0
220
0.0
230
1.0
 40
0.7071067811865476
 41
3.141592653589793
 42
6.283185307179586
  0
ELLIPSE
  5
C2
330
8F
100
AcDbEntity
  8
AM_4
100
AcDbEllipse
 10
1.695867061631362
 20
0.0
 30
0.0
 11
-3.169399141454455E-17
 21
-0.1725340532830154
 31
0.0
210
0.0
220
0.0
230
1.0
 40
0.7071067811865475
 41
2.364301310447715
 42
7.060476650321666
  0
LWPOLYLINE
  5
C3
330
8F
100
AcDbEntity
  8
AM_4
100
AcDbPolyline
 90
        3
 70
     0
 43
0.0
 10
1.548957668915527
 20
0.109375
 10
1.524939214747725
 20
0.0546875000000001
 10
1.497893750911481
 20
0.0000000000000001
  0
LWPOLYLINE
  5
C4
330
8F
100
AcDbEntity
  8
AM_4
100
AcDbPolyline
 90
        3
 70
     0
 43
0.0
 10
1.587198064450451
 20
0.2187500000000001
 10
1.56967680439527
 20
0.1643083897258505
 10
1.548957668915527
 20
0.109375
  0
LINE
  5
C5
330
8F
100
AcDbEntity
  8
AM_4
100
AcDbLine
 10
1.765806691528391
 20
0.2187500000000001
 30
0.0
 11
1.529310908800919
 21
0.2187500000000001
 31
0.0
  0
LWPOLYLINE
  5
C6
330
8F
100
AcDbEntity
  8
AM_4
100
AcDbPolyline
 90
        3
 70
     0
 43
0.0
 10
1.478246990796873
 20
0.1093750000000001
 10
1.502265444964675
 20
0.1640625000000001
 10
1.529310908800919
 20
0.2187500000000001
  0
LWPOLYLINE
  5
C7
330
8F
100
AcDbEntity
  8
AM_4
100
AcDbPolyline
 90
        3
 70
     0
 43
0.0
 10
1.440006595261949
 20
0.0000000000000001
 10
1.457527855317129
 20
0.0544416102741497
 10
1.478246990796873
 20
0.1093750000000001
  0
LINE
  5
C8
330
8F
100
AcDbEntity
  8
AM_4
100
AcDbLine
 10
1.765806691528391
 20
-0.2187499999999999
 30
0.0
 11
1.529310908800919
 21
-0.2187499999999999
 31
0.0
  0
LWPOLYLINE
  5
C9
330
8F
100
AcDbEntity
  8
AM_4
100
AcDbPolyline
 90
        3
 70
     0
 43
0.0
 10
1.548957668915527
 20
-0.1093749999999999
 10
1.56959137151721
 20
-0.1640624999999999
 10
1.587198064450451
 20
-0.2187499999999999
  0
LWPOLYLINE
  5
CA
330
8F
100
AcDbEntity
  8
AM_4
100
AcDbPolyline
 90
        3
 70
     0
 43
0.0
 10
1.497893750911481
 20
0.0000000000000001
 10
1.524823879505343
 20
-0.0544416102741495
 10
1.548957668915527
 20
-0.1093749999999999
  0
LINE
  5
CB
330
8F
100
AcDbEntity
  8
AM_4
100
AcDbLine
 10
1.497893750911481
 20
0.0000000000000001
 30
0.0
 11
1.440006595261949
 21
0.0000000000000001
 31
0.0
  0
LWPOLYLINE
  5
CC
330
8F
100
AcDbEntity
  8
AM_4
100
AcDbPolyline
 90
        3
 70
     0
 43
0.0
 10
1.478246990796873
 20
-0.1093749999999999
 10
1.45761328819519
 20
-0.0546874999999999
 10
1.440006595261949
 20
0.0000000000000001
  0
LWPOLYLINE
  5
CD
330
8F
100
AcDbEntity
  8
AM_4
100
AcDbPolyline
 90
        3
 70
     0
 43
0.0
 10
1.529310908800919
 20
-0.2187499999999999
 10
1.502380780207057
 20
-0.1643083897258503
 10
1.478246990796873
 20
-0.1093749999999999
  0
LINE
  5
CE
330
8F
100
AcDbEntity
  8
AM_4
100
AcDbLine
 10
1.741250448671873
 20
-0.0909326673973659
 30
0.0
 11
1.773070253825267
 21
-0.1169134295108991
 31
0.0
  0
LINE
  5
CF
330
8F
100
AcDbEntity
  8
AM_4
100
AcDbLine
 10
1.773070253825267
 20
0.1169134295108993
 30
0.0
 11
1.741250448671873
 21
0.0909326673973662
 31
0.0
  0
ELLIPSE
  5
D0
330
8F
100
AcDbEntity
  8
AM_4
100
AcDbEllipse
 10
1.820799961555359
 20
0.0000000000000001
 30
0.0
 11
-2.479909768273389E-17
 21
-0.135
 31
0.0
210
0.0
220
0.0
230
1.0
 40
0.70710678118655
 41
2.725678601487244
 42
6.699099359282136
  0
ELLIPSE
  5
D1
330
8F
100
AcDbEntity
  8
AM_4
100
AcDbEllipse
 10
1.778373554684166
 20
0.0000000000000001
 30
0.0
 11
-1.928818708657078E-17
 21
-0.1049999999999998
 31
0.0
210
0.0
220
0.0
230
1.0
 40
0.7071067811865486
 41
3.665191429188086
 42
5.759586531581293
  0
LINE
  5
D2
330
8F
100
AcDbEntity
  8
AM_4
100
AcDbLine
 10
1.906702521414058
 20
0.0939243440009288
 30
0.0
 11
1.859368068904168
 21
0.1234908992236336
 31
0.0
  0
LINE
  5
D3
330
8F
100
AcDbEntity
  8
AM_4
100
AcDbLine
 10
1.859368068904168
 20
-0.1234908992236333
 30
0.0
 11
1.906702521414058
 21
-0.0939243440009286
 31
0.0
  0
ELLIPSE
  5
D4
330
8F
100
AcDbEntity
  8
AM_4
100
AcDbEllipse
 10
1.877368504050282
 20
0.0000000000000001
 30
0.0
 11
-1.886162459184658E-17
 21
-0.1026779019331875
 31
0.0
210
0.0
220
0.0
230
1.0
 40
0.7071067811865528
 41
0.0
 42
6.283185307179586
  0
ENDBLK
  5
92
330
8F
100
AcDbEntity
  8
0
100
AcDbBlockEnd
  0
BLOCK
  5
D7
330
D5
100
AcDbEntity
  8
0
100
AcDbBlockBegin
  2
3_130306_0_in_130321_4
 70
     2
 10
0.0
 20
0.0
 30
0.0
  3
3_130306_0_in_130321_4
  1

  0
ATTDEF
  5
D9
330
D5
100
AcDbEntity
  8
AM_6
100
AcDbText
 10
6.9044825
 20
0.4350000000000002
 30
0.0
 40
0.5
  1
Eccentric Collar Intermediate Duty Insert Inch Bore
100
AcDbAttributeDefinition
  3

  2
NN
 70
     8
280
     0
  0
ATTDEF
  5
DA
330
D5
100
AcDbEntity
  8
AM_6
100
AcDbText
 10
6.9044825
 20
-0.0649999999999998
 30
0.0
 40
0.5
  1
Eccentric Collar Bearing Inserts -(Intermediate Duty)
100
AcDbAttributeDefinition
  3

  2
NT
 70
     8
280
     0
  0
ATTDEF
  5
DB
330
D5
100
AcDbEntity
  8
AM_6
100
AcDbText
 10
6.9044825
 20
-0.5649999999999997
 30
0.0
 40
0.5
  1
130306
100
AcDbAttributeDefinition
  3

  2
NB
 70
     8
280
     0
  0
ATTDEF
  5
DC
330
D5
100
AcDbEntity
  8
AM_6
100
AcDbText
 10
6.9044825
 20
-1.065
 30
0.0
 40
0.5
  1
$PN.
100
AcDbAttributeDefinition
  3

  2
NBSYN
 70
     8
280
     0
  0
ATTDEF
  5
DD
330
D5
100
AcDbEntity
  8
AM_6
100
AcDbText
 10
6.9044825
 20
-1.565
 30
0.0
 40
0.5
  1
130306
100
AcDbAttributeDefinition
  3

  2
LINA
 70
     8
280
     0
  0
ATTDEF
  5
DE
330
D5
100
AcDbEntity
  8
AM_6
100
AcDbText
 10
6.9044825
 20
-2.065
 30
0.0
 40
0.5
  1
210
100
AcDbAttributeDefinition
  3

  2
SERIES
 70
     8
280
     0
  0
ATTDEF
  5
DF
330
D5
100
AcDbEntity
  8
AM_6
100
AcDbText
 10
6.9044825
 20
-2.565
 30
0.0
 40
0.5
  1
2
100
AcDbAttributeDefinition
  3

  2
SS
 70
     8
280
     0
  0
ATTDEF
  5
E0
330
D5
100
AcDbEntity
  8
AM_6
100
AcDbText
 10
6.9044825
 20
-3.065
 30
0.0
 40
0.5
  1
130306
100
AcDbAttributeDefinition
  3

  2
PN
 70
     8
280
     0
  0
ATTDEF
  5
E1
330
D5
100
AcDbEntity
  8
AM_6
100
AcDbText
 10
6.9044825
 20
-3.565
 30
0.0
 40
0.5
  1
INS-SXV-200
100
AcDbAttributeDefinition
  3

  2
DESCRIPTION
 70
     8
280
     0
  0
ATTDEF
  5
E2
330
D5
100
AcDbEntity
  8
AM_6
100
AcDbText
 10
6.9044825
 20
-4.065
 30
0.0
 40
0.5
  1
1.9
100
AcDbAttributeDefinition
  3

  2
WEIGHT
 70
     8
280
     0
  0
ATTDEF
  5
E3
330
D5
100
AcDbEntity
  8
AM_6
100
AcDbText
 10
6.9044825
 20
-4.565
 30
0.0
 40
0.5
  1
1.72
100
AcDbAttributeDefinition
  3

  2
A
 70
     8
280
     0
  0
ATTDEF
  5
E4
330
D5
100
AcDbEntity
  8
AM_6
100
AcDbText
 10
6.9044825
 20
-5.065
 30
0.0
 40
0.5
  1
0.87
100
AcDbAttributeDefinition
  3

  2
C
 70
     8
280
     0
  0
ATTDEF
  5
E5
330
D5
100
AcDbEntity
  8
AM_6
100
AcDbText
 10
6.9044825
 20
-5.565
 30
0.0
 40
0.5
  1
3.5433
100
AcDbAttributeDefinition
  3

  2
D
 70
     8
280
     0
  0
ATTDEF
  5
E6
330
D5
100
AcDbEntity
  8
AM_6
100
AcDbText
 10
6.9044825
 20
-6.065
 30
0.0
 40
0.5
  1
0.25
100
AcDbAttributeDefinition
  3

  2
J
 70
     8
280
     0
  0
ATTDEF
  5
E7
330
D5
100
AcDbEntity
  8
AM_6
100
AcDbText
 10
6.9044825
 20
-6.565
 30
0.0
 40
0.5
  1
2.75
100
AcDbAttributeDefinition
  3

  2
L
 70
     8
280
     0
  0
ATTDEF
  5
E8
330
D5
100
AcDbEntity
  8
AM_6
100
AcDbText
 10
6.9044825
 20
-7.065
 30
0.0
 40
0.5
  1
3/8 - 24
100
AcDbAttributeDefinition
  3

  2
N
 70
     8
280
     0
  0
ATTDEF
  5
E9
330
D5
100
AcDbEntity
  8
AM_6
100
AcDbText
 10
6.9044825
 20
-7.565
 30
0.0
 40
0.5
  1
0.43
100
AcDbAttributeDefinition
  3

  2
W
 70
     8
280
     0
  0
ATTDEF
  5
EA
330
D5
100
AcDbEntity
  8
AM_6
100
AcDbText
 10
6.9044825
 20
-8.065
 30
0.0
 40
0.5
  1
1.29
100
AcDbAttributeDefinition
  3

  2
Y
 70
     8
280
     0
  0
ATTDEF
  5
EB
330
D5
100
AcDbEntity
  8
AM_6
100
AcDbText
 10
6.9044825
 20
-8.565
 30
0.0
 40
0.5
  1
2.43
100
AcDbAttributeDefinition
  3

  2
Z
 70
     8
280
     0
  0
ATTDEF
  5
EC
330
D5
100
AcDbEntity
  8
AM_6
100
AcDbText
 10
6.9044825
 20
-9.065
 30
0.0
 40
0.5
  1
baldor
100
AcDbAttributeDefinition
  3

  2
COMPANY
 70
     8
280
     0
  0
ARC
  5
ED
330
D5
100
AcDbEntity
  8
AM_9
100
AcDbCircle
 10
1.7779
 20
0.2500000000000002
 30
0.0
 40
0.0937499999999999
100
AcDbArc
 50
270.0
 51
90.0
  0
LINE
  5
EE
330
D5
100
AcDbEntity
  8
AM_9
100
AcDbLine
 10
1.7779
 20
0.34375
 30
0.0
 11
1.7779
 21
0.15625
 31
0.0
  0
LINE
  5
EF
330
D5
100
AcDbEntity
  8
AM_9
100
AcDbLine
 10
1.764732468648646
 20
0.15625
 30
0.0
 11
1.7779
 21
0.15625
 31
0.0
  0
LINE
  5
F0
330
D5
100
AcDbEntity
  8
AM_9
100
AcDbLine
 10
1.7779
 20
0.34375
 30
0.0
 11
1.738026824290485
 21
0.34375
 31
0.0
  0
LINE
  5
F1
330
D5
100
AcDbEntity
  8
AM_9
100
AcDbLine
 10
1.0
 20
-0.7074999999999998
 30
0.0
 11
1.0
 21
0.43
 31
0.0
  0
LINE
  5
F2
330
D5
100
AcDbEntity
  8
AM_9
100
AcDbLine
 10
-1.0
 20
0.43
 30
0.0
 11
-1.0
 21
-0.7074999999999998
 31
0.0
  0
LINE
  5
F3
330
D5
100
AcDbEntity
  8
AM_9
100
AcDbLine
 10
1.0
 20
-1.261715728752538
 30
0.0
 11
1.0
 21
-0.7474999999999998
 31
0.0
  0
LINE
  5
F4
330
D5
100
AcDbEntity
  8
AM_9
100
AcDbLine
 10
-1.0
 20
-0.7474999999999998
 30
0.0
 11
-1.0
 21
-1.261715728752538
 31
0.0
  0
LINE
  5
F5
330
D5
100
AcDbEntity
  8
AM_9
100
AcDbLine
 10
-1.0
 20
-0.7474999999999998
 30
0.0
 11
1.0
 21
-0.7474999999999998
 31
0.0
  0
LINE
  5
F6
330
D5
100
AcDbEntity
  8
AM_9
100
AcDbLine
 10
1.0
 20
-0.7474999999999998
 30
0.0
 11
1.02
 21
-0.7275000000000001
 31
0.0
  0
LINE
  5
F7
330
D5
100
AcDbEntity
  8
AM_9
100
AcDbLine
 10
-1.02
 20
-0.7275000000000001
 30
0.0
 11
-1.0
 21
-0.7474999999999998
 31
0.0
  0
LINE
  5
F8
330
D5
100
AcDbEntity
  8
AM_9
100
AcDbLine
 10
-1.0
 20
-0.7074999999999998
 30
0.0
 11
1.0
 21
-0.7074999999999998
 31
0.0
  0
LINE
  5
F9
330
D5
100
AcDbEntity
  8
AM_9
100
AcDbLine
 10
-1.02
 20
-0.7275000000000001
 30
0.0
 11
1.02
 21
-0.7275000000000001
 31
0.0
  0
LINE
  5
FA
330
D5
100
AcDbEntity
  8
AM_9
100
AcDbLine
 10
-1.0
 20
-0.7074999999999998
 30
0.0
 11
-1.02
 21
-0.7275000000000001
 31
0.0
  0
LINE
  5
FB
330
D5
100
AcDbEntity
  8
AM_9
100
AcDbLine
 10
1.02
 20
-0.7275000000000001
 30
0.0
 11
1.0
 21
-0.7074999999999998
 31
0.0
  0
LINE
  5
FC
330
D5
100
AcDbEntity
  8
AM_9
100
AcDbLine
 10
-1.0
 20
-1.261715728752538
 30
0.0
 11
1.0
 21
-1.261715728752538
 31
0.0
  0
LINE
  5
FD
330
D5
100
AcDbEntity
  8
AM_9
100
AcDbLine
 10
-1.0
 20
-1.261715728752538
 30
0.0
 11
-1.028284271247462
 21
-1.29
 31
0.0
  0
LINE
  5
FE
330
D5
100
AcDbEntity
  8
AM_9
100
AcDbLine
 10
1.028284271247462
 20
-1.29
 30
0.0
 11
1.0
 21
-1.261715728752538
 31
0.0
  0
LINE
  5
FF
330
D5
100
AcDbEntity
  8
AM_9
100
AcDbLine
 10
1.157142857142857
 20
-0.6149999999999999
 30
0.0
 11
1.157142857142857
 21
-0.5775000000000001
 31
0.0
  0
LINE
  5
100
330
D5
100
AcDbEntity
  8
AM_9
100
AcDbLine
 10
-1.157142857142857
 20
-0.5775000000000001
 30
0.0
 11
-1.157142857142857
 21
-0.6149999999999999
 31
0.0
  0
LINE
  5
101
330
D5
100
AcDbEntity
  8
AM_9
100
AcDbLine
 10
-1.215
 20
-0.5775000000000003
 30
0.0
 11
1.215
 21
-0.5775000000000003
 31
0.0
  0
LINE
  5
102
330
D5
100
AcDbEntity
  8
AM_9
100
AcDbLine
 10
1.215
 20
-0.5775000000000003
 30
0.0
 11
1.215
 21
-0.4349999999999999
 31
0.0
  0
LINE
  5
103
330
D5
100
AcDbEntity
  8
AM_9
100
AcDbLine
 10
-1.215
 20
-0.4349999999999999
 30
0.0
 11
-1.215
 21
-0.5775000000000003
 31
0.0
  0
LINE
  5
104
330
D5
100
AcDbEntity
  8
AM_9
100
AcDbLine
 10
-1.215
 20
0.43
 30
0.0
 11
1.215
 21
0.43
 31
0.0
  0
LINE
  5
105
330
D5
100
AcDbEntity
  8
AM_9
100
AcDbLine
 10
1.215
 20
0.43
 30
0.0
 11
1.215
 21
0.435
 31
0.0
  0
LINE
  5
106
330
D5
100
AcDbEntity
  8
AM_9
100
AcDbLine
 10
-1.215
 20
0.435
 30
0.0
 11
-1.215
 21
0.43
 31
0.0
  0
LINE
  5
107
330
D5
100
AcDbEntity
  8
AM_9
100
AcDbLine
 10
-1.295
 20
-0.6149999999999999
 30
0.0
 11
1.294999999994817
 21
-0.6149999999999999
 31
0.0
  0
ARC
  5
108
330
D5
100
AcDbEntity
  8
AM_9
100
AcDbCircle
 10
1.294999999999999
 20
-0.6950000000000006
 30
0.0
 40
0.0800000000000007
100
AcDbArc
 50
0.0
 51
90.0
  0
ARC
  5
109
330
D5
100
AcDbEntity
  8
AM_9
100
AcDbCircle
 10
-1.294999999999999
 20
-0.6950000000000006
 30
0.0
 40
0.0800000000000006
100
AcDbArc
 50
90.0
 51
180.0
  0
LINE
  5
10A
330
D5
100
AcDbEntity
  8
AM_9
100
AcDbLine
 10
1.10195125747831
 20
-0.6950000000000001
 30
0.0
 11
1.375
 21
-0.6950000000000001
 31
0.0
  0
LINE
  5
10B
330
D5
100
AcDbEntity
  8
AM_9
100
AcDbLine
 10
-1.375
 20
-0.6950000000000001
 30
0.0
 11
-1.10195125747831
 21
-0.6950000000000001
 31
0.0
  0
LINE
  5
10C
330
D5
100
AcDbEntity
  8
AM_9
100
AcDbLine
 10
1.375
 20
-0.7350802926826537
 30
0.0
 11
1.375
 21
-0.6950000000000001
 31
0.0
  0
LINE
  5
10D
330
D5
100
AcDbEntity
  8
AM_9
100
AcDbLine
 10
-1.375
 20
-0.6950000000000001
 30
0.0
 11
-1.375
 21
-0.7350802926826537
 31
0.0
  0
LINE
  5
10E
330
D5
100
AcDbEntity
  8
AM_9
100
AcDbLine
 10
1.687285714285715
 20
-0.3
 30
0.0
 11
1.687285714285715
 21
-0.2
 31
0.0
  0
LINE
  5
10F
330
D5
100
AcDbEntity
  8
AM_9
100
AcDbLine
 10
-1.687285714285715
 20
-0.2
 30
0.0
 11
-1.687285714285715
 21
-0.3
 31
0.0
  0
LINE
  5
110
330
D5
100
AcDbEntity
  8
AM_9
100
AcDbLine
 10
-1.685997248663236
 20
-0.4349999999999997
 30
0.0
 11
1.685997248661951
 21
-0.4349999999999997
 31
0.0
  0
ARC
  5
111
330
D5
100
AcDbEntity
  8
AM_9
100
AcDbCircle
 10
1.685997248663236
 20
-0.3950000000000002
 30
0.0
 40
0.0399999999999995
100
AcDbArc
 50
270.0
 51
346.8144020180865
  0
ARC
  5
112
330
D5
100
AcDbEntity
  8
AM_9
100
AcDbCircle
 10
-1.685997248663236
 20
-0.3950000000000002
 30
0.0
 40
0.0399999999999995
100
AcDbArc
 50
193.1855979819135
 51
270.0
  0
LINE
  5
113
330
D5
100
AcDbEntity
  8
AM_9
100
AcDbLine
 10
-1.685997248663235
 20
0.435
 30
0.0
 11
1.68599724866195
 21
0.435
 31
0.0
  0
ARC
  5
114
330
D5
100
AcDbEntity
  8
AM_9
100
AcDbCircle
 10
1.685997248663236
 20
0.3950000000000006
 30
0.0
 40
0.0399999999999996
100
AcDbArc
 50
13.18559798191275
 51
90.0
  0
ARC
  5
115
330
D5
100
AcDbEntity
  8
AM_9
100
AcDbCircle
 10
-1.685997248663236
 20
0.3950000000000006
 30
0.0
 40
0.0399999999999994
100
AcDbArc
 50
90.0
 51
166.8144020180873
  0
LINE
  5
116
330
D5
100
AcDbEntity
  8
AM_9
100
AcDbLine
 10
-1.724942699502914
 20
-0.4041242456616524
 30
0.0
 11
1.724942699502648
 21
-0.4041242456616524
 31
0.0
  0
LINE
  5
117
330
D5
100
AcDbEntity
  8
AM_9
100
AcDbLine
 10
-1.746065211411074
 20
-0.3
 30
0.0
 11
1.746065211410808
 21
-0.3
 31
0.0
  0
ARC
  5
118
330
D5
100
AcDbEntity
  8
AM_9
100
AcDbCircle
 10
-0.0000000005686784
 20
0.0000000001153038
 30
0.0
 40
1.771650000579728
100
AcDbArc
 50
346.8144020186492
 51
350.25092039035
  0
ARC
  5
119
330
D5
100
AcDbEntity
  8
AM_9
100
AcDbCircle
 10
0.0000000005689673
 20
0.0000000001153623
 30
0.0
 40
1.771650000580023
100
AcDbArc
 50
189.7490796096503
 51
193.1855979813505
  0
LINE
  5
11A
330
D5
100
AcDbEntity
  8
AM_9
100
AcDbLine
 10
-1.760324891177762
 20
-0.1999999999999994
 30
0.0
 11
1.760324891177757
 21
-0.1999999999999994
 31
0.0
  0
LINE
  5
11B
330
D5
100
AcDbEntity
  8
AM_9
100
AcDbLine
 10
-1.724942699502914
 20
0.4041242456616523
 30
0.0
 11
1.724942699502909
 21
0.4041242456616523
 31
0.0
  0
ARC
  5
11C
330
D5
100
AcDbEntity
  8
AM_9
100
AcDbCircle
 10
-0.0000000000011098
 20
-0.0000000000000814
 30
0.0
 40
1.771650000001102
100
AcDbArc
 50
3.651040123661216
 51
5.062860401857664
  0
ARC
  5
11D
330
D5
100
AcDbEntity
  8
AM_9
100
AcDbCircle
 10
0.0000000000000746
 20
0.0000000000000001
 30
0.0
 40
1.771649999999914
100
AcDbArc
 50
356.6022722437151
 51
3.397727756284902
  0
ARC
  5
11E
330
D5
100
AcDbEntity
  8
AM_9
100
AcDbCircle
 10
-0.0000000000088087
 20
0.0000000000006695
 30
0.0
 40
1.771650000008822
100
AcDbArc
 50
353.5181126598322
 51
356.3489598763357
  0
ARC
  5
11F
330
D5
100
AcDbEntity
  8
AM_9
100
AcDbCircle
 10
-0.0000000000148861
 20
-0.0000000000030512
 30
0.0
 40
1.771650000015184
100
AcDbArc
 50
11.17779092379965
 51
13.18559798189967
  0
ARC
  5
120
330
D5
100
AcDbEntity
  8
AM_9
100
AcDbCircle
 10
0.0000000000003688
 20
-0.0000000000000211
 30
0.0
 40
1.771650000000359
100
AcDbArc
 50
166.8144020180887
 51
186.4818873401765
  0
LINE
  5
121
330
D5
100
AcDbEntity
  8
AM_9
100
AcDbLine
 10
1.764746344378773
 20
0.156250000003437
 30
0.0
 11
1.737981490120108
 21
0.3437499999997021
 31
0.0
  0
LINE
  5
124
330
D5
100
AcDbEntity
  8
AM_7
100
AcDbLine
 10
1.1821675
 20
0.25
 30
0.0
 11
1.9044825
 21
0.25
 31
0.0
  0
LINE
  5
125
330
D5
100
AcDbEntity
  8
AM_7
100
AcDbLine
 10
1.7779
 20
0.1515625000000004
 30
0.0
 11
1.7779
 21
0.3484375
 31
0.0
  0
ARC
  5
126
330
D5
100
AcDbEntity
  8
AM_4
100
AcDbCircle
 10
0.0
 20
-1.00875
 30
0.0
 40
0.1705999999999999
100
AcDbArc
 50
214.2855972309772
 51
325.7144027690227
  0
LINE
  5
127
330
D5
100
AcDbEntity
  8
AM_4
100
AcDbLine
 10
-1.295
 20
-1.29
 30
0.0
 11
1.294999999994817
 21
-1.29
 31
0.0
  0
ARC
  5
128
330
D5
100
AcDbEntity
  8
AM_4
100
AcDbCircle
 10
1.295
 20
-1.21
 30
0.0
 40
0.0799999999999998
100
AcDbArc
 50
270.0
 51
0.0
  0
ARC
  5
129
330
D5
100
AcDbEntity
  8
AM_4
100
AcDbCircle
 10
-1.295
 20
-1.21
 30
0.0
 40
0.0799999999999998
100
AcDbArc
 50
180.0
 51
270.0
  0
ARC
  5
12A
330
D5
100
AcDbEntity
  8
AM_4
100
AcDbCircle
 10
0.0000000000000001
 20
-1.00875
 30
0.0
 40
0.1706000000000004
100
AcDbArc
 50
34.28559723097742
 51
145.7144027690226
  0
LINE
  5
12B
330
D5
100
AcDbEntity
  8
AM_4
100
AcDbLine
 10
-1.375
 20
-1.21
 30
0.0
 11
1.375
 21
-1.21
 31
0.0
  0
LWPOLYLINE
  5
12C
330
D5
100
AcDbEntity
  8
AM_4
100
AcDbPolyline
 90
        8
 70
     0
 43
0.0
 10
-0.140956531234315
 20
-1.104852113932991
 10
-0.1550236006542176
 20
-1.079927765606241
 10
-0.1647619462312251
 20
-1.052997723942581
 10
-0.1698268758705891
 20
-1.024788397120287
 10
-0.1701320875021885
 20
-0.9961233297284016
 10
-0.1656304246224445
 20
-0.9679440509671501
 10
-0.1565320574342682
 20
-0.9409114048244293
 10
-0.1409565312343151
 20
-0.912647886067009
  0
LWPOLYLINE
  5
12D
330
D5
100
AcDbEntity
  8
AM_4
100
AcDbPolyline
 90
       13
 70
     0
 43
0.0
 10
-0.140956531234315
 20
-0.912647886067009
 10
-0.1193111365062967
 20
-0.8839477682814347
 10
-0.0973863583270529
 20
-0.8640844859594541
 10
-0.0714611814467686
 20
-0.8479261326510275
 10
-0.0454125331894831
 20
-0.8375776641129394
 10
-0.0170336505890691
 20
-0.8318295275778372
 10
0.0094628410523291
 20
-0.8311904592689641
 10
0.0364690196704343
 20
-0.8351795278319617
 10
0.0612342776133331
 20
-0.8432340852136031
 10
0.0849844789291986
 20
-0.8555245989963595
 10
0.1065103674510338
 20
-0.8715216703469718
 10
0.1257076656172618
 20
-0.8912295035498186
 10
0.1409565312343151
 20
-0.9126478860670088
  0
LWPOLYLINE
  5
12E
330
D5
100
AcDbEntity
  8
AM_4
100
AcDbPolyline
 90
        8
 70
     0
 43
0.0
 10
0.140956531234315
 20
-0.912647886067009
 10
0.1550236006542176
 20
-0.9375722343937589
 10
0.1647619462312251
 20
-0.9645022760574186
 10
0.1698268758705891
 20
-0.9927116028797128
 10
0.1701320875021885
 20
-1.021376670271598
 10
0.1656304246224445
 20
-1.04955594903285
 10
0.1565320574342682
 20
-1.07658859517557
 10
0.1409565312343151
 20
-1.104852113932991
  0
LWPOLYLINE
  5
12F
330
D5
100
AcDbEntity
  8
AM_4
100
AcDbPolyline
 90
       13
 70
     0
 43
0.0
 10
0.140956531234315
 20
-1.104852113932991
 10
0.1193111365062983
 20
-1.133552231718563
 10
0.0973863583270551
 20
-1.153415514040544
 10
0.0714611814467708
 20
-1.169573867348971
 10
0.0454125331894852
 20
-1.179922335887059
 10
0.0170336505890712
 20
-1.185670472422162
 10
-0.009462841052327
 20
-1.186309540731036
 10
-0.0364690196704323
 20
-1.182320472168038
 10
-0.0612342776133312
 20
-1.174265914786397
 10
-0.0849844789291968
 20
-1.161975401003641
 10
-0.1065103674510323
 20
-1.14597832965303
 10
-0.1257076656172604
 20
-1.126270496450183
 10
-0.140956531234315
 20
-1.104852113932991
  0
LINE
  5
130
330
D5
100
AcDbEntity
  8
AM_4
100
AcDbLine
 10
-1.10195125747831
 20
-0.6950000000000001
 30
0.0
 11
1.10195125747831
 21
-0.6950000000000001
 31
0.0
  0
LINE
  5
131
330
D5
100
AcDbEntity
  8
AM_4
100
AcDbLine
 10
1.375
 20
-1.21
 30
0.0
 11
1.375
 21
-0.7350802926826537
 31
0.0
  0
LINE
  5
132
330
D5
100
AcDbEntity
  8
AM_4
100
AcDbLine
 10
-1.375
 20
-0.7350802926826537
 30
0.0
 11
-1.375
 21
-1.21
 31
0.0
  0
ARC
  5
134
330
D5
100
AcDbEntity
  8
AM_5
100
AcDbCircle
 10
0.0
 20
-1.00875
 30
0.0
 40
0.1875
100
AcDbArc
 50
75.0
 51
15.00000000000002
  0
ENDBLK
  5
D8
330
D5
100
AcDbEntity
  8
0
100
AcDbBlockEnd
  0
BLOCK
  5
137
330
135
100
AcDbEntity
  8
0
100
AcDbBlockBegin
  2
4_130321H_0_in_130321_4
 70
     2
 10
0.0
 20
0.0
 30
0.0
  3
4_130321H_0_in_130321_4
  1

  0
ATTDEF
  5
139
330
135
100
AcDbEntity
  8
AM_6
100
AcDbText
 10
9.059999999999999
 20
1.2375
 30
0.0
 40
0.5
  1
P2B-SXVB -I-Housing
100
AcDbAttributeDefinition
  3

  2
NN
 70
     8
280
     0
  0
ATTDEF
  5
13A
330
135
100
AcDbEntity
  8
AM_6
100
AcDbText
 10
9.059999999999999
 20
0.7375
 30
0.0
 40
0.5
  1
Eccentric Collar Pillow Block Bearings -(Intermediate Duty) -Low Backing Height
100
AcDbAttributeDefinition
  3

  2
NT
 70
     8
280
     0
  0
ATTDEF
  5
13B
330
135
100
AcDbEntity
  8
AM_6
100
AcDbText
 10
9.059999999999999
 20
0.2375
 30
0.0
 40
0.5
  1
130321H
100
AcDbAttributeDefinition
  3

  2
NB
 70
     8
280
     0
  0
ATTDEF
  5
13C
330
135
100
AcDbEntity
  8
AM_6
100
AcDbText
 10
9.059999999999999
 20
-0.2625
 30
0.0
 40
0.5
  1
$PN.H
100
AcDbAttributeDefinition
  3

  2
NBSYN
 70
     8
280
     0
  0
ATTDEF
  5
13D
330
135
100
AcDbEntity
  8
AM_6
100
AcDbText
 10
9.059999999999999
 20
-0.7625
 30
0.0
 40
0.5
  1
130321
100
AcDbAttributeDefinition
  3

  2
LINA
 70
     8
280
     0
  0
ATTDEF
  5
13E
330
135
100
AcDbEntity
  8
AM_6
100
AcDbText
 10
9.059999999999999
 20
-1.2625
 30
0.0
 40
0.5
  1
210
100
AcDbAttributeDefinition
  3

  2
SERIES
 70
     8
280
     0
  0
ATTDEF
  5
13F
330
135
100
AcDbEntity
  8
AM_6
100
AcDbText
 10
9.059999999999999
 20
-1.7625
 30
0.0
 40
0.5
  1
2
100
AcDbAttributeDefinition
  3

  2
SS
 70
     8
280
     0
  0
ATTDEF
  5
140
330
135
100
AcDbEntity
  8
AM_6
100
AcDbText
 10
9.059999999999999
 20
-2.2625
 30
0.0
 40
0.5
  1
130321
100
AcDbAttributeDefinition
  3

  2
PN
 70
     8
280
     0
  0
ATTDEF
  5
141
330
135
100
AcDbEntity
  8
AM_6
100
AcDbText
 10
9.059999999999999
 20
-2.7625
 30
0.0
 40
0.5
  1
P2B-SXVB-200
100
AcDbAttributeDefinition
  3

  2
DESCRIPTION
 70
     8
280
     0
  0
ATTDEF
  5
142
330
135
100
AcDbEntity
  8
AM_6
100
AcDbText
 10
9.059999999999999
 20
-3.2625
 30
0.0
 40
0.5
  1
5.6
100
AcDbAttributeDefinition
  3

  2
WEIGHT
 70
     8
280
     0
  0
ATTDEF
  5
143
330
135
100
AcDbEntity
  8
AM_6
100
AcDbText
 10
9.059999999999999
 20
-3.7625
 30
0.0
 40
0.5
  1
1.72
100
AcDbAttributeDefinition
  3

  2
A
 70
     8
280
     0
  0
ATTDEF
  5
144
330
135
100
AcDbEntity
  8
AM_6
100
AcDbText
 10
9.059999999999999
 20
-4.2625
 30
0.0
 40
0.5
  1
8.12
100
AcDbAttributeDefinition
  3

  2
B
 70
     8
280
     0
  0
ATTDEF
  5
145
330
135
100
AcDbEntity
  8
AM_6
100
AcDbText
 10
9.059999999999999
 20
-4.7625
 30
0.0
 40
0.5
  1
2.25
100
AcDbAttributeDefinition
  3

  2
C
 70
     8
280
     0
  0
ATTDEF
  5
146
330
135
100
AcDbEntity
  8
AM_6
100
AcDbText
 10
9.059999999999999
 20
-5.2625
 30
0.0
 40
0.5
  1
6.00
100
AcDbAttributeDefinition
  3

  2
DMIN
 70
     8
280
     0
  0
ATTDEF
  5
147
330
135
100
AcDbEntity
  8
AM_6
100
AcDbText
 10
9.059999999999999
 20
-5.7625
 30
0.0
 40
0.5
  1
6.68
100
AcDbAttributeDefinition
  3

  2
DMAX
 70
     8
280
     0
  0
ATTDEF
  5
148
330
135
100
AcDbEntity
  8
AM_6
100
AcDbText
 10
9.059999999999999
 20
-6.2625
 30
0.0
 40
0.5
  1
5/8
100
AcDbAttributeDefinition
  3

  2
F
 70
     8
280
     0
  0
ATTDEF
  5
149
330
135
100
AcDbEntity
  8
AM_6
100
AcDbText
 10
9.059999999999999
 20
-6.7625
 30
0.0
 40
0.5
  1
1.02
100
AcDbAttributeDefinition
  3

  2
G
 70
     8
280
     0
  0
ATTDEF
  5
14A
330
135
100
AcDbEntity
  8
AM_6
100
AcDbText
 10
9.059999999999999
 20
-7.2625
 30
0.0
 40
0.5
  1
0.68
100
AcDbAttributeDefinition
  3

  2
H
 70
     8
280
     0
  0
ATTDEF
  5
14B
330
135
100
AcDbEntity
  8
AM_6
100
AcDbText
 10
9.059999999999999
 20
-7.7625
 30
0.0
 40
0.5
  1
4.47
100
AcDbAttributeDefinition
  3

  2
J
 70
     8
280
     0
  0
ATTDEF
  5
14C
330
135
100
AcDbEntity
  8
AM_6
100
AcDbText
 10
9.059999999999999
 20
-8.2625
 30
0.0
 40
0.5
  1
2.75
100
AcDbAttributeDefinition
  3

  2
L
 70
     8
280
     0
  0
ATTDEF
  5
14D
330
135
100
AcDbEntity
  8
AM_6
100
AcDbText
 10
9.059999999999999
 20
-8.7625
 30
0.0
 40
0.5
  1
2.19
100
AcDbAttributeDefinition
  3

  2
M
 70
     8
280
     0
  0
ATTDEF
  5
14E
330
135
100
AcDbEntity
  8
AM_6
100
AcDbText
 10
9.059999999999999
 20
-9.2625
 30
0.0
 40
0.5
  1
0.43
100
AcDbAttributeDefinition
  3

  2
R
 70
     8
280
     0
  0
ATTDEF
  5
14F
330
135
100
AcDbEntity
  8
AM_6
100
AcDbText
 10
9.059999999999999
 20
-9.7625
 30
0.0
 40
0.5
  1
1.29
100
AcDbAttributeDefinition
  3

  2
S
 70
     8
280
     0
  0
ATTDEF
  5
150
330
135
100
AcDbEntity
  8
AM_6
100
AcDbText
 10
9.059999999999999
 20
-10.2625
 30
0.0
 40
0.5
  1
3.69
100
AcDbAttributeDefinition
  3

  2
U
 70
     8
280
     0
  0
ATTDEF
  5
151
330
135
100
AcDbEntity
  8
AM_6
100
AcDbText
 10
9.059999999999999
 20
-10.7625
 30
0.0
 40
0.5
  1
7.38
100
AcDbAttributeDefinition
  3

  2
V
 70
     8
280
     0
  0
ATTDEF
  5
152
330
135
100
AcDbEntity
  8
AM_6
100
AcDbText
 10
9.059999999999999
 20
-11.2625
 30
0.0
 40
0.5
  1
0.81
100
AcDbAttributeDefinition
  3

  2
W
 70
     8
280
     0
  0
ATTDEF
  5
153
330
135
100
AcDbEntity
  8
AM_6
100
AcDbText
 10
9.059999999999999
 20
-11.7625
 30
0.0
 40
0.5
  1
0.12
100
AcDbAttributeDefinition
  3

  2
X
 70
     8
280
     0
  0
ATTDEF
  5
154
330
135
100
AcDbEntity
  8
AM_6
100
AcDbText
 10
9.059999999999999
 20
-12.2625
 30
0.0
 40
0.5
  1
4450
100
AcDbAttributeDefinition
  3

  2
CAPS
 70
     8
280
     0
  0
ATTDEF
  5
155
330
135
100
AcDbEntity
  8
AM_6
100
AcDbText
 10
9.059999999999999
 20
-12.7625
 30
0.0
 40
0.5
  1
7891
100
AcDbAttributeDefinition
  3

  2
CAPD
 70
     8
280
     0
  0
ATTDEF
  5
156
330
135
100
AcDbEntity
  8
AM_6
100
AcDbText
 10
9.059999999999999
 20
-13.2625
 30
0.0
 40
0.5
  1
baldor
100
AcDbAttributeDefinition
  3

  2
COMPANY
 70
     8
280
     0
  0
LINE
  5
157
330
135
100
AcDbEntity
  8
AM_9
100
AcDbLine
 10
-1.87165
 20
-1.007142857142857
 30
0.0
 11
-1.87165
 21
-0.5625000000000001
 31
0.0
  0
LINE
  5
158
330
135
100
AcDbEntity
  8
AM_9
100
AcDbLine
 10
-1.80365
 20
-0.9074060606661873
 30
0.0
 11
-1.80365
 21
-0.5625000000000001
 31
0.0
  0
LINE
  5
159
330
135
100
AcDbEntity
  8
AM_9
100
AcDbLine
 10
1.87165
 20
-1.007142855546305
 30
0.0
 11
1.87165
 21
-0.5625000000000001
 31
0.0
  0
LINE
  5
15A
330
135
100
AcDbEntity
  8
AM_9
100
AcDbLine
 10
1.80365
 20
-0.9074060606661885
 30
0.0
 11
1.80365
 21
-0.5625000000000001
 31
0.0
  0
LINE
  5
15B
330
135
100
AcDbEntity
  8
AM_9
100
AcDbLine
 10
1.80365
 20
0.5624999999999998
 30
0.0
 11
1.80365
 21
0.9074060606661877
 31
0.0
  0
LINE
  5
15C
330
135
100
AcDbEntity
  8
AM_9
100
AcDbLine
 10
-1.87165
 20
-0.2249999999999998
 30
0.0
 11
-1.87165
 21
1.00714285873941
 31
0.0
  0
LINE
  5
15D
330
135
100
AcDbEntity
  8
AM_9
100
AcDbLine
 10
-1.80365
 20
0.5624999999999998
 30
0.0
 11
-1.80365
 21
0.9074060606661873
 31
0.0
  0
LINE
  5
15E
330
135
100
AcDbEntity
  8
AM_9
100
AcDbLine
 10
-3.544
 20
-0.5625000000000001
 30
0.0
 11
-3.544
 21
-0.2719999999999995
 31
0.0
  0
LINE
  5
15F
330
135
100
AcDbEntity
  8
AM_9
100
AcDbLine
 10
-3.68
 20
-0.5625000000000001
 30
0.0
 11
-3.68
 21
0.5624999999999999
 31
0.0
  0
LINE
  5
160
330
135
100
AcDbEntity
  8
AM_9
100
AcDbLine
 10
-2.545523698359427
 20
-0.5625000000000001
 30
0.0
 11
-2.545523698359427
 21
0.5624999999999999
 31
0.0
  0
LINE
  5
161
330
135
100
AcDbEntity
  8
AM_9
100
AcDbLine
 10
-3.544
 20
0.2720000000000001
 30
0.0
 11
-3.544
 21
0.5624999999999999
 31
0.0
  0
LINE
  5
162
330
135
100
AcDbEntity
  8
AM_9
100
AcDbLine
 10
3.543999999999999
 20
-0.5625000000000001
 30
0.0
 11
3.543999999999999
 21
-0.2720000000000008
 31
0.0
  0
LINE
  5
163
330
135
100
AcDbEntity
  8
AM_9
100
AcDbLine
 10
3.68
 20
-0.5625000000000001
 30
0.0
 11
3.68
 21
0.5624999999999999
 31
0.0
  0
LINE
  5
164
330
135
100
AcDbEntity
  8
AM_9
100
AcDbLine
 10
2.545523698359427
 20
-0.5625000000000001
 30
0.0
 11
2.545523698359427
 21
0.5624999999999999
 31
0.0
  0
LINE
  5
165
330
135
100
AcDbEntity
  8
AM_9
100
AcDbLine
 10
3.543999999999999
 20
0.2720000000000005
 30
0.0
 11
3.543999999999999
 21
0.5624999999999999
 31
0.0
  0
LINE
  5
166
330
135
100
AcDbEntity
  8
AM_9
100
AcDbLine
 10
-2.369526747689714
 20
-0.5625000000000001
 30
0.0
 11
-2.369526747689714
 21
0.5624999999999999
 31
0.0
  0
LINE
  5
167
330
135
100
AcDbEntity
  8
AM_9
100
AcDbLine
 10
2.369526747689713
 20
-0.5625000000000001
 30
0.0
 11
2.369526747689713
 21
0.5624999999999999
 31
0.0
  0
LINE
  5
168
330
135
100
AcDbEntity
  8
AM_9
100
AcDbLine
 10
1.179029533416463
 20
-0.5625000000000001
 30
0.0
 11
1.179029533416463
 21
0.5624999999999999
 31
0.0
  0
LINE
  5
169
330
135
100
AcDbEntity
  8
AM_9
100
AcDbLine
 10
-1.179029516516867
 20
-0.5625000000000001
 30
0.0
 11
-1.179029516516867
 21
0.5624999999999999
 31
0.0
  0
LINE
  5
16A
330
135
100
AcDbEntity
  8
AM_9
100
AcDbLine
 10
-1.457555575319278
 20
-0.5625000000000001
 30
0.0
 11
-1.457555575319278
 21
0.5624999999999999
 31
0.0
  0
LINE
  5
16B
330
135
100
AcDbEntity
  8
AM_9
100
AcDbLine
 10
1.457555575319278
 20
-0.5625000000000001
 30
0.0
 11
1.457555575319278
 21
0.5624999999999999
 31
0.0
  0
LINE
  5
16C
330
135
100
AcDbEntity
  8
AM_9
100
AcDbLine
 10
3.68
 20
0.5624999999999999
 30
0.0
 11
-3.68
 21
0.5624999999999999
 31
0.0
  0
LINE
  5
16D
330
135
100
AcDbEntity
  8
AM_9
100
AcDbLine
 10
3.68
 20
-0.5625000000000001
 30
0.0
 11
-3.68
 21
-0.5625000000000001
 31
0.0
  0
LINE
  5
16E
330
135
100
AcDbEntity
  8
AM_9
100
AcDbLine
 10
1.582110527902524
 20
-0.2249999999999997
 30
0.0
 11
1.582110527902524
 21
0.7524736147757256
 31
0.0
  0
LINE
  5
16F
330
135
100
AcDbEntity
  8
AM_9
100
AcDbLine
 10
1.87165
 20
-0.2249999999999998
 30
0.0
 11
1.87165
 21
1.007142857142858
 31
0.0
  0
LINE
  5
170
330
135
100
AcDbEntity
  8
AM_9
100
AcDbLine
 10
1.87165
 20
-0.2249999999999998
 30
0.0
 11
1.462444433987151
 21
-0.2249999999999997
 31
0.0
  0
LINE
  5
171
330
135
100
AcDbEntity
  8
AM_9
100
AcDbLine
 10
-1.462444433987151
 20
-0.2249999999999997
 30
0.0
 11
-1.87165
 21
-0.2249999999999998
 31
0.0
  0
LINE
  5
172
330
135
100
AcDbEntity
  8
AM_9
100
AcDbLine
 10
-1.582110527902523
 20
-0.2249999999999997
 30
0.0
 11
-1.582110527902523
 21
0.7524736147757254
 31
0.0
  0
LINE
  5
173
330
135
100
AcDbEntity
  8
AM_9
100
AcDbLine
 10
1.375
 20
-0.9000000000000002
 30
0.0
 11
-1.375
 21
-0.8999999999999998
 31
0.0
  0
LINE
  5
174
330
135
100
AcDbEntity
  8
AM_9
100
AcDbLine
 10
-1.462444433987151
 20
-0.2249999999999997
 30
0.0
 11
-1.462444433987151
 21
0.7524736147757254
 31
0.0
  0
LINE
  5
175
330
135
100
AcDbEntity
  8
AM_9
100
AcDbLine
 10
1.462444433987151
 20
0.7524736147757254
 30
0.0
 11
1.462444433987151
 21
-0.2249999999999997
 31
0.0
  0
LINE
  5
176
330
135
100
AcDbEntity
  8
AM_9
100
AcDbLine
 10
1.77165
 20
-0.9002326631924253
 30
0.0
 11
1.77165
 21
-0.2249999999999998
 31
0.0
  0
LINE
  5
177
330
135
100
AcDbEntity
  8
AM_9
100
AcDbLine
 10
-1.77165
 20
-0.2249999999999998
 30
0.0
 11
-1.77165
 21
-0.9002340088868569
 31
0.0
  0
LINE
  5
178
330
135
100
AcDbEntity
  8
AM_7
100
AcDbLine
 10
3.626999999999999
 20
-0.8100000000000003
 30
0.0
 11
3.753
 21
-0.8100000000000003
 31
0.0
  0
LINE
  5
179
330
135
100
AcDbEntity
  8
AM_7
100
AcDbLine
 10
3.69
 20
-0.8730000000000002
 30
0.0
 11
3.69
 21
-0.7470000000000003
 31
0.0
  0
LINE
  5
17A
330
135
100
AcDbEntity
  8
AM_7
100
AcDbLine
 10
-3.753
 20
-0.8100000000000003
 30
0.0
 11
-3.626999999999999
 21
-0.8100000000000003
 31
0.0
  0
LINE
  5
17B
330
135
100
AcDbEntity
  8
AM_7
100
AcDbLine
 10
-3.69
 20
-0.8730000000000002
 30
0.0
 11
-3.69
 21
-0.7470000000000003
 31
0.0
  0
LINE
  5
17C
330
135
100
AcDbEntity
  8
AM_7
100
AcDbLine
 10
0.0
 20
1.2375
 30
0.0
 11
0.0
 21
-1.37625
 31
0.0
  0
LINE
  5
17D
330
135
100
AcDbEntity
  8
AM_7
100
AcDbLine
 10
2.643
 20
-0.0000000000000001
 30
0.0
 11
3.697
 21
-0.0000000000000001
 31
0.0
  0
LINE
  5
17E
330
135
100
AcDbEntity
  8
AM_7
100
AcDbLine
 10
3.34
 20
-0.357
 30
0.0
 11
3.34
 21
0.3569999999999998
 31
0.0
  0
LINE
  5
17F
330
135
100
AcDbEntity
  8
AM_7
100
AcDbLine
 10
-3.697
 20
0.0000000000000004
 30
0.0
 11
-2.643
 21
0.0000000000000003
 31
0.0
  0
LINE
  5
180
330
135
100
AcDbEntity
  8
AM_7
100
AcDbLine
 10
-3.0
 20
-0.3569999999999995
 30
0.0
 11
-3.0
 21
0.3570000000000002
 31
0.0
  0
LINE
  5
181
330
135
100
AcDbEntity
  8
AM_7
100
AcDbLine
 10
3.0
 20
-0.357
 30
0.0
 11
3.0
 21
0.3569999999999998
 31
0.0
  0
LINE
  5
182
330
135
100
AcDbEntity
  8
AM_7
100
AcDbLine
 10
-3.34
 20
-0.3569999999999995
 30
0.0
 11
-3.34
 21
0.3570000000000002
 31
0.0
  0
LINE
  5
183
330
135
100
AcDbEntity
  8
AM_4
100
AcDbLine
 10
4.06
 20
0.8999999999999996
 30
0.0
 11
3.835
 21
1.125
 31
0.0
  0
LINE
  5
184
330
135
100
AcDbEntity
  8
AM_4
100
AcDbLine
 10
-4.06
 20
-0.8999999999999997
 30
0.0
 11
-3.835
 21
-1.125
 31
0.0
  0
LINE
  5
185
330
135
100
AcDbEntity
  8
AM_4
100
AcDbLine
 10
-4.06
 20
-0.8999999999999997
 30
0.0
 11
-4.06
 21
0.8999999999999998
 31
0.0
  0
LINE
  5
186
330
135
100
AcDbEntity
  8
AM_4
100
AcDbLine
 10
-3.835
 20
1.125
 30
0.0
 11
-4.06
 21
0.8999999999999996
 31
0.0
  0
LINE
  5
187
330
135
100
AcDbEntity
  8
AM_4
100
AcDbLine
 10
3.835
 20
-1.125
 30
0.0
 11
4.06
 21
-0.9000000000000007
 31
0.0
  0
LINE
  5
188
330
135
100
AcDbEntity
  8
AM_4
100
AcDbLine
 10
3.923999999999999
 20
0.7954851474366106
 30
0.0
 11
3.923999999999999
 21
1.036
 31
0.0
  0
LINE
  5
189
330
135
100
AcDbEntity
  8
AM_4
100
AcDbLine
 10
4.06
 20
-0.9000000000000007
 30
0.0
 11
4.06
 21
0.8999999999999996
 31
0.0
  0
LINE
  5
18A
330
135
100
AcDbEntity
  8
AM_4
100
AcDbLine
 10
3.923999999999999
 20
-1.036
 30
0.0
 11
3.923999999999999
 21
-0.7954851474366107
 31
0.0
  0
LINE
  5
18B
330
135
100
AcDbEntity
  8
AM_4
100
AcDbLine
 10
-3.923999999999999
 20
0.7954851474366098
 30
0.0
 11
-3.923999999999999
 21
1.036
 31
0.0
  0
LINE
  5
18C
330
135
100
AcDbEntity
  8
AM_4
100
AcDbLine
 10
-3.923999999999999
 20
-1.035999999999999
 30
0.0
 11
-3.923999999999999
 21
-0.795485147436611
 31
0.0
  0
LINE
  5
18D
330
135
100
AcDbEntity
  8
AM_4
100
AcDbLine
 10
-3.170683387528372
 20
1.03125
 30
0.0
 11
-3.170683387528372
 21
1.125
 31
0.0
  0
LINE
  5
18E
330
135
100
AcDbEntity
  8
AM_4
100
AcDbLine
 10
-3.170683387528372
 20
-1.125
 30
0.0
 11
-3.170683387528372
 21
-1.03125
 31
0.0
  0
LINE
  5
18F
330
135
100
AcDbEntity
  8
AM_4
100
AcDbLine
 10
3.17068338752837
 20
-1.125
 30
0.0
 11
3.17068338752837
 21
-1.03125
 31
0.0
  0
LINE
  5
190
330
135
100
AcDbEntity
  8
AM_4
100
AcDbLine
 10
3.17068338752837
 20
1.03125
 30
0.0
 11
3.17068338752837
 21
1.125
 31
0.0
  0
CIRCLE
  5
191
330
135
100
AcDbEntity
  8
AM_4
100
AcDbCircle
 10
3.69
 20
-0.8100000000000003
 30
0.0
 40
0.06
  0
ARC
  5
192
330
135
100
AcDbEntity
  8
AM_4
100
AcDbCircle
 10
3.0
 20
-0.0000000000000001
 30
0.0
 40
0.3400000000000001
100
AcDbArc
 50
90.0
 51
270.0
  0
LINE
  5
193
330
135
100
AcDbEntity
  8
AM_4
100
AcDbLine
 10
3.0
 20
0.34
 30
0.0
 11
3.339999999999999
 21
0.34
 31
0.0
  0
ARC
  5
194
330
135
100
AcDbEntity
  8
AM_4
100
AcDbCircle
 10
3.34
 20
0.0
 30
0.0
 40
0.3400000000000002
100
AcDbArc
 50
270.0
 51
90.0
  0
LINE
  5
195
330
135
100
AcDbEntity
  8
AM_4
100
AcDbLine
 10
3.339999999999999
 20
-0.3400000000000001
 30
0.0
 11
3.0
 21
-0.3400000000000001
 31
0.0
  0
ARC
  5
196
330
135
100
AcDbEntity
  8
AM_4
100
AcDbCircle
 10
3.435
 20
0.4062499999999998
 30
0.0
 40
0.625
100
AcDbArc
 50
0.0
 51
90.0
  0
LINE
  5
197
330
135
100
AcDbEntity
  8
AM_4
100
AcDbLine
 10
3.435
 20
1.03125
 30
0.0
 11
3.0
 21
1.03125
 31
0.0
  0
LINE
  5
198
330
135
100
AcDbEntity
  8
AM_4
100
AcDbLine
 10
3.000000000000001
 20
-1.03125
 30
0.0
 11
3.435
 21
-1.03125
 31
0.0
  0
ARC
  5
199
330
135
100
AcDbEntity
  8
AM_4
100
AcDbCircle
 10
3.435
 20
-0.4062500000000013
 30
0.0
 40
0.6249999999999987
100
AcDbArc
 50
270.0
 51
0.0
  0
CIRCLE
  5
19A
330
135
100
AcDbEntity
  8
AM_4
100
AcDbCircle
 10
-3.69
 20
-0.8100000000000003
 30
0.0
 40
0.06
  0
ARC
  5
19B
330
135
100
AcDbEntity
  8
AM_4
100
AcDbCircle
 10
-3.34
 20
0.0000000000000002
 30
0.0
 40
0.3400000000000002
100
AcDbArc
 50
90.0
 51
270.0
  0
LINE
  5
19C
330
135
100
AcDbEntity
  8
AM_4
100
AcDbLine
 10
-3.339999999999999
 20
0.3400000000000004
 30
0.0
 11
-3.0
 21
0.3400000000000004
 31
0.0
  0
ARC
  5
19D
330
135
100
AcDbEntity
  8
AM_4
100
AcDbCircle
 10
-3.0
 20
0.0000000000000004
 30
0.0
 40
0.3400000000000002
100
AcDbArc
 50
270.0
 51
90.0
  0
LINE
  5
19E
330
135
100
AcDbEntity
  8
AM_4
100
AcDbLine
 10
-3.0
 20
-0.3399999999999998
 30
0.0
 11
-3.339999999999999
 21
-0.3399999999999997
 31
0.0
  0
LINE
  5
19F
330
135
100
AcDbEntity
  8
AM_4
100
AcDbLine
 10
-3.000000000000001
 20
1.03125
 30
0.0
 11
-3.435
 21
1.03125
 31
0.0
  0
ARC
  5
1A0
330
135
100
AcDbEntity
  8
AM_4
100
AcDbCircle
 10
-3.434999999999999
 20
0.4062500000000002
 30
0.0
 40
0.6249999999999996
100
AcDbArc
 50
90.0
 51
180.0
  0
ARC
  5
1A1
330
135
100
AcDbEntity
  8
AM_4
100
AcDbCircle
 10
-3.434999999999999
 20
-0.4062499999999997
 30
0.0
 40
0.6250000000000009
100
AcDbArc
 50
180.0
 51
270.0
  0
LINE
  5
1A2
330
135
100
AcDbEntity
  8
AM_4
100
AcDbLine
 10
-3.434999999999999
 20
-1.03125
 30
0.0
 11
-3.000000000000001
 21
-1.03125
 31
0.0
  0
LINE
  5
1A3
330
135
100
AcDbEntity
  8
AM_4
100
AcDbLine
 10
-3.043319232005095
 20
1.03125
 30
0.0
 11
-3.043319232005095
 21
1.125
 31
0.0
  0
LINE
  5
1A4
330
135
100
AcDbEntity
  8
AM_4
100
AcDbLine
 10
-3.000000000000001
 20
1.03125
 30
0.0
 11
-3.000000000000001
 21
0.8125
 31
0.0
  0
LWPOLYLINE
  5
1A5
330
135
100
AcDbEntity
  8
AM_4
100
AcDbPolyline
 90
       37
 70
     0
 43
0.0
 10
-3.000000000000001
 20
-0.8124999999999996
 10
-2.929185959017528
 20
-0.8094081921995429
 10
-2.85891085564562
 20
-0.8001562993224187
 10
-2.789709525854203
 20
-0.7848147338598678
 10
-2.722108633547895
 20
-0.7635002543885504
 10
-2.656622662335683
 20
-0.736375076967278
 10
-2.593750000000001
 20
-0.7036456405748565
 10
-2.533969145464776
 20
-0.665561035984806
 10
-2.477735067129688
 20
-0.62241111003417
 10
-2.425475740285931
 20
-0.5745242597140703
 10
-2.377588889965832
 20
-0.5222649328703137
 10
-2.334438964015195
 20
-0.4660308545352256
 10
-2.296354359425144
 20
-0.4062500000000008
 10
-2.263624923032723
 20
-0.3433773376643193
 10
-2.23649974561145
 20
-0.2778913664521069
 10
-2.215185266140133
 20
-0.2102904741457993
 10
-2.199843700677581
 20
-0.1410891443543822
 10
-2.190591807800457
 20
-0.0708140409824737
 10
-2.1875
 20
-0.0000000000000015
 10
-2.190591807800457
 20
0.0708140409824707
 10
-2.199843700677581
 20
0.1410891443543792
 10
-2.215185266140132
 20
0.2102904741457964
 10
-2.236499745611449
 20
0.2778913664521041
 10
-2.263624923032721
 20
0.3433773376643165
 10
-2.296354359425143
 20
0.4062499999999982
 10
-2.334438964015193
 20
0.4660308545352232
 10
-2.377588889965829
 20
0.5222649328703115
 10
-2.425475740285929
 20
0.5745242597140683
 10
-2.477735067129685
 20
0.6224111100341683
 10
-2.533969145464773
 20
0.6655610359848045
 10
-2.593749999999998
 20
0.7036456405748552
 10
-2.65662266233568
 20
0.7363750769672771
 10
-2.722108633547892
 20
0.7635002543885497
 10
-2.7897095258542
 20
0.7848147338598674
 10
-2.858910855645616
 20
0.8001562993224187
 10
-2.929185959017525
 20
0.8094081921995431
 10
-2.999999999999997
 20
0.8125000000000001
  0
LINE
  5
1A6
330
135
100
AcDbEntity
  8
AM_4
100
AcDbLine
 10
-3.0
 20
-0.8124999999999998
 30
0.0
 11
-3.000000000000001
 21
-1.03125
 31
0.0
  0
LINE
  5
1A7
330
135
100
AcDbEntity
  8
AM_4
100
AcDbLine
 10
-3.043319232005095
 20
-1.125
 30
0.0
 11
-3.043319232005095
 21
-1.03125
 31
0.0
  0
LINE
  5
1A8
330
135
100
AcDbEntity
  8
AM_4
100
AcDbLine
 10
3.043319232005094
 20
-1.125
 30
0.0
 11
3.043319232005094
 21
-1.03125
 31
0.0
  0
LINE
  5
1A9
330
135
100
AcDbEntity
  8
AM_4
100
AcDbLine
 10
3.000000000000001
 20
-1.03125
 30
0.0
 11
3.0
 21
-0.8125000000000001
 31
0.0
  0
LWPOLYLINE
  5
1AA
330
135
100
AcDbEntity
  8
AM_4
100
AcDbPolyline
 90
       37
 70
     0
 43
0.0
 10
3.0
 20
0.8125
 10
2.929185959017528
 20
0.8094081921995433
 10
2.85891085564562
 20
0.800156299322419
 10
2.789709525854202
 20
0.784814733859868
 10
2.722108633547895
 20
0.7635002543885505
 10
2.656622662335682
 20
0.7363750769672781
 10
2.593750000000001
 20
0.7036456405748565
 10
2.533969145464775
 20
0.665561035984806
 10
2.477735067129688
 20
0.6224111100341699
 10
2.425475740285931
 20
0.5745242597140703
 10
2.377588889965831
 20
0.5222649328703137
 10
2.334438964015195
 20
0.4660308545352256
 10
2.296354359425144
 20
0.4062500000000007
 10
2.263624923032723
 20
0.343377337664319
 10
2.23649974561145
 20
0.2778913664521068
 10
2.215185266140133
 20
0.2102904741457991
 10
2.199843700677582
 20
0.141089144354382
 10
2.190591807800457
 20
0.0708140409824735
 10
2.1875
 20
0.0000000000000013
 10
2.190591807800457
 20
-0.0708140409824709
 10
2.199843700677581
 20
-0.1410891443543795
 10
2.215185266140132
 20
-0.2102904741457967
 10
2.236499745611449
 20
-0.2778913664521044
 10
2.263624923032721
 20
-0.3433773376643168
 10
2.296354359425143
 20
-0.4062499999999985
 10
2.334438964015193
 20
-0.4660308545352235
 10
2.37758888996583
 20
-0.5222649328703118
 10
2.425475740285929
 20
-0.5745242597140685
 10
2.477735067129686
 20
-0.6224111100341686
 10
2.533969145464774
 20
-0.6655610359848049
 10
2.593749999999999
 20
-0.7036456405748555
 10
2.65662266233568
 20
-0.7363750769672773
 10
2.722108633547893
 20
-0.7635002543885498
 10
2.7897095258542
 20
-0.7848147338598676
 10
2.858910855645617
 20
-0.8001562993224186
 10
2.929185959017525
 20
-0.8094081921995431
 10
2.999999999999998
 20
-0.8125
  0
LINE
  5
1AB
330
135
100
AcDbEntity
  8
AM_4
100
AcDbLine
 10
3.0
 20
0.8124999999999998
 30
0.0
 11
3.0
 21
1.03125
 31
0.0
  0
LINE
  5
1AC
330
135
100
AcDbEntity
  8
AM_4
100
AcDbLine
 10
3.043319232005094
 20
1.03125
 30
0.0
 11
3.043319232005094
 21
1.125
 31
0.0
  0
LINE
  5
1AD
330
135
100
AcDbEntity
  8
AM_4
100
AcDbLine
 10
1.582110527902523
 20
0.7524736147757255
 30
0.0
 11
1.582110527902523
 21
0.8999999999999999
 31
0.0
  0
LWPOLYLINE
  5
1AE
330
135
100
AcDbEntity
  8
AM_4
100
AcDbPolyline
 90
        7
 70
     0
 43
0.0
 10
1.764507142857143
 20
0.9000000000000001
 10
1.781649557055066
 20
0.9013802480969305
 10
1.797344320078686
 20
0.9051560362842008
 10
1.811615434245696
 20
0.9109118812609412
 10
1.824365794944569
 20
0.9182804150932984
 10
1.838546118541018
 20
0.9296972509639578
 10
1.850198652873302
 20
0.9428267864615316
  0
LWPOLYLINE
  5
1AF
330
135
100
AcDbEntity
  8
AM_4
100
AcDbPolyline
 90
        3
 70
     0
 43
0.0
 10
1.87165
 20
0.9008905013192609
 10
1.864527806683416
 20
0.9251010127510367
 10
1.850198652873301
 20
0.9428267864615313
  0
LINE
  5
1B0
330
135
100
AcDbEntity
  8
AM_4
100
AcDbLine
 10
1.764507142857143
 20
0.9000000000000001
 30
0.0
 11
-1.764507142857143
 21
0.8999999999999999
 31
0.0
  0
LWPOLYLINE
  5
1B1
330
135
100
AcDbEntity
  8
AM_4
100
AcDbPolyline
 90
        7
 70
     0
 43
0.0
 10
-1.850198652873302
 20
0.9428267864615315
 10
-1.838570904005032
 20
0.9297209537733125
 10
-1.824365794944569
 20
0.9182804150932984
 10
-1.811755906101662
 20
0.9109807741340219
 10
-1.797606702973463
 20
0.9052408897583125
 10
-1.781840826300194
 20
0.9014114273074918
 10
-1.764507142857143
 20
0.8999999999999999
  0
LINE
  5
1B2
330
135
100
AcDbEntity
  8
AM_4
100
AcDbLine
 10
-1.582110527902522
 20
0.7524736147757252
 30
0.0
 11
-1.582110527902522
 21
0.8999999999999999
 31
0.0
  0
LWPOLYLINE
  5
1B3
330
135
100
AcDbEntity
  8
AM_4
100
AcDbPolyline
 90
        8
 70
     0
 43
0.0
 10
-1.87165
 20
0.9008905013192609
 10
-1.864527806683416
 20
0.8766799898874851
 10
-1.843215430925299
 20
0.8526537350664116
 10
-1.807875072773935
 20
0.828994591162678
 10
-1.758775693693946
 20
0.8058826185471736
 10
-1.696290969607146
 20
0.7834937132868928
 10
-1.620896446993146
 20
0.7619982684696571
 10
-1.582110527902522
 20
0.7524736147757254
  0
LINE
  5
1B4
330
135
100
AcDbEntity
  8
AM_4
100
AcDbLine
 10
-1.375
 20
-0.8999999999999998
 30
0.0
 11
-1.764507142857143
 21
-0.8999999999999999
 31
0.0
  0
LINE
  5
1B5
330
135
100
AcDbEntity
  8
AM_4
100
AcDbLine
 10
1.764507142857142
 20
-0.9000000000000001
 30
0.0
 11
1.375
 21
-0.9000000000000002
 31
0.0
  0
LWPOLYLINE
  5
1B6
330
135
100
AcDbEntity
  8
AM_4
100
AcDbPolyline
 90
        3
 70
     0
 43
0.0
 10
1.764507142857142
 20
-0.9000000000000002
 10
1.769956912700412
 20
-0.9001386897221907
 10
1.771649999998892
 20
-0.9002383603778136
  0
LINE
  5
1B7
330
135
100
AcDbEntity
  8
AM_4
100
AcDbLine
 10
1.462444433987151
 20
0.7524736147757256
 30
0.0
 11
1.462444433987151
 21
0.8999999999999998
 31
0.0
  0
LINE
  5
1B8
330
135
100
AcDbEntity
  8
AM_4
100
AcDbLine
 10
-1.462444433987151
 20
0.8999999999999998
 30
0.0
 11
-1.462444433987151
 21
0.7524736147757256
 31
0.0
  0
LWPOLYLINE
  5
1B9
330
135
100
AcDbEntity
  8
AM_4
100
AcDbPolyline
 90
        3
 70
     0
 43
0.0
 10
-1.771649999999718
 20
-0.9002383603778685
 10
-1.770775445260119
 20
-0.9001835180381321
 10
-1.764507142857143
 20
-0.8999999999999999
  0
LINE
  5
1BA
330
135
100
AcDbEntity
  8
AM_4
100
AcDbLine
 10
1.871649999999999
 20
-1.007142855546304
 30
0.0
 11
1.87165
 21
-1.017857142857143
 31
0.0
  0
LWPOLYLINE
  5
1BB
330
135
100
AcDbEntity
  8
AM_4
100
AcDbPolyline
 90
       19
 70
     0
 43
0.0
 10
1.87165
 20
-1.017857142857143
 10
1.872057710918741
 20
-1.027195258151535
 10
1.873277740748692
 20
-1.036462304750028
 10
1.875300804326171
 20
-1.045587754832413
 10
1.878111504915795
 20
-1.054502158213464
 10
1.88168845138893
 20
-1.063137670900789
 10
1.886004421023096
 20
-1.071428571428571
 10
1.891026566683322
 20
-1.079311761037612
 10
1.89671666680868
 20
-1.086727243894986
 10
1.903031416301441
 20
-1.093618583698559
 10
1.909922756105013
 20
-1.099933333191319
 10
1.917338238962387
 20
-1.105623433316678
 10
1.925221428571428
 20
-1.110645578976904
 10
1.93351232909921
 20
-1.11496154861107
 10
1.942147841786535
 20
-1.118538495084205
 10
1.951062245167586
 20
-1.121349195673829
 10
1.960187695249971
 20
-1.123372259251308
 10
1.969454741848464
 20
-1.124592289081259
 10
1.978792857142857
 20
-1.125
  0
LINE
  5
1BC
330
135
100
AcDbEntity
  8
AM_4
100
AcDbLine
 10
1.978792857142857
 20
-1.125
 30
0.0
 11
3.835
 21
-1.125
 31
0.0
  0
LINE
  5
1BD
330
135
100
AcDbEntity
  8
AM_4
100
AcDbLine
 10
2.135222607301975
 20
-0.7822289573778882
 30
0.0
 11
3.000000000000001
 21
-1.125
 31
0.0
  0
LINE
  5
1BE
330
135
100
AcDbEntity
  8
AM_4
100
AcDbLine
 10
-3.000000000000001
 20
-1.125
 30
0.0
 11
-2.135222607301975
 21
-0.7822289573778884
 31
0.0
  0
LINE
  5
1BF
330
135
100
AcDbEntity
  8
AM_4
100
AcDbLine
 10
-3.835
 20
-1.125
 30
0.0
 11
-1.978792857142858
 21
-1.125
 31
0.0
  0
LWPOLYLINE
  5
1C0
330
135
100
AcDbEntity
  8
AM_4
100
AcDbPolyline
 90
       19
 70
     0
 43
0.0
 10
-1.978792857142858
 20
-1.125
 10
-1.969454741848466
 20
-1.124592289081258
 10
-1.960187695249972
 20
-1.123372259251308
 10
-1.951062245167588
 20
-1.121349195673829
 10
-1.942147841786536
 20
-1.118538495084204
 10
-1.933512329099211
 20
-1.114961548611069
 10
-1.925221428571429
 20
-1.110645578976904
 10
-1.917338238962388
 20
-1.105623433316677
 10
-1.909922756105014
 20
-1.099933333191319
 10
-1.903031416301442
 20
-1.093618583698558
 10
-1.896716666808681
 20
-1.086727243894986
 10
-1.891026566683323
 20
-1.079311761037612
 10
-1.886004421023096
 20
-1.071428571428571
 10
-1.881688451388931
 20
-1.063137670900789
 10
-1.878111504915796
 20
-1.054502158213464
 10
-1.875300804326172
 20
-1.045587754832412
 10
-1.873277740748692
 20
-1.036462304750028
 10
-1.872057710918742
 20
-1.027195258151534
 10
-1.87165
 20
-1.017857142857142
  0
LINE
  5
1C1
330
135
100
AcDbEntity
  8
AM_4
100
AcDbLine
 10
-1.87165
 20
-1.017857141260589
 30
0.0
 11
-1.87165
 21
-1.007142857142857
 31
0.0
  0
LWPOLYLINE
  5
1C2
330
135
100
AcDbEntity
  8
AM_4
100
AcDbPolyline
 90
       19
 70
     0
 43
0.0
 10
-1.771644545007354
 20
-0.9002379960406561
 10
-1.780934757610029
 20
-0.9012668668983005
 10
-1.79009994614517
 20
-0.9031015179713765
 10
-1.799070357993932
 20
-0.9057279864574258
 10
-1.807777722905663
 20
-0.9091262833453643
 10
-1.816155772575734
 20
-0.9132705455439272
 10
-1.824140744987352
 20
-0.9181292327154094
 10
-1.831671869679005
 20
-0.9236653673166805
 10
-1.838691830244373
 20
-0.9298368160206152
 10
-1.845147200544785
 20
-0.936596610376154
 10
-1.850988851314396
 20
-0.9438933042665759
 10
-1.856172324063564
 20
-0.9516713654455105
 10
-1.860658169434801
 20
-0.9598715981708644
 10
-1.864412247436205
 20
-0.9684315937201616
 10
-1.867405987267412
 20
-0.9772862053586056
 10
-1.869616604760635
 20
-0.986368044145067
 10
-1.871027275781944
 20
-0.9956079918026166
 10
-1.87162726427308
 20
-1.004935726750348
 10
-1.87165
 20
-1.007142857142856
  0
LWPOLYLINE
  5
1C3
330
135
100
AcDbEntity
  8
AM_4
100
AcDbPolyline
 90
       37
 70
     0
 43
0.0
 10
1.771644545007349
 20
-0.9002379960403895
 10
1.764519728032125
 20
-0.8773235765489207
 10
1.743965850480434
 20
-0.8545885155850523
 10
1.710139339771215
 20
-0.8322058406905248
 10
1.663297636075971
 20
-0.8103458975363139
 10
1.603797233043618
 20
-0.7891750534892178
 10
1.532090964668556
 20
-0.7688544314557402
 10
1.448724558950549
 20
-0.7495386836394826
 10
1.354332484575123
 20
-0.7313748145444943
 10
1.249633122223767
 20
-0.7145010621822321
 10
1.135423297263179
 20
-0.6990458459968231
 10
1.012572215423087
 20
-0.6851267895155532
 10
0.8820148476158043
 20
-0.6728498251628005
 10
0.7447448142430401
 20
-0.6623083880503234
 10
0.6018068231446722
 20
-0.6535827048796418
 10
0.4542887187412785
 20
-0.6467391833683959
 10
0.3033132028812354
 20
-0.6418299068475177
 10
0.150029290401747
 20
-0.6388922378756332
 10
-0.0043964355678612
 20
-0.6379485338874314
 10
-0.1587887020081576
 20
-0.6390059770400869
 10
-0.3119724905469322
 20
-0.6420565195527059
 10
-0.4627819800585045
 20
-0.6470769449547996
 10
-0.6100694192664319
 20
-0.6540290447776425
 10
-0.752713861823755
 20
-0.6628599093437898
 10
-0.889629697391543
 20
-0.6735023304416716
 10
-1.019774913789083
 20
-0.6858753128206635
 10
-1.14215902733576
 20
-0.6998846906138501
 10
-1.255850621029935
 20
-0.7154238439971318
 10
-1.359984433194735
 20
-0.7323745106304644
 10
-1.453767942641871
 20
-0.7506076857056759
 10
-1.536487400236417
 20
-0.7699846037509519
 10
-1.607513260958707
 20
-0.7903577947198649
 10
-1.666304975122055
 20
-0.8115722063274722
 10
-1.712415102282272
 20
-0.8334663840918282
 10
-1.745492716529612
 20
-0.8558737001000799
 10
-1.765286077246843
 20
-0.8786236211474974
 10
-1.771644545007354
 20
-0.900237996040656
  0
LWPOLYLINE
  5
1C4
330
135
100
AcDbEntity
  8
AM_4
100
AcDbPolyline
 90
       19
 70
     0
 43
0.0
 10
1.871649999999999
 20
-1.007142855546304
 10
1.871242288942109
 20
-0.9978047402579878
 10
1.870022258974069
 20
-0.9885376936776743
 10
1.86799919526061
 20
-0.9794122436254357
 10
1.86518849453815
 20
-0.9704978402862667
 10
1.861611547936337
 20
-0.9618623276522427
 10
1.857295578178627
 20
-0.9535714271887734
 10
1.852273432400932
 20
-0.9456882376545686
 10
1.846583332165074
 20
-0.9382727548819834
 10
1.840268582569625
 20
-0.9313814151725082
 10
1.833377242671955
 20
-0.9250666657824367
 10
1.825961759729792
 20
-0.9193765657675774
 10
1.818078570045915
 20
-0.9143544202248197
 10
1.80978766945382
 20
-0.9100384507141982
 10
1.801152156713195
 20
-0.9064615043697425
 10
1.792237753290261
 20
-0.9036508039129532
 10
1.78311230317773
 20
-0.9016277404714538
 10
1.773845256561057
 20
-0.900407710779593
 10
1.771644545003354
 20
-0.9002379960403895
  0
LINE
  5
1C5
330
135
100
AcDbEntity
  8
AM_4
100
AcDbLine
 10
-1.582110527902523
 20
0.7524736147757254
 30
0.0
 11
-1.462444433987151
 21
0.7524736147757254
 31
0.0
  0
LWPOLYLINE
  5
1C6
330
135
100
AcDbEntity
  8
AM_4
100
AcDbPolyline
 90
        3
 70
     0
 43
0.0
 10
-1.850198652873302
 20
0.9428267864615312
 10
-1.867784585869996
 20
0.9187341762159148
 10
-1.87165
 20
0.9008905013192609
  0
LWPOLYLINE
  5
1C7
330
135
100
AcDbEntity
  8
AM_4
100
AcDbPolyline
 90
        9
 70
     0
 43
0.0
 10
-1.87165
 20
1.00714285873941
 10
-1.871242289220407
 20
0.9978047434389428
 10
-1.870022259528547
 20
0.9885376968222694
 10
-1.867999196087047
 20
0.9794122467097388
 10
-1.865188495630258
 20
0.9704978432868046
 10
-1.861611549285802
 20
0.9618623305461792
 10
-1.857295579775181
 20
0.953571429954084
 10
-1.852273434232423
 20
0.9456882402702076
 10
-1.850198652873302
 20
0.9428267864615315
  0
LINE
  5
1C8
330
135
100
AcDbEntity
  8
AM_4
100
AcDbLine
 10
-1.87165
 20
1.00714285873941
 30
0.0
 11
-1.87165
 21
1.017857142857146
 31
0.0
  0
LWPOLYLINE
  5
1C9
330
135
100
AcDbEntity
  8
AM_4
100
AcDbPolyline
 90
       19
 70
     0
 43
0.0
 10
-1.87165
 20
1.017857142857149
 10
-1.872057710918742
 20
1.027195258151541
 10
-1.873277740748693
 20
1.036462304750035
 10
-1.875300804326173
 20
1.045587754832419
 10
-1.878111504915798
 20
1.054502158213471
 10
-1.881688451388933
 20
1.063137670900795
 10
-1.886004421023099
 20
1.071428571428577
 10
-1.891026566683326
 20
1.079311761037618
 10
-1.896716666808685
 20
1.086727243894992
 10
-1.903031416301446
 20
1.093618583698563
 10
-1.909922756105019
 20
1.099933333191323
 10
-1.917338238962393
 20
1.105623433316682
 10
-1.925221428571434
 20
1.110645578976908
 10
-1.933512329099217
 20
1.114961548611073
 10
-1.942147841786542
 20
1.118538495084207
 10
-1.951062245167594
 20
1.121349195673831
 10
-1.960187695249978
 20
1.123372259251309
 10
-1.969454741848472
 20
1.124592289081259
 10
-1.978792857142864
 20
1.125
  0
LINE
  5
1CA
330
135
100
AcDbEntity
  8
AM_4
100
AcDbLine
 10
-3.835
 20
1.125
 30
0.0
 11
-1.978792857142857
 21
1.125
 31
0.0
  0
LINE
  5
1CB
330
135
100
AcDbEntity
  8
AM_4
100
AcDbLine
 10
-2.135222607301975
 20
0.7822289573778884
 30
0.0
 11
-3.000000000000002
 21
1.125
 31
0.0
  0
LINE
  5
1CC
330
135
100
AcDbEntity
  8
AM_4
100
AcDbLine
 10
3.000000000000001
 20
1.125
 30
0.0
 11
2.135222607301975
 21
0.7822289573778882
 31
0.0
  0
LINE
  5
1CD
330
135
100
AcDbEntity
  8
AM_4
100
AcDbLine
 10
1.978792857142857
 20
1.125
 30
0.0
 11
3.835
 21
1.125
 31
0.0
  0
LWPOLYLINE
  5
1CE
330
135
100
AcDbEntity
  8
AM_4
100
AcDbPolyline
 90
       19
 70
     0
 43
0.0
 10
1.978792857142858
 20
1.125
 10
1.969454741848466
 20
1.124592289081259
 10
1.960187695249972
 20
1.123372259251308
 10
1.951062245167588
 20
1.121349195673829
 10
1.942147841786536
 20
1.118538495084204
 10
1.933512329099211
 20
1.11496154861107
 10
1.925221428571429
 20
1.110645578976904
 10
1.917338238962388
 20
1.105623433316678
 10
1.909922756105014
 20
1.099933333191319
 10
1.903031416301441
 20
1.093618583698559
 10
1.896716666808681
 20
1.086727243894986
 10
1.891026566683322
 20
1.079311761037612
 10
1.886004421023096
 20
1.071428571428571
 10
1.88168845138893
 20
1.063137670900789
 10
1.878111504915795
 20
1.054502158213464
 10
1.875300804326171
 20
1.045587754832413
 10
1.873277740748692
 20
1.036462304750028
 10
1.872057710918742
 20
1.027195258151534
 10
1.87165
 20
1.017857142857142
  0
LINE
  5
1CF
330
135
100
AcDbEntity
  8
AM_4
100
AcDbLine
 10
1.87165
 20
1.017857142857142
 30
0.0
 11
1.87165
 21
1.007142857142859
 31
0.0
  0
LWPOLYLINE
  5
1D0
330
135
100
AcDbEntity
  8
AM_4
100
AcDbPolyline
 90
        9
 70
     0
 43
0.0
 10
1.850198652873302
 20
0.9428267864615316
 10
1.855478085717558
 20
0.9505400357306533
 10
1.860065174756889
 20
0.9586840666484401
 10
1.863925009473946
 20
0.9671968982221067
 10
1.8670282141959
 20
0.9760137426631901
 10
1.86935117166105
 20
0.9850674984617368
 10
1.870876202760448
 20
0.9942892610693128
 10
1.871591701086587
 20
1.003608847304222
 10
1.87165
 20
1.00714285714286
  0
LWPOLYLINE
  5
1D1
330
135
100
AcDbEntity
  8
AM_4
100
AcDbPolyline
 90
        8
 70
     0
 43
0.0
 10
1.582110527902524
 20
0.7524736147757257
 10
1.663245862439285
 20
0.7735035930192677
 10
1.731722891667573
 20
0.7955030625532912
 10
1.787020464047399
 20
0.8183045941309988
 10
1.828717731663368
 20
0.8417346543291433
 10
1.856497353131421
 20
0.8656149262421597
 10
1.870147908758394
 20
0.8897636665814873
 10
1.87165
 20
0.9008905013192609
  0
LINE
  5
1D2
330
135
100
AcDbEntity
  8
AM_4
100
AcDbLine
 10
1.462444433987151
 20
0.7524736147757254
 30
0.0
 11
1.582110527902524
 21
0.7524736147757256
 31
0.0
  0
LWPOLYLINE
  5
1D3
330
135
100
AcDbEntity
  8
AM_4
100
AcDbPolyline
 90
       24
 70
     0
 43
0.0
 10
-1.462444433987151
 20
0.7524736147757255
 10
-1.369723648644126
 20
0.7341211055298867
 10
-1.266578439273167
 20
0.7170378120841194
 10
-1.153793803198368
 20
0.7013537486167205
 10
-1.032228099601483
 20
0.6871882803209733
 10
-0.9028065168902627
 20
0.6746492149639521
 10
-0.7665140314560287
 20
0.6638319824043186
 10
-0.6243879114085877
 20
0.654818908313475
 10
-0.4775098223395984
 20
0.6476785876274959
 10
-0.3269975951942911
 20
0.6424653624982446
 10
-0.1739967189030087
 20
0.6392189087167863
 10
-0.0196716225187831
 20
0.6379639337566606
 10
0.1348031867908608
 20
0.6387099887350883
 10
0.2882520624526367
 20
0.6414513957232034
 10
0.4395071658677939
 20
0.6461672909585195
 10
0.5874173543690148
 20
0.6528217836307605
 10
0.7308569421111912
 20
0.6613642290325982
 10
0.8687342672204142
 20
0.6717296139964548
 10
0.9999999999999974
 20
0.6838390516839647
 10
1.123655128963072
 20
0.697600381962448
 10
1.23875856391322
 20
0.7129088727991669
 10
1.344434298209117
 20
0.7296480173353344
 10
1.439878075704018
 20
0.7476904205736582
 10
1.462444433987151
 20
0.7524736147757255
  0
LINE
  5
1D4
330
135
100
AcDbEntity
  8
AM_4
100
AcDbLine
 10
-2.135222607301975
 20
-0.7822289573778884
 30
0.0
 11
-2.135222607301975
 21
0.7822289573778884
 31
0.0
  0
LWPOLYLINE
  5
1D5
330
135
100
AcDbEntity
  8
AM_4
100
AcDbPolyline
 90
       29
 70
     0
 43
0.0
 10
-2.135222607301976
 20
-0.7822289573778886
 10
-2.057415107054724
 20
-0.7550605760628586
 10
-1.963949435541578
 20
-0.7290020485335462
 10
-1.855536922958869
 20
-0.7042516959190185
 10
-1.733002653988616
 20
-0.6809978833473437
 10
-1.597279188405897
 20
-0.659417586373228
 10
-1.449399463735866
 20
-0.6396750440871842
 10
-1.290488933975481
 20
-0.6219205091568821
 10
-1.121757004209019
 20
-0.6062891043136224
 10
-0.9444878263051291
 20
-0.5928997939867625
 10
-0.7600305257457146
 20
-0.5818544789125767
 10
-0.5697889339663967
 20
-0.5732372206081231
 10
-0.3752109043516296
 20
-0.5671136016123413
 10
-0.1777772931962082
 20
-0.5635302263633315
 10
0.0210093105053009
 20
-0.5625143665104398
 10
0.2196360206680962
 20
-0.5640737533605397
 10
0.416591168093752
 20
-0.5681965190381183
 10
0.6103758051855895
 20
-0.5748512868069754
 10
0.799515113844977
 20
-0.5839874098661312
 10
0.9825696297275792
 20
-0.5955353568025636
 10
1.158146197436191
 20
-0.6094072407672455
 10
1.32490857327452
 20
-0.625497488347133
 10
1.48158759486856
 20
-0.6436836430425861
 10
1.626990840258601
 20
-0.6638272972352719
 10
1.760011702950345
 20
-0.6857751455537132
 10
1.879637813858515
 20
-0.7093601516197334
 10
1.984958746046879
 20
-0.734402819296154
 10
2.075172943626965
 20
-0.7607125587607817
 10
2.135222607301975
 20
-0.7822289573778882
  0
LINE
  5
1D6
330
135
100
AcDbEntity
  8
AM_4
100
AcDbLine
 10
2.135222607301975
 20
-0.7822289573778882
 30
0.0
 11
2.135222607301975
 21
0.7822289573778882
 31
0.0
  0
LWPOLYLINE
  5
1D7
330
135
100
AcDbEntity
  8
AM_4
100
AcDbPolyline
 90
       29
 70
     0
 43
0.0
 10
2.135222607301975
 20
0.7822289573778884
 10
2.057415107054723
 20
0.7550605760628584
 10
1.963949435541577
 20
0.729002048533546
 10
1.855536922958867
 20
0.7042516959190185
 10
1.733002653988614
 20
0.6809978833473437
 10
1.597279188405895
 20
0.6594175863732281
 10
1.449399463735864
 20
0.6396750440871845
 10
1.290488933975479
 20
0.6219205091568822
 10
1.121757004209017
 20
0.6062891043136226
 10
0.9444878263051267
 20
0.5928997939867627
 10
0.7600305257457122
 20
0.581854478912577
 10
0.5697889339663943
 20
0.5732372206081234
 10
0.3752109043516271
 20
0.5671136016123417
 10
0.1777772931962056
 20
0.5635302263633319
 10
-0.0210093105053035
 20
0.5625143665104403
 10
-0.2196360206680987
 20
0.5640737533605401
 10
-0.4165911680937545
 20
0.5681965190381187
 10
-0.6103758051855921
 20
0.5748512868069758
 10
-0.7995151138449794
 20
0.5839874098661317
 10
-0.9825696297275817
 20
0.5955353568025642
 10
-1.158146197436193
 20
0.6094072407672461
 10
-1.324908573274522
 20
0.6254974883471336
 10
-1.481587594868562
 20
0.6436836430425866
 10
-1.626990840258603
 20
0.6638272972352725
 10
-1.760011702950347
 20
0.6857751455537138
 10
-1.879637813858517
 20
0.709360151619734
 10
-1.98495874604688
 20
0.7344028192961545
 10
-2.075172943626967
 20
0.7607125587607821
 10
-2.135222607301975
 20
0.7822289573778882
  0
ENDBLK
  5
138
330
135
100
AcDbEntity
  8
0
100
AcDbBlockEnd
  0
ENDSEC
  0
SECTION
  2
ENTITIES
  0
INSERT
  5
6F
330
1F
100
AcDbEntity
  8
0
100
AcDbBlockReference
  2
1_130321_4
 10
0.0
 20
0.0
 30
0.0
  0
POINT
  5
1D9
330
1F
100
AcDbEntity
  8
ConnectionPoints
100
AcDbPoint
 10
0.0
 20
-1.29
 30
0.0000000000000001
  0
POINT
  5
1DA
330
1F
100
AcDbEntity
  8
ConnectionPoints
100
AcDbPoint
 10
1.612203461105328
 20
0.0000000000000001
 30
1.612203461105329
  0
POINT
  5
1DB
330
1F
100
AcDbEntity
  8
ConnectionPoints
100
AcDbPoint
 10
1.612203461105328
 20
0.0000000000000001
 30
1.612203461105329
  0
POINT
  5
1DC
330
1F
100
AcDbEntity
  8
ConnectionPoints
100
AcDbPoint
 10
0.0
 20
-1.29
 30
0.0000000000000001
  0
ENDSEC
  0
SECTION
  2
OBJECTS
  0
DICTIONARY
  5
C
330
0
100
AcDbDictionary
281
     1
  3
ACAD_DETAILVIEWSTYLE
350
1E4
  3
ACAD_GROUP
350
D
  3
ACAD_LAYOUT
350
1A
  3
ACAD_MATERIAL
350
43
  3
ACAD_MLEADERSTYLE
350
6B
  3
ACAD_MLINESTYLE
350
17
  3
ACAD_PLOTSETTINGS
350
19
  3
ACAD_PLOTSTYLENAME
350
E
  3
ACAD_SCALELIST
350
47
  3
ACAD_SECTIONVIEWSTYLE
350
1E5
  3
ACAD_TABLESTYLE
350
69
  3
ACAD_VISUALSTYLE
350
2A
  3
ACDB_RECOMPOSE_DATA
350
1E1
  3
AcDbVariableDictionary
350
1DD
  0
SUN
  5
6D
330
29
100
AcDbSun
 90
        1
290
     0
 63
     7
421
 16777215
 40
1.0
291
     1
 91
  2455826
 92
 54000000
292
     0
 70
     2
 71
   256
280
     1
  0
DICTIONARY
  5
1E4
102
{ACAD_REACTORS
330
C
102
}
330
C
100
AcDbDictionary
281
     1
  0
DICTIONARY
  5
D
102
{ACAD_REACTORS
330
C
102
}
330
C
100
AcDbDictionary
281
     1
  0
DICTIONARY
  5
1A
102
{ACAD_REACTORS
330
C
102
}
330
C
100
AcDbDictionary
281
     1
  3
Layout1
350
1E
  3
Layout2
350
26
  3
Model
350
22
  0
DICTIONARY
  5
43
102
{ACAD_REACTORS
330
C
102
}
330
C
100
AcDbDictionary
281
     1
  3
ByBlock
350
45
  3
ByLayer
350
44
  3
Global
350
46
  0
DICTIONARY
  5
6B
102
{ACAD_REACTORS
330
C
102
}
330
C
100
AcDbDictionary
281
     1
  3
Standard
350
6C
  0
DICTIONARY
  5
17
102
{ACAD_REACTORS
330
C
102
}
330
C
100
AcDbDictionary
281
     1
  3
Standard
350
18
  0
DICTIONARY
  5
19
102
{ACAD_REACTORS
330
C
102
}
330
C
100
AcDbDictionary
281
     1
  0
ACDBDICTIONARYWDFLT
  5
E
102
{ACAD_REACTORS
330
C
102
}
330
C
100
AcDbDictionary
281
     1
  3
Normal
350
F
100
AcDbDictionaryWithDefault
340
F
  0
DICTIONARY
  5
47
102
{ACAD_REACTORS
330
C
102
}
330
C
100
AcDbDictionary
281
     1
  3
A0
350
48
  3
A1
350
49
  3
A2
350
4A
  3
A3
350
4B
  3
A4
350
4C
  3
A5
350
4D
  3
A6
350
4E
  3
A7
350
4F
  3
A8
350
50
  3
A9
350
51
  3
B0
350
52
  3
B1
350
53
  3
B2
350
54
  3
B3
350
55
  3
B4
350
56
  3
B5
350
57
  3
B6
350
58
  3
B7
350
59
  3
B8
350
5A
  3
B9
350
5B
  3
C0
350
5C
  3
C1
350
5D
  3
C2
350
5E
  3
C3
350
5F
  3
C4
350
60
  3
C5
350
61
  3
C6
350
62
  3
C7
350
63
  3
C8
350
64
  3
C9
350
65
  3
D0
350
66
  3
D1
350
67
  3
D2
350
68
  0
DICTIONARY
  5
1E5
102
{ACAD_REACTORS
330
C
102
}
330
C
100
AcDbDictionary
281
     1
  0
DICTIONARY
  5
69
102
{ACAD_REACTORS
330
C
102
}
330
C
100
AcDbDictionary
281
     1
  3
Standard
350
6A
  0
DICTIONARY
  5
2A
102
{ACAD_REACTORS
330
C
102
}
330
C
100
AcDbDictionary
281
     1
  3
2dWireframe
350
2F
  3
Basic
350
32
  3
Brighten
350
36
  3
ColorChange
350
3A
  3
Conceptual
350
34
  3
Dim
350
35
  3
EdgeColorOff
350
3D
  3
Facepattern
350
39
  3
Flat
350
2B
  3
FlatWithEdges
350
2C
  3
Gouraud
350
2D
  3
GouraudWithEdges
350
2E
  3
Hidden
350
31
  3
JitterOff
350
3B
  3
Linepattern
350
38
  3
OverhangOff
350
3C
  3
Realistic
350
33
  3
Shaded
350
42
  3
Shaded with edges
350
41
  3
Shades of Gray
350
3E
  3
Sketchy
350
3F
  3
Thicken
350
37
  3
Wireframe
350
30
  3
X-Ray
350
40
  0
XRECORD
  5
1E1
102
{ACAD_REACTORS
330
C
102
}
330
C
100
AcDbXrecord
280
     1
 90
        1
330
6A
  0
DICTIONARY
  5
1DD
102
{ACAD_REACTORS
330
C
102
}
330
C
100
AcDbDictionary
281
     1
  3
CANNOSCALE
350
1DE
  3
CMLEADERSTYLE
350
1E3
  3
CTABLESTYLE
350
1E2
  0
LAYOUT
  5
1E
102
{ACAD_REACTORS
330
1A
102
}
330
1A
100
AcDbPlotSettings
  1

  2
none_device
  4

  6

 40
0.0
 41
0.0
 42
0.0
 43
0.0
 44
0.0
 45
0.0
 46
0.0
 47
0.0
 48
0.0
 49
0.0
140
0.0
141
0.0
142
1.0
143
1.0
 70
   688
 72
     0
 73
     0
 74
     5
  7

 75
    16
 76
     0
 77
     2
 78
   300
147
1.0
148
0.0
149
0.0
100
AcDbLayout
  1
Layout1
 70
     1
 71
     1
 10
0.0
 20
0.0
 11
12.0
 21
9.0
 12
0.0
 22
0.0
 32
0.0
 14
1.000000000000000E+20
 24
1.000000000000000E+20
 34
1.000000000000000E+20
 15
-1.000000000000000E+20
 25
-1.000000000000000E+20
 35
-1.000000000000000E+20
146
0.0
 13
0.0
 23
0.0
 33
0.0
 16
1.0
 26
0.0
 36
0.0
 17
0.0
 27
1.0
 37
0.0
 76
     0
330
1B
  0
LAYOUT
  5
26
102
{ACAD_REACTORS
330
1A
102
}
330
1A
100
AcDbPlotSettings
  1

  2
none_device
  4

  6

 40
0.0
 41
0.0
 42
0.0
 43
0.0
 44
0.0
 45
0.0
 46
0.0
 47
0.0
 48
0.0
 49
0.0
140
0.0
141
0.0
142
1.0
143
1.0
 70
   688
 72
     0
 73
     0
 74
     5
  7

 75
    16
 76
     0
 77
     2
 78
   300
147
1.0
148
0.0
149
0.0
100
AcDbLayout
  1
Layout2
 70
     1
 71
     2
 10
0.0
 20
0.0
 11
0.0
 21
0.0
 12
0.0
 22
0.0
 32
0.0
 14
0.0
 24
0.0
 34
0.0
 15
0.0
 25
0.0
 35
0.0
146
0.0
 13
0.0
 23
0.0
 33
0.0
 16
1.0
 26
0.0
 36
0.0
 17
0.0
 27
1.0
 37
0.0
 76
     0
330
23
  0
LAYOUT
  5
22
102
{ACAD_REACTORS
330
1A
102
}
330
1A
100
AcDbPlotSettings
  1

  2
none_device
  4
Letter_(8.50_x_11.00_Inches)
  6

 40
6.35
 41
6.35
 42
6.35000508
 43
6.35000508
 44
215.9
 45
279.4
 46
0.0
 47
0.0
 48
0.0
 49
0.0
140
0.0
141
0.0
142
1.0
143
1.0
 70
  1712
 72
     0
 73
     0
 74
     0
  7

 75
     0
 76
     0
 77
     2
 78
   300
147
1.0
148
0.0
149
0.0
100
AcDbLayout
  1
Model
 70
     1
 71
     0
 10
0.0
 20
0.0
 11
12.0
 21
9.0
 12
0.0
 22
0.0
 32
0.0
 14
1.000000000000000E+20
 24
1.000000000000000E+20
 34
1.000000000000000E+20
 15
-1.000000000000000E+20
 25
-1.000000000000000E+20
 35
-1.000000000000000E+20
146
0.0
 13
0.0
 23
0.0
 33
0.0
 16
1.0
 26
0.0
 36
0.0
 17
0.0
 27
1.0
 37
0.0
 76
     0
330
1F
331
29
  0
MATERIAL
  5
45
102
{ACAD_REACTORS
330
43
102
}
330
43
100
AcDbMaterial
  1
ByBlock
 72
     1
 94
      127
  0
MATERIAL
  5
44
102
{ACAD_REACTORS
330
43
102
}
330
43
100
AcDbMaterial
  1
ByLayer
 72
     1
 94
      127
  0
MATERIAL
  5
46
102
{ACAD_REACTORS
330
43
102
}
330
43
100
AcDbMaterial
  1
Global
 72
     1
 94
      127
  0
MLEADERSTYLE
  5
6C
102
{ACAD_REACTORS
330
6B
102
}
330
6B
100
AcDbMLeaderStyle
179
     2
170
     2
171
     1
172
     0
 90
        2
 40
0.0
 41
0.0
173
     1
 91
-1056964608
340
14
 92
       -2
290
     1
 42
0.09
291
     1
 43
0.36
  3
Standard
341
0
 44
0.18
300

342
11
174
     1
178
     6
175
     1
176
     0
 93
-1056964608
 45
0.18
292
     0
297
     0
 46
0.18
343
0
 94
-1056964608
 47
1.0
 49
1.0
140
1.0
293
     1
141
0.0
294
     1
177
     0
142
1.0
295
     0
296
     0
143
0.125
271
     0
272
     9
273
     9
298
     0
  0
MLINESTYLE
  5
18
102
{ACAD_REACTORS
330
17
102
}
330
17
100
AcDbMlineStyle
  2
Standard
 70
     0
  3

 62
   256
 51
90.0
 52
90.0
 71
     2
 49
0.5
 62
   256
  6
BYLAYER
 49
-0.5
 62
   256
  6
BYLAYER
  0
ACDBPLACEHOLDER
  5
F
102
{ACAD_REACTORS
330
E
102
}
330
E
  0
SCALE
  5
48
102
{ACAD_REACTORS
330
47
102
}
330
47
100
AcDbScale
 70
     0
300
1:1
140
1.0
141
1.0
290
     1
  0
SCALE
  5
49
102
{ACAD_REACTORS
330
47
102
}
330
47
100
AcDbScale
 70
     0
300
1:2
140
1.0
141
2.0
290
     0
  0
SCALE
  5
4A
102
{ACAD_REACTORS
330
47
102
}
330
47
100
AcDbScale
 70
     0
300
1:4
140
1.0
141
4.0
290
     0
  0
SCALE
  5
4B
102
{ACAD_REACTORS
330
47
102
}
330
47
100
AcDbScale
 70
     0
300
1:5
140
1.0
141
5.0
290
     0
  0
SCALE
  5
4C
102
{ACAD_REACTORS
330
47
102
}
330
47
100
AcDbScale
 70
     0
300
1:8
140
1.0
141
8.0
290
     0
  0
SCALE
  5
4D
102
{ACAD_REACTORS
330
47
102
}
330
47
100
AcDbScale
 70
     0
300
1:10
140
1.0
141
10.0
290
     0
  0
SCALE
  5
4E
102
{ACAD_REACTORS
330
47
102
}
330
47
100
AcDbScale
 70
     0
300
1:16
140
1.0
141
16.0
290
     0
  0
SCALE
  5
4F
102
{ACAD_REACTORS
330
47
102
}
330
47
100
AcDbScale
 70
     0
300
1:20
140
1.0
141
20.0
290
     0
  0
SCALE
  5
50
102
{ACAD_REACTORS
330
47
102
}
330
47
100
AcDbScale
 70
     0
300
1:30
140
1.0
141
30.0
290
     0
  0
SCALE
  5
51
102
{ACAD_REACTORS
330
47
102
}
330
47
100
AcDbScale
 70
     0
300
1:40
140
1.0
141
40.0
290
     0
  0
SCALE
  5
52
102
{ACAD_REACTORS
330
47
102
}
330
47
100
AcDbScale
 70
     0
300
1:50
140
1.0
141
50.0
290
     0
  0
SCALE
  5
53
102
{ACAD_REACTORS
330
47
102
}
330
47
100
AcDbScale
 70
     0
300
1:100
140
1.0
141
100.0
290
     0
  0
SCALE
  5
54
102
{ACAD_REACTORS
330
47
102
}
330
47
100
AcDbScale
 70
     0
300
2:1
140
2.0
141
1.0
290
     0
  0
SCALE
  5
55
102
{ACAD_REACTORS
330
47
102
}
330
47
100
AcDbScale
 70
     0
300
4:1
140
4.0
141
1.0
290
     0
  0
SCALE
  5
56
102
{ACAD_REACTORS
330
47
102
}
330
47
100
AcDbScale
 70
     0
300
8:1
140
8.0
141
1.0
290
     0
  0
SCALE
  5
57
102
{ACAD_REACTORS
330
47
102
}
330
47
100
AcDbScale
 70
     0
300
10:1
140
10.0
141
1.0
290
     0
  0
SCALE
  5
58
102
{ACAD_REACTORS
330
47
102
}
330
47
100
AcDbScale
 70
     0
300
100:1
140
100.0
141
1.0
290
     0
  0
SCALE
  5
59
102
{ACAD_REACTORS
330
47
102
}
330
47
100
AcDbScale
 70
     0
300
1/128" = 1'-0"
140
0.0078125
141
12.0
290
     0
  0
SCALE
  5
5A
102
{ACAD_REACTORS
330
47
102
}
330
47
100
AcDbScale
 70
     0
300
1/64" = 1'-0"
140
0.015625
141
12.0
290
     0
  0
SCALE
  5
5B
102
{ACAD_REACTORS
330
47
102
}
330
47
100
AcDbScale
 70
     0
300
1/32" = 1'-0"
140
0.03125
141
12.0
290
     0
  0
SCALE
  5
5C
102
{ACAD_REACTORS
330
47
102
}
330
47
100
AcDbScale
 70
     0
300
1/16" = 1'-0"
140
0.0625
141
12.0
290
     0
  0
SCALE
  5
5D
102
{ACAD_REACTORS
330
47
102
}
330
47
100
AcDbScale
 70
     0
300
3/32" = 1'-0"
140
0.09375
141
12.0
290
     0
  0
SCALE
  5
5E
102
{ACAD_REACTORS
330
47
102
}
330
47
100
AcDbScale
 70
     0
300
1/8" = 1'-0"
140
0.125
141
12.0
290
     0
  0
SCALE
  5
5F
102
{ACAD_REACTORS
330
47
102
}
330
47
100
AcDbScale
 70
     0
300
3/16" = 1'-0"
140
0.1875
141
12.0
290
     0
  0
SCALE
  5
60
102
{ACAD_REACTORS
330
47
102
}
330
47
100
AcDbScale
 70
     0
300
1/4" = 1'-0"
140
0.25
141
12.0
290
     0
  0
SCALE
  5
61
102
{ACAD_REACTORS
330
47
102
}
330
47
100
AcDbScale
 70
     0
300
3/8" = 1'-0"
140
0.375
141
12.0
290
     0
  0
SCALE
  5
62
102
{ACAD_REACTORS
330
47
102
}
330
47
100
AcDbScale
 70
     0
300
1/2" = 1'-0"
140
0.5
141
12.0
290
     0
  0
SCALE
  5
63
102
{ACAD_REACTORS
330
47
102
}
330
47
100
AcDbScale
 70
     0
300
3/4" = 1'-0"
140
0.75
141
12.0
290
     0
  0
SCALE
  5
64
102
{ACAD_REACTORS
330
47
102
}
330
47
100
AcDbScale
 70
     0
300
1" = 1'-0"
140
1.0
141
12.0
290
     0
  0
SCALE
  5
65
102
{ACAD_REACTORS
330
47
102
}
330
47
100
AcDbScale
 70
     0
300
1-1/2" = 1'-0"
140
1.5
141
12.0
290
     0
  0
SCALE
  5
66
102
{ACAD_REACTORS
330
47
102
}
330
47
100
AcDbScale
 70
     0
300
3" = 1'-0"
140
3.0
141
12.0
290
     0
  0
SCALE
  5
67
102
{ACAD_REACTORS
330
47
102
}
330
47
100
AcDbScale
 70
     0
300
6" = 1'-0"
140
6.0
141
12.0
290
     0
  0
SCALE
  5
68
102
{ACAD_REACTORS
330
47
102
}
330
47
100
AcDbScale
 70
     0
300
1'-0" = 1'-0"
140
12.0
141
12.0
290
     0
  0
TABLESTYLE
  5
6A
102
{ACAD_REACTORS
330
69
102
}
102
{ACAD_XDICTIONARY
360
1DF
102
}
330
69
100
AcDbTableStyle
  3
Standard
 70
     0
 71
     0
 40
0.06
 41
0.06
280
     0
281
     0
  7
Standard
140
0.18
170
     2
 62
     0
 63
   257
283
     0
 90
        4
 91
        0
  1

274
    -2
284
     1
 64
     0
275
    -2
285
     1
 65
     0
276
    -2
286
     1
 66
     0
277
    -2
287
     1
 67
     0
278
    -2
288
     1
 68
     0
279
    -2
289
     1
 69
     0
  7
Standard
140
0.25
170
     5
 62
     0
 63
   257
283
     0
 90
        4
 91
        0
  1

274
    -2
284
     1
 64
     0
275
    -2
285
     1
 65
     0
276
    -2
286
     1
 66
     0
277
    -2
287
     1
 67
     0
278
    -2
288
     1
 68
     0
279
    -2
289
     1
 69
     0
  7
Standard
140
0.18
170
     5
 62
     0
 63
   257
283
     0
 90
        4
 91
        0
  1

274
    -2
284
     1
 64
     0
275
    -2
285
     1
 65
     0
276
    -2
286
     1
 66
     0
277
    -2
287
     1
 67
     0
278
    -2
288
     1
 68
     0
279
    -2
289
     1
 69
     0
  0
VISUALSTYLE
  5
2F
102
{ACAD_REACTORS
330
2A
102
}
330
2A
100
AcDbVisualStyle
  2
2dWireframe
 70
     4
177
     3
291
     0
 70
    58
 90
        0
176
     1
 90
        2
176
     1
 90
        0
176
     1
 90
        0
176
     1
 40
0.6
176
     1
 40
30.0
176
     1
 62
     7
420
 16777215
176
     1
 90
        1
176
     1
 90
        4
176
     1
 62
     7
176
     1
 62
   257
176
     1
 90
        1
176
     1
 90
        1
176
     1
 40
1.0
176
     1
 90
        0
176
     1
 62
   257
176
     1
 40
1.0
176
     1
 90
        1
176
     1
 90
        6
176
     1
 90
        2
176
     1
 62
     7
176
     1
 90
        5
176
     1
 90
        0
176
     1
 90
        0
176
     1
290
     0
176
     1
 90
        1
176
     1
 40
0.0
176
     1
 90
        0
176
     1
290
     1
176
     1
290
     1
176
     1
290
     0
176
     1
290
     0
176
     1
290
     0
176
     1
290
     0
176
     1
290
     0
176
     1
290
     0
176
     1
290
     0
176
     1
 90
       50
176
     1
 40
0.0
176
     1
 40
1.0
176
     1
 90
        0
176
     1
 62
    18
420
        0
176
     1
 90
       50
176
     1
 90
        3
176
     1
 62
     5
420
      255
176
     1
290
     0
176
     1
 90
       50
176
     1
 90
       50
176
     1
 90
       50
176
     1
290
     0
176
     1
 90
       50
176
     1
 62
   256
176
     0
 40
1.0
176
     0
 90
        2
176
     1
  1
strokes_ogs.tif
176
     1
290
     0
176
     1
 40
1.0
176
     1
 40
1.0
176
     1
  0
VISUALSTYLE
  5
32
102
{ACAD_REACTORS
330
2A
102
}
330
2A
100
AcDbVisualStyle
  2
Basic
 70
     7
177
     3
291
     1
 70
    58
 90
        1
176
     1
 90
        0
176
     1
 90
        1
176
     1
 90
        0
176
     1
 40
0.6
176
     1
 40
30.0
176
     1
 62
     7
420
 16777215
176
     1
 90
        0
176
     1
 90
        4
176
     1
 62
     7
176
     1
 62
   257
176
     1
 90
        1
176
     1
 90
        1
176
     1
 40
1.0
176
     1
 90
        8
176
     1
 62
     7
176
     1
 40
1.0
176
     1
 90
        1
176
     1
 90
        6
176
     1
 90
        2
176
     1
 62
     7
176
     1
 90
        5
176
     1
 90
        0
176
     1
 90
        0
176
     1
290
     0
176
     1
 90
        1
176
     1
 40
0.0
176
     1
 90
        0
176
     1
290
     0
176
     1
290
     1
176
     1
290
     1
176
     1
290
     0
176
     1
290
     0
176
     1
290
     0
176
     1
290
     0
176
     1
290
     0
176
     1
290
     0
176
     1
 90
       50
176
     1
 40
0.0
176
     1
 40
1.0
176
     1
 90
        0
176
     1
 62
    18
420
        0
176
     1
 90
       50
176
     1
 90
        3
176
     1
 62
     5
420
      255
176
     1
290
     0
176
     1
 90
       50
176
     1
 90
       50
176
     1
 90
       50
176
     1
290
     0
176
     1
 90
       50
176
     1
 62
   256
176
     0
 40
1.0
176
     0
 90
        2
176
     1
  1
strokes_ogs.tif
176
     1
290
     0
176
     1
 40
1.0
176
     1
 40
1.0
176
     1
  0
VISUALSTYLE
  5
36
102
{ACAD_REACTORS
330
2A
102
}
330
2A
100
AcDbVisualStyle
  2
Brighten
 70
    12
177
     3
291
     1
 70
    58
 90
        2
176
     1
 90
        2
176
     1
 90
        0
176
     1
 90
        0
176
     1
 40
0.6
176
     1
 40
30.0
176
     1
 62
     7
420
 16777215
176
     1
 90
        1
176
     1
 90
        4
176
     1
 62
     7
176
     1
 62
   257
176
     1
 90
        1
176
     1
 90
        1
176
     1
 40
1.0
176
     1
 90
        8
176
     1
 62
     7
176
     1
 40
1.0
176
     1
 90
        1
176
     1
 90
        6
176
     1
 90
        2
176
     1
 62
     7
176
     1
 90
        5
176
     1
 90
        0
176
     1
 90
        0
176
     1
290
     0
176
     1
 90
        1
176
     1
 40
50.0
176
     1
 90
        0
176
     1
290
     0
176
     1
290
     1
176
     1
290
     1
176
     1
290
     0
176
     1
290
     0
176
     1
290
     0
176
     1
290
     0
176
     1
290
     0
176
     1
290
     0
176
     1
 90
       50
176
     1
 40
0.0
176
     1
 40
1.0
176
     1
 90
        0
176
     1
 62
    18
420
        0
176
     1
 90
       50
176
     1
 90
        3
176
     1
 62
     5
420
      255
176
     1
290
     0
176
     1
 90
       50
176
     1
 90
       50
176
     1
 90
       50
176
     1
290
     0
176
     1
 90
       50
176
     1
 62
   256
176
     0
 40
1.0
176
     0
 90
        2
176
     1
  1
strokes_ogs.tif
176
     1
290
     0
176
     1
 40
1.0
176
     1
 40
1.0
176
     1
  0
VISUALSTYLE
  5
3A
102
{ACAD_REACTORS
330
2A
102
}
330
2A
100
AcDbVisualStyle
  2
ColorChange
 70
    16
177
     3
291
     1
 70
    58
 90
        2
176
     1
 90
        2
176
     1
 90
        3
176
     1
 90
        0
176
     1
 40
0.6
176
     1
 40
30.0
176
     1
 62
     8
420
  8421504
176
     1
 90
        1
176
     1
 90
        4
176
     1
 62
     7
176
     1
 62
   257
176
     1
 90
        1
176
     1
 90
        1
176
     1
 40
1.0
176
     1
 90
        8
176
     1
 62
     8
420
  8421504
176
     1
 40
1.0
176
     1
 90
        1
176
     1
 90
        6
176
     1
 90
        2
176
     1
 62
     7
176
     1
 90
        5
176
     1
 90
        0
176
     1
 90
        0
176
     1
290
     0
176
     1
 90
        1
176
     1
 40
0.0
176
     1
 90
        0
176
     1
290
     0
176
     1
290
     1
176
     1
290
     1
176
     1
290
     0
176
     1
290
     0
176
     1
290
     0
176
     1
290
     0
176
     1
290
     0
176
     1
290
     0
176
     1
 90
       50
176
     1
 40
0.0
176
     1
 40
1.0
176
     1
 90
        0
176
     1
 62
    18
420
        0
176
     1
 90
       50
176
     1
 90
        3
176
     1
 62
     5
420
      255
176
     1
290
     0
176
     1
 90
       50
176
     1
 90
       50
176
     1
 90
       50
176
     1
290
     0
176
     1
 90
       50
176
     1
 62
   256
176
     0
 40
1.0
176
     0
 90
        2
176
     1
  1
strokes_ogs.tif
176
     1
290
     0
176
     1
 40
1.0
176
     1
 40
1.0
176
     1
  0
VISUALSTYLE
  5
34
102
{ACAD_REACTORS
330
2A
102
}
330
2A
100
AcDbVisualStyle
  2
Conceptual
 70
     9
177
     3
291
     0
 70
    58
 90
        3
176
     1
 90
        2
176
     1
 90
        0
176
     1
 90
        0
176
     1
 40
0.6
176
     1
 40
30.0
176
     1
 62
     7
420
 16777215
176
     1
 90
        2
176
     1
 90
        2
176
     1
 62
     7
176
     1
 62
   257
176
     1
 90
        1
176
     1
 90
        1
176
     1
 40
179.0
176
     1
 90
        8
176
     1
 62
     7
176
     1
 40
1.0
176
     1
 90
        1
176
     1
 90
        6
176
     1
 90
        2
176
     1
 62
     7
176
     1
 90
        3
176
     1
 90
        0
176
     1
 90
        0
176
     1
290
     0
176
     1
 90
        1
176
     1
 40
0.0
176
     1
 90
        0
176
     1
290
     0
176
     1
290
     1
176
     1
290
     1
176
     1
290
     0
176
     1
290
     0
176
     1
290
     0
176
     1
290
     0
176
     1
290
     0
176
     1
290
     0
176
     1
 90
       50
176
     1
 40
0.0
176
     1
 40
1.0
176
     1
 90
        0
176
     1
 62
    18
420
        0
176
     1
 90
       50
176
     1
 90
        3
176
     1
 62
     5
420
      255
176
     1
290
     0
176
     1
 90
       50
176
     1
 90
       50
176
     1
 90
       50
176
     1
290
     0
176
     1
 90
       50
176
     1
 62
   256
176
     0
 40
1.0
176
     0
 90
        2
176
     1
  1
strokes_ogs.tif
176
     1
290
     0
176
     1
 40
1.0
176
     1
 40
1.0
176
     1
  0
VISUALSTYLE
  5
35
102
{ACAD_REACTORS
330
2A
102
}
330
2A
100
AcDbVisualStyle
  2
Dim
 70
    11
177
     3
291
     1
 70
    58
 90
        2
176
     1
 90
        2
176
     1
 90
        0
176
     1
 90
        0
176
     1
 40
0.6
176
     1
 40
30.0
176
     1
 62
     7
420
 16777215
176
     1
 90
        1
176
     1
 90
        4
176
     1
 62
     7
176
     1
 62
   257
176
     1
 90
        1
176
     1
 90
        1
176
     1
 40
1.0
176
     1
 90
        8
176
     1
 62
     7
176
     1
 40
1.0
176
     1
 90
        1
176
     1
 90
        6
176
     1
 90
        2
176
     1
 62
     7
176
     1
 90
        5
176
     1
 90
        0
176
     1
 90
        0
176
     1
290
     0
176
     1
 90
        1
176
     1
 40
-50.0
176
     1
 90
        0
176
     1
290
     0
176
     1
290
     1
176
     1
290
     1
176
     1
290
     0
176
     1
290
     0
176
     1
290
     0
176
     1
290
     0
176
     1
290
     0
176
     1
290
     0
176
     1
 90
       50
176
     1
 40
0.0
176
     1
 40
1.0
176
     1
 90
        0
176
     1
 62
    18
420
        0
176
     1
 90
       50
176
     1
 90
        3
176
     1
 62
     5
420
      255
176
     1
290
     0
176
     1
 90
       50
176
     1
 90
       50
176
     1
 90
       50
176
     1
290
     0
176
     1
 90
       50
176
     1
 62
   256
176
     0
 40
1.0
176
     0
 90
        2
176
     1
  1
strokes_ogs.tif
176
     1
290
     0
176
     1
 40
1.0
176
     1
 40
1.0
176
     1
  0
VISUALSTYLE
  5
3D
102
{ACAD_REACTORS
330
2A
102
}
330
2A
100
AcDbVisualStyle
  2
EdgeColorOff
 70
    22
177
     3
291
     1
 70
    58
 90
        2
176
     0
 90
        2
176
     0
 90
        0
176
     0
 90
        0
176
     0
 40
0.6
176
     0
 40
30.0
176
     0
 62
     7
420
 16777215
176
     0
 90
        1
176
     0
 90
        4
176
     0
 62
     7
176
     0
 62
   257
176
     0
 90
        1
176
     0
 90
        1
176
     0
 40
1.0
176
     0
 90
        8
176
     2
 62
     7
176
     0
 40
1.0
176
     0
 90
        1
176
     0
 90
        6
176
     0
 90
        2
176
     0
 62
     7
176
     0
 90
        5
176
     0
 90
        0
176
     0
 90
        0
176
     0
290
     0
176
     0
 90
        1
176
     0
 40
0.0
176
     0
 90
        0
176
     0
290
     0
176
     0
290
     1
176
     0
290
     1
176
     0
290
     0
176
     0
290
     0
176
     0
290
     0
176
     0
290
     0
176
     0
290
     0
176
     0
290
     0
176
     0
 90
       50
176
     0
 40
0.0
176
     0
 40
1.0
176
     0
 90
        0
176
     0
 62
    18
420
        0
176
     0
 90
       50
176
     0
 90
        3
176
     0
 62
     5
420
      255
176
     0
290
     0
176
     0
 90
       50
176
     0
 90
       50
176
     0
 90
       50
176
     0
290
     0
176
     0
 90
       50
176
     0
 62
   256
176
     0
 40
1.0
176
     0
 90
        2
176
     0
  1
strokes_ogs.tif
176
     0
290
     0
176
     0
 40
1.0
176
     0
 40
1.0
176
     0
  0
VISUALSTYLE
  5
39
102
{ACAD_REACTORS
330
2A
102
}
330
2A
100
AcDbVisualStyle
  2
Facepattern
 70
    15
177
     3
291
     1
 70
    58
 90
        2
176
     1
 90
        2
176
     1
 90
        0
176
     1
 90
        0
176
     1
 40
0.6
176
     1
 40
30.0
176
     1
 62
     7
420
 16777215
176
     1
 90
        1
176
     1
 90
        4
176
     1
 62
     7
176
     1
 62
   257
176
     1
 90
        1
176
     1
 90
        1
176
     1
 40
1.0
176
     1
 90
        8
176
     1
 62
     7
176
     1
 40
1.0
176
     1
 90
        1
176
     1
 90
        6
176
     1
 90
        2
176
     1
 62
     7
176
     1
 90
        5
176
     1
 90
        0
176
     1
 90
        0
176
     1
290
     0
176
     1
 90
        1
176
     1
 40
0.0
176
     1
 90
        0
176
     1
290
     0
176
     1
290
     1
176
     1
290
     1
176
     1
290
     0
176
     1
290
     0
176
     1
290
     0
176
     1
290
     0
176
     1
290
     0
176
     1
290
     0
176
     1
 90
       50
176
     1
 40
0.0
176
     1
 40
1.0
176
     1
 90
        0
176
     1
 62
    18
420
        0
176
     1
 90
       50
176
     1
 90
        3
176
     1
 62
     5
420
      255
176
     1
290
     0
176
     1
 90
       50
176
     1
 90
       50
176
     1
 90
       50
176
     1
290
     0
176
     1
 90
       50
176
     1
 62
   256
176
     0
 40
1.0
176
     0
 90
        2
176
     1
  1
strokes_ogs.tif
176
     1
290
     0
176
     1
 40
1.0
176
     1
 40
1.0
176
     1
  0
VISUALSTYLE
  5
2B
102
{ACAD_REACTORS
330
2A
102
}
330
2A
100
AcDbVisualStyle
  2
Flat
 70
     0
177
     3
291
     1
 70
    58
 90
        2
176
     1
 90
        1
176
     1
 90
        1
176
     1
 90
        2
176
     1
 40
0.6
176
     1
 40
30.0
176
     1
 62
     7
420
 16777215
176
     1
 90
        0
176
     1
 90
        0
176
     1
 62
     7
176
     1
 62
   257
176
     1
 90
        1
176
     1
 90
        1
176
     1
 40
1.0
176
     1
 90
        8
176
     1
 62
     7
176
     1
 40
1.0
176
     1
 90
        1
176
     1
 90
        6
176
     1
 90
        2
176
     1
 62
     7
176
     1
 90
        5
176
     1
 90
        0
176
     1
 90
        0
176
     1
290
     0
176
     1
 90
       13
176
     1
 40
0.0
176
     1
 90
        0
176
     1
290
     0
176
     1
290
     1
176
     1
290
     1
176
     1
290
     0
176
     1
290
     0
176
     1
290
     0
176
     1
290
     0
176
     1
290
     0
176
     1
290
     0
176
     1
 90
       50
176
     1
 40
0.0
176
     1
 40
1.0
176
     1
 90
        0
176
     1
 62
    18
420
        0
176
     1
 90
       50
176
     1
 90
        3
176
     1
 62
     5
420
      255
176
     1
290
     0
176
     1
 90
       50
176
     1
 90
       50
176
     1
 90
       50
176
     1
290
     0
176
     1
 90
       50
176
     1
 62
   256
176
     0
 40
1.0
176
     0
 90
        2
176
     1
  1
strokes_ogs.tif
176
     1
290
     0
176
     1
 40
1.0
176
     1
 40
1.0
176
     1
  0
VISUALSTYLE
  5
2C
102
{ACAD_REACTORS
330
2A
102
}
330
2A
100
AcDbVisualStyle
  2
FlatWithEdges
 70
     1
177
     3
291
     1
 70
    58
 90
        2
176
     1
 90
        1
176
     1
 90
        1
176
     1
 90
        2
176
     1
 40
0.6
176
     1
 40
30.0
176
     1
 62
     7
420
 16777215
176
     1
 90
        1
176
     1
 90
        0
176
     1
 62
     7
176
     1
 62
   257
176
     1
 90
        1
176
     1
 90
        1
176
     1
 40
1.0
176
     1
 90
        0
176
     1
 62
   257
176
     1
 40
1.0
176
     1
 90
        1
176
     1
 90
        6
176
     1
 90
        2
176
     1
 62
     7
176
     1
 90
        5
176
     1
 90
        0
176
     1
 90
        0
176
     1
290
     0
176
     1
 90
       13
176
     1
 40
0.0
176
     1
 90
        0
176
     1
290
     0
176
     1
290
     1
176
     1
290
     1
176
     1
290
     0
176
     1
290
     0
176
     1
290
     0
176
     1
290
     0
176
     1
290
     0
176
     1
290
     0
176
     1
 90
       50
176
     1
 40
0.0
176
     1
 40
1.0
176
     1
 90
        0
176
     1
 62
    18
420
        0
176
     1
 90
       50
176
     1
 90
        3
176
     1
 62
     5
420
      255
176
     1
290
     0
176
     1
 90
       50
176
     1
 90
       50
176
     1
 90
       50
176
     1
290
     0
176
     1
 90
       50
176
     1
 62
   256
176
     0
 40
1.0
176
     0
 90
        2
176
     1
  1
strokes_ogs.tif
176
     1
290
     0
176
     1
 40
1.0
176
     1
 40
1.0
176
     1
  0
VISUALSTYLE
  5
2D
102
{ACAD_REACTORS
330
2A
102
}
330
2A
100
AcDbVisualStyle
  2
Gouraud
 70
     2
177
     3
291
     1
 70
    58
 90
        2
176
     1
 90
        2
176
     1
 90
        1
176
     1
 90
        2
176
     1
 40
0.6
176
     1
 40
30.0
176
     1
 62
     7
420
 16777215
176
     1
 90
        0
176
     1
 90
        0
176
     1
 62
     7
176
     1
 62
   257
176
     1
 90
        1
176
     1
 90
        1
176
     1
 40
1.0
176
     1
 90
        0
176
     1
 62
     7
176
     1
 40
1.0
176
     1
 90
        1
176
     1
 90
        6
176
     1
 90
        2
176
     1
 62
     7
176
     1
 90
        5
176
     1
 90
        0
176
     1
 90
        0
176
     1
290
     0
176
     1
 90
       13
176
     1
 40
0.0
176
     1
 90
        0
176
     1
290
     0
176
     1
290
     1
176
     1
290
     1
176
     1
290
     0
176
     1
290
     0
176
     1
290
     0
176
     1
290
     0
176
     1
290
     0
176
     1
290
     0
176
     1
 90
       50
176
     1
 40
0.0
176
     1
 40
1.0
176
     1
 90
        0
176
     1
 62
    18
420
        0
176
     1
 90
       50
176
     1
 90
        3
176
     1
 62
     5
420
      255
176
     1
290
     0
176
     1
 90
       50
176
     1
 90
       50
176
     1
 90
       50
176
     1
290
     0
176
     1
 90
       50
176
     1
 62
   256
176
     0
 40
1.0
176
     0
 90
        2
176
     1
  1
strokes_ogs.tif
176
     1
290
     0
176
     1
 40
1.0
176
     1
 40
1.0
176
     1
  0
VISUALSTYLE
  5
2E
102
{ACAD_REACTORS
330
2A
102
}
330
2A
100
AcDbVisualStyle
  2
GouraudWithEdges
 70
     3
177
     3
291
     1
 70
    58
 90
        2
176
     1
 90
        2
176
     1
 90
        1
176
     1
 90
        2
176
     1
 40
0.6
176
     1
 40
30.0
176
     1
 62
     7
420
 16777215
176
     1
 90
        1
176
     1
 90
        0
176
     1
 62
     7
176
     1
 62
   257
176
     1
 90
        1
176
     1
 90
        1
176
     1
 40
1.0
176
     1
 90
        0
176
     1
 62
   257
176
     1
 40
1.0
176
     1
 90
        1
176
     1
 90
        6
176
     1
 90
        2
176
     1
 62
     7
176
     1
 90
        5
176
     1
 90
        0
176
     1
 90
        0
176
     1
290
     0
176
     1
 90
       13
176
     1
 40
0.0
176
     1
 90
        0
176
     1
290
     0
176
     1
290
     1
176
     1
290
     1
176
     1
290
     0
176
     1
290
     0
176
     1
290
     0
176
     1
290
     0
176
     1
290
     0
176
     1
290
     0
176
     1
 90
       50
176
     1
 40
0.0
176
     1
 40
1.0
176
     1
 90
        0
176
     1
 62
    18
420
        0
176
     1
 90
       50
176
     1
 90
        3
176
     1
 62
     5
420
      255
176
     1
290
     0
176
     1
 90
       50
176
     1
 90
       50
176
     1
 90
       50
176
     1
290
     0
176
     1
 90
       50
176
     1
 62
   256
176
     0
 40
1.0
176
     0
 90
        2
176
     1
  1
strokes_ogs.tif
176
     1
290
     0
176
     1
 40
1.0
176
     1
 40
1.0
176
     1
  0
VISUALSTYLE
  5
31
102
{ACAD_REACTORS
330
2A
102
}
330
2A
100
AcDbVisualStyle
  2
Hidden
 70
     6
177
     3
291
     0
 70
    58
 90
        1
176
     1
 90
        2
176
     1
 90
        2
176
     1
 90
        0
176
     1
 40
0.6
176
     1
 40
30.0
176
     1
 62
     7
420
 16777215
176
     1
 90
        2
176
     1
 90
        2
176
     1
 62
     7
176
     1
 62
   257
176
     1
 90
        2
176
     1
 90
        1
176
     1
 40
40.0
176
     1
 90
        0
176
     1
 62
   257
176
     1
 40
1.0
176
     1
 90
        1
176
     1
 90
        6
176
     1
 90
        2
176
     1
 62
     7
176
     1
 90
        3
176
     1
 90
        0
176
     1
 90
        0
176
     1
290
     0
176
     1
 90
        1
176
     1
 40
0.0
176
     1
 90
        0
176
     1
290
     0
176
     1
290
     1
176
     1
290
     1
176
     1
290
     0
176
     1
290
     0
176
     1
290
     0
176
     1
290
     0
176
     1
290
     0
176
     1
290
     0
176
     1
 90
       50
176
     1
 40
0.0
176
     1
 40
1.0
176
     1
 90
        0
176
     1
 62
    18
420
        0
176
     1
 90
       50
176
     1
 90
        3
176
     1
 62
     5
420
      255
176
     1
290
     0
176
     1
 90
       50
176
     1
 90
       50
176
     1
 90
       50
176
     1
290
     0
176
     1
 90
       50
176
     1
 62
   256
176
     0
 40
1.0
176
     0
 90
        2
176
     1
  1
strokes_ogs.tif
176
     1
290
     0
176
     1
 40
1.0
176
     1
 40
1.0
176
     1
  0
VISUALSTYLE
  5
3B
102
{ACAD_REACTORS
330
2A
102
}
330
2A
100
AcDbVisualStyle
  2
JitterOff
 70
    20
177
     3
291
     1
 70
    58
 90
        2
176
     0
 90
        2
176
     0
 90
        0
176
     0
 90
        0
176
     0
 40
0.6
176
     0
 40
30.0
176
     0
 62
     7
420
 16777215
176
     0
 90
        1
176
     0
 90
        4
176
     0
 62
     7
176
     0
 62
   257
176
     0
 90
        1
176
     0
 90
        1
176
     0
 40
1.0
176
     0
 90
       10
176
     2
 62
     7
176
     0
 40
1.0
176
     0
 90
        1
176
     0
 90
        6
176
     0
 90
        2
176
     0
 62
     7
176
     0
 90
        5
176
     0
 90
        0
176
     0
 90
        0
176
     0
290
     0
176
     0
 90
        1
176
     0
 40
0.0
176
     0
 90
        0
176
     0
290
     0
176
     0
290
     1
176
     0
290
     1
176
     0
290
     0
176
     0
290
     0
176
     0
290
     0
176
     0
290
     0
176
     0
290
     0
176
     0
290
     0
176
     0
 90
       50
176
     0
 40
0.0
176
     0
 40
1.0
176
     0
 90
        0
176
     0
 62
    18
420
        0
176
     0
 90
       50
176
     0
 90
        3
176
     0
 62
     5
420
      255
176
     0
290
     0
176
     0
 90
       50
176
     0
 90
       50
176
     0
 90
       50
176
     0
290
     0
176
     0
 90
       50
176
     0
 62
   256
176
     0
 40
1.0
176
     0
 90
        2
176
     0
  1
strokes_ogs.tif
176
     0
290
     0
176
     0
 40
1.0
176
     0
 40
1.0
176
     0
  0
VISUALSTYLE
  5
38
102
{ACAD_REACTORS
330
2A
102
}
330
2A
100
AcDbVisualStyle
  2
Linepattern
 70
    14
177
     3
291
     1
 70
    58
 90
        2
176
     1
 90
        2
176
     1
 90
        0
176
     1
 90
        0
176
     1
 40
0.6
176
     1
 40
30.0
176
     1
 62
     7
420
 16777215
176
     1
 90
        1
176
     1
 90
        4
176
     1
 62
     7
176
     1
 62
   257
176
     1
 90
        7
176
     1
 90
        7
176
     1
 40
1.0
176
     1
 90
        8
176
     1
 62
     7
176
     1
 40
1.0
176
     1
 90
        1
176
     1
 90
        6
176
     1
 90
        2
176
     1
 62
     7
176
     1
 90
        5
176
     1
 90
        0
176
     1
 90
        0
176
     1
290
     0
176
     1
 90
        1
176
     1
 40
0.0
176
     1
 90
        0
176
     1
290
     0
176
     1
290
     1
176
     1
290
     1
176
     1
290
     0
176
     1
290
     0
176
     1
290
     0
176
     1
290
     0
176
     1
290
     0
176
     1
290
     0
176
     1
 90
       50
176
     1
 40
0.0
176
     1
 40
1.0
176
     1
 90
        0
176
     1
 62
    18
420
        0
176
     1
 90
       50
176
     1
 90
        3
176
     1
 62
     5
420
      255
176
     1
290
     0
176
     1
 90
       50
176
     1
 90
       50
176
     1
 90
       50
176
     1
290
     0
176
     1
 90
       50
176
     1
 62
   256
176
     0
 40
1.0
176
     0
 90
        2
176
     1
  1
strokes_ogs.tif
176
     1
290
     0
176
     1
 40
1.0
176
     1
 40
1.0
176
     1
  0
VISUALSTYLE
  5
3C
102
{ACAD_REACTORS
330
2A
102
}
330
2A
100
AcDbVisualStyle
  2
OverhangOff
 70
    21
177
     3
291
     1
 70
    58
 90
        2
176
     0
 90
        2
176
     0
 90
        0
176
     0
 90
        0
176
     0
 40
0.6
176
     0
 40
30.0
176
     0
 62
     7
420
 16777215
176
     0
 90
        1
176
     0
 90
        4
176
     0
 62
     7
176
     0
 62
   257
176
     0
 90
        1
176
     0
 90
        1
176
     0
 40
1.0
176
     0
 90
        9
176
     2
 62
     7
176
     0
 40
1.0
176
     0
 90
        1
176
     0
 90
        6
176
     0
 90
        2
176
     0
 62
     7
176
     0
 90
        5
176
     0
 90
        0
176
     0
 90
        0
176
     0
290
     0
176
     0
 90
        1
176
     0
 40
0.0
176
     0
 90
        0
176
     0
290
     0
176
     0
290
     1
176
     0
290
     1
176
     0
290
     0
176
     0
290
     0
176
     0
290
     0
176
     0
290
     0
176
     0
290
     0
176
     0
290
     0
176
     0
 90
       50
176
     0
 40
0.0
176
     0
 40
1.0
176
     0
 90
        0
176
     0
 62
    18
420
        0
176
     0
 90
       50
176
     0
 90
        3
176
     0
 62
     5
420
      255
176
     0
290
     0
176
     0
 90
       50
176
     0
 90
       50
176
     0
 90
       50
176
     0
290
     0
176
     0
 90
       50
176
     0
 62
   256
176
     0
 40
1.0
176
     0
 90
        2
176
     0
  1
strokes_ogs.tif
176
     0
290
     0
176
     0
 40
1.0
176
     0
 40
1.0
176
     0
  0
VISUALSTYLE
  5
33
102
{ACAD_REACTORS
330
2A
102
}
330
2A
100
AcDbVisualStyle
  2
Realistic
 70
     8
177
     3
291
     0
 70
    58
 90
        2
176
     1
 90
        3
176
     1
 90
        0
176
     1
 90
        2
176
     1
 40
0.6
176
     1
 40
30.0
176
     1
 62
     7
420
 16777215
176
     1
 90
        0
176
     1
 90
        0
176
     1
 62
     7
176
     1
 62
   257
176
     1
 90
        1
176
     1
 90
        1
176
     1
 40
1.0
176
     1
 90
        8
176
     1
 62
   257
176
     1
 40
1.0
176
     1
 90
        1
176
     1
 90
        6
176
     1
 90
        2
176
     1
 62
     7
176
     1
 90
        3
176
     1
 90
        0
176
     1
 90
        0
176
     1
290
     0
176
     1
 90
       13
176
     1
 40
0.0
176
     1
 90
        0
176
     1
290
     0
176
     1
290
     1
176
     1
290
     1
176
     1
290
     0
176
     1
290
     0
176
     1
290
     0
176
     1
290
     0
176
     1
290
     0
176
     1
290
     0
176
     1
 90
       50
176
     1
 40
0.0
176
     1
 40
1.0
176
     1
 90
        0
176
     1
 62
    18
420
        0
176
     1
 90
       50
176
     1
 90
        3
176
     1
 62
     5
420
      255
176
     1
290
     0
176
     1
 90
       50
176
     1
 90
       50
176
     1
 90
       50
176
     1
290
     0
176
     1
 90
       50
176
     1
 62
   256
176
     0
 40
1.0
176
     0
 90
        2
176
     1
  1
strokes_ogs.tif
176
     1
290
     0
176
     1
 40
1.0
176
     1
 40
1.0
176
     1
  0
VISUALSTYLE
  5
42
102
{ACAD_REACTORS
330
2A
102
}
330
2A
100
AcDbVisualStyle
  2
Shaded
 70
    27
177
     3
291
     0
 70
    58
 90
        2
176
     1
 90
        2
176
     1
 90
        1
176
     1
 90
        2
176
     1
 40
0.6
176
     1
 40
30.0
176
     1
 62
     7
420
 16777215
176
     1
 90
        0
176
     1
 90
        4
176
     1
 62
     7
176
     1
 62
   257
176
     1
 90
        1
176
     1
 90
        1
176
     1
 40
1.0
176
     1
 90
        8
176
     1
 62
   257
176
     1
 40
1.0
176
     1
 90
        1
176
     1
 90
        6
176
     1
 90
        2
176
     1
 62
     8
420
  7895160
176
     1
 90
        3
176
     1
 90
        0
176
     1
 90
        0
176
     1
290
     0
176
     1
 90
        5
176
     1
 40
0.0
176
     1
 90
        0
176
     1
290
     0
176
     1
290
     1
176
     1
290
     1
176
     1
290
     0
176
     1
290
     0
176
     1
290
     0
176
     1
290
     0
176
     1
290
     0
176
     1
290
     0
176
     1
 90
       50
176
     1
 40
0.0
176
     1
 40
1.0
176
     1
 90
        0
176
     1
 62
    18
420
        0
176
     1
 90
       50
176
     1
 90
        3
176
     1
 62
     5
420
      255
176
     1
290
     0
176
     1
 90
       50
176
     1
 90
       50
176
     1
 90
       50
176
     1
290
     0
176
     1
 90
       50
176
     1
 62
   256
176
     0
 40
1.0
176
     0
 90
        2
176
     1
  1
strokes_ogs.tif
176
     1
290
     0
176
     1
 40
1.0
176
     1
 40
1.0
176
     1
  0
VISUALSTYLE
  5
41
102
{ACAD_REACTORS
330
2A
102
}
330
2A
100
AcDbVisualStyle
  2
Shaded with edges
 70
    26
177
     3
291
     0
 70
    58
 90
        2
176
     1
 90
        2
176
     1
 90
        1
176
     1
 90
        2
176
     1
 40
0.6
176
     1
 40
30.0
176
     1
 62
     7
420
 16777215
176
     1
 90
        1
176
     1
 90
       10
176
     1
 62
     7
176
     1
 62
   257
176
     1
 90
        2
176
     1
 90
        1
176
     1
 40
1.0
176
     1
 90
        8
176
     1
 62
   257
176
     1
 40
1.0
176
     1
 90
        1
176
     1
 90
        6
176
     1
 90
        2
176
     1
 62
     7
176
     1
 90
        3
176
     1
 90
        0
176
     1
 90
        0
176
     1
290
     0
176
     1
 90
        5
176
     1
 40
0.0
176
     1
 90
        0
176
     1
290
     0
176
     1
290
     1
176
     1
290
     1
176
     1
290
     0
176
     1
290
     0
176
     1
290
     0
176
     1
290
     0
176
     1
290
     0
176
     1
290
     0
176
     1
 90
       50
176
     1
 40
0.0
176
     1
 40
1.0
176
     1
 90
        0
176
     1
 62
    18
420
        0
176
     1
 90
       50
176
     1
 90
        3
176
     1
 62
     5
420
      255
176
     1
290
     0
176
     1
 90
       50
176
     1
 90
       50
176
     1
 90
       50
176
     1
290
     0
176
     1
 90
       50
176
     1
 62
   256
176
     0
 40
1.0
176
     0
 90
        2
176
     1
  1
strokes_ogs.tif
176
     1
290
     0
176
     1
 40
1.0
176
     1
 40
1.0
176
     1
  0
VISUALSTYLE
  5
3E
102
{ACAD_REACTORS
330
2A
102
}
330
2A
100
AcDbVisualStyle
  2
Shades of Gray
 70
    23
177
     3
291
     0
 70
    58
 90
        2
176
     1
 90
        2
176
     1
 90
        3
176
     1
 90
        0
176
     1
 40
0.6
176
     1
 40
30.0
176
     1
 62
     7
420
 16777215
176
     1
 90
        2
176
     1
 90
        2
176
     1
 62
     7
176
     1
 62
     7
176
     1
 90
        1
176
     1
 90
        1
176
     1
 40
40.0
176
     1
 90
        8
176
     1
 62
     7
176
     1
 40
1.0
176
     1
 90
        1
176
     1
 90
        6
176
     1
 90
        2
176
     1
 62
     7
176
     1
 90
        3
176
     1
 90
        0
176
     1
 90
        0
176
     1
290
     0
176
     1
 90
        1
176
     1
 40
0.0
176
     1
 90
        0
176
     1
290
     0
176
     1
290
     1
176
     1
290
     1
176
     1
290
     0
176
     1
290
     0
176
     1
290
     0
176
     1
290
     0
176
     1
290
     0
176
     1
290
     0
176
     1
 90
       50
176
     1
 40
0.0
176
     1
 40
1.0
176
     1
 90
        0
176
     1
 62
    18
420
        0
176
     1
 90
       50
176
     1
 90
        3
176
     1
 62
     5
420
      255
176
     1
290
     0
176
     1
 90
       50
176
     1
 90
       50
176
     1
 90
       50
176
     1
290
     0
176
     1
 90
       50
176
     1
 62
   256
176
     0
 40
1.0
176
     0
 90
        2
176
     1
  1
strokes_ogs.tif
176
     1
290
     0
176
     1
 40
1.0
176
     1
 40
1.0
176
     1
  0
VISUALSTYLE
  5
3F
102
{ACAD_REACTORS
330
2A
102
}
330
2A
100
AcDbVisualStyle
  2
Sketchy
 70
    24
177
     3
291
     0
 70
    58
 90
        1
176
     1
 90
        2
176
     1
 90
        2
176
     1
 90
        0
176
     1
 40
0.6
176
     1
 40
30.0
176
     1
 62
     7
420
 16777215
176
     1
 90
        2
176
     1
 90
        2
176
     1
 62
     7
176
     1
 62
     7
176
     1
 90
        1
176
     1
 90
        1
176
     1
 40
40.0
176
     1
 90
       11
176
     1
 62
     7
176
     1
 40
1.0
176
     1
 90
        1
176
     1
 90
        6
176
     1
 90
        2
176
     1
 62
     7
176
     1
 90
        6
176
     1
 90
        0
176
     1
 90
        0
176
     1
290
     0
176
     1
 90
        1
176
     1
 40
0.0
176
     1
 90
        0
176
     1
290
     0
176
     1
290
     1
176
     1
290
     1
176
     1
290
     0
176
     1
290
     0
176
     1
290
     0
176
     1
290
     0
176
     1
290
     0
176
     1
290
     0
176
     1
 90
       50
176
     1
 40
0.0
176
     1
 40
1.0
176
     1
 90
        0
176
     1
 62
    18
420
        0
176
     1
 90
       50
176
     1
 90
        3
176
     1
 62
     5
420
      255
176
     1
290
     0
176
     1
 90
       50
176
     1
 90
       50
176
     1
 90
       50
176
     1
290
     0
176
     1
 90
       50
176
     1
 62
   256
176
     0
 40
1.0
176
     0
 90
        2
176
     1
  1
strokes_ogs.tif
176
     1
290
     0
176
     1
 40
1.0
176
     1
 40
1.0
176
     1
  0
VISUALSTYLE
  5
37
102
{ACAD_REACTORS
330
2A
102
}
330
2A
100
AcDbVisualStyle
  2
Thicken
 70
    13
177
     3
291
     1
 70
    58
 90
        2
176
     1
 90
        2
176
     1
 90
        0
176
     1
 90
        0
176
     1
 40
0.6
176
     1
 40
30.0
176
     1
 62
     7
420
 16777215
176
     1
 90
        1
176
     1
 90
        4
176
     1
 62
     7
176
     1
 62
   257
176
     1
 90
        1
176
     1
 90
        1
176
     1
 40
1.0
176
     1
 90
       12
176
     1
 62
     7
176
     1
 40
1.0
176
     1
 90
        1
176
     1
 90
        6
176
     1
 90
        2
176
     1
 62
     7
176
     1
 90
        5
176
     1
 90
        0
176
     1
 90
        0
176
     1
290
     0
176
     1
 90
        1
176
     1
 40
0.0
176
     1
 90
        0
176
     1
290
     0
176
     1
290
     1
176
     1
290
     1
176
     1
290
     0
176
     1
290
     0
176
     1
290
     0
176
     1
290
     0
176
     1
290
     0
176
     1
290
     0
176
     1
 90
       50
176
     1
 40
0.0
176
     1
 40
1.0
176
     1
 90
        0
176
     1
 62
    18
420
        0
176
     1
 90
       50
176
     1
 90
        3
176
     1
 62
     5
420
      255
176
     1
290
     0
176
     1
 90
       50
176
     1
 90
       50
176
     1
 90
       50
176
     1
290
     0
176
     1
 90
       50
176
     1
 62
   256
176
     0
 40
1.0
176
     0
 90
        2
176
     1
  1
strokes_ogs.tif
176
     1
290
     0
176
     1
 40
1.0
176
     1
 40
1.0
176
     1
  0
VISUALSTYLE
  5
30
102
{ACAD_REACTORS
330
2A
102
}
330
2A
100
AcDbVisualStyle
  2
Wireframe
 70
     5
177
     3
291
     0
 70
    58
 90
        0
176
     1
 90
        2
176
     1
 90
        0
176
     1
 90
        0
176
     1
 40
0.6
176
     1
 40
30.0
176
     1
 62
     7
420
 16777215
176
     1
 90
        1
176
     1
 90
        4
176
     1
 62
     7
176
     1
 62
   257
176
     1
 90
        1
176
     1
 90
        1
176
     1
 40
1.0
176
     1
 90
        0
176
     1
 62
   257
176
     1
 40
1.0
176
     1
 90
        1
176
     1
 90
        6
176
     1
 90
        2
176
     1
 62
     7
176
     1
 90
        3
176
     1
 90
        0
176
     1
 90
        0
176
     1
290
     0
176
     1
 90
        1
176
     1
 40
0.0
176
     1
 90
        0
176
     1
290
     0
176
     1
290
     1
176
     1
290
     1
176
     1
290
     0
176
     1
290
     0
176
     1
290
     0
176
     1
290
     0
176
     1
290
     0
176
     1
290
     0
176
     1
 90
       50
176
     1
 40
0.0
176
     1
 40
1.0
176
     1
 90
        0
176
     1
 62
    18
420
        0
176
     1
 90
       50
176
     1
 90
        3
176
     1
 62
     5
420
      255
176
     1
290
     0
176
     1
 90
       50
176
     1
 90
       50
176
     1
 90
       50
176
     1
290
     0
176
     1
 90
       50
176
     1
 62
   256
176
     0
 40
1.0
176
     0
 90
        2
176
     1
  1
strokes_ogs.tif
176
     1
290
     0
176
     1
 40
1.0
176
     1
 40
1.0
176
     1
  0
VISUALSTYLE
  5
40
102
{ACAD_REACTORS
330
2A
102
}
330
2A
100
AcDbVisualStyle
  2
X-Ray
 70
    25
177
     3
291
     0
 70
    58
 90
        2
176
     1
 90
        2
176
     1
 90
        1
176
     1
 90
        1
176
     1
 40
0.5
176
     1
 40
30.0
176
     1
 62
     7
420
 16777215
176
     1
 90
        1
176
     1
 90
        0
176
     1
 62
     7
176
     1
 62
   257
176
     1
 90
        1
176
     1
 90
        1
176
     1
 40
1.0
176
     1
 90
        8
176
     1
 62
     7
176
     1
 40
1.0
176
     1
 90
        1
176
     1
 90
        6
176
     1
 90
        2
176
     1
 62
     7
176
     1
 90
        3
176
     1
 90
        0
176
     1
 90
        0
176
     1
290
     0
176
     1
 90
       13
176
     1
 40
0.0
176
     1
 90
        0
176
     1
290
     0
176
     1
290
     1
176
     1
290
     1
176
     1
290
     0
176
     1
290
     0
176
     1
290
     0
176
     1
290
     0
176
     1
290
     0
176
     1
290
     0
176
     1
 90
       50
176
     1
 40
0.0
176
     1
 40
1.0
176
     1
 90
        0
176
     1
 62
    18
420
        0
176
     1
 90
       50
176
     1
 90
        3
176
     1
 62
     5
420
      255
176
     1
290
     0
176
     1
 90
       50
176
     1
 90
       50
176
     1
 90
       50
176
     1
290
     0
176
     1
 90
       50
176
     1
 62
   256
176
     0
 40
1.0
176
     0
 90
        2
176
     1
  1
strokes_ogs.tif
176
     1
290
     0
176
     1
 40
1.0
176
     1
 40
1.0
176
     1
  0
DICTIONARYVAR
  5
1DE
102
{ACAD_REACTORS
330
1DD
102
}
330
1DD
100
DictionaryVariables
280
     0
  1
1:1
  0
DICTIONARYVAR
  5
1E3
102
{ACAD_REACTORS
330
1DD
102
}
330
1DD
100
DictionaryVariables
280
     0
  1
Standard
  0
DICTIONARYVAR
  5
1E2
102
{ACAD_REACTORS
330
1DD
102
}
330
1DD
100
DictionaryVariables
280
     0
  1
Standard
  0
DICTIONARY
  5
1DF
330
6A
100
AcDbDictionary
280
     1
281
     1
  3
ACAD_ROUNDTRIP_2008_TABLESTYLE_CELLSTYLEMAP
360
1E0
  0
CELLSTYLEMAP
  5
1E0
102
{ACAD_REACTORS
330
1DF
102
}
330
1DF
100
AcDbCellStyleMap
 90
        3
300
CELLSTYLE
  1
TABLEFORMAT_BEGIN
 90
        5
170
     1
 91
        0
 92
    32768
 62
   257
 93
        1
300
CONTENTFORMAT
  1
CONTENTFORMAT_BEGIN
 90
        0
 91
        0
 92
        4
 93
        0
300

 40
0.0
140
1.0
 94
        5
 62
     0
340
11
144
0.25
309
CONTENTFORMAT_END
171
     1
301
MARGIN
  1
CELLMARGIN_BEGIN
 40
0.06
 40
0.06
 40
0.06
 40
0.06
 40
0.06
 40
0.06
309
CELLMARGIN_END
 94
        6
 95
        1
302
GRIDFORMAT
  1
GRIDFORMAT_BEGIN
 90
        0
 91
        1
 62
     0
 92
       -2
340
14
 93
        0
 40
0.045
309
GRIDFORMAT_END
 95
        2
302
GRIDFORMAT
  1
GRIDFORMAT_BEGIN
 90
        0
 91
        1
 62
     0
 92
       -2
340
14
 93
        0
 40
0.045
309
GRIDFORMAT_END
 95
        4
302
GRIDFORMAT
  1
GRIDFORMAT_BEGIN
 90
        0
 91
        1
 62
     0
 92
       -2
340
14
 93
        0
 40
0.045
309
GRIDFORMAT_END
 95
        8
302
GRIDFORMAT
  1
GRIDFORMAT_BEGIN
 90
        0
 91
        1
 62
     0
 92
       -2
340
14
 93
        0
 40
0.045
309
GRIDFORMAT_END
 95
       16
302
GRIDFORMAT
  1
GRIDFORMAT_BEGIN
 90
        0
 91
        1
 62
     0
 92
       -2
340
14
 93
        0
 40
0.045
309
GRIDFORMAT_END
 95
       32
302
GRIDFORMAT
  1
GRIDFORMAT_BEGIN
 90
        0
 91
        1
 62
     0
 92
       -2
340
14
 93
        0
 40
0.045
309
GRIDFORMAT_END
309
TABLEFORMAT_END
  1
CELLSTYLE_BEGIN
 90
        1
 91
        1
300
_TITLE
309
CELLSTYLE_END
300
CELLSTYLE
  1
TABLEFORMAT_BEGIN
 90
        5
170
     1
 91
        0
 92
        0
 62
   257
 93
        1
300
CONTENTFORMAT
  1
CONTENTFORMAT_BEGIN
 90
        0
 91
        0
 92
        4
 93
        0
300

 40
0.0
140
1.0
 94
        5
 62
     0
340
11
144
0.18
309
CONTENTFORMAT_END
171
     1
301
MARGIN
  1
CELLMARGIN_BEGIN
 40
0.06
 40
0.06
 40
0.06
 40
0.06
 40
0.06
 40
0.06
309
CELLMARGIN_END
 94
        6
 95
        1
302
GRIDFORMAT
  1
GRIDFORMAT_BEGIN
 90
        0
 91
        1
 62
     0
 92
       -2
340
14
 93
        0
 40
0.045
309
GRIDFORMAT_END
 95
        2
302
GRIDFORMAT
  1
GRIDFORMAT_BEGIN
 90
        0
 91
        1
 62
     0
 92
       -2
340
14
 93
        0
 40
0.045
309
GRIDFORMAT_END
 95
        4
302
GRIDFORMAT
  1
GRIDFORMAT_BEGIN
 90
        0
 91
        1
 62
     0
 92
       -2
340
14
 93
        0
 40
0.045
309
GRIDFORMAT_END
 95
        8
302
GRIDFORMAT
  1
GRIDFORMAT_BEGIN
 90
        0
 91
        1
 62
     0
 92
       -2
340
14
 93
        0
 40
0.045
309
GRIDFORMAT_END
 95
       16
302
GRIDFORMAT
  1
GRIDFORMAT_BEGIN
 90
        0
 91
        1
 62
     0
 92
       -2
340
14
 93
        0
 40
0.045
309
GRIDFORMAT_END
 95
       32
302
GRIDFORMAT
  1
GRIDFORMAT_BEGIN
 90
        0
 91
        1
 62
     0
 92
       -2
340
14
 93
        0
 40
0.045
309
GRIDFORMAT_END
309
TABLEFORMAT_END
  1
CELLSTYLE_BEGIN
 90
        2
 91
        1
300
_HEADER
309
CELLSTYLE_END
300
CELLSTYLE
  1
TABLEFORMAT_BEGIN
 90
        5
170
     1
 91
        0
 92
        0
 62
   257
 93
        1
300
CONTENTFORMAT
  1
CONTENTFORMAT_BEGIN
 90
        0
 91
        0
 92
        4
 93
        0
300

 40
0.0
140
1.0
 94
        2
 62
     0
340
11
144
0.18
309
CONTENTFORMAT_END
171
     1
301
MARGIN
  1
CELLMARGIN_BEGIN
 40
0.06
 40
0.06
 40
0.06
 40
0.06
 40
0.06
 40
0.06
309
CELLMARGIN_END
 94
        6
 95
        1
302
GRIDFORMAT
  1
GRIDFORMAT_BEGIN
 90
        0
 91
        1
 62
     0
 92
       -2
340
14
 93
        0
 40
0.045
309
GRIDFORMAT_END
 95
        2
302
GRIDFORMAT
  1
GRIDFORMAT_BEGIN
 90
        0
 91
        1
 62
     0
 92
       -2
340
14
 93
        0
 40
0.045
309
GRIDFORMAT_END
 95
        4
302
GRIDFORMAT
  1
GRIDFORMAT_BEGIN
 90
        0
 91
        1
 62
     0
 92
       -2
340
14
 93
        0
 40
0.045
309
GRIDFORMAT_END
 95
        8
302
GRIDFORMAT
  1
GRIDFORMAT_BEGIN
 90
        0
 91
        1
 62
     0
 92
       -2
340
14
 93
        0
 40
0.045
309
GRIDFORMAT_END
 95
       16
302
GRIDFORMAT
  1
GRIDFORMAT_BEGIN
 90
        0
 91
        1
 62
     0
 92
       -2
340
14
 93
        0
 40
0.045
309
GRIDFORMAT_END
 95
       32
302
GRIDFORMAT
  1
GRIDFORMAT_BEGIN
 90
        0
 91
        1
 62
     0
 92
       -2
340
14
 93
        0
 40
0.045
309
GRIDFORMAT_END
309
TABLEFORMAT_END
  1
CELLSTYLE_BEGIN
 90
        3
 91
        2
300
_DATA
309
CELLSTYLE_END
  0
ENDSEC
  0
EOF