0
SECTION
  2
HEADER
  9
$ACADVER
  1
AC1027
  9
$ACADMAINTVER
 70
     8
  9
$DWGCODEPAGE
  3
ANSI_1252
  9
$REQUIREDVERSIONS
160
                 0
  9
$COMMENTS
  1
File was created by Cadenas
  9
$CUSTOMPROPERTYTAG
  1
NN
  9
$CUSTOMPROPERTY
  1
Eccentric Collar Intermediate Duty Two-Bolt Pillow Block Inch Bore
  9
$CUSTOMPROPERTYTAG
  1
NT
  9
$CUSTOMPROPERTY
  1
Eccentric Collar Pillow Block Bearings -(Intermediate Duty)
  9
$CUSTOMPROPERTYTAG
  1
NB
  9
$CUSTOMPROPERTY
  1
130310
  9
$CUSTOMPROPERTYTAG
  1
NBSYN
  9
$CUSTOMPROPERTY
  1
$PN.
  9
$CUSTOMPROPERTYTAG
  1
LINA
  9
$CUSTOMPROPERTY
  1
130310
  9
$CUSTOMPROPERTYTAG
  1
SERIES
  9
$CUSTOMPROPERTY
  1
203
  9
$CUSTOMPROPERTYTAG
  1
SS
  9
$CUSTOMPROPERTY
  1
1/2
  9
$CUSTOMPROPERTYTAG
  1
PN
  9
$CUSTOMPROPERTY
  1
130310
  9
$CUSTOMPROPERTYTAG
  1
DESCRIPTION
  9
$CUSTOMPROPERTY
  1
P2B-SXV-008
  9
$CUSTOMPROPERTYTAG
  1
LF
  9
$CUSTOMPROPERTY
  1
RE-LUBE
  9
$CUSTOMPROPERTYTAG
  1
WEIGHT
  9
$CUSTOMPROPERTY
  1
1.20
  9
$CUSTOMPROPERTYTAG
  1
A
  9
$CUSTOMPROPERTY
  1
1.13
  9
$CUSTOMPROPERTYTAG
  1
B
  9
$CUSTOMPROPERTY
  1
5.00
  9
$CUSTOMPROPERTYTAG
  1
C
  9
$CUSTOMPROPERTY
  1
1.20
  9
$CUSTOMPROPERTYTAG
  1
DMIN
  9
$CUSTOMPROPERTY
  1
3.25
  9
$CUSTOMPROPERTYTAG
  1
DMAX
  9
$CUSTOMPROPERTY
  1
4.06
  9
$CUSTOMPROPERTYTAG
  1
F
  9
$CUSTOMPROPERTY
  1
3/8
  9
$CUSTOMPROPERTYTAG
  1
G
  9
$CUSTOMPROPERTY
  1
0.84
  9
$CUSTOMPROPERTYTAG
  1
H
  9
$CUSTOMPROPERTY
  1
0.47
  9
$CUSTOMPROPERTYTAG
  1
J
  9
$CUSTOMPROPERTY
  1
2.14
  9
$CUSTOMPROPERTYTAG
  1
L
  9
$CUSTOMPROPERTY
  1
1.13
  9
$CUSTOMPROPERTYTAG
  1
M
  9
$CUSTOMPROPERTY
  1
1.06
  9
$CUSTOMPROPERTYTAG
  1
R
  9
$CUSTOMPROPERTY
  1
0.26
  9
$CUSTOMPROPERTYTAG
  1
S
  9
$CUSTOMPROPERTY
  1
0.87
  9
$CUSTOMPROPERTYTAG
  1
U
  9
$CUSTOMPROPERTY
  1
2.25
  9
$CUSTOMPROPERTYTAG
  1
V
  9
$CUSTOMPROPERTY
  1
4.50
  9
$CUSTOMPROPERTYTAG
  1
W
  9
$CUSTOMPROPERTY
  1
0.38
  9
$CUSTOMPROPERTYTAG
  1
X
  9
$CUSTOMPROPERTY
  1
0.12
  9
$CUSTOMPROPERTYTAG
  1
COMPANY
  9
$CUSTOMPROPERTY
  1
baldor
  9
$INSBASE
 10
0.0
 20
0.0
 30
0.0
  9
$EXTMIN
 10
1.000000000000000E+20
 20
1.000000000000000E+20
 30
1.000000000000000E+20
  9
$EXTMAX
 10
-1.000000000000000E+20
 20
-1.000000000000000E+20
 30
-1.000000000000000E+20
  9
$LIMMIN
 10
0.0
 20
0.0
  9
$LIMMAX
 10
12.0
 20
9.0
  9
$ORTHOMODE
 70
     0
  9
$REGENMODE
 70
     1
  9
$FILLMODE
 70
     1
  9
$QTEXTMODE
 70
     0
  9
$MIRRTEXT
 70
     1
  9
$LTSCALE
 40
1.0
  9
$ATTMODE
 70
     1
  9
$TEXTSIZE
 40
0.2
  9
$TRACEWID
 40
0.05
  9
$TEXTSTYLE
  7
Standard
  9
$CLAYER
  8
0
  9
$CELTYPE
  6
ByLayer
  9
$CECOLOR
 62
   256
  9
$CELTSCALE
 40
1.0
  9
$DISPSILH
 70
     0
  9
$DIMSCALE
 40
1.0
  9
$DIMASZ
 40
0.18
  9
$DIMEXO
 40
0.0625
  9
$DIMDLI
 40
0.38
  9
$DIMRND
 40
0.0
  9
$DIMDLE
 40
0.0
  9
$DIMEXE
 40
0.18
  9
$DIMTP
 40
0.0
  9
$DIMTM
 40
0.0
  9
$DIMTXT
 40
0.18
  9
$DIMCEN
 40
0.09
  9
$DIMTSZ
 40
0.0
  9
$DIMTOL
 70
     0
  9
$DIMLIM
 70
     0
  9
$DIMTIH
 70
     1
  9
$DIMTOH
 70
     1
  9
$DIMSE1
 70
     0
  9
$DIMSE2
 70
     0
  9
$DIMTAD
 70
     0
  9
$DIMZIN
 70
     0
  9
$DIMBLK
  1

  9
$DIMASO
 70
     1
  9
$DIMSHO
 70
     1
  9
$DIMPOST
  1

  9
$DIMAPOST
  1

  9
$DIMALT
 70
     0
  9
$DIMALTD
 70
     2
  9
$DIMALTF
 40
25.4
  9
$DIMLFAC
 40
1.0
  9
$DIMTOFL
 70
     0
  9
$DIMTVP
 40
0.0
  9
$DIMTIX
 70
     0
  9
$DIMSOXD
 70
     0
  9
$DIMSAH
 70
     0
  9
$DIMBLK1
  1

  9
$DIMBLK2
  1

  9
$DIMSTYLE
  2
Standard
  9
$DIMCLRD
 70
     0
  9
$DIMCLRE
 70
     0
  9
$DIMCLRT
 70
     0
  9
$DIMTFAC
 40
1.0
  9
$DIMGAP
 40
0.09
  9
$DIMJUST
 70
     0
  9
$DIMSD1
 70
     0
  9
$DIMSD2
 70
     0
  9
$DIMTOLJ
 70
     1
  9
$DIMTZIN
 70
     0
  9
$DIMALTZ
 70
     0
  9
$DIMALTTZ
 70
     0
  9
$DIMUPT
 70
     0
  9
$DIMDEC
 70
     4
  9
$DIMTDEC
 70
     4
  9
$DIMALTU
 70
     2
  9
$DIMALTTD
 70
     2
  9
$DIMTXSTY
  7
Standard
  9
$DIMAUNIT
 70
     0
  9
$DIMADEC
 70
     0
  9
$DIMALTRND
 40
0.0
  9
$DIMAZIN
 70
     0
  9
$DIMDSEP
 70
    46
  9
$DIMATFIT
 70
     3
  9
$DIMFRAC
 70
     0
  9
$DIMLDRBLK
  1

  9
$DIMLUNIT
 70
     2
  9
$DIMLWD
 70
    -2
  9
$DIMLWE
 70
    -2
  9
$DIMTMOVE
 70
     0
  9
$DIMFXL
 40
1.0
  9
$DIMFXLON
 70
     0
  9
$DIMJOGANG
 40
0.7853981633974483
  9
$DIMTFILL
 70
     0
  9
$DIMTFILLCLR
 70
     0
  9
$DIMARCSYM
 70
     0
  9
$DIMLTYPE
  6

  9
$DIMLTEX1
  6

  9
$DIMLTEX2
  6

  9
$DIMTXTDIRECTION
 70
     0
  9
$LUNITS
 70
     2
  9
$LUPREC
 70
     4
  9
$SKETCHINC
 40
0.1
  9
$FILLETRAD
 40
0.5
  9
$AUNITS
 70
     0
  9
$AUPREC
 70
     0
  9
$MENU
  1
.
  9
$ELEVATION
 40
0.0
  9
$PELEVATION
 40
0.0
  9
$THICKNESS
 40
0.0
  9
$LIMCHECK
 70
     0
  9
$CHAMFERA
 40
0.0
  9
$CHAMFERB
 40
0.0
  9
$CHAMFERC
 40
0.0
  9
$CHAMFERD
 40
0.0
  9
$SKPOLY
 70
     0
  9
$TDCREATE
 40
2458169.003338426
  9
$TDUCREATE
 40
2458168.961671759
  9
$TDUPDATE
 40
2458169.003338611
  9
$TDUUPDATE
 40
2458168.961671944
  9
$TDINDWG
 40
0.0000000116
  9
$TDUSRTIMER
 40
0.0000000116
  9
$USRTIMER
 70
     1
  9
$ANGBASE
 50
0.0
  9
$ANGDIR
 70
     0
  9
$PDMODE
 70
     0
  9
$PDSIZE
 40
0.0
  9
$PLINEWID
 40
0.0
  9
$SPLFRAME
 70
     0
  9
$SPLINETYPE
 70
     6
  9
$SPLINESEGS
 70
     8
  9
$HANDSEED
  5
1DA
  9
$SURFTAB1
 70
     6
  9
$SURFTAB2
 70
     6
  9
$SURFTYPE
 70
     6
  9
$SURFU
 70
     6
  9
$SURFV
 70
     6
  9
$UCSBASE
  2

  9
$UCSNAME
  2

  9
$UCSORG
 10
0.0
 20
0.0
 30
0.0
  9
$UCSXDIR
 10
1.0
 20
0.0
 30
0.0
  9
$UCSYDIR
 10
0.0
 20
1.0
 30
0.0
  9
$UCSORTHOREF
  2

  9
$UCSORTHOVIEW
 70
     0
  9
$UCSORGTOP
 10
0.0
 20
0.0
 30
0.0
  9
$UCSORGBOTTOM
 10
0.0
 20
0.0
 30
0.0
  9
$UCSORGLEFT
 10
0.0
 20
0.0
 30
0.0
  9
$UCSORGRIGHT
 10
0.0
 20
0.0
 30
0.0
  9
$UCSORGFRONT
 10
0.0
 20
0.0
 30
0.0
  9
$UCSORGBACK
 10
0.0
 20
0.0
 30
0.0
  9
$PUCSBASE
  2

  9
$PUCSNAME
  2

  9
$PUCSORG
 10
0.0
 20
0.0
 30
0.0
  9
$PUCSXDIR
 10
1.0
 20
0.0
 30
0.0
  9
$PUCSYDIR
 10
0.0
 20
1.0
 30
0.0
  9
$PUCSORTHOREF
  2

  9
$PUCSORTHOVIEW
 70
     0
  9
$PUCSORGTOP
 10
0.0
 20
0.0
 30
0.0
  9
$PUCSORGBOTTOM
 10
0.0
 20
0.0
 30
0.0
  9
$PUCSORGLEFT
 10
0.0
 20
0.0
 30
0.0
  9
$PUCSORGRIGHT
 10
0.0
 20
0.0
 30
0.0
  9
$PUCSORGFRONT
 10
0.0
 20
0.0
 30
0.0
  9
$PUCSORGBACK
 10
0.0
 20
0.0
 30
0.0
  9
$USERI1
 70
     0
  9
$USERI2
 70
     0
  9
$USERI3
 70
     0
  9
$USERI4
 70
     0
  9
$USERI5
 70
     0
  9
$USERR1
 40
0.0
  9
$USERR2
 40
0.0
  9
$USERR3
 40
0.0
  9
$USERR4
 40
0.0
  9
$USERR5
 40
0.0
  9
$WORLDVIEW
 70
     1
  9
$SHADEDGE
 70
     3
  9
$SHADEDIF
 70
    70
  9
$TILEMODE
 70
     1
  9
$MAXACTVP
 70
    64
  9
$PINSBASE
 10
0.0
 20
0.0
 30
0.0
  9
$PLIMCHECK
 70
     0
  9
$PEXTMIN
 10
1.000000000000000E+20
 20
1.000000000000000E+20
 30
1.000000000000000E+20
  9
$PEXTMAX
 10
-1.000000000000000E+20
 20
-1.000000000000000E+20
 30
-1.000000000000000E+20
  9
$PLIMMIN
 10
0.0
 20
0.0
  9
$PLIMMAX
 10
12.0
 20
9.0
  9
$UNITMODE
 70
     0
  9
$VISRETAIN
 70
     1
  9
$PLINEGEN
 70
     0
  9
$PSLTSCALE
 70
     1
  9
$TREEDEPTH
 70
  3020
  9
$CMLSTYLE
  2
Standard
  9
$CMLJUST
 70
     0
  9
$CMLSCALE
 40
1.0
  9
$PROXYGRAPHICS
 70
     1
  9
$MEASUREMENT
 70
     0
  9
$CELWEIGHT
370
    -1
  9
$ENDCAPS
280
     0
  9
$JOINSTYLE
280
     0
  9
$LWDISPLAY
290
     0
  9
$INSUNITS
 70
     1
  9
$HYPERLINKBASE
  1

  9
$STYLESHEET
  1

  9
$XEDIT
290
     1
  9
$CEPSNTYPE
380
     0
  9
$PSTYLEMODE
290
     1
  9
$FINGERPRINTGUID
  2
{9805947A-1EE0-4441-BEF6-B0E44F4B460E}
  9
$VERSIONGUID
  2
{FAEB1C32-E019-11D5-929B-00C0DF256EC4}
  9
$EXTNAMES
290
     1
  9
$PSVPSCALE
 40
0.0
  9
$OLESTARTUP
290
     0
  9
$SORTENTS
280
   127
  9
$INDEXCTL
280
     0
  9
$HIDETEXT
280
     1
  9
$XCLIPFRAME
280
     2
  9
$HALOGAP
280
     0
  9
$OBSCOLOR
 70
   257
  9
$OBSLTYPE
280
     0
  9
$INTERSECTIONDISPLAY
280
     0
  9
$INTERSECTIONCOLOR
 70
   257
  9
$DIMASSOC
280
     2
  9
$PROJECTNAME
  1

  9
$CAMERADISPLAY
290
     0
  9
$LENSLENGTH
 40
50.0
  9
$CAMERAHEIGHT
 40
0.0
  9
$STEPSPERSEC
 40
2.0
  9
$STEPSIZE
 40
6.0
  9
$3DDWFPREC
 40
2.0
  9
$PSOLWIDTH
 40
0.25
  9
$PSOLHEIGHT
 40
4.0
  9
$LOFTANG1
 40
1.570796326794897
  9
$LOFTANG2
 40
1.570796326794897
  9
$LOFTMAG1
 40
0.0
  9
$LOFTMAG2
 40
0.0
  9
$LOFTPARAM
 70
     7
  9
$LOFTNORMALS
280
     1
  9
$LATITUDE
 40
37.795
  9
$LONGITUDE
 40
-122.394
  9
$NORTHDIRECTION
 40
0.0
  9
$TIMEZONE
 70
 -8000
  9
$LIGHTGLYPHDISPLAY
280
     1
  9
$TILEMODELIGHTSYNCH
280
     1
  9
$CMATERIAL
347
44
  9
$SOLIDHIST
280
     0
  9
$SHOWHIST
280
     1
  9
$DWFFRAME
280
     2
  9
$DGNFRAME
280
     2
  9
$REALWORLDSCALE
290
     1
  9
$INTERFERECOLOR
 62
   256
  9
$CSHADOW
280
     0
  9
$SHADOWPLANELOCATION
 40
0.0
  0
ENDSEC
  0
SECTION
  2
CLASSES
  0
CLASS
  1
ACDBDICTIONARYWDFLT
  2
AcDbDictionaryWithDefault
  3
ObjectDBX Classes
 90
        0
 91
        4
280
     0
281
     0
  0
CLASS
  1
VISUALSTYLE
  2
AcDbVisualStyle
  3
ObjectDBX Classes
 90
     4095
 91
        4
280
     0
281
     0
  0
CLASS
  1
MATERIAL
  2
AcDbMaterial
  3
ObjectDBX Classes
 90
     1153
 91
        4
280
     0
281
     0
  0
CLASS
  1
SCALE
  2
AcDbScale
  3
ObjectDBX Classes
 90
     1153
 91
        4
280
     0
281
     0
  0
CLASS
  1
TABLESTYLE
  2
AcDbTableStyle
  3
ObjectDBX Classes
 90
     4095
 91
        4
280
     0
281
     0
  0
CLASS
  1
MLEADERSTYLE
  2
AcDbMLeaderStyle
  3
ACDB_MLEADERSTYLE_CLASS
 90
     4095
 91
        4
280
     0
281
     0
  0
CLASS
  1
SUN
  2
AcDbSun
  3
SCENEOE
 90
     1153
 91
        4
280
     0
281
     0
  0
CLASS
  1
DICTIONARYVAR
  2
AcDbDictionaryVar
  3
ObjectDBX Classes
 90
        0
 91
        4
280
     0
281
     0
  0
CLASS
  1
CELLSTYLEMAP
  2
AcDbCellStyleMap
  3
ObjectDBX Classes
 90
     1152
 91
        4
280
     0
281
     0
  0
ENDSEC
  0
SECTION
  2
TABLES
  0
TABLE
  2
VPORT
  5
8
330
0
100
AcDbSymbolTable
 70
     1
  0
VPORT
  5
29
330
8
100
AcDbSymbolTableRecord
100
AcDbViewportTableRecord
  2
*Active
 70
     0
 10
0.0
 20
0.0
 11
1.0
 21
1.0
 12
0.0
 22
-0.1332500000000003
 13
0.0
 23
0.0
 14
0.5
 24
0.5
 15
0.5
 25
0.5
 16
0.0
 26
0.0
 36
1.0
 17
0.0
 27
0.0
 37
0.0
 40
1.618230000000001
 41
3.151591553734635
 42
50.0
 43
0.0
 44
0.0
 50
0.0
 51
0.0
 71
     0
 72
   100
 73
     1
 74
     3
 75
     0
 76
     0
 77
     0
 78
     0
281
     0
 65
     1
110
0.0
120
0.0
130
0.0
111
1.0
121
0.0
131
0.0
112
0.0
122
1.0
132
0.0
 79
     0
146
0.0
348
2F
 60
     3
 61
     5
292
     1
282
     1
141
0.0
142
0.0
 63
   250
361
6D
  0
ENDTAB
  0
TABLE
  2
LTYPE
  5
5
330
0
100
AcDbSymbolTable
 70
     3
  0
LTYPE
  5
14
330
5
100
AcDbSymbolTableRecord
100
AcDbLinetypeTableRecord
  2
ByBlock
 70
     0
  3

 72
    65
 73
     0
 40
0.0
  0
LTYPE
  5
15
330
5
100
AcDbSymbolTableRecord
100
AcDbLinetypeTableRecord
  2
ByLayer
 70
     0
  3

 72
    65
 73
     0
 40
0.0
  0
LTYPE
  5
16
330
5
100
AcDbSymbolTableRecord
100
AcDbLinetypeTableRecord
  2
Continuous
 70
     0
  3
Solid line
 72
    65
 73
     0
 40
0.0
  0
LTYPE
  5
A2
330
5
100
AcDbSymbolTableRecord
100
AcDbLinetypeTableRecord
  2
Dashed
 70
     0
  3

 72
    65
 73
     2
 40
2.0
 49
1.0
 74
     0
 49
-1.0
 74
     0
  0
LTYPE
  5
11F
330
5
100
AcDbSymbolTableRecord
100
AcDbLinetypeTableRecord
  2
Center
 70
     0
  3

 72
    65
 73
     4
 40
1.5
 49
0.45
 74
     0
 49
-0.5
 74
     0
 49
0.05
 74
     0
 49
-0.5
 74
     0
  0
ENDTAB
  0
TABLE
  2
LAYER
  5
2
330
0
100
AcDbSymbolTable
 70
     7
  0
LAYER
  5
10
330
2
100
AcDbSymbolTableRecord
100
AcDbLayerTableRecord
  2
0
 70
     0
 62
     7
  6
Continuous
370
    -3
390
F
347
46
348
0
  0
LAYER
  5
72
330
2
100
AcDbSymbolTableRecord
100
AcDbLayerTableRecord
  2
AM_6
 70
     0
 62
    -2
  6
Continuous
370
    35
390
F
347
46
348
0
  0
LAYER
  5
A3
330
2
100
AcDbSymbolTableRecord
100
AcDbLayerTableRecord
  2
AM_9
 70
     0
 62
     6
  6
Dashed
370
    25
390
F
347
46
348
0
  0
LAYER
  5
BF
330
2
100
AcDbSymbolTableRecord
100
AcDbLayerTableRecord
  2
AM_4
 70
     0
 62
     7
  6
Continuous
370
    50
390
F
347
46
348
0
  0
LAYER
  5
120
330
2
100
AcDbSymbolTableRecord
100
AcDbLayerTableRecord
  2
AM_7
 70
     0
 62
     7
  6
Center
370
    25
390
F
347
46
348
0
  0
LAYER
  5
134
330
2
100
AcDbSymbolTableRecord
100
AcDbLayerTableRecord
  2
AM_5
 70
     0
 62
     3
  6
Continuous
370
    25
390
F
347
46
348
0
  0
LAYER
  5
1CC
330
2
100
AcDbSymbolTableRecord
100
AcDbLayerTableRecord
  2
ConnectionPoints
 70
     0
 62
     7
  6
Continuous
370
    50
390
F
347
46
348
0
  0
ENDTAB
  0
TABLE
  2
STYLE
  5
3
330
0
100
AcDbSymbolTable
 70
     1
  0
STYLE
  5
11
330
3
100
AcDbSymbolTableRecord
100
AcDbTextStyleTableRecord
  2
Standard
 70
     0
 40
0.0
 41
1.0
 50
0.0
 71
     0
 42
0.2
  3
txt
  4

  0
ENDTAB
  0
TABLE
  2
VIEW
  5
6
330
0
100
AcDbSymbolTable
 70
     0
  0
ENDTAB
  0
TABLE
  2
UCS
  5
7
330
0
100
AcDbSymbolTable
 70
     0
  0
ENDTAB
  0
TABLE
  2
APPID
  5
9
330
0
100
AcDbSymbolTable
 70
     1
  0
APPID
  5
12
330
9
100
AcDbSymbolTableRecord
100
AcDbRegAppTableRecord
  2
ACAD
 70
     0
  0
ENDTAB
  0
TABLE
  2
DIMSTYLE
  5
A
330
0
100
AcDbSymbolTable
 70
     1
100
AcDbDimStyleTable
  0
DIMSTYLE
105
27
330
A
100
AcDbSymbolTableRecord
100
AcDbDimStyleTableRecord
  2
Standard
 70
     0
178
     0
340
11
  0
ENDTAB
  0
TABLE
  2
BLOCK_RECORD
  5
1
330
0
100
AcDbSymbolTable
 70
     5
  0
BLOCK_RECORD
  5
1F
330
1
100
AcDbSymbolTableRecord
100
AcDbBlockTableRecord
  2
*Model_Space
340
22
 70
     0
280
     1
281
     0
  0
BLOCK_RECORD
  5
1B
330
1
100
AcDbSymbolTableRecord
100
AcDbBlockTableRecord
  2
*Paper_Space
340
1E
 70
     0
280
     1
281
     0
  0
BLOCK_RECORD
  5
23
330
1
100
AcDbSymbolTableRecord
100
AcDbBlockTableRecord
  2
*Paper_Space0
340
26
 70
     0
280
     1
281
     0
  0
BLOCK_RECORD
  5
6E
330
1
100
AcDbSymbolTableRecord
100
AcDbBlockTableRecord
  2
1_130310_4
340
0
102
{BLKREFS
331
6F
102
}
 70
     0
280
     1
281
     0
  0
BLOCK_RECORD
  5
90
330
1
100
AcDbSymbolTableRecord
100
AcDbBlockTableRecord
  2
2_405020c_Inch_0_in_130310_4
340
0
102
{BLKREFS
331
91
102
}
 70
     0
280
     1
281
     0
  0
BLOCK_RECORD
  5
DC
330
1
100
AcDbSymbolTableRecord
100
AcDbBlockTableRecord
  2
3_130300_0_in_130310_4
340
0
102
{BLKREFS
331
DD
102
}
 70
     0
280
     1
281
     0
  0
BLOCK_RECORD
  5
136
330
1
100
AcDbSymbolTableRecord
100
AcDbBlockTableRecord
  2
4_130310H_0_in_130310_4
340
0
102
{BLKREFS
331
137
102
}
 70
     0
280
     1
281
     0
  0
ENDTAB
  0
ENDSEC
  0
SECTION
  2
BLOCKS
  0
BLOCK
  5
20
330
1F
100
AcDbEntity
  8
0
100
AcDbBlockBegin
  2
*Model_Space
 70
     0
 10
0.0
 20
0.0
 30
0.0
  3
*Model_Space
  1

  0
ENDBLK
  5
21
330
1F
100
AcDbEntity
  8
0
100
AcDbBlockEnd
  0
BLOCK
  5
1C
330
1B
100
AcDbEntity
 67
     1
  8
0
100
AcDbBlockBegin
  2
*Paper_Space
 70
     0
 10
0.0
 20
0.0
 30
0.0
  3
*Paper_Space
  1

  0
ENDBLK
  5
1D
330
1B
100
AcDbEntity
 67
     1
  8
0
100
AcDbBlockEnd
  0
BLOCK
  5
24
330
23
100
AcDbEntity
  8
0
100
AcDbBlockBegin
  2
*Paper_Space0
 70
     0
 10
0.0
 20
0.0
 30
0.0
  3
*Paper_Space0
  1

  0
ENDBLK
  5
25
330
23
100
AcDbEntity
  8
0
100
AcDbBlockEnd
  0
BLOCK
  5
70
330
6E
100
AcDbEntity
  8
0
100
AcDbBlockBegin
  2
1_130310_4
 70
     2
 10
0.0
 20
0.0
 30
0.0
  3
1_130310_4
  1

  0
ATTDEF
  5
73
330
6E
100
AcDbEntity
  8
AM_6
100
AcDbText
 10
7.5
 20
0.6599999999999999
 30
0.0
 40
0.5
  1
Eccentric Collar Intermediate Duty Two-Bolt Pillow Block Inch Bore
100
AcDbAttributeDefinition
  3

  2
NN
 70
     8
280
     0
  0
ATTDEF
  5
74
330
6E
100
AcDbEntity
  8
AM_6
100
AcDbText
 10
7.5
 20
0.1599999999999999
 30
0.0
 40
0.5
  1
Eccentric Collar Pillow Block Bearings -(Intermediate Duty)
100
AcDbAttributeDefinition
  3

  2
NT
 70
     8
280
     0
  0
ATTDEF
  5
75
330
6E
100
AcDbEntity
  8
AM_6
100
AcDbText
 10
7.5
 20
-0.3400000000000001
 30
0.0
 40
0.5
  1
130310
100
AcDbAttributeDefinition
  3

  2
NB
 70
     8
280
     0
  0
ATTDEF
  5
76
330
6E
100
AcDbEntity
  8
AM_6
100
AcDbText
 10
7.5
 20
-0.8400000000000001
 30
0.0
 40
0.5
  1
$PN.
100
AcDbAttributeDefinition
  3

  2
NBSYN
 70
     8
280
     0
  0
ATTDEF
  5
77
330
6E
100
AcDbEntity
  8
AM_6
100
AcDbText
 10
7.5
 20
-1.34
 30
0.0
 40
0.5
  1
130310
100
AcDbAttributeDefinition
  3

  2
LINA
 70
     8
280
     0
  0
ATTDEF
  5
78
330
6E
100
AcDbEntity
  8
AM_6
100
AcDbText
 10
7.5
 20
-1.84
 30
0.0
 40
0.5
  1
203
100
AcDbAttributeDefinition
  3

  2
SERIES
 70
     8
280
     0
  0
ATTDEF
  5
79
330
6E
100
AcDbEntity
  8
AM_6
100
AcDbText
 10
7.5
 20
-2.34
 30
0.0
 40
0.5
  1
1/2
100
AcDbAttributeDefinition
  3

  2
SS
 70
     8
280
     0
  0
ATTDEF
  5
7A
330
6E
100
AcDbEntity
  8
AM_6
100
AcDbText
 10
7.5
 20
-2.84
 30
0.0
 40
0.5
  1
130310
100
AcDbAttributeDefinition
  3

  2
PN
 70
     8
280
     0
  0
ATTDEF
  5
7B
330
6E
100
AcDbEntity
  8
AM_6
100
AcDbText
 10
7.5
 20
-3.34
 30
0.0
 40
0.5
  1
P2B-SXV-008
100
AcDbAttributeDefinition
  3

  2
DESCRIPTION
 70
     8
280
     0
  0
ATTDEF
  5
7C
330
6E
100
AcDbEntity
  8
AM_6
100
AcDbText
 10
7.5
 20
-3.84
 30
0.0
 40
0.5
  1
RE-LUBE
100
AcDbAttributeDefinition
  3

  2
LF
 70
     8
280
     0
  0
ATTDEF
  5
7D
330
6E
100
AcDbEntity
  8
AM_6
100
AcDbText
 10
7.5
 20
-4.34
 30
0.0
 40
0.5
  1
1.20
100
AcDbAttributeDefinition
  3

  2
WEIGHT
 70
     8
280
     0
  0
ATTDEF
  5
7E
330
6E
100
AcDbEntity
  8
AM_6
100
AcDbText
 10
7.5
 20
-4.84
 30
0.0
 40
0.5
  1
1.13
100
AcDbAttributeDefinition
  3

  2
A
 70
     8
280
     0
  0
ATTDEF
  5
7F
330
6E
100
AcDbEntity
  8
AM_6
100
AcDbText
 10
7.5
 20
-5.34
 30
0.0
 40
0.5
  1
5.00
100
AcDbAttributeDefinition
  3

  2
B
 70
     8
280
     0
  0
ATTDEF
  5
80
330
6E
100
AcDbEntity
  8
AM_6
100
AcDbText
 10
7.5
 20
-5.84
 30
0.0
 40
0.5
  1
1.20
100
AcDbAttributeDefinition
  3

  2
C
 70
     8
280
     0
  0
ATTDEF
  5
81
330
6E
100
AcDbEntity
  8
AM_6
100
AcDbText
 10
7.5
 20
-6.34
 30
0.0
 40
0.5
  1
3.25
100
AcDbAttributeDefinition
  3

  2
DMIN
 70
     8
280
     0
  0
ATTDEF
  5
82
330
6E
100
AcDbEntity
  8
AM_6
100
AcDbText
 10
7.5
 20
-6.84
 30
0.0
 40
0.5
  1
4.06
100
AcDbAttributeDefinition
  3

  2
DMAX
 70
     8
280
     0
  0
ATTDEF
  5
83
330
6E
100
AcDbEntity
  8
AM_6
100
AcDbText
 10
7.5
 20
-7.34
 30
0.0
 40
0.5
  1
3/8
100
AcDbAttributeDefinition
  3

  2
F
 70
     8
280
     0
  0
ATTDEF
  5
84
330
6E
100
AcDbEntity
  8
AM_6
100
AcDbText
 10
7.5
 20
-7.84
 30
0.0
 40
0.5
  1
0.84
100
AcDbAttributeDefinition
  3

  2
G
 70
     8
280
     0
  0
ATTDEF
  5
85
330
6E
100
AcDbEntity
  8
AM_6
100
AcDbText
 10
7.5
 20
-8.34
 30
0.0
 40
0.5
  1
0.47
100
AcDbAttributeDefinition
  3

  2
H
 70
     8
280
     0
  0
ATTDEF
  5
86
330
6E
100
AcDbEntity
  8
AM_6
100
AcDbText
 10
7.5
 20
-8.84
 30
0.0
 40
0.5
  1
2.14
100
AcDbAttributeDefinition
  3

  2
J
 70
     8
280
     0
  0
ATTDEF
  5
87
330
6E
100
AcDbEntity
  8
AM_6
100
AcDbText
 10
7.5
 20
-9.34
 30
0.0
 40
0.5
  1
1.13
100
AcDbAttributeDefinition
  3

  2
L
 70
     8
280
     0
  0
ATTDEF
  5
88
330
6E
100
AcDbEntity
  8
AM_6
100
AcDbText
 10
7.5
 20
-9.84
 30
0.0
 40
0.5
  1
1.06
100
AcDbAttributeDefinition
  3

  2
M
 70
     8
280
     0
  0
ATTDEF
  5
89
330
6E
100
AcDbEntity
  8
AM_6
100
AcDbText
 10
7.5
 20
-10.34
 30
0.0
 40
0.5
  1
0.26
100
AcDbAttributeDefinition
  3

  2
R
 70
     8
280
     0
  0
ATTDEF
  5
8A
330
6E
100
AcDbEntity
  8
AM_6
100
AcDbText
 10
7.5
 20
-10.84
 30
0.0
 40
0.5
  1
0.87
100
AcDbAttributeDefinition
  3

  2
S
 70
     8
280
     0
  0
ATTDEF
  5
8B
330
6E
100
AcDbEntity
  8
AM_6
100
AcDbText
 10
7.5
 20
-11.34
 30
0.0
 40
0.5
  1
2.25
100
AcDbAttributeDefinition
  3

  2
U
 70
     8
280
     0
  0
ATTDEF
  5
8C
330
6E
100
AcDbEntity
  8
AM_6
100
AcDbText
 10
7.5
 20
-11.84
 30
0.0
 40
0.5
  1
4.50
100
AcDbAttributeDefinition
  3

  2
V
 70
     8
280
     0
  0
ATTDEF
  5
8D
330
6E
100
AcDbEntity
  8
AM_6
100
AcDbText
 10
7.5
 20
-12.34
 30
0.0
 40
0.5
  1
0.38
100
AcDbAttributeDefinition
  3

  2
W
 70
     8
280
     0
  0
ATTDEF
  5
8E
330
6E
100
AcDbEntity
  8
AM_6
100
AcDbText
 10
7.5
 20
-12.84
 30
0.0
 40
0.5
  1
0.12
100
AcDbAttributeDefinition
  3

  2
X
 70
     8
280
     0
  0
ATTDEF
  5
8F
330
6E
100
AcDbEntity
  8
AM_6
100
AcDbText
 10
7.5
 20
-13.34
 30
0.0
 40
0.5
  1
baldor
100
AcDbAttributeDefinition
  3

  2
COMPANY
 70
     8
280
     0
  0
INSERT
  5
91
330
6E
100
AcDbEntity
  8
0
100
AcDbBlockReference
  2
2_405020c_Inch_0_in_130310_4
 10
0.0
 20
0.0
 30
0.0
  0
INSERT
  5
DD
330
6E
100
AcDbEntity
  8
0
100
AcDbBlockReference
  2
3_130300_0_in_130310_4
 10
0.0
 20
0.0
 30
0.0
  0
INSERT
  5
137
330
6E
100
AcDbEntity
  8
0
100
AcDbBlockReference
  2
4_130310H_0_in_130310_4
 10
0.0
 20
0.0
 30
0.0
  0
ENDBLK
  5
71
330
6E
100
AcDbEntity
  8
0
100
AcDbBlockEnd
  0
BLOCK
  5
92
330
90
100
AcDbEntity
  8
0
100
AcDbBlockBegin
  2
2_405020c_Inch_0_in_130310_4
 70
     2
 10
0.0
 20
0.0
 30
0.0
  3
2_405020c_Inch_0_in_130310_4
  1

  0
ATTDEF
  5
94
330
90
100
AcDbEntity
  8
AM_6
100
AcDbText
 10
6.086166744478898
 20
0.1406500000000001
 30
0.0
 40
0.5
  1
405020C -Inch
100
AcDbAttributeDefinition
  3

  2
NN
 70
     8
280
     0
  0
ATTDEF
  5
95
330
90
100
AcDbEntity
  8
AM_6
100
AcDbText
 10
6.086166744478898
 20
-0.3593499999999999
 30
0.0
 40
0.5
  1
Grease fitting
100
AcDbAttributeDefinition
  3

  2
NT
 70
     8
280
     0
  0
ATTDEF
  5
96
330
90
100
AcDbEntity
  8
AM_6
100
AcDbText
 10
6.086166744478898
 20
-0.85935
 30
0.0
 40
0.5
  1
405020c-Inch
100
AcDbAttributeDefinition
  3

  2
NB
 70
     8
280
     0
  0
ATTDEF
  5
97
330
90
100
AcDbEntity
  8
AM_6
100
AcDbText
 10
6.086166744478898
 20
-1.35935
 30
0.0
 40
0.5
  1
$MN.-Inch
100
AcDbAttributeDefinition
  3

  2
NBSYN
 70
     8
280
     0
  0
ATTDEF
  5
98
330
90
100
AcDbEntity
  8
AM_6
100
AcDbText
 10
6.086166744478898
 20
-1.85935
 30
0.0
 40
0.5
  1
405020c
100
AcDbAttributeDefinition
  3

  2
LINA
 70
     8
280
     0
  0
ATTDEF
  5
99
330
90
100
AcDbEntity
  8
AM_6
100
AcDbText
 10
6.086166744478898
 20
-2.35935
 30
0.0
 40
0.5
  1
405020c
100
AcDbAttributeDefinition
  3

  2
MN
 70
     8
280
     0
  0
ATTDEF
  5
9A
330
90
100
AcDbEntity
  8
AM_6
100
AcDbText
 10
6.086166744478898
 20
-2.85935
 30
0.0
 40
0.5
  1
0.230
100
AcDbAttributeDefinition
  3

  2
NDR
 70
     8
280
     0
  0
ATTDEF
  5
9B
330
90
100
AcDbEntity
  8
AM_6
100
AcDbText
 10
6.086166744478898
 20
-3.35935
 30
0.0
 40
0.5
  1
0.210
100
AcDbAttributeDefinition
  3

  2
KDR
 70
     8
280
     0
  0
ATTDEF
  5
9C
330
90
100
AcDbEntity
  8
AM_6
100
AcDbText
 10
6.086166744478898
 20
-3.85935
 30
0.0
 40
0.5
  1
0.157
100
AcDbAttributeDefinition
  3

  2
BZE
 70
     8
280
     0
  0
ATTDEF
  5
9D
330
90
100
AcDbEntity
  8
AM_6
100
AcDbText
 10
6.086166744478898
 20
-4.35935
 30
0.0
 40
0.5
  1
9/32
100
AcDbAttributeDefinition
  3

  2
WAF
 70
     8
280
     0
  0
ATTDEF
  5
9E
330
90
100
AcDbEntity
  8
AM_6
100
AcDbText
 10
6.086166744478898
 20
-4.85935
 30
0.0
 40
0.5
  1
0.2813
100
AcDbAttributeDefinition
  3

  2
WAF1
 70
     8
280
     0
  0
ATTDEF
  5
9F
330
90
100
AcDbEntity
  8
AM_6
100
AcDbText
 10
6.086166744478898
 20
-5.35935
 30
0.0
 40
0.5
  1
0.545
100
AcDbAttributeDefinition
  3

  2
BL
 70
     8
280
     0
  0
ATTDEF
  5
A0
330
90
100
AcDbEntity
  8
AM_6
100
AcDbText
 10
6.086166744478898
 20
-5.85935
 30
0.0
 40
0.5
  1
0.200
100
AcDbAttributeDefinition
  3

  2
TL
 70
     8
280
     0
  0
ATTDEF
  5
A1
330
90
100
AcDbEntity
  8
AM_6
100
AcDbText
 10
6.086166744478898
 20
-6.35935
 30
0.0
 40
0.5
  1
baldor
100
AcDbAttributeDefinition
  3

  2
COMPANY
 70
     8
280
     0
  0
LWPOLYLINE
  5
A4
330
90
100
AcDbEntity
  8
AM_9
100
AcDbPolyline
 90
        3
 70
     0
 43
0.0
 10
0.8967802826933315
 20
0.0
 10
0.8794649794397237
 20
-0.0350043999316989
 10
0.8639476423858156
 20
-0.070325
  0
LWPOLYLINE
  5
A5
330
90
100
AcDbEntity
  8
AM_9
100
AcDbPolyline
 90
        3
 70
     0
 43
0.0
 10
0.8639476423858156
 20
0.070325
 10
0.8793908221741646
 20
0.0351625
 10
0.8967802826933315
 20
0.0
  0
ELLIPSE
  5
A6
330
90
100
AcDbEntity
  8
AM_9
100
AcDbEllipse
 10
0.6363961030678926
 20
0.0
 30
0.0
 11
-1.838598171376523E-17
 21
-0.1000886227036577
 31
0.0
210
0.0
220
0.0
230
1.0
 40
0.7071067811865474
 41
0.0
 42
6.283185307179586
  0
LWPOLYLINE
  5
A7
330
90
100
AcDbEntity
  8
AM_9
100
AcDbPolyline
 90
        3
 70
     0
 43
0.0
 10
0.9110880944649188
 20
-0.070325
 10
0.9243549757034409
 20
-0.0351624999999999
 10
0.9356755762111453
 20
0.0
  0
LWPOLYLINE
  5
A8
330
90
100
AcDbEntity
  8
AM_9
100
AcDbPolyline
 90
        3
 70
     0
 43
0.0
 10
0.9356755762111453
 20
0.0
 10
0.9244099066030942
 20
0.035004399931699
 10
0.9110880944649188
 20
0.070325
  0
LWPOLYLINE
  5
A9
330
90
100
AcDbEntity
  8
AM_9
100
AcDbPolyline
 90
        3
 70
     0
 43
0.0
 10
0.8393601606395891
 20
0.1406500000000001
 10
0.8506258302476402
 20
0.1056456000683011
 10
0.8639476423858156
 20
0.070325
  0
LINE
  5
AA
330
90
100
AcDbEntity
  8
AM_9
100
AcDbLine
 10
0.9356755762111453
 20
0.0
 30
0.0
 11
0.8967802826933315
 21
0.0
 31
0.0
  0
LWPOLYLINE
  5
AB
330
90
100
AcDbEntity
  8
AM_9
100
AcDbPolyline
 90
        3
 70
     0
 43
0.0
 10
0.8639476423858156
 20
-0.070325
 10
0.8506807611472935
 20
-0.1054875
 10
0.8393601606395891
 20
-0.1406499999999999
  0
LWPOLYLINE
  5
AC
330
90
100
AcDbEntity
  8
AM_9
100
AcDbPolyline
 90
        3
 70
     0
 43
0.0
 10
0.8910214437419017
 20
-0.1151907939395562
 10
0.8955707574110108
 20
-0.105645600068301
 10
0.9110880944649188
 20
-0.070325
  0
LWPOLYLINE
  5
AD
330
90
100
AcDbEntity
  8
AM_9
100
AcDbPolyline
 90
        3
 70
     0
 43
0.0
 10
0.9110880944649188
 20
0.070325
 10
0.8956449146765697
 20
0.1054875000000001
 10
0.8910220584107829
 20
0.1151895236091905
  0
LINE
  5
AE
330
90
100
AcDbEntity
  8
AM_9
100
AcDbLine
 10
0.6412588455301782
 20
-0.1103623268442186
 30
0.0
 11
0.7752464713883862
 21
-0.1162869890918943
 31
0.0
  0
LINE
  5
AF
330
90
100
AcDbEntity
  8
AM_9
100
AcDbLine
 10
0.7752464713883862
 20
0.1162869890918944
 30
0.0
 11
0.6412588455301781
 21
0.1103623268442187
 31
0.0
  0
ELLIPSE
  5
B0
330
90
100
AcDbEntity
  8
AM_9
100
AcDbEllipse
 10
0.824957911384305
 20
-0.0000000000000021
 30
0.0
 11
8.612328615003954E-18
 21
0.1406500000000031
 31
0.0
210
0.0
220
0.0
230
1.0
 40
0.7071067811865405
 41
3.798906696793635
 42
5.625871263975762
  0
ELLIPSE
  5
B1
330
90
100
AcDbEntity
  8
AM_9
100
AcDbEllipse
 10
0.8471048842698365
 20
-0.0000000000000002
 30
0.0
 11
6.694498085252805E-18
 21
0.1093294505797717
 31
0.0
210
0.0
220
0.0
230
1.0
 40
0.7071067811865501
 41
5.325409409483374
 42
5.928986666165871
  0
ELLIPSE
  5
B2
330
90
100
AcDbEntity
  8
AM_9
100
AcDbEllipse
 10
0.8471048842698375
 20
-0.0000000000000008
 30
0.0
 11
6.694498085252734E-18
 21
0.1093294505797705
 31
0.0
210
0.0
220
0.0
230
1.0
 40
0.7071067811865475
 41
3.495791294603499
 42
4.018355769633436
  0
ELLIPSE
  5
B3
330
90
100
AcDbEntity
  8
AM_9
100
AcDbEllipse
 10
0.8471048842696757
 20
0.0000000000000352
 30
0.0
 11
6.694498085258676E-18
 21
0.1093294505798675
 31
0.0
210
0.0
220
0.0
230
1.0
 40
0.7071067811873882
 41
4.336600129978448
 42
5.142208575703728
  0
LWPOLYLINE
  5
B4
330
90
100
AcDbEntity
  8
AM_9
100
AcDbPolyline
 90
       17
 70
     0
 43
0.0
 10
0.8632099129655371
 20
0.0929482475532132
 10
0.8645712379446523
 20
0.0934333170698254
 10
0.8683522759046558
 20
0.0943709578685702
 10
0.8723420572182552
 20
0.0946835308208907
 10
0.8770595948419094
 20
0.0941392535799512
 10
0.8809418996775958
 20
0.0929704577235172
 10
0.8848349336162572
 20
0.0911750433743441
 10
0.8888067052222139
 20
0.0887146087211261
 10
0.8932749429169959
 20
0.0851755136446411
 10
0.8976964704911016
 20
0.0808168066428547
 10
0.9020138867907995
 20
0.0756360391354403
 10
0.9061572889752784
 20
0.069644062548794
 10
0.9100478472805941
 20
0.0628731504137089
 10
0.9136049159589612
 20
0.0553782095656393
 10
0.9167526669883501
 20
0.0472332997977775
 10
0.9194257409621583
 20
0.0385216025704069
 10
0.9201422641603849
 20
0.0357475801627151
  0
LWPOLYLINE
  5
B5
330
90
100
AcDbEntity
  8
AM_9
100
AcDbPolyline
 90
        4
 70
     0
 43
0.0
 10
0.8626706780735418
 20
-0.0927349955204657
 10
0.8617709434456101
 20
-0.0923527480371636
 10
0.8578505723007148
 20
-0.0903057959131788
 10
0.8543331988195724
 20
-0.0879427602307586
  0
LWPOLYLINE
  5
B6
330
90
100
AcDbEntity
  8
AM_9
100
AcDbPolyline
 90
       17
 70
     0
 43
0.0
 10
0.9203273580698588
 20
-0.0349896317805987
 10
0.9194511705644389
 20
-0.0384271205716155
 10
0.9167814597114005
 20
-0.0471499673253984
 10
0.9136407204887145
 20
-0.0552947515087096
 10
0.9101008817071871
 20
-0.0627716306763643
 10
0.9062441232320642
 20
-0.069506147032797
 10
0.9021604454610263
 20
-0.075442337827563
 10
0.897947898494793
 20
-0.0805414489803022
 10
0.8937043225316086
 20
-0.0847908564415639
 10
0.8895176872099673
 20
-0.088206892242655
 10
0.885455881597171
 20
-0.0908321820027403
 10
0.881549004240288
 20
-0.0927309634830408
 10
0.8777593221064574
 20
-0.0939756516368901
 10
0.8739231842598519
 20
-0.0946108748749833
 10
0.8696445472662424
 20
-0.0945495727523884
 10
0.8656429642210378
 20
-0.0937608811491312
 10
0.8626706780735418
 20
-0.0927349955204657
  0
ELLIPSE
  5
B7
330
90
100
AcDbEntity
  8
AM_9
100
AcDbEllipse
 10
0.8870466962063432
 20
0.0
 30
0.0
 11
6.084620899749639E-18
 21
0.09936940028726632
 31
0.0
210
0.0
220
0.0
230
1.0
 40
0.7071067811865458
 41
2.656480407116015
 42
6.768297553653365
  0
ELLIPSE
  5
B8
330
90
100
AcDbEntity
  8
AM_9
100
AcDbEllipse
 10
0.9641342683760968
 20
0.0000000000000001
 30
0.0
 11
8.079715312105955E-18
 21
0.13195176466768
 31
0.0
210
0.0
220
0.0
230
1.0
 40
0.707106781186548
 41
3.585258006139812
 42
5.840135685218121
  0
ELLIPSE
  5
B9
330
90
100
AcDbEntity
  8
AM_9
100
AcDbEllipse
 10
0.9353780249108256
 20
0.0000000000000189
 30
0.0
 11
8.036249332248792E-18
 21
0.1312419113469115
 31
0.0
210
0.0
220
0.0
230
1.0
 40
0.7071067811865486
 41
2.656480407116019
 42
6.71188327781268
  0
ELLIPSE
  5
BA
330
90
100
AcDbEntity
  8
AM_9
100
AcDbEllipse
 10
0.9353780249107279
 20
-0.000000000000072
 30
0.0
 11
8.036249332252446E-18
 21
0.1312419113469712
 31
0.0
210
0.0
220
0.0
230
1.0
 40
0.7071067811861408
 41
0.443931348470195
 42
0.4875501992907026
  0
ELLIPSE
  5
BB
330
90
100
AcDbEntity
  8
AM_9
100
AcDbEllipse
 10
1.010998845049283
 20
0.0
 30
0.0
 11
6.357083428130998E-18
 21
0.1038190510530391
 31
0.0
210
0.0
220
0.0
230
1.0
 40
0.7071067811865461
 41
3.603899538904926
 42
5.844803532225583
  0
ELLIPSE
  5
BC
330
90
100
AcDbEntity
  8
AM_9
100
AcDbEllipse
 10
0.7778174593052025
 20
-0.0000000000000004
 30
0.0
 11
7.124004163867317E-18
 21
0.1163438171532776
 31
0.0
210
0.0
220
0.0
230
1.0
 40
0.707106781186548
 41
0.0
 42
6.283185307179586
  0
ELLIPSE
  5
BD
330
90
100
AcDbEntity
  8
AM_9
100
AcDbEllipse
 10
0.6436988451466784
 20
-0.0000000000000002
 30
0.0
 11
6.761045944280108E-18
 21
0.1104162595939892
 31
0.0
210
0.0
220
0.0
230
1.0
 40
0.7071067811865482
 41
0.0
 42
6.283185307179586
  0
ELLIPSE
  5
BE
330
90
100
AcDbEntity
  8
AM_9
100
AcDbEllipse
 10
0.7778174593052026
 20
-0.0000000000000011
 30
0.0
 11
8.612328615003834E-18
 21
0.1406500000000012
 31
0.0
210
0.0
220
0.0
230
1.0
 40
0.7071067811865471
 41
0.0
 42
6.283185307179586
  0
LINE
  5
C0
330
90
100
AcDbEntity
  8
AM_4
100
AcDbLine
 10
0.8782554541574028
 20
-0.1406499999999999
 30
0.0
 11
0.8910214437419017
 21
-0.1151907939395562
 31
0.0
  0
LINE
  5
C1
330
90
100
AcDbEntity
  8
AM_4
100
AcDbLine
 10
0.8907560860731837
 20
0.1157387452728434
 30
0.0
 11
0.8782554541574028
 21
0.1406500000000001
 31
0.0
  0
LWPOLYLINE
  5
C2
330
90
100
AcDbEntity
  8
AM_4
100
AcDbPolyline
 90
        3
 70
     0
 43
0.0
 10
0.6916872762245886
 20
-0.070325
 10
0.6784203949860665
 20
-0.0351625
 10
0.6670997944783621
 20
0.0000000000000001
  0
LWPOLYLINE
  5
C3
330
90
100
AcDbEntity
  8
AM_4
100
AcDbPolyline
 90
        3
 70
     0
 43
0.0
 10
0.7245199165321046
 20
-0.1406499999999999
 10
0.7072046132784965
 20
-0.105645600068301
 10
0.6916872762245886
 20
-0.070325
  0
LINE
  5
C4
330
90
100
AcDbEntity
  8
AM_4
100
AcDbLine
 10
0.8782554541574028
 20
-0.1406499999999999
 30
0.0
 11
0.7245199165321046
 21
-0.1406499999999999
 31
0.0
  0
LWPOLYLINE
  5
C5
330
90
100
AcDbEntity
  8
AM_4
100
AcDbPolyline
 90
        3
 70
     0
 43
0.0
 10
0.7388277283036918
 20
-0.0703249999999999
 10
0.7520946095422137
 20
-0.1054874999999999
 10
0.7634152100499182
 20
-0.1406499999999999
  0
LWPOLYLINE
  5
C6
330
90
100
AcDbEntity
  8
AM_4
100
AcDbPolyline
 90
        3
 70
     0
 43
0.0
 10
0.7059950879961758
 20
0.0000000000000001
 10
0.7233103912497837
 20
-0.0350043999316989
 10
0.7388277283036918
 20
-0.0703249999999999
  0
LINE
  5
C7
330
90
100
AcDbEntity
  8
AM_4
100
AcDbLine
 10
0.8782554541574028
 20
0.1406500000000001
 30
0.0
 11
0.7245199165321046
 21
0.1406500000000001
 31
0.0
  0
LWPOLYLINE
  5
C8
330
90
100
AcDbEntity
  8
AM_4
100
AcDbPolyline
 90
        3
 70
     0
 43
0.0
 10
0.6916872762245886
 20
0.070325
 10
0.7071304560129377
 20
0.1054875
 10
0.7245199165321046
 20
0.1406500000000001
  0
LWPOLYLINE
  5
C9
330
90
100
AcDbEntity
  8
AM_4
100
AcDbPolyline
 90
        3
 70
     0
 43
0.0
 10
0.6670997944783621
 20
0.0000000000000001
 10
0.6783654640864132
 20
0.035004399931699
 10
0.6916872762245886
 20
0.070325
  0
LINE
  5
CA
330
90
100
AcDbEntity
  8
AM_4
100
AcDbLine
 10
0.7059950879961758
 20
0.0000000000000001
 30
0.0
 11
0.6670997944783621
 21
0.0000000000000001
 31
0.0
  0
LWPOLYLINE
  5
CB
330
90
100
AcDbEntity
  8
AM_4
100
AcDbPolyline
 90
        3
 70
     0
 43
0.0
 10
0.7388277283036916
 20
0.0703250000000001
 10
0.7233845485153426
 20
0.0351625
 10
0.7059950879961758
 20
0.0000000000000001
  0
LWPOLYLINE
  5
CC
330
90
100
AcDbEntity
  8
AM_4
100
AcDbPolyline
 90
        3
 70
     0
 43
0.0
 10
0.7634152100499182
 20
0.1406500000000001
 10
0.7521495404418672
 20
0.1056456000683011
 10
0.7388277283036916
 20
0.0703250000000001
  0
ELLIPSE
  5
CD
330
90
100
AcDbEntity
  8
AM_4
100
AcDbEllipse
 10
0.8249579113843057
 20
0.0000000000000002
 30
0.0
 11
8.612328615003777E-18
 21
0.1406500000000002
 31
0.0
210
0.0
220
0.0
230
1.0
 40
0.7071067811865502
 41
5.625871263975766
 42
10.0820920039732
  0
ELLIPSE
  5
CE
330
90
100
AcDbEntity
  8
AM_4
100
AcDbEllipse
 10
0.8471048842698372
 20
0.0000000000000001
 30
0.0
 11
6.694498085252788E-18
 21
0.1093294505797714
 31
0.0
210
0.0
220
0.0
230
1.0
 40
0.7071067811865478
 41
5.928986666165877
 42
9.77897660178309
  0
ELLIPSE
  5
CF
330
90
100
AcDbEntity
  8
AM_4
100
AcDbEllipse
 10
0.8870466962063435
 20
-0.0000000000000002
 30
0.0
 11
6.084620899749668E-18
 21
0.09936940028726679
 31
0.0
210
0.0
220
0.0
230
1.0
 40
0.7071067811865458
 41
0.48511224647378
 42
2.65648040711601
  0
LINE
  5
D0
330
90
100
AcDbEntity
  8
AM_4
100
AcDbLine
 10
0.8542816926926821
 20
-0.0879044185632923
 30
0.0
 11
0.8921037204067237
 21
-0.116099562589007
 31
0.0
  0
LINE
  5
D1
330
90
100
AcDbEntity
  8
AM_4
100
AcDbLine
 10
0.8921037204067237
 20
0.1160995625890071
 30
0.0
 11
0.8542816926926821
 21
0.0879044185632924
 31
0.0
  0
ELLIPSE
  5
D2
330
90
100
AcDbEntity
  8
AM_4
100
AcDbEllipse
 10
0.9353780249108188
 20
-0.0000000000000002
 30
0.0
 11
8.036249332247528E-18
 21
0.1312419113468908
 31
0.0
210
0.0
220
0.0
230
1.0
 40
0.7071067811865456
 41
0.4875501992915874
 42
2.650187768102687
  0
LWPOLYLINE
  5
D3
330
90
100
AcDbEntity
  8
AM_4
100
AcDbPolyline
 90
        3
 70
     0
 43
0.0
 10
0.9982180695067068
 20
-0.1228921874602306
 10
1.001162854025978
 20
-0.1211288894256731
 10
1.004311617381099
 20
-0.1190923384225945
  0
LWPOLYLINE
  5
D4
330
90
100
AcDbEntity
  8
AM_4
100
AcDbPolyline
 90
       13
 70
     0
 43
0.0
 10
0.891451900055089
 20
-0.1156098066557184
 10
0.8957243959775218
 20
-0.1186833742425384
 10
0.9049172640905394
 20
-0.1242844040695812
 10
0.914454311873642
 20
-0.1287992067511296
 10
0.9242361358773398
 20
-0.1322102989400742
 10
0.934168223719836
 20
-0.1345151885375798
 10
0.9441619307211776
 20
-0.1357223992060187
 10
0.9541349135366023
 20
-0.1358482140440976
 10
0.9640113564753934
 20
-0.1349140508490716
 10
0.9737121159889457
 20
-0.132946806345332
 10
0.9831742039313368
 20
-0.1299752271027859
 10
0.9923417640877705
 20
-0.1260271418774503
 10
0.9973671815688987
 20
-0.1233771877840815
  0
LWPOLYLINE
  5
D5
330
90
100
AcDbEntity
  8
AM_4
100
AcDbPolyline
 90
       13
 70
     0
 43
0.0
 10
1.00422899876142
 20
0.1191478381079727
 10
0.9953717671707735
 20
0.1244727171802091
 10
0.985823815890854
 20
0.1289465052590887
 10
0.97603471515451
 20
0.1323162468159909
 10
0.9660987705125859
 20
0.1345799286445079
 10
0.9561043973405251
 20
0.1357464181685339
 10
0.9461336982010246
 20
0.1358322342523289
 10
0.9362622431722036
 20
0.1348589416995817
 10
0.9265693352317865
 20
0.1328536543278769
 10
0.9171172787516366
 20
0.1298450943775896
 10
0.9079617484122904
 20
0.1258610400001334
 10
0.8991545824425918
 20
0.1209277768277248
 10
0.8918491462760304
 20
0.115909200728332
  0
ELLIPSE
  5
D6
330
90
100
AcDbEntity
  8
AM_4
100
AcDbEllipse
 10
1.021769298814561
 20
0.0000000000000001
 30
0.0
 11
-1.484390032546748E-17
 21
-0.08080642971672804
 31
0.0
210
0.0
220
0.0
230
1.0
 40
0.7071067811865489
 41
0.0
 42
6.283185307179586
  0
LWPOLYLINE
  5
D7
330
90
100
AcDbEntity
  8
AM_4
100
AcDbPolyline
 90
       24
 70
     0
 43
0.0
 10
1.042294841521401
 20
-0.0939123127430813
 10
1.045509496073948
 20
-0.0916517411968545
 10
1.052379909600865
 20
-0.0859451523717666
 10
1.058784219234068
 20
-0.0793529459650469
 10
1.064653909223605
 20
-0.0719291492303162
 10
1.069921063855352
 20
-0.0637460149647785
 10
1.074523841449194
 20
-0.0548924007450887
 10
1.078410732815126
 20
-0.0454687291619066
 10
1.08154222038741
 20
-0.0355810990982032
 10
1.083889499067745
 20
-0.0253398600960962
 10
1.085434722001277
 20
-0.0148488770712355
 10
1.086166744478898
 20
-0.0042101334352702
 10
1.086079700473825
 20
0.0064759408223298
 10
1.085172147491188
 20
0.0171097962166706
 10
1.083446966845459
 20
0.0275909243036722
 10
1.080910809101651
 20
0.0378212197594227
 10
1.077574266665718
 20
0.0477022309246461
 10
1.073452835831016
 20
0.0571340440545405
 10
1.068569640642317
 20
0.0660130231439074
 10
1.062961140411759
 20
0.0742292593496893
 10
1.056678624318112
 20
0.0816743307465395
 10
1.049792643600291
 20
0.0882440510345438
 10
1.042393285638483
 20
0.0938466369159562
 10
1.042284232901912
 20
0.0939193771007876
  0
ELLIPSE
  5
D8
330
90
100
AcDbEntity
  8
AM_4
100
AcDbEllipse
 10
0.9641342683760968
 20
-0.0000000000000001
 30
0.0
 11
8.079715312105958E-18
 21
0.13195176466768
 31
0.0
210
0.0
220
0.0
230
1.0
 40
0.7071067811865479
 41
5.844803532225583
 42
9.863159735723384
  0
ELLIPSE
  5
D9
330
90
100
AcDbEntity
  8
AM_4
100
AcDbEllipse
 10
1.010998845049283
 20
0.0000000000000001
 30
0.0
 11
6.357083428130995E-18
 21
0.103819051053039
 31
0.0
210
0.0
220
0.0
230
1.0
 40
0.7071067811865488
 41
5.844803532225579
 42
9.863159735723386
  0
LINE
  5
DA
330
90
100
AcDbEntity
  8
AM_4
100
AcDbLine
 10
1.042160031582416
 20
0.0940018950300904
 30
0.0
 11
1.003739461358308
 21
0.1194743720494001
 31
0.0
  0
LINE
  5
DB
330
90
100
AcDbEntity
  8
AM_4
100
AcDbLine
 10
1.003739461358308
 20
-0.1194743720493999
 30
0.0
 11
1.042160031582416
 21
-0.0940018950300903
 31
0.0
  0
ENDBLK
  5
93
330
90
100
AcDbEntity
  8
0
100
AcDbBlockEnd
  0
BLOCK
  5
DE
330
DC
100
AcDbEntity
  8
0
100
AcDbBlockBegin
  2
3_130300_0_in_130310_4
 70
     2
 10
0.0
 20
0.0
 30
0.0
  3
3_130300_0_in_130310_4
  1

  0
ATTDEF
  5
E0
330
DC
100
AcDbEntity
  8
AM_6
100
AcDbText
 10
5.82902
 20
0.26
 30
0.0
 40
0.5
  1
Eccentric Collar Intermediate Duty Insert Inch Bore
100
AcDbAttributeDefinition
  3

  2
NN
 70
     8
280
     0
  0
ATTDEF
  5
E1
330
DC
100
AcDbEntity
  8
AM_6
100
AcDbText
 10
5.82902
 20
-0.24
 30
0.0
 40
0.5
  1
Eccentric Collar Bearing Inserts -(Intermediate Duty)
100
AcDbAttributeDefinition
  3

  2
NT
 70
     8
280
     0
  0
ATTDEF
  5
E2
330
DC
100
AcDbEntity
  8
AM_6
100
AcDbText
 10
5.82902
 20
-0.74
 30
0.0
 40
0.5
  1
130300
100
AcDbAttributeDefinition
  3

  2
NB
 70
     8
280
     0
  0
ATTDEF
  5
E3
330
DC
100
AcDbEntity
  8
AM_6
100
AcDbText
 10
5.82902
 20
-1.24
 30
0.0
 40
0.5
  1
$PN.
100
AcDbAttributeDefinition
  3

  2
NBSYN
 70
     8
280
     0
  0
ATTDEF
  5
E4
330
DC
100
AcDbEntity
  8
AM_6
100
AcDbText
 10
5.82902
 20
-1.74
 30
0.0
 40
0.5
  1
130300
100
AcDbAttributeDefinition
  3

  2
LINA
 70
     8
280
     0
  0
ATTDEF
  5
E5
330
DC
100
AcDbEntity
  8
AM_6
100
AcDbText
 10
5.82902
 20
-2.24
 30
0.0
 40
0.5
  1
203
100
AcDbAttributeDefinition
  3

  2
SERIES
 70
     8
280
     0
  0
ATTDEF
  5
E6
330
DC
100
AcDbEntity
  8
AM_6
100
AcDbText
 10
5.82902
 20
-2.74
 30
0.0
 40
0.5
  1
1/2
100
AcDbAttributeDefinition
  3

  2
SS
 70
     8
280
     0
  0
ATTDEF
  5
E7
330
DC
100
AcDbEntity
  8
AM_6
100
AcDbText
 10
5.82902
 20
-3.24
 30
0.0
 40
0.5
  1
130300
100
AcDbAttributeDefinition
  3

  2
PN
 70
     8
280
     0
  0
ATTDEF
  5
E8
330
DC
100
AcDbEntity
  8
AM_6
100
AcDbText
 10
5.82902
 20
-3.74
 30
0.0
 40
0.5
  1
INS-SXV-008
100
AcDbAttributeDefinition
  3

  2
DESCRIPTION
 70
     8
280
     0
  0
ATTDEF
  5
E9
330
DC
100
AcDbEntity
  8
AM_6
100
AcDbText
 10
5.82902
 20
-4.24
 30
0.0
 40
0.5
  1
0.3
100
AcDbAttributeDefinition
  3

  2
WEIGHT
 70
     8
280
     0
  0
ATTDEF
  5
EA
330
DC
100
AcDbEntity
  8
AM_6
100
AcDbText
 10
5.82902
 20
-4.74
 30
0.0
 40
0.5
  1
1.13
100
AcDbAttributeDefinition
  3

  2
A
 70
     8
280
     0
  0
ATTDEF
  5
EB
330
DC
100
AcDbEntity
  8
AM_6
100
AcDbText
 10
5.82902
 20
-5.24
 30
0.0
 40
0.5
  1
0.51
100
AcDbAttributeDefinition
  3

  2
C
 70
     8
280
     0
  0
ATTDEF
  5
EC
330
DC
100
AcDbEntity
  8
AM_6
100
AcDbText
 10
5.82902
 20
-5.74
 30
0.0
 40
0.5
  1
1.5748
100
AcDbAttributeDefinition
  3

  2
D
 70
     8
280
     0
  0
ATTDEF
  5
ED
330
DC
100
AcDbEntity
  8
AM_6
100
AcDbText
 10
5.82902
 20
-6.24
 30
0.0
 40
0.5
  1
0.15
100
AcDbAttributeDefinition
  3

  2
J
 70
     8
280
     0
  0
ATTDEF
  5
EE
330
DC
100
AcDbEntity
  8
AM_6
100
AcDbText
 10
5.82902
 20
-6.74
 30
0.0
 40
0.5
  1
1.13
100
AcDbAttributeDefinition
  3

  2
L
 70
     8
280
     0
  0
ATTDEF
  5
EF
330
DC
100
AcDbEntity
  8
AM_6
100
AcDbText
 10
5.82902
 20
-7.24
 30
0.0
 40
0.5
  1
10 - 32
100
AcDbAttributeDefinition
  3

  2
N
 70
     8
280
     0
  0
ATTDEF
  5
F0
330
DC
100
AcDbEntity
  8
AM_6
100
AcDbText
 10
5.82902
 20
-7.74
 30
0.0
 40
0.5
  1
0.26
100
AcDbAttributeDefinition
  3

  2
W
 70
     8
280
     0
  0
ATTDEF
  5
F1
330
DC
100
AcDbEntity
  8
AM_6
100
AcDbText
 10
5.82902
 20
-8.24
 30
0.0
 40
0.5
  1
0.87
100
AcDbAttributeDefinition
  3

  2
Y
 70
     8
280
     0
  0
ATTDEF
  5
F2
330
DC
100
AcDbEntity
  8
AM_6
100
AcDbText
 10
5.82902
 20
-8.74
 30
0.0
 40
0.5
  1
0.96
100
AcDbAttributeDefinition
  3

  2
Z
 70
     8
280
     0
  0
ATTDEF
  5
F3
330
DC
100
AcDbEntity
  8
AM_6
100
AcDbText
 10
5.82902
 20
-9.24
 30
0.0
 40
0.5
  1
baldor
100
AcDbAttributeDefinition
  3

  2
COMPANY
 70
     8
280
     0
  0
LINE
  5
F4
330
DC
100
AcDbEntity
  8
AM_9
100
AcDbLine
 10
0.7649000000000001
 20
0.1975
 30
0.0
 11
0.7622569241533982
 21
0.1975
 31
0.0
  0
ARC
  5
F5
330
DC
100
AcDbEntity
  8
AM_9
100
AcDbCircle
 10
0.7649000000000005
 20
0.1500000000000005
 30
0.0
 40
0.0474999999999996
100
AcDbArc
 50
288.9895066308313
 51
90.0
  0
LINE
  5
F6
330
DC
100
AcDbEntity
  8
AM_9
100
AcDbLine
 10
0.7649000000000001
 20
0.1975
 30
0.0
 11
0.7649000000000001
 21
0.1839016666666579
 31
0.0
  0
LINE
  5
F7
330
DC
100
AcDbEntity
  8
AM_9
100
AcDbLine
 10
0.25
 20
-0.5799999999999998
 30
0.0
 11
0.25
 21
0.2529289321881346
 31
0.0
  0
LINE
  5
F8
330
DC
100
AcDbEntity
  8
AM_9
100
AcDbLine
 10
-0.25
 20
0.2529289321881346
 30
0.0
 11
-0.25
 21
-0.5799999999999998
 31
0.0
  0
LINE
  5
F9
330
DC
100
AcDbEntity
  8
AM_9
100
AcDbLine
 10
0.25
 20
-0.8629289321881344
 30
0.0
 11
0.25
 21
-0.5899999999999997
 31
0.0
  0
LINE
  5
FA
330
DC
100
AcDbEntity
  8
AM_9
100
AcDbLine
 10
-0.25
 20
-0.5899999999999997
 30
0.0
 11
-0.25
 21
-0.8629289321881344
 31
0.0
  0
LINE
  5
FB
330
DC
100
AcDbEntity
  8
AM_9
100
AcDbLine
 10
-0.25
 20
-0.5799999999999998
 30
0.0
 11
0.25
 21
-0.5799999999999998
 31
0.0
  0
LINE
  5
FC
330
DC
100
AcDbEntity
  8
AM_9
100
AcDbLine
 10
-0.25
 20
-0.5799999999999998
 30
0.0
 11
-0.255
 21
-0.5849999999999999
 31
0.0
  0
LINE
  5
FD
330
DC
100
AcDbEntity
  8
AM_9
100
AcDbLine
 10
0.255
 20
-0.5849999999999999
 30
0.0
 11
0.25
 21
-0.5799999999999998
 31
0.0
  0
LINE
  5
FE
330
DC
100
AcDbEntity
  8
AM_9
100
AcDbLine
 10
-0.255
 20
-0.5849999999999999
 30
0.0
 11
0.255
 21
-0.5849999999999999
 31
0.0
  0
LINE
  5
FF
330
DC
100
AcDbEntity
  8
AM_9
100
AcDbLine
 10
-0.25
 20
-0.5899999999999997
 30
0.0
 11
0.25
 21
-0.5899999999999997
 31
0.0
  0
LINE
  5
100
330
DC
100
AcDbEntity
  8
AM_9
100
AcDbLine
 10
0.25
 20
-0.5899999999999997
 30
0.0
 11
0.255
 21
-0.5849999999999999
 31
0.0
  0
LINE
  5
101
330
DC
100
AcDbEntity
  8
AM_9
100
AcDbLine
 10
-0.255
 20
-0.5849999999999999
 30
0.0
 11
-0.25
 21
-0.5899999999999997
 31
0.0
  0
LINE
  5
102
330
DC
100
AcDbEntity
  8
AM_9
100
AcDbLine
 10
-0.25
 20
0.2529289321881346
 30
0.0
 11
0.25
 21
0.2529289321881346
 31
0.0
  0
LINE
  5
103
330
DC
100
AcDbEntity
  8
AM_9
100
AcDbLine
 10
0.25
 20
0.2529289321881346
 30
0.0
 11
0.2570710678118655
 21
0.26
 31
0.0
  0
LINE
  5
104
330
DC
100
AcDbEntity
  8
AM_9
100
AcDbLine
 10
-0.2570710678118655
 20
0.26
 30
0.0
 11
-0.25
 21
0.2529289321881346
 31
0.0
  0
LINE
  5
105
330
DC
100
AcDbEntity
  8
AM_9
100
AcDbLine
 10
-0.25
 20
-0.8629289321881344
 30
0.0
 11
0.25
 21
-0.8629289321881344
 31
0.0
  0
LINE
  5
106
330
DC
100
AcDbEntity
  8
AM_9
100
AcDbLine
 10
-0.25
 20
-0.8629289321881344
 30
0.0
 11
-0.2570710678118655
 21
-0.8699999999999999
 31
0.0
  0
LINE
  5
107
330
DC
100
AcDbEntity
  8
AM_9
100
AcDbLine
 10
0.2570710678118655
 20
-0.8699999999999999
 30
0.0
 11
0.25
 21
-0.8629289321881344
 31
0.0
  0
LINE
  5
108
330
DC
100
AcDbEntity
  8
AM_9
100
AcDbLine
 10
0.48
 20
-0.3818841075326534
 30
0.0
 11
0.48
 21
-0.255
 31
0.0
  0
LINE
  5
109
330
DC
100
AcDbEntity
  8
AM_9
100
AcDbLine
 10
-0.48
 20
-0.255
 30
0.0
 11
-0.48
 21
-0.3818841075326534
 31
0.0
  0
LINE
  5
10A
330
DC
100
AcDbEntity
  8
AM_9
100
AcDbLine
 10
-0.48
 20
0.26
 30
0.0
 11
0.48
 21
0.26
 31
0.0
  0
LINE
  5
10B
330
DC
100
AcDbEntity
  8
AM_9
100
AcDbLine
 10
0.48
 20
0.255
 30
0.0
 11
0.48
 21
0.26
 31
0.0
  0
LINE
  5
10C
330
DC
100
AcDbEntity
  8
AM_9
100
AcDbLine
 10
-0.48
 20
0.26
 30
0.0
 11
-0.48
 21
0.255
 31
0.0
  0
LINE
  5
10D
330
DC
100
AcDbEntity
  8
AM_9
100
AcDbLine
 10
-0.7377843587390557
 20
0.255
 30
0.0
 11
0.7377843587356823
 21
0.255
 31
0.0
  0
ARC
  5
10E
330
DC
100
AcDbEntity
  8
AM_9
100
AcDbCircle
 10
0.7377843587390558
 20
0.2450000000000001
 30
0.0
 40
0.01
100
AcDbArc
 50
18.37005499716333
 51
90.0
  0
ARC
  5
10F
330
DC
100
AcDbEntity
  8
AM_9
100
AcDbCircle
 10
-0.7377843587390558
 20
0.2450000000000001
 30
0.0
 40
0.01
100
AcDbArc
 50
90.0
 51
161.6299450028367
  0
LINE
  5
110
330
DC
100
AcDbEntity
  8
AM_9
100
AcDbLine
 10
-0.7377843587390677
 20
-0.255
 30
0.0
 11
0.7377835934954781
 21
-0.255
 31
0.0
  0
ARC
  5
111
330
DC
100
AcDbEntity
  8
AM_9
100
AcDbCircle
 10
0.7377843587390679
 20
-0.2450000000000005
 30
0.0
 40
0.0099999999999995
100
AcDbArc
 50
270.0
 51
341.6300303801816
  0
ARC
  5
112
330
DC
100
AcDbEntity
  8
AM_9
100
AcDbCircle
 10
-0.7377843587390679
 20
-0.2450000000000003
 30
0.0
 40
0.0099999999999996
100
AcDbArc
 50
198.3699696198193
 51
270.0
  0
LINE
  5
113
330
DC
100
AcDbEntity
  8
AM_9
100
AcDbLine
 10
0.7499047619047622
 20
-0.18
 30
0.0
 11
0.7499047619047622
 21
-0.12
 31
0.0
  0
LINE
  5
114
330
DC
100
AcDbEntity
  8
AM_9
100
AcDbLine
 10
-0.7499047619047622
 20
-0.12
 30
0.0
 11
-0.7499047619047622
 21
-0.18
 31
0.0
  0
LINE
  5
115
330
DC
100
AcDbEntity
  8
AM_9
100
AcDbLine
 10
-0.747274771960274
 20
-0.2481515166016934
 30
0.0
 11
0.7472747719602993
 21
-0.2481515166016934
 31
0.0
  0
LINE
  5
116
330
DC
100
AcDbEntity
  8
AM_9
100
AcDbLine
 10
-0.7466583957875247
 20
-0.18
 30
0.0
 11
0.7466583957875247
 21
-0.18
 31
0.0
  0
ARC
  5
117
330
DC
100
AcDbEntity
  8
AM_9
100
AcDbCircle
 10
0.0000000000229173
 20
-0.0000000000064773
 30
0.0
 40
0.7873999999762332
100
AcDbArc
 50
341.629946087054
 51
346.7853111885574
  0
ARC
  5
118
330
DC
100
AcDbEntity
  8
AM_9
100
AcDbCircle
 10
-0.0000000000229173
 20
-0.0000000000064773
 30
0.0
 40
0.7873999999762332
100
AcDbArc
 50
193.2146888114426
 51
198.370053912946
  0
LINE
  5
119
330
DC
100
AcDbEntity
  8
AM_9
100
AcDbLine
 10
-0.7782022616261149
 20
-0.1199999999999996
 30
0.0
 11
0.7782022616261142
 21
-0.1199999999999996
 31
0.0
  0
LINE
  5
11A
330
DC
100
AcDbEntity
  8
AM_9
100
AcDbLine
 10
-0.7472747672641272
 20
0.2481515307435041
 30
0.0
 11
0.7472747672641264
 21
0.2481515307435041
 31
0.0
  0
LINE
  5
11B
330
DC
100
AcDbEntity
  8
AM_9
100
AcDbLine
 10
0.7622286467994902
 20
0.1974999999940512
 30
0.0
 11
0.7803562616969568
 21
0.1050850361866428
 31
0.0
  0
ARC
  5
11C
330
DC
100
AcDbEntity
  8
AM_9
100
AcDbCircle
 10
-0.0000000000000384
 20
-0.0000000000000031
 30
0.0
 40
0.7874000000000368
100
AcDbArc
 50
351.2339465521255
 51
7.669478144626402
  0
ARC
  5
11D
330
DC
100
AcDbEntity
  8
AM_9
100
AcDbCircle
 10
-0.0000000000008229
 20
-0.0000000000002306
 30
0.0
 40
0.7874000000008528
100
AcDbArc
 50
14.51582008625285
 51
18.37005499716018
  0
ARC
  5
11E
330
DC
100
AcDbEntity
  8
AM_9
100
AcDbCircle
 10
0.0000000000000279
 20
-0.0000000000000029
 30
0.0
 40
0.7874000000000264
100
AcDbArc
 50
161.6299450028374
 51
188.7660534478746
  0
LINE
  5
121
330
DC
100
AcDbEntity
  8
AM_7
100
AcDbLine
 10
-0.082005
 20
-0.7274999999999998
 30
0.0
 11
0.082005
 21
-0.7274999999999998
 31
0.0
  0
LINE
  5
122
330
DC
100
AcDbEntity
  8
AM_7
100
AcDbLine
 10
0.46338
 20
0.1499999999999999
 30
0.0
 11
0.8290200000000002
 21
0.1499999999999999
 31
0.0
  0
LINE
  5
123
330
DC
100
AcDbEntity
  8
AM_4
100
AcDbLine
 10
0.4571428571428571
 20
-0.5279999999999998
 30
0.0
 11
0.4571428571428571
 21
-0.509
 31
0.0
  0
LINE
  5
124
330
DC
100
AcDbEntity
  8
AM_4
100
AcDbLine
 10
-0.4571428571428571
 20
-0.509
 30
0.0
 11
-0.4571428571428571
 21
-0.5279999999999998
 31
0.0
  0
LINE
  5
125
330
DC
100
AcDbEntity
  8
AM_4
100
AcDbLine
 10
-0.48
 20
-0.5090000000000001
 30
0.0
 11
0.48
 21
-0.5090000000000001
 31
0.0
  0
LINE
  5
126
330
DC
100
AcDbEntity
  8
AM_4
100
AcDbLine
 10
0.48
 20
-0.5090000000000001
 30
0.0
 11
0.48
 21
-0.3818841075326534
 31
0.0
  0
LINE
  5
127
330
DC
100
AcDbEntity
  8
AM_4
100
AcDbLine
 10
-0.48
 20
-0.3818841075326534
 30
0.0
 11
-0.48
 21
-0.5090000000000001
 31
0.0
  0
LINE
  5
128
330
DC
100
AcDbEntity
  8
AM_4
100
AcDbLine
 10
-0.5449999999999999
 20
-0.5279999999999998
 30
0.0
 11
0.5449999999889549
 21
-0.5279999999999998
 31
0.0
  0
ARC
  5
129
330
DC
100
AcDbEntity
  8
AM_4
100
AcDbCircle
 10
0.5449999999999996
 20
-0.5480000000000002
 30
0.0
 40
0.0200000000000004
100
AcDbArc
 50
0.0
 51
90.0
  0
ARC
  5
12A
330
DC
100
AcDbEntity
  8
AM_4
100
AcDbCircle
 10
-0.5449999999999996
 20
-0.5480000000000002
 30
0.0
 40
0.0200000000000004
100
AcDbArc
 50
90.0
 51
180.0
  0
CIRCLE
  5
12B
330
DC
100
AcDbEntity
  8
AM_4
100
AcDbCircle
 10
0.0
 20
-0.7274999999999998
 30
0.0
 40
0.0781
  0
LINE
  5
12C
330
DC
100
AcDbEntity
  8
AM_4
100
AcDbLine
 10
-0.5449999999999999
 20
-0.8699999999999999
 30
0.0
 11
0.5449999999889549
 21
-0.8699999999999999
 31
0.0
  0
ARC
  5
12D
330
DC
100
AcDbEntity
  8
AM_4
100
AcDbCircle
 10
0.5449999999999995
 20
-0.8499999999999995
 30
0.0
 40
0.0200000000000004
100
AcDbArc
 50
270.0
 51
0.0
  0
ARC
  5
12E
330
DC
100
AcDbEntity
  8
AM_4
100
AcDbCircle
 10
-0.5449999999999995
 20
-0.8499999999999995
 30
0.0
 40
0.0200000000000005
100
AcDbArc
 50
180.0
 51
270.0
  0
LINE
  5
12F
330
DC
100
AcDbEntity
  8
AM_4
100
AcDbLine
 10
-0.565
 20
-0.8499999999999999
 30
0.0
 11
0.565
 21
-0.8499999999999999
 31
0.0
  0
LWPOLYLINE
  5
130
330
DC
100
AcDbEntity
  8
AM_4
100
AcDbPolyline
 90
       39
 70
     0
 43
0.0
 10
-0.0577686912849089
 20
-0.6677877538177471
 10
-0.0489839007576252
 20
-0.659363569685407
 10
-0.0387983195499696
 20
-0.6521971309863199
 10
-0.0265739247584643
 20
-0.6463200616702323
 10
-0.0130524847852295
 20
-0.6426043323133129
 10
-0.0003856902883161
 20
-0.6414570086989485
 10
0.0126828886186636
 20
-0.6425398179536131
 10
0.02461316317606
 20
-0.6456113852711591
 10
0.0361884942353371
 20
-0.6507167908532635
 10
0.0467795234801745
 20
-0.6576059824328193
 10
0.0563892625065328
 20
-0.6662928099715435
 10
0.0648196425897393
 20
-0.6767661985462585
 10
0.0716704160581231
 20
-0.6887402690760389
 10
0.0767323378547907
 20
-0.7021566955432929
 10
0.0796578215196947
 20
-0.7165976681533488
 10
0.0802197515278565
 20
-0.7315140988263112
 10
0.078267159187214
 20
-0.7467375102478425
 10
0.0738887932835049
 20
-0.7611531779401783
 10
0.0669204129160272
 20
-0.775003969033174
 10
0.0580989844560821
 20
-0.786843287367605
 10
0.0469683336995263
 20
-0.7972483291769374
 10
0.0351960809307805
 20
-0.8048121768782509
 10
0.0218025270132688
 20
-0.8103008243006543
 10
0.0090856047661976
 20
-0.8129894893312689
 10
-0.004327803551671
 20
-0.813418483075829
 10
-0.0165773201450068
 20
-0.8116840832333972
 10
-0.0287024760794656
 20
-0.8078413043977803
 10
-0.0398077807362252
 20
-0.8021943869534995
 10
-0.0501329973481006
 20
-0.7946692399037377
 10
-0.0593994650857265
 20
-0.7853468387229764
 10
-0.067284004729557
 20
-0.7744115678610327
 10
-0.0736071593882668
 20
-0.7618525617047148
 10
-0.0779670766244466
 20
-0.7480844460353996
 10
-0.0801138910201123
 20
-0.7334601807939506
 10
-0.0798420558737942
 20
-0.7182667828291929
 10
-0.0770954848597128
 20
-0.7034509108216207
 10
-0.071746969212923
 20
-0.688902829596924
 10
-0.0656084856631023
 20
-0.6779424634833447
 10
-0.0577686912891388
 20
-0.6677877538149369
  0
LINE
  5
131
330
DC
100
AcDbEntity
  8
AM_4
100
AcDbLine
 10
-0.565
 20
-0.548
 30
0.0
 11
0.565
 21
-0.548
 31
0.0
  0
LINE
  5
132
330
DC
100
AcDbEntity
  8
AM_4
100
AcDbLine
 10
0.565
 20
-0.8499999999999999
 30
0.0
 11
0.565
 21
-0.548
 31
0.0
  0
LINE
  5
133
330
DC
100
AcDbEntity
  8
AM_4
100
AcDbLine
 10
-0.565
 20
-0.548
 30
0.0
 11
-0.565
 21
-0.8499999999999999
 31
0.0
  0
ARC
  5
135
330
DC
100
AcDbEntity
  8
AM_5
100
AcDbCircle
 10
-0.0000000000000001
 20
-0.7274999999999998
 30
0.0
 40
0.095
100
AcDbArc
 50
74.99999999999996
 51
14.99999999999992
  0
ENDBLK
  5
DF
330
DC
100
AcDbEntity
  8
0
100
AcDbBlockEnd
  0
BLOCK
  5
138
330
136
100
AcDbEntity
  8
0
100
AcDbBlockBegin
  2
4_130310H_0_in_130310_4
 70
     2
 10
0.0
 20
0.0
 30
0.0
  3
4_130310H_0_in_130310_4
  1

  0
ATTDEF
  5
13A
330
136
100
AcDbEntity
  8
AM_6
100
AcDbText
 10
7.5
 20
0.6599999999999999
 30
0.0
 40
0.5
  1
P2B-SXV and P2B-SXV-NL -I-Housing
100
AcDbAttributeDefinition
  3

  2
NN
 70
     8
280
     0
  0
ATTDEF
  5
13B
330
136
100
AcDbEntity
  8
AM_6
100
AcDbText
 10
7.5
 20
0.1599999999999999
 30
0.0
 40
0.5
  1
Eccentric Collar Pillow Block Bearings -(Intermediate Duty)
100
AcDbAttributeDefinition
  3

  2
NT
 70
     8
280
     0
  0
ATTDEF
  5
13C
330
136
100
AcDbEntity
  8
AM_6
100
AcDbText
 10
7.5
 20
-0.3400000000000001
 30
0.0
 40
0.5
  1
130310H
100
AcDbAttributeDefinition
  3

  2
NB
 70
     8
280
     0
  0
ATTDEF
  5
13D
330
136
100
AcDbEntity
  8
AM_6
100
AcDbText
 10
7.5
 20
-0.8400000000000001
 30
0.0
 40
0.5
  1
$PN.H
100
AcDbAttributeDefinition
  3

  2
NBSYN
 70
     8
280
     0
  0
ATTDEF
  5
13E
330
136
100
AcDbEntity
  8
AM_6
100
AcDbText
 10
7.5
 20
-1.34
 30
0.0
 40
0.5
  1
130310
100
AcDbAttributeDefinition
  3

  2
LINA
 70
     8
280
     0
  0
ATTDEF
  5
13F
330
136
100
AcDbEntity
  8
AM_6
100
AcDbText
 10
7.5
 20
-1.84
 30
0.0
 40
0.5
  1
203
100
AcDbAttributeDefinition
  3

  2
SERIES
 70
     8
280
     0
  0
ATTDEF
  5
140
330
136
100
AcDbEntity
  8
AM_6
100
AcDbText
 10
7.5
 20
-2.34
 30
0.0
 40
0.5
  1
1/2
100
AcDbAttributeDefinition
  3

  2
SS
 70
     8
280
     0
  0
ATTDEF
  5
141
330
136
100
AcDbEntity
  8
AM_6
100
AcDbText
 10
7.5
 20
-2.84
 30
0.0
 40
0.5
  1
130310
100
AcDbAttributeDefinition
  3

  2
PN
 70
     8
280
     0
  0
ATTDEF
  5
142
330
136
100
AcDbEntity
  8
AM_6
100
AcDbText
 10
7.5
 20
-3.34
 30
0.0
 40
0.5
  1
P2B-SXV-008
100
AcDbAttributeDefinition
  3

  2
DESCRIPTION
 70
     8
280
     0
  0
ATTDEF
  5
143
330
136
100
AcDbEntity
  8
AM_6
100
AcDbText
 10
7.5
 20
-3.84
 30
0.0
 40
0.5
  1
RE-LUBE
100
AcDbAttributeDefinition
  3

  2
LF
 70
     8
280
     0
  0
ATTDEF
  5
144
330
136
100
AcDbEntity
  8
AM_6
100
AcDbText
 10
7.5
 20
-4.34
 30
0.0
 40
0.5
  1
1.20
100
AcDbAttributeDefinition
  3

  2
WEIGHT
 70
     8
280
     0
  0
ATTDEF
  5
145
330
136
100
AcDbEntity
  8
AM_6
100
AcDbText
 10
7.5
 20
-4.84
 30
0.0
 40
0.5
  1
1.13
100
AcDbAttributeDefinition
  3

  2
A
 70
     8
280
     0
  0
ATTDEF
  5
146
330
136
100
AcDbEntity
  8
AM_6
100
AcDbText
 10
7.5
 20
-5.34
 30
0.0
 40
0.5
  1
5.00
100
AcDbAttributeDefinition
  3

  2
B
 70
     8
280
     0
  0
ATTDEF
  5
147
330
136
100
AcDbEntity
  8
AM_6
100
AcDbText
 10
7.5
 20
-5.84
 30
0.0
 40
0.5
  1
1.20
100
AcDbAttributeDefinition
  3

  2
C
 70
     8
280
     0
  0
ATTDEF
  5
148
330
136
100
AcDbEntity
  8
AM_6
100
AcDbText
 10
7.5
 20
-6.34
 30
0.0
 40
0.5
  1
3.25
100
AcDbAttributeDefinition
  3

  2
DMIN
 70
     8
280
     0
  0
ATTDEF
  5
149
330
136
100
AcDbEntity
  8
AM_6
100
AcDbText
 10
7.5
 20
-6.84
 30
0.0
 40
0.5
  1
4.06
100
AcDbAttributeDefinition
  3

  2
DMAX
 70
     8
280
     0
  0
ATTDEF
  5
14A
330
136
100
AcDbEntity
  8
AM_6
100
AcDbText
 10
7.5
 20
-7.34
 30
0.0
 40
0.5
  1
3/8
100
AcDbAttributeDefinition
  3

  2
F
 70
     8
280
     0
  0
ATTDEF
  5
14B
330
136
100
AcDbEntity
  8
AM_6
100
AcDbText
 10
7.5
 20
-7.84
 30
0.0
 40
0.5
  1
0.84
100
AcDbAttributeDefinition
  3

  2
G
 70
     8
280
     0
  0
ATTDEF
  5
14C
330
136
100
AcDbEntity
  8
AM_6
100
AcDbText
 10
7.5
 20
-8.34
 30
0.0
 40
0.5
  1
0.47
100
AcDbAttributeDefinition
  3

  2
H
 70
     8
280
     0
  0
ATTDEF
  5
14D
330
136
100
AcDbEntity
  8
AM_6
100
AcDbText
 10
7.5
 20
-8.84
 30
0.0
 40
0.5
  1
2.14
100
AcDbAttributeDefinition
  3

  2
J
 70
     8
280
     0
  0
ATTDEF
  5
14E
330
136
100
AcDbEntity
  8
AM_6
100
AcDbText
 10
7.5
 20
-9.34
 30
0.0
 40
0.5
  1
1.13
100
AcDbAttributeDefinition
  3

  2
L
 70
     8
280
     0
  0
ATTDEF
  5
14F
330
136
100
AcDbEntity
  8
AM_6
100
AcDbText
 10
7.5
 20
-9.84
 30
0.0
 40
0.5
  1
1.06
100
AcDbAttributeDefinition
  3

  2
M
 70
     8
280
     0
  0
ATTDEF
  5
150
330
136
100
AcDbEntity
  8
AM_6
100
AcDbText
 10
7.5
 20
-10.34
 30
0.0
 40
0.5
  1
0.26
100
AcDbAttributeDefinition
  3

  2
R
 70
     8
280
     0
  0
ATTDEF
  5
151
330
136
100
AcDbEntity
  8
AM_6
100
AcDbText
 10
7.5
 20
-10.84
 30
0.0
 40
0.5
  1
0.87
100
AcDbAttributeDefinition
  3

  2
S
 70
     8
280
     0
  0
ATTDEF
  5
152
330
136
100
AcDbEntity
  8
AM_6
100
AcDbText
 10
7.5
 20
-11.34
 30
0.0
 40
0.5
  1
2.25
100
AcDbAttributeDefinition
  3

  2
U
 70
     8
280
     0
  0
ATTDEF
  5
153
330
136
100
AcDbEntity
  8
AM_6
100
AcDbText
 10
7.5
 20
-11.84
 30
0.0
 40
0.5
  1
4.50
100
AcDbAttributeDefinition
  3

  2
V
 70
     8
280
     0
  0
ATTDEF
  5
154
330
136
100
AcDbEntity
  8
AM_6
100
AcDbText
 10
7.5
 20
-12.34
 30
0.0
 40
0.5
  1
0.38
100
AcDbAttributeDefinition
  3

  2
W
 70
     8
280
     0
  0
ATTDEF
  5
155
330
136
100
AcDbEntity
  8
AM_6
100
AcDbText
 10
7.5
 20
-12.84
 30
0.0
 40
0.5
  1
0.12
100
AcDbAttributeDefinition
  3

  2
X
 70
     8
280
     0
  0
ATTDEF
  5
156
330
136
100
AcDbEntity
  8
AM_6
100
AcDbText
 10
7.5
 20
-13.34
 30
0.0
 40
0.5
  1
1000
100
AcDbAttributeDefinition
  3

  2
CAPS
 70
     8
280
     0
  0
ATTDEF
  5
157
330
136
100
AcDbEntity
  8
AM_6
100
AcDbText
 10
7.5
 20
-13.84
 30
0.0
 40
0.5
  1
2158
100
AcDbAttributeDefinition
  3

  2
CAPD
 70
     8
280
     0
  0
ATTDEF
  5
158
330
136
100
AcDbEntity
  8
AM_6
100
AcDbText
 10
7.5
 20
-14.34
 30
0.0
 40
0.5
  1
baldor
100
AcDbAttributeDefinition
  3

  2
COMPANY
 70
     8
280
     0
  0
LINE
  5
159
330
136
100
AcDbEntity
  8
AM_9
100
AcDbLine
 10
0.7653999999999999
 20
0.2999999999999999
 30
0.0
 11
0.7653999999999999
 21
0.4799999999999999
 31
0.0
  0
LINE
  5
15A
330
136
100
AcDbEntity
  8
AM_9
100
AcDbLine
 10
-0.7654
 20
0.2999999999999999
 30
0.0
 11
-0.7654000000000001
 21
0.4799999999999999
 31
0.0
  0
LINE
  5
15B
330
136
100
AcDbEntity
  8
AM_9
100
AcDbLine
 10
0.8124
 20
-0.4800000000000001
 30
0.0
 11
0.8124
 21
-0.3
 31
0.0
  0
LINE
  5
15C
330
136
100
AcDbEntity
  8
AM_9
100
AcDbLine
 10
0.7653999999999999
 20
-0.4800000000000001
 30
0.0
 11
0.7653999999999999
 21
-0.3
 31
0.0
  0
LINE
  5
15D
330
136
100
AcDbEntity
  8
AM_9
100
AcDbLine
 10
-0.8124
 20
-0.4800000000000004
 30
0.0
 11
-0.8124
 21
-0.3
 31
0.0
  0
LINE
  5
15E
330
136
100
AcDbEntity
  8
AM_9
100
AcDbLine
 10
-0.7654
 20
-0.4800000000000001
 30
0.0
 11
-0.7654
 21
-0.3
 31
0.0
  0
LINE
  5
15F
330
136
100
AcDbEntity
  8
AM_9
100
AcDbLine
 10
-2.153499999999999
 20
-0.3
 30
0.0
 11
-2.153499999999999
 21
-0.1790363091666048
 31
0.0
  0
LINE
  5
160
330
136
100
AcDbEntity
  8
AM_9
100
AcDbLine
 10
-2.247499999999999
 20
-0.3
 30
0.0
 11
-2.247499999999999
 21
0.2999999999999999
 31
0.0
  0
LINE
  5
161
330
136
100
AcDbEntity
  8
AM_9
100
AcDbLine
 10
2.1535
 20
0.1790363091666045
 30
0.0
 11
2.1535
 21
0.2999999999999999
 31
0.0
  0
LINE
  5
162
330
136
100
AcDbEntity
  8
AM_9
100
AcDbLine
 10
2.2475
 20
-0.3
 30
0.0
 11
2.2475
 21
0.2999999999999999
 31
0.0
  0
LINE
  5
163
330
136
100
AcDbEntity
  8
AM_9
100
AcDbLine
 10
-1.301376673866075
 20
-0.3
 30
0.0
 11
-1.301376673866075
 21
0.2999999999999999
 31
0.0
  0
LINE
  5
164
330
136
100
AcDbEntity
  8
AM_9
100
AcDbLine
 10
-2.153499999999999
 20
0.1790363091666052
 30
0.0
 11
-2.153499999999999
 21
0.2999999999999999
 31
0.0
  0
LINE
  5
165
330
136
100
AcDbEntity
  8
AM_9
100
AcDbLine
 10
2.1535
 20
-0.3
 30
0.0
 11
2.1535
 21
-0.1790363091666047
 31
0.0
  0
LINE
  5
166
330
136
100
AcDbEntity
  8
AM_9
100
AcDbLine
 10
1.301376673866076
 20
-0.3
 30
0.0
 11
1.301376673866076
 21
0.2999999999999999
 31
0.0
  0
LINE
  5
167
330
136
100
AcDbEntity
  8
AM_9
100
AcDbLine
 10
-1.179731722667891
 20
-0.3
 30
0.0
 11
-1.179731722667891
 21
0.2999999999999999
 31
0.0
  0
LINE
  5
168
330
136
100
AcDbEntity
  8
AM_9
100
AcDbLine
 10
1.179731722667891
 20
-0.3
 30
0.0
 11
1.179731722667891
 21
0.2999999999999999
 31
0.0
  0
LINE
  5
169
330
136
100
AcDbEntity
  8
AM_9
100
AcDbLine
 10
0.579966423674996
 20
-0.3
 30
0.0
 11
0.579966423674996
 21
0.2999999999999999
 31
0.0
  0
LINE
  5
16A
330
136
100
AcDbEntity
  8
AM_9
100
AcDbLine
 10
-0.5799664236749947
 20
-0.3
 30
0.0
 11
-0.5799664236749947
 21
0.2999999999999999
 31
0.0
  0
LINE
  5
16B
330
136
100
AcDbEntity
  8
AM_9
100
AcDbLine
 10
-0.7770469443264488
 20
-0.3
 30
0.0
 11
-0.7770469443264488
 21
0.2999999999999999
 31
0.0
  0
LINE
  5
16C
330
136
100
AcDbEntity
  8
AM_9
100
AcDbLine
 10
0.7770469443264494
 20
-0.3
 30
0.0
 11
0.7770469443264494
 21
0.2999999999999999
 31
0.0
  0
LINE
  5
16D
330
136
100
AcDbEntity
  8
AM_9
100
AcDbLine
 10
2.2475
 20
-0.3
 30
0.0
 11
-2.247499999999999
 21
-0.3
 31
0.0
  0
LINE
  5
16E
330
136
100
AcDbEntity
  8
AM_9
100
AcDbLine
 10
2.2475
 20
0.2999999999999999
 30
0.0
 11
-2.247499999999999
 21
0.2999999999999999
 31
0.0
  0
LINE
  5
16F
330
136
100
AcDbEntity
  8
AM_9
100
AcDbLine
 10
0.8124
 20
-0.18
 30
0.0
 11
0.7466583957875247
 21
-0.18
 31
0.0
  0
LINE
  5
170
330
136
100
AcDbEntity
  8
AM_9
100
AcDbLine
 10
-0.7466583957875247
 20
-0.18
 30
0.0
 11
-0.8124
 21
-0.18
 31
0.0
  0
LINE
  5
171
330
136
100
AcDbEntity
  8
AM_9
100
AcDbLine
 10
0.7729772053560182
 20
-0.18
 30
0.0
 11
0.7729772053560182
 21
0.4491017964071858
 31
0.0
  0
LINE
  5
172
330
136
100
AcDbEntity
  8
AM_9
100
AcDbLine
 10
0.8106557226506967
 20
0.4843570359282735
 30
0.0
 11
0.8119101663279149
 21
0.4869086028376451
 31
0.0
  0
LINE
  5
173
330
136
100
AcDbEntity
  8
AM_9
100
AcDbLine
 10
0.8124
 20
-0.18
 30
0.0
 11
0.8124
 21
0.4900000000000004
 31
0.0
  0
LINE
  5
174
330
136
100
AcDbEntity
  8
AM_9
100
AcDbLine
 10
-0.7729772053560183
 20
-0.18
 30
0.0
 11
-0.7729772053560183
 21
0.4491017964071858
 31
0.0
  0
LINE
  5
175
330
136
100
AcDbEntity
  8
AM_9
100
AcDbLine
 10
-0.811851733096235
 20
0.4867343084227779
 30
0.0
 11
-0.810492199551703
 21
0.4841249420074848
 31
0.0
  0
LINE
  5
176
330
136
100
AcDbEntity
  8
AM_9
100
AcDbLine
 10
-0.8124
 20
0.4900000000000002
 30
0.0
 11
-0.8124
 21
-0.18
 31
0.0
  0
LINE
  5
177
330
136
100
AcDbEntity
  8
AM_9
100
AcDbLine
 10
-0.7466583957875247
 20
-0.18
 30
0.0
 11
-0.7466583957875246
 21
0.4491017964071858
 31
0.0
  0
LINE
  5
178
330
136
100
AcDbEntity
  8
AM_9
100
AcDbLine
 10
0.7466583957875246
 20
0.4491017964071858
 30
0.0
 11
0.7466583957875247
 21
-0.18
 31
0.0
  0
LINE
  5
179
330
136
100
AcDbEntity
  8
AM_9
100
AcDbLine
 10
0.7873999999999999
 20
-0.48
 30
0.0
 11
0.7873999999999999
 21
-0.18
 31
0.0
  0
LINE
  5
17A
330
136
100
AcDbEntity
  8
AM_9
100
AcDbLine
 10
-0.7873999999999999
 20
-0.18
 30
0.0
 11
-0.7873999999999999
 21
-0.48
 31
0.0
  0
LINE
  5
17B
330
136
100
AcDbEntity
  8
AM_9
100
AcDbLine
 10
0.48
 20
-0.4800000000000001
 30
0.0
 11
-0.48
 21
-0.4800000000000001
 31
0.0
  0
LINE
  5
17C
330
136
100
AcDbEntity
  8
AM_9
100
AcDbLine
 10
0.9219913839542032
 20
-0.1314275148960929
 30
0.0
 11
0.9219913839542032
 21
0.1313965067857489
 31
0.0
  0
LINE
  5
17D
330
136
100
AcDbEntity
  8
AM_7
100
AcDbLine
 10
-2.313
 20
-0.3800000000000001
 30
0.0
 11
-2.187
 21
-0.3800000000000001
 31
0.0
  0
LINE
  5
17E
330
136
100
AcDbEntity
  8
AM_7
100
AcDbLine
 10
-2.25
 20
-0.4430000000000001
 30
0.0
 11
-2.25
 21
-0.3170000000000001
 31
0.0
  0
LINE
  5
17F
330
136
100
AcDbEntity
  8
AM_7
100
AcDbLine
 10
2.187
 20
-0.3800000000000001
 30
0.0
 11
2.313
 21
-0.3800000000000001
 31
0.0
  0
LINE
  5
180
330
136
100
AcDbEntity
  8
AM_7
100
AcDbLine
 10
2.25
 20
-0.4430000000000001
 30
0.0
 11
2.25
 21
-0.3170000000000001
 31
0.0
  0
LINE
  5
181
330
136
100
AcDbEntity
  8
AM_7
100
AcDbLine
 10
0.0
 20
0.6599999999999999
 30
0.0
 11
0.0
 21
-0.9265
 31
0.0
  0
LINE
  5
182
330
136
100
AcDbEntity
  8
AM_7
100
AcDbLine
 10
1.396625
 20
-0.0000000000000001
 30
0.0
 11
2.258375
 21
-0.0000000000000001
 31
0.0
  0
LINE
  5
183
330
136
100
AcDbEntity
  8
AM_7
100
AcDbLine
 10
1.625
 20
-0.2283750000000001
 30
0.0
 11
1.625
 21
0.228375
 31
0.0
  0
LINE
  5
184
330
136
100
AcDbEntity
  8
AM_7
100
AcDbLine
 10
-2.258375
 20
0.0000000000000002
 30
0.0
 11
-1.396625
 21
0.0000000000000001
 31
0.0
  0
LINE
  5
185
330
136
100
AcDbEntity
  8
AM_7
100
AcDbLine
 10
-1.625
 20
-0.2283749999999999
 30
0.0
 11
-1.625
 21
0.2283750000000002
 31
0.0
  0
LINE
  5
186
330
136
100
AcDbEntity
  8
AM_7
100
AcDbLine
 10
-2.03
 20
-0.2283750000000001
 30
0.0
 11
-2.03
 21
0.2283750000000005
 31
0.0
  0
LINE
  5
187
330
136
100
AcDbEntity
  8
AM_7
100
AcDbLine
 10
2.03
 20
-0.2283750000000004
 30
0.0
 11
2.03
 21
0.2283750000000002
 31
0.0
  0
LINE
  5
188
330
136
100
AcDbEntity
  8
AM_4
100
AcDbLine
 10
2.5
 20
-0.6
 30
0.0
 11
2.5
 21
0.5999999999999999
 31
0.0
  0
LINE
  5
189
330
136
100
AcDbEntity
  8
AM_4
100
AcDbLine
 10
2.406000000000001
 20
0.4739634105524754
 30
0.0
 11
2.406000000000001
 21
0.5999999999999999
 31
0.0
  0
LINE
  5
18A
330
136
100
AcDbEntity
  8
AM_4
100
AcDbLine
 10
2.406000000000001
 20
-0.6
 30
0.0
 11
2.406000000000001
 21
-0.473963410552476
 31
0.0
  0
LINE
  5
18B
330
136
100
AcDbEntity
  8
AM_4
100
AcDbLine
 10
-2.406000000000001
 20
-0.6
 30
0.0
 11
-2.406000000000001
 21
-0.4739634105524758
 31
0.0
  0
LINE
  5
18C
330
136
100
AcDbEntity
  8
AM_4
100
AcDbLine
 10
-2.5
 20
-0.6
 30
0.0
 11
-2.5
 21
0.5999999999999999
 31
0.0
  0
LINE
  5
18D
330
136
100
AcDbEntity
  8
AM_4
100
AcDbLine
 10
-2.406000000000001
 20
0.4739634105524763
 30
0.0
 11
-2.406000000000001
 21
0.5999999999999999
 31
0.0
  0
LINE
  5
18E
330
136
100
AcDbEntity
  8
AM_4
100
AcDbLine
 10
1.763780465155741
 20
-0.6
 30
0.0
 11
1.763780465155741
 21
-0.5000000000000001
 31
0.0
  0
LINE
  5
18F
330
136
100
AcDbEntity
  8
AM_4
100
AcDbLine
 10
1.763780465155741
 20
0.5
 30
0.0
 11
1.763780465155741
 21
0.5999999999999999
 31
0.0
  0
LINE
  5
190
330
136
100
AcDbEntity
  8
AM_4
100
AcDbLine
 10
-1.763780465155741
 20
-0.6
 30
0.0
 11
-1.763780465155741
 21
-0.5000000000000001
 31
0.0
  0
LINE
  5
191
330
136
100
AcDbEntity
  8
AM_4
100
AcDbLine
 10
-1.763780465155741
 20
0.4999999999999997
 30
0.0
 11
-1.763780465155741
 21
0.5999999999999999
 31
0.0
  0
ARC
  5
192
330
136
100
AcDbEntity
  8
AM_4
100
AcDbCircle
 10
-2.03
 20
0.0000000000000002
 30
0.0
 40
0.2175000000000001
100
AcDbArc
 50
90.0
 51
270.0
  0
ARC
  5
193
330
136
100
AcDbEntity
  8
AM_4
100
AcDbCircle
 10
-2.309999999999999
 20
-0.3099999999999994
 30
0.0
 40
0.1900000000000008
100
AcDbArc
 50
180.0
 51
270.0
  0
LINE
  5
194
330
136
100
AcDbEntity
  8
AM_4
100
AcDbLine
 10
-1.625
 20
-0.2175
 30
0.0
 11
-2.03
 21
-0.2174999999999998
 31
0.0
  0
CIRCLE
  5
195
330
136
100
AcDbEntity
  8
AM_4
100
AcDbCircle
 10
-2.25
 20
-0.3800000000000001
 30
0.0
 40
0.06
  0
LINE
  5
196
330
136
100
AcDbEntity
  8
AM_4
100
AcDbLine
 10
-2.03
 20
0.2175000000000003
 30
0.0
 11
-1.625
 21
0.2175000000000002
 31
0.0
  0
LINE
  5
197
330
136
100
AcDbEntity
  8
AM_4
100
AcDbLine
 10
-2.309999999999999
 20
-0.4999999999999999
 30
0.0
 11
-1.625
 21
-0.4999999999999998
 31
0.0
  0
ARC
  5
198
330
136
100
AcDbEntity
  8
AM_4
100
AcDbCircle
 10
-2.31
 20
0.31
 30
0.0
 40
0.1899999999999999
100
AcDbArc
 50
90.0
 51
179.9999987925817
  0
ARC
  5
199
330
136
100
AcDbEntity
  8
AM_4
100
AcDbCircle
 10
-1.625
 20
0.0000000000000001
 30
0.0
 40
0.2175000000000001
100
AcDbArc
 50
270.0
 51
90.0
  0
LINE
  5
19A
330
136
100
AcDbEntity
  8
AM_4
100
AcDbLine
 10
-1.625
 20
0.4999999999999998
 30
0.0
 11
-2.31
 21
0.4999999999999999
 31
0.0
  0
LINE
  5
19B
330
136
100
AcDbEntity
  8
AM_4
100
AcDbLine
 10
1.625
 20
-0.5000000000000001
 30
0.0
 11
2.31
 21
-0.5000000000000001
 31
0.0
  0
CIRCLE
  5
19C
330
136
100
AcDbEntity
  8
AM_4
100
AcDbCircle
 10
2.25
 20
-0.3800000000000001
 30
0.0
 40
0.06
  0
ARC
  5
19D
330
136
100
AcDbEntity
  8
AM_4
100
AcDbCircle
 10
1.625
 20
-0.0000000000000001
 30
0.0
 40
0.2175000000000001
100
AcDbArc
 50
90.0
 51
270.0
  0
LINE
  5
19E
330
136
100
AcDbEntity
  8
AM_4
100
AcDbLine
 10
1.625
 20
0.2175
 30
0.0
 11
2.03
 21
0.2175
 31
0.0
  0
ARC
  5
19F
330
136
100
AcDbEntity
  8
AM_4
100
AcDbCircle
 10
2.03
 20
0.0
 30
0.0
 40
0.2175000000000001
100
AcDbArc
 50
270.0
 51
90.0
  0
LINE
  5
1A0
330
136
100
AcDbEntity
  8
AM_4
100
AcDbLine
 10
2.03
 20
-0.2175000000000001
 30
0.0
 11
1.625
 21
-0.2175000000000001
 31
0.0
  0
ARC
  5
1A1
330
136
100
AcDbEntity
  8
AM_4
100
AcDbCircle
 10
2.309999999999999
 20
0.3099999999999989
 30
0.0
 40
0.1900000000000013
100
AcDbArc
 50
0.0
 51
90.0
  0
LINE
  5
1A2
330
136
100
AcDbEntity
  8
AM_4
100
AcDbLine
 10
2.309999999999999
 20
0.4999999999999997
 30
0.0
 11
1.625
 21
0.4999999999999999
 31
0.0
  0
ARC
  5
1A3
330
136
100
AcDbEntity
  8
AM_4
100
AcDbCircle
 10
2.31
 20
-0.3100000000000001
 30
0.0
 40
0.1900000000000001
100
AcDbArc
 50
270.0
 51
0.0000012074182697
  0
LINE
  5
1A4
330
136
100
AcDbEntity
  8
AM_4
100
AcDbLine
 10
0.7729772053560182
 20
0.4491017964071858
 30
0.0
 11
0.7729772053560182
 21
0.48
 31
0.0
  0
LWPOLYLINE
  5
1A5
330
136
100
AcDbEntity
  8
AM_4
100
AcDbPolyline
 90
        4
 70
     0
 43
0.0
 10
0.8023999999999998
 20
0.4799999999999999
 10
0.8052851889767811
 20
0.4804252579894673
 10
0.8095846917693758
 20
0.4830444120164492
 10
0.8106557226506967
 20
0.4843570359282735
  0
LINE
  5
1A6
330
136
100
AcDbEntity
  8
AM_4
100
AcDbLine
 10
-0.7729772053560181
 20
0.4491017964071856
 30
0.0
 11
-0.7729772053560181
 21
0.48
 31
0.0
  0
LINE
  5
1A7
330
136
100
AcDbEntity
  8
AM_4
100
AcDbLine
 10
0.8023999999999998
 20
0.4799999999999999
 30
0.0
 11
-0.8023999999999998
 21
0.48
 31
0.0
  0
LWPOLYLINE
  5
1A8
330
136
100
AcDbEntity
  8
AM_4
100
AcDbPolyline
 90
        4
 70
     0
 43
0.0
 10
-0.810492199551703
 20
0.4841249420074848
 10
-0.8095962700669667
 20
0.4830563916352311
 10
-0.8052851889767811
 20
0.4804252579894673
 10
-0.8023999999999998
 20
0.48
  0
LINE
  5
1A9
330
136
100
AcDbEntity
  8
AM_4
100
AcDbLine
 10
-1.683533066922689
 20
0.4999999999999997
 30
0.0
 11
-1.683533066922689
 21
0.5999999999999999
 31
0.0
  0
LWPOLYLINE
  5
1AA
330
136
100
AcDbEntity
  8
AM_4
100
AcDbPolyline
 90
       37
 70
     0
 43
0.0
 10
-1.625
 20
-0.4999999999999998
 10
-1.581422128626171
 20
-0.4980973490458726
 10
-1.538175911166535
 20
-0.4924038765061038
 10
-1.49559047744874
 20
-0.482962913144534
 10
-1.453989928337166
 20
-0.469846310392954
 10
-1.41369086912965
 20
-0.4531538935183248
 10
-1.375
 20
-0.4330127018922191
 10
-1.338211781824477
 20
-0.4095760221444958
 10
-1.30360619515673
 20
-0.383022221559489
 10
-1.271446609406726
 20
-0.3535533905932738
 10
-1.241977778440511
 20
-0.3213938048432697
 10
-1.215423977855504
 20
-0.2867882181755231
 10
-1.191987298107781
 20
-0.2500000000000002
 10
-1.171846106481675
 20
-0.2113091308703499
 10
-1.155153689607046
 20
-0.1710100716628346
 10
-1.142037086855466
 20
-0.1294095225512607
 10
-1.132596123493896
 20
-0.0868240888334656
 10
-1.126902650954127
 20
-0.0435778713738295
 10
-1.125
 20
-0.0000000000000005
 10
-1.126902650954127
 20
0.0435778713738285
 10
-1.132596123493896
 20
0.0868240888334646
 10
-1.142037086855466
 20
0.1294095225512598
 10
-1.155153689607046
 20
0.1710100716628337
 10
-1.171846106481675
 20
0.2113091308703491
 10
-1.19198729810778
 20
0.2499999999999993
 10
-1.215423977855504
 20
0.2867882181755224
 10
-1.24197777844051
 20
0.321393804843269
 10
-1.271446609406725
 20
0.3535533905932732
 10
-1.303606195156729
 20
0.3830222215594885
 10
-1.338211781824476
 20
0.4095760221444955
 10
-1.374999999999999
 20
0.433012701892219
 10
-1.413690869129649
 20
0.4531538935183247
 10
-1.453989928337165
 20
0.469846310392954
 10
-1.495590477448739
 20
0.482962913144534
 10
-1.538175911166533
 20
0.492403876506104
 10
-1.58142212862617
 20
0.4980973490458728
 10
-1.624999999999999
 20
0.5000000000000001
  0
LINE
  5
1AB
330
136
100
AcDbEntity
  8
AM_4
100
AcDbLine
 10
-1.683533066922689
 20
-0.6
 30
0.0
 11
-1.683533066922689
 21
-0.5000000000000001
 31
0.0
  0
LINE
  5
1AC
330
136
100
AcDbEntity
  8
AM_4
100
AcDbLine
 10
1.68353306692269
 20
-0.6
 30
0.0
 11
1.68353306692269
 21
-0.5000000000000001
 31
0.0
  0
LWPOLYLINE
  5
1AD
330
136
100
AcDbEntity
  8
AM_4
100
AcDbPolyline
 90
       37
 70
     0
 43
0.0
 10
1.625
 20
0.4999999999999999
 10
1.581422128626171
 20
0.4980973490458728
 10
1.538175911166535
 20
0.4924038765061041
 10
1.49559047744874
 20
0.4829629131445342
 10
1.453989928337166
 20
0.4698463103929543
 10
1.413690869129651
 20
0.4531538935183251
 10
1.375
 20
0.4330127018922195
 10
1.338211781824477
 20
0.4095760221444961
 10
1.303606195156731
 20
0.3830222215594893
 10
1.271446609406726
 20
0.3535533905932741
 10
1.241977778440511
 20
0.32139380484327
 10
1.215423977855504
 20
0.2867882181755235
 10
1.191987298107781
 20
0.2500000000000005
 10
1.171846106481675
 20
0.2113091308703503
 10
1.155153689607046
 20
0.171010071662835
 10
1.142037086855466
 20
0.1294095225512611
 10
1.132596123493896
 20
0.086824088833466
 10
1.126902650954127
 20
0.0435778713738299
 10
1.125
 20
0.0000000000000009
 10
1.126902650954127
 20
-0.0435778713738281
 10
1.132596123493896
 20
-0.0868240888334642
 10
1.142037086855465
 20
-0.1294095225512594
 10
1.155153689607046
 20
-0.1710100716628334
 10
1.171846106481675
 20
-0.2113091308703487
 10
1.19198729810778
 20
-0.249999999999999
 10
1.215423977855503
 20
-0.2867882181755221
 10
1.24197777844051
 20
-0.3213938048432687
 10
1.271446609406725
 20
-0.3535533905932729
 10
1.303606195156729
 20
-0.3830222215594882
 10
1.338211781824476
 20
-0.4095760221444951
 10
1.374999999999999
 20
-0.4330127018922187
 10
1.413690869129649
 20
-0.4531538935183244
 10
1.453989928337164
 20
-0.4698463103929537
 10
1.495590477448738
 20
-0.4829629131445338
 10
1.538175911166533
 20
-0.4924038765061039
 10
1.581422128626169
 20
-0.4980973490458728
 10
1.624999999999998
 20
-0.5000000000000002
  0
LINE
  5
1AE
330
136
100
AcDbEntity
  8
AM_4
100
AcDbLine
 10
1.68353306692269
 20
0.5
 30
0.0
 11
1.68353306692269
 21
0.5999999999999999
 31
0.0
  0
LINE
  5
1AF
330
136
100
AcDbEntity
  8
AM_4
100
AcDbLine
 10
0.7466583957875246
 20
0.4491017964071853
 30
0.0
 11
0.7466583957875246
 21
0.48
 31
0.0
  0
LINE
  5
1B0
330
136
100
AcDbEntity
  8
AM_4
100
AcDbLine
 10
-0.7466583957875246
 20
0.48
 30
0.0
 11
-0.7466583957875246
 21
0.4491017964071853
 31
0.0
  0
LINE
  5
1B1
330
136
100
AcDbEntity
  8
AM_4
100
AcDbLine
 10
-0.48
 20
-0.4800000000000001
 30
0.0
 11
-0.8123999999999932
 21
-0.4800000000000008
 31
0.0
  0
LINE
  5
1B2
330
136
100
AcDbEntity
  8
AM_4
100
AcDbLine
 10
0.8123999999999933
 20
-0.48
 30
0.0
 11
0.48
 21
-0.4800000000000001
 31
0.0
  0
LINE
  5
1B3
330
136
100
AcDbEntity
  8
AM_4
100
AcDbLine
 10
-0.9219913839542032
 20
-0.392975946739395
 30
0.0
 11
-0.9219913839542032
 21
0.3929759467393952
 31
0.0
  0
LINE
  5
1B4
330
136
100
AcDbEntity
  8
AM_4
100
AcDbLine
 10
0.9219913839542032
 20
0.1313965067857489
 30
0.0
 11
0.9219913839542034
 21
0.3929759467393955
 31
0.0
  0
LINE
  5
1B5
330
136
100
AcDbEntity
  8
AM_4
100
AcDbLine
 10
0.9219913839542032
 20
-0.392975946739395
 30
0.0
 11
0.9219913839542032
 21
-0.1314275148960929
 31
0.0
  0
LINE
  5
1B6
330
136
100
AcDbEntity
  8
AM_4
100
AcDbLine
 10
-0.7729772053560183
 20
0.4491017964071858
 30
0.0
 11
-0.7466583957875246
 21
0.4491017964071858
 31
0.0
  0
LWPOLYLINE
  5
1B7
330
136
100
AcDbEntity
  8
AM_4
100
AcDbPolyline
 90
        4
 70
     0
 43
0.0
 10
-0.8105793249152651
 20
0.4842468579080187
 10
-0.8027571131036548
 20
0.4715930033967793
 10
-0.7888254349433281
 20
0.4591097708043608
 10
-0.7729772053560184
 20
0.4491017964071858
  0
LWPOLYLINE
  5
1B8
330
136
100
AcDbEntity
  8
AM_4
100
AcDbPolyline
 90
        9
 70
     0
 43
0.0
 10
-0.8124
 20
0.4900000000000002
 10
-0.8123619469809175
 20
0.4891284425725237
 10
-0.8122480775301221
 20
0.4882635182233309
 10
-0.8120592582628906
 20
0.487411809548975
 10
-0.8117969262078591
 20
0.4865797985667434
 10
-0.8114630778703665
 20
0.4857738173825932
 10
-0.8110602540378443
 20
0.4850000000000002
 10
-0.8105915204428898
 20
0.4842642356364896
 10
-0.8105793249152647
 20
0.4842468579080186
  0
LINE
  5
1B9
330
136
100
AcDbEntity
  8
AM_4
100
AcDbLine
 10
-0.8124
 20
0.4900000000000002
 30
0.0
 11
-0.8124
 21
0.5999999999999999
 31
0.0
  0
LINE
  5
1BA
330
136
100
AcDbEntity
  8
AM_4
100
AcDbLine
 10
-2.5
 20
0.5999999999999999
 30
0.0
 11
-0.8124
 21
0.5999999999999999
 31
0.0
  0
LINE
  5
1BB
330
136
100
AcDbEntity
  8
AM_4
100
AcDbLine
 10
-0.9219913839542032
 20
0.3929759467393952
 30
0.0
 11
-1.625
 21
0.5999999999999999
 31
0.0
  0
LWPOLYLINE
  5
1BC
330
136
100
AcDbEntity
  8
AM_4
100
AcDbPolyline
 90
       25
 70
     0
 43
0.0
 10
0.9219913839542034
 20
0.3929759467393953
 10
0.869463584386923
 20
0.3789250581592913
 10
0.8103186419459917
 20
0.3657500505157006
 10
0.7450066853560781
 20
0.3535511935720782
 10
0.6740247780432687
 20
0.3424213279956361
 10
0.5979131351822617
 20
0.3324451587838076
 10
0.5172510123326958
 20
0.3236986106080705
 10
0.4326522969545775
 20
0.3162482499813523
 10
0.3447608363540354
 20
0.310150778646673
 10
0.2542455376165544
 20
0.3054526020426434
 10
0.1617952768201585
 20
0.3021894761300568
 10
0.0681136562725021
 20
0.3003862352674372
 10
-0.0260863503275383
 20
0.3000566032065758
 10
-0.1200878240502171
 20
0.3012030886464931
 10
-0.213175356920863
 20
0.3038169661407244
 10
-0.3046404966065415
 20
0.3078783425032362
 10
-0.3937871381660829
 20
0.3133563082075837
 10
-0.4799368218290056
 20
0.3202091726270707
 10
-0.5624338964840331
 20
0.3283847813255923
 10
-0.6406505095799453
 20
0.3378209129843852
 10
-0.7139913854626
 20
0.3484457529438339
 10
-0.7818983557820987
 20
0.3601784397563932
 10
-0.84385460749096
 20
0.3729296805910296
 10
-0.8993886161034718
 20
0.3866024308055818
 10
-0.9219913839542035
 20
0.3929759467393952
  0
LINE
  5
1BD
330
136
100
AcDbEntity
  8
AM_4
100
AcDbLine
 10
1.625
 20
0.5999999999999999
 30
0.0
 11
0.9219913839542034
 21
0.3929759467393955
 31
0.0
  0
LINE
  5
1BE
330
136
100
AcDbEntity
  8
AM_4
100
AcDbLine
 10
0.8124
 20
0.5999999999999999
 30
0.0
 11
2.5
 21
0.5999999999999999
 31
0.0
  0
LINE
  5
1BF
330
136
100
AcDbEntity
  8
AM_4
100
AcDbLine
 10
0.8124
 20
0.5999999999999999
 30
0.0
 11
0.8124
 21
0.4899999999999981
 31
0.0
  0
LWPOLYLINE
  5
1C0
330
136
100
AcDbEntity
  8
AM_4
100
AcDbPolyline
 90
        9
 70
     0
 43
0.0
 10
0.8105793249152646
 20
0.4842468579080183
 10
0.8110496194867158
 20
0.4849816254887637
 10
0.8114540852310901
 20
0.485754585929717
 10
0.8117896439198495
 20
0.4865598565351963
 10
0.812053741748757
 20
0.4873913087096581
 10
0.8122443687738677
 20
0.4882426146000103
 10
0.8123600742084169
 20
0.4891072952543947
 10
0.812399977464183
 20
0.4899787699309231
 10
0.8124
 20
0.4899999999999963
  0
LWPOLYLINE
  5
1C1
330
136
100
AcDbEntity
  8
AM_4
100
AcDbPolyline
 90
        4
 70
     0
 43
0.0
 10
0.7729772053560183
 20
0.4491017964071858
 10
0.7918247294083545
 20
0.4613749810665048
 10
0.8046459891530492
 20
0.4738965529643888
 10
0.8105793249152649
 20
0.4842468579080184
  0
LINE
  5
1C2
330
136
100
AcDbEntity
  8
AM_4
100
AcDbLine
 10
0.7466583957875246
 20
0.4491017964071858
 30
0.0
 11
0.7729772053560182
 21
0.4491017964071858
 31
0.0
  0
LWPOLYLINE
  5
1C3
330
136
100
AcDbEntity
  8
AM_4
100
AcDbPolyline
 90
       30
 70
     0
 43
0.0
 10
-0.7466583957875248
 20
0.4491017964071857
 10
-0.7220281994823058
 20
0.4375824715712744
 10
-0.6919029326064797
 20
0.4264926093374967
 10
-0.6565118666311051
 20
0.4159166102536934
 10
-0.6161243489379642
 20
0.4059349640588553
 10
-0.5710477529233521
 20
0.3966236371076076
 10
-0.5216251387009326
 20
0.3880534942203824
 10
-0.468232642207129
 20
0.3802897593593453
 10
-0.4112766125795295
 20
0.3733915192346601
 10
-0.3511905195945915
 20
0.3674112736189467
 10
-0.2884316547009052
 20
0.3623945357923118
 10
-0.2234776507551501
 20
0.3583794861588054
 10
-0.1568228469476535
 20
0.3553966816704914
 10
-0.0889745265826613
 20
0.3534688232705928
 10
-0.020449056346087
 20
0.3526105831256053
 10
0.0482320435567589
 20
0.352828492961252
 10
0.1165460684848336
 20
0.3541208943521059
 10
0.1839731074592986
 20
0.3564779513432095
 10
0.2499999999999988
 20
0.3598817253076304
 10
0.3141242415865719
 20
0.3643063114702446
 10
0.3758578080212681
 20
0.3697180360587162
 10
0.434730869587773
 20
0.3760757125812386
 10
0.490295366739039
 20
0.3833309552806052
 10
0.5421284201009843
 20
0.3914285473790386
 10
0.589835548839871
 20
0.4003068613112097
 10
0.6330536728996444
 20
0.4098983277472224
 10
0.6714538762603928
 20
0.4201299498360127
 10
0.7047439101878641
 20
0.4309238587554626
 10
0.7326704174227981
 20
0.4421979063411547
 10
0.7466583957875248
 20
0.4491017964071857
  0
LINE
  5
1C4
330
136
100
AcDbEntity
  8
AM_4
100
AcDbLine
 10
0.8123999999999933
 20
-0.48
 30
0.0
 11
0.8123999999999933
 21
-0.6
 31
0.0
  0
LINE
  5
1C5
330
136
100
AcDbEntity
  8
AM_4
100
AcDbLine
 10
0.8123999999999933
 20
-0.6
 30
0.0
 11
2.5
 21
-0.6
 31
0.0
  0
LINE
  5
1C6
330
136
100
AcDbEntity
  8
AM_4
100
AcDbLine
 10
0.9219913839542032
 20
-0.392975946739395
 30
0.0
 11
1.625
 21
-0.6
 31
0.0
  0
LWPOLYLINE
  5
1C7
330
136
100
AcDbEntity
  8
AM_4
100
AcDbPolyline
 90
       25
 70
     0
 43
0.0
 10
-0.9219913839542037
 20
-0.392975946739395
 10
-0.8694635843869231
 20
-0.378925058159291
 10
-0.8103186419459919
 20
-0.3657500505157003
 10
-0.7450066853560782
 20
-0.3535511935720779
 10
-0.6740247780432689
 20
-0.3424213279956357
 10
-0.597913135182262
 20
-0.3324451587838073
 10
-0.517251012332696
 20
-0.3236986106080701
 10
-0.4326522969545778
 20
-0.3162482499813519
 10
-0.3447608363540357
 20
-0.3101507786466726
 10
-0.2542455376165548
 20
-0.305452602042643
 10
-0.1617952768201589
 20
-0.3021894761300564
 10
-0.0681136562725025
 20
-0.3003862352674368
 10
0.0260863503275379
 20
-0.3000566032065755
 10
0.1200878240502166
 20
-0.3012030886464927
 10
0.2131753569208626
 20
-0.303816966140724
 10
0.304640496606541
 20
-0.3078783425032358
 10
0.3937871381660825
 20
-0.3133563082075834
 10
0.479936821829005
 20
-0.3202091726270704
 10
0.5624338964840325
 20
-0.3283847813255919
 10
0.6406505095799448
 20
-0.3378209129843848
 10
0.7139913854625994
 20
-0.3484457529438336
 10
0.7818983557820981
 20
-0.3601784397563929
 10
0.8438546074909594
 20
-0.3729296805910293
 10
0.8993886161034712
 20
-0.3866024308055814
 10
0.9219913839542031
 20
-0.3929759467393949
  0
LINE
  5
1C8
330
136
100
AcDbEntity
  8
AM_4
100
AcDbLine
 10
-1.625
 20
-0.6
 30
0.0
 11
-0.9219913839542032
 21
-0.392975946739395
 31
0.0
  0
LINE
  5
1C9
330
136
100
AcDbEntity
  8
AM_4
100
AcDbLine
 10
-2.5
 20
-0.6
 30
0.0
 11
-0.8123999999999932
 21
-0.6
 31
0.0
  0
LINE
  5
1CA
330
136
100
AcDbEntity
  8
AM_4
100
AcDbLine
 10
-0.8123999999999932
 20
-0.6
 30
0.0
 11
-0.8123999999999932
 21
-0.4800000000000008
 31
0.0
  0
LWPOLYLINE
  5
1CB
330
136
100
AcDbEntity
  8
AM_4
100
AcDbPolyline
 90
       35
 70
     0
 43
0.0
 10
0.7835271278009459
 20
-0.48
 10
0.7737474225920388
 20
-0.4677858547477389
 10
0.7580790322957384
 20
-0.455771306114337
 10
0.7366412028230328
 20
-0.4440477920694774
 10
0.7095970890007245
 20
-0.4327045356338928
 10
0.6771525128646837
 20
-0.4218278658383035
 10
0.6395543972298763
 20
-0.4115005607073666
 10
0.5970888864586462
 20
-0.401801217268926
 10
0.5500791687293388
 20
-0.3928036533831719
 10
0.4988830163791179
 20
-0.3845763459441524
 10
0.4438900630404506
 20
-0.3771819097292626
 10
0.3855188382938972
 20
-0.3706766208629804
 10
0.3242135824052881
 20
-0.3651099885215792
 10
0.2604408653890615
 20
-0.3605243781384013
 10
0.1946860361287299
 20
-0.3569546889773301
 10
0.127449528578816
 20
-0.3544280885283186
 10
0.059243053160288
 20
-0.3529638057463868
 10
-0.0094142976647234
 20
-0.3525729847076633
 10
-0.0779999999999979
 20
-0.353258599796237
 10
-0.1459920752375848
 20
-0.3550154330672982
 10
-0.2128730626301884
 20
-0.3578301139588492
 10
-0.2781339574799067
 20
-0.3616812210497544
 10
-0.3412780849713278
 20
-0.3665394450896899
 10
-0.4018248801667752
 20
-0.3723678120602362
 10
-0.4593135453956571
 20
-0.379121964569483
 10
-0.5133065572029766
 20
-0.3867504994385662
 10
-0.563392996167008
 20
-0.3951953589108969
 10
-0.6091916742442165
 20
-0.4043922725067449
 10
-0.6503540358404364
 20
-0.4142712461603977
 10
-0.686566810529407
 20
-0.4247570949172636
 10
-0.7175543972298745
 20
-0.4357700151367742
 10
-0.7430809616962313
 20
-0.447226191846276
 10
-0.7629522313595276
 20
-0.4590384366235811
 10
-0.7770169738590252
 20
-0.4711168511535057
 10
-0.7835271278009459
 20
-0.4799999999999999
  0
ENDBLK
  5
139
330
136
100
AcDbEntity
  8
0
100
AcDbBlockEnd
  0
ENDSEC
  0
SECTION
  2
ENTITIES
  0
INSERT
  5
6F
330
1F
100
AcDbEntity
  8
0
100
AcDbBlockReference
  2
1_130310_4
 10
0.0
 20
0.0
 30
0.0
  0
POINT
  5
1CD
330
1F
100
AcDbEntity
  8
ConnectionPoints
100
AcDbPoint
 10
0.0
 20
-0.87
 30
0.0000000000000001
  0
POINT
  5
1CE
330
1F
100
AcDbEntity
  8
ConnectionPoints
100
AcDbPoint
 10
0.7636753236814712
 20
0.0
 30
0.7636753236814715
  0
POINT
  5
1CF
330
1F
100
AcDbEntity
  8
ConnectionPoints
100
AcDbPoint
 10
0.7636753236814712
 20
0.0
 30
0.7636753236814715
  0
POINT
  5
1D0
330
1F
100
AcDbEntity
  8
ConnectionPoints
100
AcDbPoint
 10
0.0
 20
-0.87
 30
0.0000000000000001
  0
ENDSEC
  0
SECTION
  2
OBJECTS
  0
DICTIONARY
  5
C
330
0
100
AcDbDictionary
281
     1
  3
ACAD_DETAILVIEWSTYLE
350
1D8
  3
ACAD_GROUP
350
D
  3
ACAD_LAYOUT
350
1A
  3
ACAD_MATERIAL
350
43
  3
ACAD_MLEADERSTYLE
350
6B
  3
ACAD_MLINESTYLE
350
17
  3
ACAD_PLOTSETTINGS
350
19
  3
ACAD_PLOTSTYLENAME
350
E
  3
ACAD_SCALELIST
350
47
  3
ACAD_SECTIONVIEWSTYLE
350
1D9
  3
ACAD_TABLESTYLE
350
69
  3
ACAD_VISUALSTYLE
350
2A
  3
ACDB_RECOMPOSE_DATA
350
1D5
  3
AcDbVariableDictionary
350
1D1
  0
SUN
  5
6D
330
29
100
AcDbSun
 90
        1
290
     0
 63
     7
421
 16777215
 40
1.0
291
     1
 91
  2455826
 92
 54000000
292
     0
 70
     2
 71
   256
280
     1
  0
DICTIONARY
  5
1D8
102
{ACAD_REACTORS
330
C
102
}
330
C
100
AcDbDictionary
281
     1
  0
DICTIONARY
  5
D
102
{ACAD_REACTORS
330
C
102
}
330
C
100
AcDbDictionary
281
     1
  0
DICTIONARY
  5
1A
102
{ACAD_REACTORS
330
C
102
}
330
C
100
AcDbDictionary
281
     1
  3
Layout1
350
1E
  3
Layout2
350
26
  3
Model
350
22
  0
DICTIONARY
  5
43
102
{ACAD_REACTORS
330
C
102
}
330
C
100
AcDbDictionary
281
     1
  3
ByBlock
350
45
  3
ByLayer
350
44
  3
Global
350
46
  0
DICTIONARY
  5
6B
102
{ACAD_REACTORS
330
C
102
}
330
C
100
AcDbDictionary
281
     1
  3
Standard
350
6C
  0
DICTIONARY
  5
17
102
{ACAD_REACTORS
330
C
102
}
330
C
100
AcDbDictionary
281
     1
  3
Standard
350
18
  0
DICTIONARY
  5
19
102
{ACAD_REACTORS
330
C
102
}
330
C
100
AcDbDictionary
281
     1
  0
ACDBDICTIONARYWDFLT
  5
E
102
{ACAD_REACTORS
330
C
102
}
330
C
100
AcDbDictionary
281
     1
  3
Normal
350
F
100
AcDbDictionaryWithDefault
340
F
  0
DICTIONARY
  5
47
102
{ACAD_REACTORS
330
C
102
}
330
C
100
AcDbDictionary
281
     1
  3
A0
350
48
  3
A1
350
49
  3
A2
350
4A
  3
A3
350
4B
  3
A4
350
4C
  3
A5
350
4D
  3
A6
350
4E
  3
A7
350
4F
  3
A8
350
50
  3
A9
350
51
  3
B0
350
52
  3
B1
350
53
  3
B2
350
54
  3
B3
350
55
  3
B4
350
56
  3
B5
350
57
  3
B6
350
58
  3
B7
350
59
  3
B8
350
5A
  3
B9
350
5B
  3
C0
350
5C
  3
C1
350
5D
  3
C2
350
5E
  3
C3
350
5F
  3
C4
350
60
  3
C5
350
61
  3
C6
350
62
  3
C7
350
63
  3
C8
350
64
  3
C9
350
65
  3
D0
350
66
  3
D1
350
67
  3
D2
350
68
  0
DICTIONARY
  5
1D9
102
{ACAD_REACTORS
330
C
102
}
330
C
100
AcDbDictionary
281
     1
  0
DICTIONARY
  5
69
102
{ACAD_REACTORS
330
C
102
}
330
C
100
AcDbDictionary
281
     1
  3
Standard
350
6A
  0
DICTIONARY
  5
2A
102
{ACAD_REACTORS
330
C
102
}
330
C
100
AcDbDictionary
281
     1
  3
2dWireframe
350
2F
  3
Basic
350
32
  3
Brighten
350
36
  3
ColorChange
350
3A
  3
Conceptual
350
34
  3
Dim
350
35
  3
EdgeColorOff
350
3D
  3
Facepattern
350
39
  3
Flat
350
2B
  3
FlatWithEdges
350
2C
  3
Gouraud
350
2D
  3
GouraudWithEdges
350
2E
  3
Hidden
350
31
  3
JitterOff
350
3B
  3
Linepattern
350
38
  3
OverhangOff
350
3C
  3
Realistic
350
33
  3
Shaded
350
42
  3
Shaded with edges
350
41
  3
Shades of Gray
350
3E
  3
Sketchy
350
3F
  3
Thicken
350
37
  3
Wireframe
350
30
  3
X-Ray
350
40
  0
XRECORD
  5
1D5
102
{ACAD_REACTORS
330
C
102
}
330
C
100
AcDbXrecord
280
     1
 90
        1
330
6A
  0
DICTIONARY
  5
1D1
102
{ACAD_REACTORS
330
C
102
}
330
C
100
AcDbDictionary
281
     1
  3
CANNOSCALE
350
1D2
  3
CMLEADERSTYLE
350
1D7
  3
CTABLESTYLE
350
1D6
  0
LAYOUT
  5
1E
102
{ACAD_REACTORS
330
1A
102
}
330
1A
100
AcDbPlotSettings
  1

  2
none_device
  4

  6

 40
0.0
 41
0.0
 42
0.0
 43
0.0
 44
0.0
 45
0.0
 46
0.0
 47
0.0
 48
0.0
 49
0.0
140
0.0
141
0.0
142
1.0
143
1.0
 70
   688
 72
     0
 73
     0
 74
     5
  7

 75
    16
 76
     0
 77
     2
 78
   300
147
1.0
148
0.0
149
0.0
100
AcDbLayout
  1
Layout1
 70
     1
 71
     1
 10
0.0
 20
0.0
 11
12.0
 21
9.0
 12
0.0
 22
0.0
 32
0.0
 14
1.000000000000000E+20
 24
1.000000000000000E+20
 34
1.000000000000000E+20
 15
-1.000000000000000E+20
 25
-1.000000000000000E+20
 35
-1.000000000000000E+20
146
0.0
 13
0.0
 23
0.0
 33
0.0
 16
1.0
 26
0.0
 36
0.0
 17
0.0
 27
1.0
 37
0.0
 76
     0
330
1B
  0
LAYOUT
  5
26
102
{ACAD_REACTORS
330
1A
102
}
330
1A
100
AcDbPlotSettings
  1

  2
none_device
  4

  6

 40
0.0
 41
0.0
 42
0.0
 43
0.0
 44
0.0
 45
0.0
 46
0.0
 47
0.0
 48
0.0
 49
0.0
140
0.0
141
0.0
142
1.0
143
1.0
 70
   688
 72
     0
 73
     0
 74
     5
  7

 75
    16
 76
     0
 77
     2
 78
   300
147
1.0
148
0.0
149
0.0
100
AcDbLayout
  1
Layout2
 70
     1
 71
     2
 10
0.0
 20
0.0
 11
0.0
 21
0.0
 12
0.0
 22
0.0
 32
0.0
 14
0.0
 24
0.0
 34
0.0
 15
0.0
 25
0.0
 35
0.0
146
0.0
 13
0.0
 23
0.0
 33
0.0
 16
1.0
 26
0.0
 36
0.0
 17
0.0
 27
1.0
 37
0.0
 76
     0
330
23
  0
LAYOUT
  5
22
102
{ACAD_REACTORS
330
1A
102
}
330
1A
100
AcDbPlotSettings
  1

  2
none_device
  4
Letter_(8.50_x_11.00_Inches)
  6

 40
6.35
 41
6.35
 42
6.35000508
 43
6.35000508
 44
215.9
 45
279.4
 46
0.0
 47
0.0
 48
0.0
 49
0.0
140
0.0
141
0.0
142
1.0
143
1.0
 70
  1712
 72
     0
 73
     0
 74
     0
  7

 75
     0
 76
     0
 77
     2
 78
   300
147
1.0
148
0.0
149
0.0
100
AcDbLayout
  1
Model
 70
     1
 71
     0
 10
0.0
 20
0.0
 11
12.0
 21
9.0
 12
0.0
 22
0.0
 32
0.0
 14
1.000000000000000E+20
 24
1.000000000000000E+20
 34
1.000000000000000E+20
 15
-1.000000000000000E+20
 25
-1.000000000000000E+20
 35
-1.000000000000000E+20
146
0.0
 13
0.0
 23
0.0
 33
0.0
 16
1.0
 26
0.0
 36
0.0
 17
0.0
 27
1.0
 37
0.0
 76
     0
330
1F
331
29
  0
MATERIAL
  5
45
102
{ACAD_REACTORS
330
43
102
}
330
43
100
AcDbMaterial
  1
ByBlock
 72
     1
 94
      127
  0
MATERIAL
  5
44
102
{ACAD_REACTORS
330
43
102
}
330
43
100
AcDbMaterial
  1
ByLayer
 72
     1
 94
      127
  0
MATERIAL
  5
46
102
{ACAD_REACTORS
330
43
102
}
330
43
100
AcDbMaterial
  1
Global
 72
     1
 94
      127
  0
MLEADERSTYLE
  5
6C
102
{ACAD_REACTORS
330
6B
102
}
330
6B
100
AcDbMLeaderStyle
179
     2
170
     2
171
     1
172
     0
 90
        2
 40
0.0
 41
0.0
173
     1
 91
-1056964608
340
14
 92
       -2
290
     1
 42
0.09
291
     1
 43
0.36
  3
Standard
341
0
 44
0.18
300

342
11
174
     1
178
     6
175
     1
176
     0
 93
-1056964608
 45
0.18
292
     0
297
     0
 46
0.18
343
0
 94
-1056964608
 47
1.0
 49
1.0
140
1.0
293
     1
141
0.0
294
     1
177
     0
142
1.0
295
     0
296
     0
143
0.125
271
     0
272
     9
273
     9
298
     0
  0
MLINESTYLE
  5
18
102
{ACAD_REACTORS
330
17
102
}
330
17
100
AcDbMlineStyle
  2
Standard
 70
     0
  3

 62
   256
 51
90.0
 52
90.0
 71
     2
 49
0.5
 62
   256
  6
BYLAYER
 49
-0.5
 62
   256
  6
BYLAYER
  0
ACDBPLACEHOLDER
  5
F
102
{ACAD_REACTORS
330
E
102
}
330
E
  0
SCALE
  5
48
102
{ACAD_REACTORS
330
47
102
}
330
47
100
AcDbScale
 70
     0
300
1:1
140
1.0
141
1.0
290
     1
  0
SCALE
  5
49
102
{ACAD_REACTORS
330
47
102
}
330
47
100
AcDbScale
 70
     0
300
1:2
140
1.0
141
2.0
290
     0
  0
SCALE
  5
4A
102
{ACAD_REACTORS
330
47
102
}
330
47
100
AcDbScale
 70
     0
300
1:4
140
1.0
141
4.0
290
     0
  0
SCALE
  5
4B
102
{ACAD_REACTORS
330
47
102
}
330
47
100
AcDbScale
 70
     0
300
1:5
140
1.0
141
5.0
290
     0
  0
SCALE
  5
4C
102
{ACAD_REACTORS
330
47
102
}
330
47
100
AcDbScale
 70
     0
300
1:8
140
1.0
141
8.0
290
     0
  0
SCALE
  5
4D
102
{ACAD_REACTORS
330
47
102
}
330
47
100
AcDbScale
 70
     0
300
1:10
140
1.0
141
10.0
290
     0
  0
SCALE
  5
4E
102
{ACAD_REACTORS
330
47
102
}
330
47
100
AcDbScale
 70
     0
300
1:16
140
1.0
141
16.0
290
     0
  0
SCALE
  5
4F
102
{ACAD_REACTORS
330
47
102
}
330
47
100
AcDbScale
 70
     0
300
1:20
140
1.0
141
20.0
290
     0
  0
SCALE
  5
50
102
{ACAD_REACTORS
330
47
102
}
330
47
100
AcDbScale
 70
     0
300
1:30
140
1.0
141
30.0
290
     0
  0
SCALE
  5
51
102
{ACAD_REACTORS
330
47
102
}
330
47
100
AcDbScale
 70
     0
300
1:40
140
1.0
141
40.0
290
     0
  0
SCALE
  5
52
102
{ACAD_REACTORS
330
47
102
}
330
47
100
AcDbScale
 70
     0
300
1:50
140
1.0
141
50.0
290
     0
  0
SCALE
  5
53
102
{ACAD_REACTORS
330
47
102
}
330
47
100
AcDbScale
 70
     0
300
1:100
140
1.0
141
100.0
290
     0
  0
SCALE
  5
54
102
{ACAD_REACTORS
330
47
102
}
330
47
100
AcDbScale
 70
     0
300
2:1
140
2.0
141
1.0
290
     0
  0
SCALE
  5
55
102
{ACAD_REACTORS
330
47
102
}
330
47
100
AcDbScale
 70
     0
300
4:1
140
4.0
141
1.0
290
     0
  0
SCALE
  5
56
102
{ACAD_REACTORS
330
47
102
}
330
47
100
AcDbScale
 70
     0
300
8:1
140
8.0
141
1.0
290
     0
  0
SCALE
  5
57
102
{ACAD_REACTORS
330
47
102
}
330
47
100
AcDbScale
 70
     0
300
10:1
140
10.0
141
1.0
290
     0
  0
SCALE
  5
58
102
{ACAD_REACTORS
330
47
102
}
330
47
100
AcDbScale
 70
     0
300
100:1
140
100.0
141
1.0
290
     0
  0
SCALE
  5
59
102
{ACAD_REACTORS
330
47
102
}
330
47
100
AcDbScale
 70
     0
300
1/128" = 1'-0"
140
0.0078125
141
12.0
290
     0
  0
SCALE
  5
5A
102
{ACAD_REACTORS
330
47
102
}
330
47
100
AcDbScale
 70
     0
300
1/64" = 1'-0"
140
0.015625
141
12.0
290
     0
  0
SCALE
  5
5B
102
{ACAD_REACTORS
330
47
102
}
330
47
100
AcDbScale
 70
     0
300
1/32" = 1'-0"
140
0.03125
141
12.0
290
     0
  0
SCALE
  5
5C
102
{ACAD_REACTORS
330
47
102
}
330
47
100
AcDbScale
 70
     0
300
1/16" = 1'-0"
140
0.0625
141
12.0
290
     0
  0
SCALE
  5
5D
102
{ACAD_REACTORS
330
47
102
}
330
47
100
AcDbScale
 70
     0
300
3/32" = 1'-0"
140
0.09375
141
12.0
290
     0
  0
SCALE
  5
5E
102
{ACAD_REACTORS
330
47
102
}
330
47
100
AcDbScale
 70
     0
300
1/8" = 1'-0"
140
0.125
141
12.0
290
     0
  0
SCALE
  5
5F
102
{ACAD_REACTORS
330
47
102
}
330
47
100
AcDbScale
 70
     0
300
3/16" = 1'-0"
140
0.1875
141
12.0
290
     0
  0
SCALE
  5
60
102
{ACAD_REACTORS
330
47
102
}
330
47
100
AcDbScale
 70
     0
300
1/4" = 1'-0"
140
0.25
141
12.0
290
     0
  0
SCALE
  5
61
102
{ACAD_REACTORS
330
47
102
}
330
47
100
AcDbScale
 70
     0
300
3/8" = 1'-0"
140
0.375
141
12.0
290
     0
  0
SCALE
  5
62
102
{ACAD_REACTORS
330
47
102
}
330
47
100
AcDbScale
 70
     0
300
1/2" = 1'-0"
140
0.5
141
12.0
290
     0
  0
SCALE
  5
63
102
{ACAD_REACTORS
330
47
102
}
330
47
100
AcDbScale
 70
     0
300
3/4" = 1'-0"
140
0.75
141
12.0
290
     0
  0
SCALE
  5
64
102
{ACAD_REACTORS
330
47
102
}
330
47
100
AcDbScale
 70
     0
300
1" = 1'-0"
140
1.0
141
12.0
290
     0
  0
SCALE
  5
65
102
{ACAD_REACTORS
330
47
102
}
330
47
100
AcDbScale
 70
     0
300
1-1/2" = 1'-0"
140
1.5
141
12.0
290
     0
  0
SCALE
  5
66
102
{ACAD_REACTORS
330
47
102
}
330
47
100
AcDbScale
 70
     0
300
3" = 1'-0"
140
3.0
141
12.0
290
     0
  0
SCALE
  5
67
102
{ACAD_REACTORS
330
47
102
}
330
47
100
AcDbScale
 70
     0
300
6" = 1'-0"
140
6.0
141
12.0
290
     0
  0
SCALE
  5
68
102
{ACAD_REACTORS
330
47
102
}
330
47
100
AcDbScale
 70
     0
300
1'-0" = 1'-0"
140
12.0
141
12.0
290
     0
  0
TABLESTYLE
  5
6A
102
{ACAD_REACTORS
330
69
102
}
102
{ACAD_XDICTIONARY
360
1D3
102
}
330
69
100
AcDbTableStyle
  3
Standard
 70
     0
 71
     0
 40
0.06
 41
0.06
280
     0
281
     0
  7
Standard
140
0.18
170
     2
 62
     0
 63
   257
283
     0
 90
        4
 91
        0
  1

274
    -2
284
     1
 64
     0
275
    -2
285
     1
 65
     0
276
    -2
286
     1
 66
     0
277
    -2
287
     1
 67
     0
278
    -2
288
     1
 68
     0
279
    -2
289
     1
 69
     0
  7
Standard
140
0.25
170
     5
 62
     0
 63
   257
283
     0
 90
        4
 91
        0
  1

274
    -2
284
     1
 64
     0
275
    -2
285
     1
 65
     0
276
    -2
286
     1
 66
     0
277
    -2
287
     1
 67
     0
278
    -2
288
     1
 68
     0
279
    -2
289
     1
 69
     0
  7
Standard
140
0.18
170
     5
 62
     0
 63
   257
283
     0
 90
        4
 91
        0
  1

274
    -2
284
     1
 64
     0
275
    -2
285
     1
 65
     0
276
    -2
286
     1
 66
     0
277
    -2
287
     1
 67
     0
278
    -2
288
     1
 68
     0
279
    -2
289
     1
 69
     0
  0
VISUALSTYLE
  5
2F
102
{ACAD_REACTORS
330
2A
102
}
330
2A
100
AcDbVisualStyle
  2
2dWireframe
 70
     4
177
     3
291
     0
 70
    58
 90
        0
176
     1
 90
        2
176
     1
 90
        0
176
     1
 90
        0
176
     1
 40
0.6
176
     1
 40
30.0
176
     1
 62
     7
420
 16777215
176
     1
 90
        1
176
     1
 90
        4
176
     1
 62
     7
176
     1
 62
   257
176
     1
 90
        1
176
     1
 90
        1
176
     1
 40
1.0
176
     1
 90
        0
176
     1
 62
   257
176
     1
 40
1.0
176
     1
 90
        1
176
     1
 90
        6
176
     1
 90
        2
176
     1
 62
     7
176
     1
 90
        5
176
     1
 90
        0
176
     1
 90
        0
176
     1
290
     0
176
     1
 90
        1
176
     1
 40
0.0
176
     1
 90
        0
176
     1
290
     1
176
     1
290
     1
176
     1
290
     0
176
     1
290
     0
176
     1
290
     0
176
     1
290
     0
176
     1
290
     0
176
     1
290
     0
176
     1
290
     0
176
     1
 90
       50
176
     1
 40
0.0
176
     1
 40
1.0
176
     1
 90
        0
176
     1
 62
    18
420
        0
176
     1
 90
       50
176
     1
 90
        3
176
     1
 62
     5
420
      255
176
     1
290
     0
176
     1
 90
       50
176
     1
 90
       50
176
     1
 90
       50
176
     1
290
     0
176
     1
 90
       50
176
     1
 62
   256
176
     0
 40
1.0
176
     0
 90
        2
176
     1
  1
strokes_ogs.tif
176
     1
290
     0
176
     1
 40
1.0
176
     1
 40
1.0
176
     1
  0
VISUALSTYLE
  5
32
102
{ACAD_REACTORS
330
2A
102
}
330
2A
100
AcDbVisualStyle
  2
Basic
 70
     7
177
     3
291
     1
 70
    58
 90
        1
176
     1
 90
        0
176
     1
 90
        1
176
     1
 90
        0
176
     1
 40
0.6
176
     1
 40
30.0
176
     1
 62
     7
420
 16777215
176
     1
 90
        0
176
     1
 90
        4
176
     1
 62
     7
176
     1
 62
   257
176
     1
 90
        1
176
     1
 90
        1
176
     1
 40
1.0
176
     1
 90
        8
176
     1
 62
     7
176
     1
 40
1.0
176
     1
 90
        1
176
     1
 90
        6
176
     1
 90
        2
176
     1
 62
     7
176
     1
 90
        5
176
     1
 90
        0
176
     1
 90
        0
176
     1
290
     0
176
     1
 90
        1
176
     1
 40
0.0
176
     1
 90
        0
176
     1
290
     0
176
     1
290
     1
176
     1
290
     1
176
     1
290
     0
176
     1
290
     0
176
     1
290
     0
176
     1
290
     0
176
     1
290
     0
176
     1
290
     0
176
     1
 90
       50
176
     1
 40
0.0
176
     1
 40
1.0
176
     1
 90
        0
176
     1
 62
    18
420
        0
176
     1
 90
       50
176
     1
 90
        3
176
     1
 62
     5
420
      255
176
     1
290
     0
176
     1
 90
       50
176
     1
 90
       50
176
     1
 90
       50
176
     1
290
     0
176
     1
 90
       50
176
     1
 62
   256
176
     0
 40
1.0
176
     0
 90
        2
176
     1
  1
strokes_ogs.tif
176
     1
290
     0
176
     1
 40
1.0
176
     1
 40
1.0
176
     1
  0
VISUALSTYLE
  5
36
102
{ACAD_REACTORS
330
2A
102
}
330
2A
100
AcDbVisualStyle
  2
Brighten
 70
    12
177
     3
291
     1
 70
    58
 90
        2
176
     1
 90
        2
176
     1
 90
        0
176
     1
 90
        0
176
     1
 40
0.6
176
     1
 40
30.0
176
     1
 62
     7
420
 16777215
176
     1
 90
        1
176
     1
 90
        4
176
     1
 62
     7
176
     1
 62
   257
176
     1
 90
        1
176
     1
 90
        1
176
     1
 40
1.0
176
     1
 90
        8
176
     1
 62
     7
176
     1
 40
1.0
176
     1
 90
        1
176
     1
 90
        6
176
     1
 90
        2
176
     1
 62
     7
176
     1
 90
        5
176
     1
 90
        0
176
     1
 90
        0
176
     1
290
     0
176
     1
 90
        1
176
     1
 40
50.0
176
     1
 90
        0
176
     1
290
     0
176
     1
290
     1
176
     1
290
     1
176
     1
290
     0
176
     1
290
     0
176
     1
290
     0
176
     1
290
     0
176
     1
290
     0
176
     1
290
     0
176
     1
 90
       50
176
     1
 40
0.0
176
     1
 40
1.0
176
     1
 90
        0
176
     1
 62
    18
420
        0
176
     1
 90
       50
176
     1
 90
        3
176
     1
 62
     5
420
      255
176
     1
290
     0
176
     1
 90
       50
176
     1
 90
       50
176
     1
 90
       50
176
     1
290
     0
176
     1
 90
       50
176
     1
 62
   256
176
     0
 40
1.0
176
     0
 90
        2
176
     1
  1
strokes_ogs.tif
176
     1
290
     0
176
     1
 40
1.0
176
     1
 40
1.0
176
     1
  0
VISUALSTYLE
  5
3A
102
{ACAD_REACTORS
330
2A
102
}
330
2A
100
AcDbVisualStyle
  2
ColorChange
 70
    16
177
     3
291
     1
 70
    58
 90
        2
176
     1
 90
        2
176
     1
 90
        3
176
     1
 90
        0
176
     1
 40
0.6
176
     1
 40
30.0
176
     1
 62
     8
420
  8421504
176
     1
 90
        1
176
     1
 90
        4
176
     1
 62
     7
176
     1
 62
   257
176
     1
 90
        1
176
     1
 90
        1
176
     1
 40
1.0
176
     1
 90
        8
176
     1
 62
     8
420
  8421504
176
     1
 40
1.0
176
     1
 90
        1
176
     1
 90
        6
176
     1
 90
        2
176
     1
 62
     7
176
     1
 90
        5
176
     1
 90
        0
176
     1
 90
        0
176
     1
290
     0
176
     1
 90
        1
176
     1
 40
0.0
176
     1
 90
        0
176
     1
290
     0
176
     1
290
     1
176
     1
290
     1
176
     1
290
     0
176
     1
290
     0
176
     1
290
     0
176
     1
290
     0
176
     1
290
     0
176
     1
290
     0
176
     1
 90
       50
176
     1
 40
0.0
176
     1
 40
1.0
176
     1
 90
        0
176
     1
 62
    18
420
        0
176
     1
 90
       50
176
     1
 90
        3
176
     1
 62
     5
420
      255
176
     1
290
     0
176
     1
 90
       50
176
     1
 90
       50
176
     1
 90
       50
176
     1
290
     0
176
     1
 90
       50
176
     1
 62
   256
176
     0
 40
1.0
176
     0
 90
        2
176
     1
  1
strokes_ogs.tif
176
     1
290
     0
176
     1
 40
1.0
176
     1
 40
1.0
176
     1
  0
VISUALSTYLE
  5
34
102
{ACAD_REACTORS
330
2A
102
}
330
2A
100
AcDbVisualStyle
  2
Conceptual
 70
     9
177
     3
291
     0
 70
    58
 90
        3
176
     1
 90
        2
176
     1
 90
        0
176
     1
 90
        0
176
     1
 40
0.6
176
     1
 40
30.0
176
     1
 62
     7
420
 16777215
176
     1
 90
        2
176
     1
 90
        2
176
     1
 62
     7
176
     1
 62
   257
176
     1
 90
        1
176
     1
 90
        1
176
     1
 40
179.0
176
     1
 90
        8
176
     1
 62
     7
176
     1
 40
1.0
176
     1
 90
        1
176
     1
 90
        6
176
     1
 90
        2
176
     1
 62
     7
176
     1
 90
        3
176
     1
 90
        0
176
     1
 90
        0
176
     1
290
     0
176
     1
 90
        1
176
     1
 40
0.0
176
     1
 90
        0
176
     1
290
     0
176
     1
290
     1
176
     1
290
     1
176
     1
290
     0
176
     1
290
     0
176
     1
290
     0
176
     1
290
     0
176
     1
290
     0
176
     1
290
     0
176
     1
 90
       50
176
     1
 40
0.0
176
     1
 40
1.0
176
     1
 90
        0
176
     1
 62
    18
420
        0
176
     1
 90
       50
176
     1
 90
        3
176
     1
 62
     5
420
      255
176
     1
290
     0
176
     1
 90
       50
176
     1
 90
       50
176
     1
 90
       50
176
     1
290
     0
176
     1
 90
       50
176
     1
 62
   256
176
     0
 40
1.0
176
     0
 90
        2
176
     1
  1
strokes_ogs.tif
176
     1
290
     0
176
     1
 40
1.0
176
     1
 40
1.0
176
     1
  0
VISUALSTYLE
  5
35
102
{ACAD_REACTORS
330
2A
102
}
330
2A
100
AcDbVisualStyle
  2
Dim
 70
    11
177
     3
291
     1
 70
    58
 90
        2
176
     1
 90
        2
176
     1
 90
        0
176
     1
 90
        0
176
     1
 40
0.6
176
     1
 40
30.0
176
     1
 62
     7
420
 16777215
176
     1
 90
        1
176
     1
 90
        4
176
     1
 62
     7
176
     1
 62
   257
176
     1
 90
        1
176
     1
 90
        1
176
     1
 40
1.0
176
     1
 90
        8
176
     1
 62
     7
176
     1
 40
1.0
176
     1
 90
        1
176
     1
 90
        6
176
     1
 90
        2
176
     1
 62
     7
176
     1
 90
        5
176
     1
 90
        0
176
     1
 90
        0
176
     1
290
     0
176
     1
 90
        1
176
     1
 40
-50.0
176
     1
 90
        0
176
     1
290
     0
176
     1
290
     1
176
     1
290
     1
176
     1
290
     0
176
     1
290
     0
176
     1
290
     0
176
     1
290
     0
176
     1
290
     0
176
     1
290
     0
176
     1
 90
       50
176
     1
 40
0.0
176
     1
 40
1.0
176
     1
 90
        0
176
     1
 62
    18
420
        0
176
     1
 90
       50
176
     1
 90
        3
176
     1
 62
     5
420
      255
176
     1
290
     0
176
     1
 90
       50
176
     1
 90
       50
176
     1
 90
       50
176
     1
290
     0
176
     1
 90
       50
176
     1
 62
   256
176
     0
 40
1.0
176
     0
 90
        2
176
     1
  1
strokes_ogs.tif
176
     1
290
     0
176
     1
 40
1.0
176
     1
 40
1.0
176
     1
  0
VISUALSTYLE
  5
3D
102
{ACAD_REACTORS
330
2A
102
}
330
2A
100
AcDbVisualStyle
  2
EdgeColorOff
 70
    22
177
     3
291
     1
 70
    58
 90
        2
176
     0
 90
        2
176
     0
 90
        0
176
     0
 90
        0
176
     0
 40
0.6
176
     0
 40
30.0
176
     0
 62
     7
420
 16777215
176
     0
 90
        1
176
     0
 90
        4
176
     0
 62
     7
176
     0
 62
   257
176
     0
 90
        1
176
     0
 90
        1
176
     0
 40
1.0
176
     0
 90
        8
176
     2
 62
     7
176
     0
 40
1.0
176
     0
 90
        1
176
     0
 90
        6
176
     0
 90
        2
176
     0
 62
     7
176
     0
 90
        5
176
     0
 90
        0
176
     0
 90
        0
176
     0
290
     0
176
     0
 90
        1
176
     0
 40
0.0
176
     0
 90
        0
176
     0
290
     0
176
     0
290
     1
176
     0
290
     1
176
     0
290
     0
176
     0
290
     0
176
     0
290
     0
176
     0
290
     0
176
     0
290
     0
176
     0
290
     0
176
     0
 90
       50
176
     0
 40
0.0
176
     0
 40
1.0
176
     0
 90
        0
176
     0
 62
    18
420
        0
176
     0
 90
       50
176
     0
 90
        3
176
     0
 62
     5
420
      255
176
     0
290
     0
176
     0
 90
       50
176
     0
 90
       50
176
     0
 90
       50
176
     0
290
     0
176
     0
 90
       50
176
     0
 62
   256
176
     0
 40
1.0
176
     0
 90
        2
176
     0
  1
strokes_ogs.tif
176
     0
290
     0
176
     0
 40
1.0
176
     0
 40
1.0
176
     0
  0
VISUALSTYLE
  5
39
102
{ACAD_REACTORS
330
2A
102
}
330
2A
100
AcDbVisualStyle
  2
Facepattern
 70
    15
177
     3
291
     1
 70
    58
 90
        2
176
     1
 90
        2
176
     1
 90
        0
176
     1
 90
        0
176
     1
 40
0.6
176
     1
 40
30.0
176
     1
 62
     7
420
 16777215
176
     1
 90
        1
176
     1
 90
        4
176
     1
 62
     7
176
     1
 62
   257
176
     1
 90
        1
176
     1
 90
        1
176
     1
 40
1.0
176
     1
 90
        8
176
     1
 62
     7
176
     1
 40
1.0
176
     1
 90
        1
176
     1
 90
        6
176
     1
 90
        2
176
     1
 62
     7
176
     1
 90
        5
176
     1
 90
        0
176
     1
 90
        0
176
     1
290
     0
176
     1
 90
        1
176
     1
 40
0.0
176
     1
 90
        0
176
     1
290
     0
176
     1
290
     1
176
     1
290
     1
176
     1
290
     0
176
     1
290
     0
176
     1
290
     0
176
     1
290
     0
176
     1
290
     0
176
     1
290
     0
176
     1
 90
       50
176
     1
 40
0.0
176
     1
 40
1.0
176
     1
 90
        0
176
     1
 62
    18
420
        0
176
     1
 90
       50
176
     1
 90
        3
176
     1
 62
     5
420
      255
176
     1
290
     0
176
     1
 90
       50
176
     1
 90
       50
176
     1
 90
       50
176
     1
290
     0
176
     1
 90
       50
176
     1
 62
   256
176
     0
 40
1.0
176
     0
 90
        2
176
     1
  1
strokes_ogs.tif
176
     1
290
     0
176
     1
 40
1.0
176
     1
 40
1.0
176
     1
  0
VISUALSTYLE
  5
2B
102
{ACAD_REACTORS
330
2A
102
}
330
2A
100
AcDbVisualStyle
  2
Flat
 70
     0
177
     3
291
     1
 70
    58
 90
        2
176
     1
 90
        1
176
     1
 90
        1
176
     1
 90
        2
176
     1
 40
0.6
176
     1
 40
30.0
176
     1
 62
     7
420
 16777215
176
     1
 90
        0
176
     1
 90
        0
176
     1
 62
     7
176
     1
 62
   257
176
     1
 90
        1
176
     1
 90
        1
176
     1
 40
1.0
176
     1
 90
        8
176
     1
 62
     7
176
     1
 40
1.0
176
     1
 90
        1
176
     1
 90
        6
176
     1
 90
        2
176
     1
 62
     7
176
     1
 90
        5
176
     1
 90
        0
176
     1
 90
        0
176
     1
290
     0
176
     1
 90
       13
176
     1
 40
0.0
176
     1
 90
        0
176
     1
290
     0
176
     1
290
     1
176
     1
290
     1
176
     1
290
     0
176
     1
290
     0
176
     1
290
     0
176
     1
290
     0
176
     1
290
     0
176
     1
290
     0
176
     1
 90
       50
176
     1
 40
0.0
176
     1
 40
1.0
176
     1
 90
        0
176
     1
 62
    18
420
        0
176
     1
 90
       50
176
     1
 90
        3
176
     1
 62
     5
420
      255
176
     1
290
     0
176
     1
 90
       50
176
     1
 90
       50
176
     1
 90
       50
176
     1
290
     0
176
     1
 90
       50
176
     1
 62
   256
176
     0
 40
1.0
176
     0
 90
        2
176
     1
  1
strokes_ogs.tif
176
     1
290
     0
176
     1
 40
1.0
176
     1
 40
1.0
176
     1
  0
VISUALSTYLE
  5
2C
102
{ACAD_REACTORS
330
2A
102
}
330
2A
100
AcDbVisualStyle
  2
FlatWithEdges
 70
     1
177
     3
291
     1
 70
    58
 90
        2
176
     1
 90
        1
176
     1
 90
        1
176
     1
 90
        2
176
     1
 40
0.6
176
     1
 40
30.0
176
     1
 62
     7
420
 16777215
176
     1
 90
        1
176
     1
 90
        0
176
     1
 62
     7
176
     1
 62
   257
176
     1
 90
        1
176
     1
 90
        1
176
     1
 40
1.0
176
     1
 90
        0
176
     1
 62
   257
176
     1
 40
1.0
176
     1
 90
        1
176
     1
 90
        6
176
     1
 90
        2
176
     1
 62
     7
176
     1
 90
        5
176
     1
 90
        0
176
     1
 90
        0
176
     1
290
     0
176
     1
 90
       13
176
     1
 40
0.0
176
     1
 90
        0
176
     1
290
     0
176
     1
290
     1
176
     1
290
     1
176
     1
290
     0
176
     1
290
     0
176
     1
290
     0
176
     1
290
     0
176
     1
290
     0
176
     1
290
     0
176
     1
 90
       50
176
     1
 40
0.0
176
     1
 40
1.0
176
     1
 90
        0
176
     1
 62
    18
420
        0
176
     1
 90
       50
176
     1
 90
        3
176
     1
 62
     5
420
      255
176
     1
290
     0
176
     1
 90
       50
176
     1
 90
       50
176
     1
 90
       50
176
     1
290
     0
176
     1
 90
       50
176
     1
 62
   256
176
     0
 40
1.0
176
     0
 90
        2
176
     1
  1
strokes_ogs.tif
176
     1
290
     0
176
     1
 40
1.0
176
     1
 40
1.0
176
     1
  0
VISUALSTYLE
  5
2D
102
{ACAD_REACTORS
330
2A
102
}
330
2A
100
AcDbVisualStyle
  2
Gouraud
 70
     2
177
     3
291
     1
 70
    58
 90
        2
176
     1
 90
        2
176
     1
 90
        1
176
     1
 90
        2
176
     1
 40
0.6
176
     1
 40
30.0
176
     1
 62
     7
420
 16777215
176
     1
 90
        0
176
     1
 90
        0
176
     1
 62
     7
176
     1
 62
   257
176
     1
 90
        1
176
     1
 90
        1
176
     1
 40
1.0
176
     1
 90
        0
176
     1
 62
     7
176
     1
 40
1.0
176
     1
 90
        1
176
     1
 90
        6
176
     1
 90
        2
176
     1
 62
     7
176
     1
 90
        5
176
     1
 90
        0
176
     1
 90
        0
176
     1
290
     0
176
     1
 90
       13
176
     1
 40
0.0
176
     1
 90
        0
176
     1
290
     0
176
     1
290
     1
176
     1
290
     1
176
     1
290
     0
176
     1
290
     0
176
     1
290
     0
176
     1
290
     0
176
     1
290
     0
176
     1
290
     0
176
     1
 90
       50
176
     1
 40
0.0
176
     1
 40
1.0
176
     1
 90
        0
176
     1
 62
    18
420
        0
176
     1
 90
       50
176
     1
 90
        3
176
     1
 62
     5
420
      255
176
     1
290
     0
176
     1
 90
       50
176
     1
 90
       50
176
     1
 90
       50
176
     1
290
     0
176
     1
 90
       50
176
     1
 62
   256
176
     0
 40
1.0
176
     0
 90
        2
176
     1
  1
strokes_ogs.tif
176
     1
290
     0
176
     1
 40
1.0
176
     1
 40
1.0
176
     1
  0
VISUALSTYLE
  5
2E
102
{ACAD_REACTORS
330
2A
102
}
330
2A
100
AcDbVisualStyle
  2
GouraudWithEdges
 70
     3
177
     3
291
     1
 70
    58
 90
        2
176
     1
 90
        2
176
     1
 90
        1
176
     1
 90
        2
176
     1
 40
0.6
176
     1
 40
30.0
176
     1
 62
     7
420
 16777215
176
     1
 90
        1
176
     1
 90
        0
176
     1
 62
     7
176
     1
 62
   257
176
     1
 90
        1
176
     1
 90
        1
176
     1
 40
1.0
176
     1
 90
        0
176
     1
 62
   257
176
     1
 40
1.0
176
     1
 90
        1
176
     1
 90
        6
176
     1
 90
        2
176
     1
 62
     7
176
     1
 90
        5
176
     1
 90
        0
176
     1
 90
        0
176
     1
290
     0
176
     1
 90
       13
176
     1
 40
0.0
176
     1
 90
        0
176
     1
290
     0
176
     1
290
     1
176
     1
290
     1
176
     1
290
     0
176
     1
290
     0
176
     1
290
     0
176
     1
290
     0
176
     1
290
     0
176
     1
290
     0
176
     1
 90
       50
176
     1
 40
0.0
176
     1
 40
1.0
176
     1
 90
        0
176
     1
 62
    18
420
        0
176
     1
 90
       50
176
     1
 90
        3
176
     1
 62
     5
420
      255
176
     1
290
     0
176
     1
 90
       50
176
     1
 90
       50
176
     1
 90
       50
176
     1
290
     0
176
     1
 90
       50
176
     1
 62
   256
176
     0
 40
1.0
176
     0
 90
        2
176
     1
  1
strokes_ogs.tif
176
     1
290
     0
176
     1
 40
1.0
176
     1
 40
1.0
176
     1
  0
VISUALSTYLE
  5
31
102
{ACAD_REACTORS
330
2A
102
}
330
2A
100
AcDbVisualStyle
  2
Hidden
 70
     6
177
     3
291
     0
 70
    58
 90
        1
176
     1
 90
        2
176
     1
 90
        2
176
     1
 90
        0
176
     1
 40
0.6
176
     1
 40
30.0
176
     1
 62
     7
420
 16777215
176
     1
 90
        2
176
     1
 90
        2
176
     1
 62
     7
176
     1
 62
   257
176
     1
 90
        2
176
     1
 90
        1
176
     1
 40
40.0
176
     1
 90
        0
176
     1
 62
   257
176
     1
 40
1.0
176
     1
 90
        1
176
     1
 90
        6
176
     1
 90
        2
176
     1
 62
     7
176
     1
 90
        3
176
     1
 90
        0
176
     1
 90
        0
176
     1
290
     0
176
     1
 90
        1
176
     1
 40
0.0
176
     1
 90
        0
176
     1
290
     0
176
     1
290
     1
176
     1
290
     1
176
     1
290
     0
176
     1
290
     0
176
     1
290
     0
176
     1
290
     0
176
     1
290
     0
176
     1
290
     0
176
     1
 90
       50
176
     1
 40
0.0
176
     1
 40
1.0
176
     1
 90
        0
176
     1
 62
    18
420
        0
176
     1
 90
       50
176
     1
 90
        3
176
     1
 62
     5
420
      255
176
     1
290
     0
176
     1
 90
       50
176
     1
 90
       50
176
     1
 90
       50
176
     1
290
     0
176
     1
 90
       50
176
     1
 62
   256
176
     0
 40
1.0
176
     0
 90
        2
176
     1
  1
strokes_ogs.tif
176
     1
290
     0
176
     1
 40
1.0
176
     1
 40
1.0
176
     1
  0
VISUALSTYLE
  5
3B
102
{ACAD_REACTORS
330
2A
102
}
330
2A
100
AcDbVisualStyle
  2
JitterOff
 70
    20
177
     3
291
     1
 70
    58
 90
        2
176
     0
 90
        2
176
     0
 90
        0
176
     0
 90
        0
176
     0
 40
0.6
176
     0
 40
30.0
176
     0
 62
     7
420
 16777215
176
     0
 90
        1
176
     0
 90
        4
176
     0
 62
     7
176
     0
 62
   257
176
     0
 90
        1
176
     0
 90
        1
176
     0
 40
1.0
176
     0
 90
       10
176
     2
 62
     7
176
     0
 40
1.0
176
     0
 90
        1
176
     0
 90
        6
176
     0
 90
        2
176
     0
 62
     7
176
     0
 90
        5
176
     0
 90
        0
176
     0
 90
        0
176
     0
290
     0
176
     0
 90
        1
176
     0
 40
0.0
176
     0
 90
        0
176
     0
290
     0
176
     0
290
     1
176
     0
290
     1
176
     0
290
     0
176
     0
290
     0
176
     0
290
     0
176
     0
290
     0
176
     0
290
     0
176
     0
290
     0
176
     0
 90
       50
176
     0
 40
0.0
176
     0
 40
1.0
176
     0
 90
        0
176
     0
 62
    18
420
        0
176
     0
 90
       50
176
     0
 90
        3
176
     0
 62
     5
420
      255
176
     0
290
     0
176
     0
 90
       50
176
     0
 90
       50
176
     0
 90
       50
176
     0
290
     0
176
     0
 90
       50
176
     0
 62
   256
176
     0
 40
1.0
176
     0
 90
        2
176
     0
  1
strokes_ogs.tif
176
     0
290
     0
176
     0
 40
1.0
176
     0
 40
1.0
176
     0
  0
VISUALSTYLE
  5
38
102
{ACAD_REACTORS
330
2A
102
}
330
2A
100
AcDbVisualStyle
  2
Linepattern
 70
    14
177
     3
291
     1
 70
    58
 90
        2
176
     1
 90
        2
176
     1
 90
        0
176
     1
 90
        0
176
     1
 40
0.6
176
     1
 40
30.0
176
     1
 62
     7
420
 16777215
176
     1
 90
        1
176
     1
 90
        4
176
     1
 62
     7
176
     1
 62
   257
176
     1
 90
        7
176
     1
 90
        7
176
     1
 40
1.0
176
     1
 90
        8
176
     1
 62
     7
176
     1
 40
1.0
176
     1
 90
        1
176
     1
 90
        6
176
     1
 90
        2
176
     1
 62
     7
176
     1
 90
        5
176
     1
 90
        0
176
     1
 90
        0
176
     1
290
     0
176
     1
 90
        1
176
     1
 40
0.0
176
     1
 90
        0
176
     1
290
     0
176
     1
290
     1
176
     1
290
     1
176
     1
290
     0
176
     1
290
     0
176
     1
290
     0
176
     1
290
     0
176
     1
290
     0
176
     1
290
     0
176
     1
 90
       50
176
     1
 40
0.0
176
     1
 40
1.0
176
     1
 90
        0
176
     1
 62
    18
420
        0
176
     1
 90
       50
176
     1
 90
        3
176
     1
 62
     5
420
      255
176
     1
290
     0
176
     1
 90
       50
176
     1
 90
       50
176
     1
 90
       50
176
     1
290
     0
176
     1
 90
       50
176
     1
 62
   256
176
     0
 40
1.0
176
     0
 90
        2
176
     1
  1
strokes_ogs.tif
176
     1
290
     0
176
     1
 40
1.0
176
     1
 40
1.0
176
     1
  0
VISUALSTYLE
  5
3C
102
{ACAD_REACTORS
330
2A
102
}
330
2A
100
AcDbVisualStyle
  2
OverhangOff
 70
    21
177
     3
291
     1
 70
    58
 90
        2
176
     0
 90
        2
176
     0
 90
        0
176
     0
 90
        0
176
     0
 40
0.6
176
     0
 40
30.0
176
     0
 62
     7
420
 16777215
176
     0
 90
        1
176
     0
 90
        4
176
     0
 62
     7
176
     0
 62
   257
176
     0
 90
        1
176
     0
 90
        1
176
     0
 40
1.0
176
     0
 90
        9
176
     2
 62
     7
176
     0
 40
1.0
176
     0
 90
        1
176
     0
 90
        6
176
     0
 90
        2
176
     0
 62
     7
176
     0
 90
        5
176
     0
 90
        0
176
     0
 90
        0
176
     0
290
     0
176
     0
 90
        1
176
     0
 40
0.0
176
     0
 90
        0
176
     0
290
     0
176
     0
290
     1
176
     0
290
     1
176
     0
290
     0
176
     0
290
     0
176
     0
290
     0
176
     0
290
     0
176
     0
290
     0
176
     0
290
     0
176
     0
 90
       50
176
     0
 40
0.0
176
     0
 40
1.0
176
     0
 90
        0
176
     0
 62
    18
420
        0
176
     0
 90
       50
176
     0
 90
        3
176
     0
 62
     5
420
      255
176
     0
290
     0
176
     0
 90
       50
176
     0
 90
       50
176
     0
 90
       50
176
     0
290
     0
176
     0
 90
       50
176
     0
 62
   256
176
     0
 40
1.0
176
     0
 90
        2
176
     0
  1
strokes_ogs.tif
176
     0
290
     0
176
     0
 40
1.0
176
     0
 40
1.0
176
     0
  0
VISUALSTYLE
  5
33
102
{ACAD_REACTORS
330
2A
102
}
330
2A
100
AcDbVisualStyle
  2
Realistic
 70
     8
177
     3
291
     0
 70
    58
 90
        2
176
     1
 90
        3
176
     1
 90
        0
176
     1
 90
        2
176
     1
 40
0.6
176
     1
 40
30.0
176
     1
 62
     7
420
 16777215
176
     1
 90
        0
176
     1
 90
        0
176
     1
 62
     7
176
     1
 62
   257
176
     1
 90
        1
176
     1
 90
        1
176
     1
 40
1.0
176
     1
 90
        8
176
     1
 62
   257
176
     1
 40
1.0
176
     1
 90
        1
176
     1
 90
        6
176
     1
 90
        2
176
     1
 62
     7
176
     1
 90
        3
176
     1
 90
        0
176
     1
 90
        0
176
     1
290
     0
176
     1
 90
       13
176
     1
 40
0.0
176
     1
 90
        0
176
     1
290
     0
176
     1
290
     1
176
     1
290
     1
176
     1
290
     0
176
     1
290
     0
176
     1
290
     0
176
     1
290
     0
176
     1
290
     0
176
     1
290
     0
176
     1
 90
       50
176
     1
 40
0.0
176
     1
 40
1.0
176
     1
 90
        0
176
     1
 62
    18
420
        0
176
     1
 90
       50
176
     1
 90
        3
176
     1
 62
     5
420
      255
176
     1
290
     0
176
     1
 90
       50
176
     1
 90
       50
176
     1
 90
       50
176
     1
290
     0
176
     1
 90
       50
176
     1
 62
   256
176
     0
 40
1.0
176
     0
 90
        2
176
     1
  1
strokes_ogs.tif
176
     1
290
     0
176
     1
 40
1.0
176
     1
 40
1.0
176
     1
  0
VISUALSTYLE
  5
42
102
{ACAD_REACTORS
330
2A
102
}
330
2A
100
AcDbVisualStyle
  2
Shaded
 70
    27
177
     3
291
     0
 70
    58
 90
        2
176
     1
 90
        2
176
     1
 90
        1
176
     1
 90
        2
176
     1
 40
0.6
176
     1
 40
30.0
176
     1
 62
     7
420
 16777215
176
     1
 90
        0
176
     1
 90
        4
176
     1
 62
     7
176
     1
 62
   257
176
     1
 90
        1
176
     1
 90
        1
176
     1
 40
1.0
176
     1
 90
        8
176
     1
 62
   257
176
     1
 40
1.0
176
     1
 90
        1
176
     1
 90
        6
176
     1
 90
        2
176
     1
 62
     8
420
  7895160
176
     1
 90
        3
176
     1
 90
        0
176
     1
 90
        0
176
     1
290
     0
176
     1
 90
        5
176
     1
 40
0.0
176
     1
 90
        0
176
     1
290
     0
176
     1
290
     1
176
     1
290
     1
176
     1
290
     0
176
     1
290
     0
176
     1
290
     0
176
     1
290
     0
176
     1
290
     0
176
     1
290
     0
176
     1
 90
       50
176
     1
 40
0.0
176
     1
 40
1.0
176
     1
 90
        0
176
     1
 62
    18
420
        0
176
     1
 90
       50
176
     1
 90
        3
176
     1
 62
     5
420
      255
176
     1
290
     0
176
     1
 90
       50
176
     1
 90
       50
176
     1
 90
       50
176
     1
290
     0
176
     1
 90
       50
176
     1
 62
   256
176
     0
 40
1.0
176
     0
 90
        2
176
     1
  1
strokes_ogs.tif
176
     1
290
     0
176
     1
 40
1.0
176
     1
 40
1.0
176
     1
  0
VISUALSTYLE
  5
41
102
{ACAD_REACTORS
330
2A
102
}
330
2A
100
AcDbVisualStyle
  2
Shaded with edges
 70
    26
177
     3
291
     0
 70
    58
 90
        2
176
     1
 90
        2
176
     1
 90
        1
176
     1
 90
        2
176
     1
 40
0.6
176
     1
 40
30.0
176
     1
 62
     7
420
 16777215
176
     1
 90
        1
176
     1
 90
       10
176
     1
 62
     7
176
     1
 62
   257
176
     1
 90
        2
176
     1
 90
        1
176
     1
 40
1.0
176
     1
 90
        8
176
     1
 62
   257
176
     1
 40
1.0
176
     1
 90
        1
176
     1
 90
        6
176
     1
 90
        2
176
     1
 62
     7
176
     1
 90
        3
176
     1
 90
        0
176
     1
 90
        0
176
     1
290
     0
176
     1
 90
        5
176
     1
 40
0.0
176
     1
 90
        0
176
     1
290
     0
176
     1
290
     1
176
     1
290
     1
176
     1
290
     0
176
     1
290
     0
176
     1
290
     0
176
     1
290
     0
176
     1
290
     0
176
     1
290
     0
176
     1
 90
       50
176
     1
 40
0.0
176
     1
 40
1.0
176
     1
 90
        0
176
     1
 62
    18
420
        0
176
     1
 90
       50
176
     1
 90
        3
176
     1
 62
     5
420
      255
176
     1
290
     0
176
     1
 90
       50
176
     1
 90
       50
176
     1
 90
       50
176
     1
290
     0
176
     1
 90
       50
176
     1
 62
   256
176
     0
 40
1.0
176
     0
 90
        2
176
     1
  1
strokes_ogs.tif
176
     1
290
     0
176
     1
 40
1.0
176
     1
 40
1.0
176
     1
  0
VISUALSTYLE
  5
3E
102
{ACAD_REACTORS
330
2A
102
}
330
2A
100
AcDbVisualStyle
  2
Shades of Gray
 70
    23
177
     3
291
     0
 70
    58
 90
        2
176
     1
 90
        2
176
     1
 90
        3
176
     1
 90
        0
176
     1
 40
0.6
176
     1
 40
30.0
176
     1
 62
     7
420
 16777215
176
     1
 90
        2
176
     1
 90
        2
176
     1
 62
     7
176
     1
 62
     7
176
     1
 90
        1
176
     1
 90
        1
176
     1
 40
40.0
176
     1
 90
        8
176
     1
 62
     7
176
     1
 40
1.0
176
     1
 90
        1
176
     1
 90
        6
176
     1
 90
        2
176
     1
 62
     7
176
     1
 90
        3
176
     1
 90
        0
176
     1
 90
        0
176
     1
290
     0
176
     1
 90
        1
176
     1
 40
0.0
176
     1
 90
        0
176
     1
290
     0
176
     1
290
     1
176
     1
290
     1
176
     1
290
     0
176
     1
290
     0
176
     1
290
     0
176
     1
290
     0
176
     1
290
     0
176
     1
290
     0
176
     1
 90
       50
176
     1
 40
0.0
176
     1
 40
1.0
176
     1
 90
        0
176
     1
 62
    18
420
        0
176
     1
 90
       50
176
     1
 90
        3
176
     1
 62
     5
420
      255
176
     1
290
     0
176
     1
 90
       50
176
     1
 90
       50
176
     1
 90
       50
176
     1
290
     0
176
     1
 90
       50
176
     1
 62
   256
176
     0
 40
1.0
176
     0
 90
        2
176
     1
  1
strokes_ogs.tif
176
     1
290
     0
176
     1
 40
1.0
176
     1
 40
1.0
176
     1
  0
VISUALSTYLE
  5
3F
102
{ACAD_REACTORS
330
2A
102
}
330
2A
100
AcDbVisualStyle
  2
Sketchy
 70
    24
177
     3
291
     0
 70
    58
 90
        1
176
     1
 90
        2
176
     1
 90
        2
176
     1
 90
        0
176
     1
 40
0.6
176
     1
 40
30.0
176
     1
 62
     7
420
 16777215
176
     1
 90
        2
176
     1
 90
        2
176
     1
 62
     7
176
     1
 62
     7
176
     1
 90
        1
176
     1
 90
        1
176
     1
 40
40.0
176
     1
 90
       11
176
     1
 62
     7
176
     1
 40
1.0
176
     1
 90
        1
176
     1
 90
        6
176
     1
 90
        2
176
     1
 62
     7
176
     1
 90
        6
176
     1
 90
        0
176
     1
 90
        0
176
     1
290
     0
176
     1
 90
        1
176
     1
 40
0.0
176
     1
 90
        0
176
     1
290
     0
176
     1
290
     1
176
     1
290
     1
176
     1
290
     0
176
     1
290
     0
176
     1
290
     0
176
     1
290
     0
176
     1
290
     0
176
     1
290
     0
176
     1
 90
       50
176
     1
 40
0.0
176
     1
 40
1.0
176
     1
 90
        0
176
     1
 62
    18
420
        0
176
     1
 90
       50
176
     1
 90
        3
176
     1
 62
     5
420
      255
176
     1
290
     0
176
     1
 90
       50
176
     1
 90
       50
176
     1
 90
       50
176
     1
290
     0
176
     1
 90
       50
176
     1
 62
   256
176
     0
 40
1.0
176
     0
 90
        2
176
     1
  1
strokes_ogs.tif
176
     1
290
     0
176
     1
 40
1.0
176
     1
 40
1.0
176
     1
  0
VISUALSTYLE
  5
37
102
{ACAD_REACTORS
330
2A
102
}
330
2A
100
AcDbVisualStyle
  2
Thicken
 70
    13
177
     3
291
     1
 70
    58
 90
        2
176
     1
 90
        2
176
     1
 90
        0
176
     1
 90
        0
176
     1
 40
0.6
176
     1
 40
30.0
176
     1
 62
     7
420
 16777215
176
     1
 90
        1
176
     1
 90
        4
176
     1
 62
     7
176
     1
 62
   257
176
     1
 90
        1
176
     1
 90
        1
176
     1
 40
1.0
176
     1
 90
       12
176
     1
 62
     7
176
     1
 40
1.0
176
     1
 90
        1
176
     1
 90
        6
176
     1
 90
        2
176
     1
 62
     7
176
     1
 90
        5
176
     1
 90
        0
176
     1
 90
        0
176
     1
290
     0
176
     1
 90
        1
176
     1
 40
0.0
176
     1
 90
        0
176
     1
290
     0
176
     1
290
     1
176
     1
290
     1
176
     1
290
     0
176
     1
290
     0
176
     1
290
     0
176
     1
290
     0
176
     1
290
     0
176
     1
290
     0
176
     1
 90
       50
176
     1
 40
0.0
176
     1
 40
1.0
176
     1
 90
        0
176
     1
 62
    18
420
        0
176
     1
 90
       50
176
     1
 90
        3
176
     1
 62
     5
420
      255
176
     1
290
     0
176
     1
 90
       50
176
     1
 90
       50
176
     1
 90
       50
176
     1
290
     0
176
     1
 90
       50
176
     1
 62
   256
176
     0
 40
1.0
176
     0
 90
        2
176
     1
  1
strokes_ogs.tif
176
     1
290
     0
176
     1
 40
1.0
176
     1
 40
1.0
176
     1
  0
VISUALSTYLE
  5
30
102
{ACAD_REACTORS
330
2A
102
}
330
2A
100
AcDbVisualStyle
  2
Wireframe
 70
     5
177
     3
291
     0
 70
    58
 90
        0
176
     1
 90
        2
176
     1
 90
        0
176
     1
 90
        0
176
     1
 40
0.6
176
     1
 40
30.0
176
     1
 62
     7
420
 16777215
176
     1
 90
        1
176
     1
 90
        4
176
     1
 62
     7
176
     1
 62
   257
176
     1
 90
        1
176
     1
 90
        1
176
     1
 40
1.0
176
     1
 90
        0
176
     1
 62
   257
176
     1
 40
1.0
176
     1
 90
        1
176
     1
 90
        6
176
     1
 90
        2
176
     1
 62
     7
176
     1
 90
        3
176
     1
 90
        0
176
     1
 90
        0
176
     1
290
     0
176
     1
 90
        1
176
     1
 40
0.0
176
     1
 90
        0
176
     1
290
     0
176
     1
290
     1
176
     1
290
     1
176
     1
290
     0
176
     1
290
     0
176
     1
290
     0
176
     1
290
     0
176
     1
290
     0
176
     1
290
     0
176
     1
 90
       50
176
     1
 40
0.0
176
     1
 40
1.0
176
     1
 90
        0
176
     1
 62
    18
420
        0
176
     1
 90
       50
176
     1
 90
        3
176
     1
 62
     5
420
      255
176
     1
290
     0
176
     1
 90
       50
176
     1
 90
       50
176
     1
 90
       50
176
     1
290
     0
176
     1
 90
       50
176
     1
 62
   256
176
     0
 40
1.0
176
     0
 90
        2
176
     1
  1
strokes_ogs.tif
176
     1
290
     0
176
     1
 40
1.0
176
     1
 40
1.0
176
     1
  0
VISUALSTYLE
  5
40
102
{ACAD_REACTORS
330
2A
102
}
330
2A
100
AcDbVisualStyle
  2
X-Ray
 70
    25
177
     3
291
     0
 70
    58
 90
        2
176
     1
 90
        2
176
     1
 90
        1
176
     1
 90
        1
176
     1
 40
0.5
176
     1
 40
30.0
176
     1
 62
     7
420
 16777215
176
     1
 90
        1
176
     1
 90
        0
176
     1
 62
     7
176
     1
 62
   257
176
     1
 90
        1
176
     1
 90
        1
176
     1
 40
1.0
176
     1
 90
        8
176
     1
 62
     7
176
     1
 40
1.0
176
     1
 90
        1
176
     1
 90
        6
176
     1
 90
        2
176
     1
 62
     7
176
     1
 90
        3
176
     1
 90
        0
176
     1
 90
        0
176
     1
290
     0
176
     1
 90
       13
176
     1
 40
0.0
176
     1
 90
        0
176
     1
290
     0
176
     1
290
     1
176
     1
290
     1
176
     1
290
     0
176
     1
290
     0
176
     1
290
     0
176
     1
290
     0
176
     1
290
     0
176
     1
290
     0
176
     1
 90
       50
176
     1
 40
0.0
176
     1
 40
1.0
176
     1
 90
        0
176
     1
 62
    18
420
        0
176
     1
 90
       50
176
     1
 90
        3
176
     1
 62
     5
420
      255
176
     1
290
     0
176
     1
 90
       50
176
     1
 90
       50
176
     1
 90
       50
176
     1
290
     0
176
     1
 90
       50
176
     1
 62
   256
176
     0
 40
1.0
176
     0
 90
        2
176
     1
  1
strokes_ogs.tif
176
     1
290
     0
176
     1
 40
1.0
176
     1
 40
1.0
176
     1
  0
DICTIONARYVAR
  5
1D2
102
{ACAD_REACTORS
330
1D1
102
}
330
1D1
100
DictionaryVariables
280
     0
  1
1:1
  0
DICTIONARYVAR
  5
1D7
102
{ACAD_REACTORS
330
1D1
102
}
330
1D1
100
DictionaryVariables
280
     0
  1
Standard
  0
DICTIONARYVAR
  5
1D6
102
{ACAD_REACTORS
330
1D1
102
}
330
1D1
100
DictionaryVariables
280
     0
  1
Standard
  0
DICTIONARY
  5
1D3
330
6A
100
AcDbDictionary
280
     1
281
     1
  3
ACAD_ROUNDTRIP_2008_TABLESTYLE_CELLSTYLEMAP
360
1D4
  0
CELLSTYLEMAP
  5
1D4
102
{ACAD_REACTORS
330
1D3
102
}
330
1D3
100
AcDbCellStyleMap
 90
        3
300
CELLSTYLE
  1
TABLEFORMAT_BEGIN
 90
        5
170
     1
 91
        0
 92
    32768
 62
   257
 93
        1
300
CONTENTFORMAT
  1
CONTENTFORMAT_BEGIN
 90
        0
 91
        0
 92
        4
 93
        0
300

 40
0.0
140
1.0
 94
        5
 62
     0
340
11
144
0.25
309
CONTENTFORMAT_END
171
     1
301
MARGIN
  1
CELLMARGIN_BEGIN
 40
0.06
 40
0.06
 40
0.06
 40
0.06
 40
0.06
 40
0.06
309
CELLMARGIN_END
 94
        6
 95
        1
302
GRIDFORMAT
  1
GRIDFORMAT_BEGIN
 90
        0
 91
        1
 62
     0
 92
       -2
340
14
 93
        0
 40
0.045
309
GRIDFORMAT_END
 95
        2
302
GRIDFORMAT
  1
GRIDFORMAT_BEGIN
 90
        0
 91
        1
 62
     0
 92
       -2
340
14
 93
        0
 40
0.045
309
GRIDFORMAT_END
 95
        4
302
GRIDFORMAT
  1
GRIDFORMAT_BEGIN
 90
        0
 91
        1
 62
     0
 92
       -2
340
14
 93
        0
 40
0.045
309
GRIDFORMAT_END
 95
        8
302
GRIDFORMAT
  1
GRIDFORMAT_BEGIN
 90
        0
 91
        1
 62
     0
 92
       -2
340
14
 93
        0
 40
0.045
309
GRIDFORMAT_END
 95
       16
302
GRIDFORMAT
  1
GRIDFORMAT_BEGIN
 90
        0
 91
        1
 62
     0
 92
       -2
340
14
 93
        0
 40
0.045
309
GRIDFORMAT_END
 95
       32
302
GRIDFORMAT
  1
GRIDFORMAT_BEGIN
 90
        0
 91
        1
 62
     0
 92
       -2
340
14
 93
        0
 40
0.045
309
GRIDFORMAT_END
309
TABLEFORMAT_END
  1
CELLSTYLE_BEGIN
 90
        1
 91
        1
300
_TITLE
309
CELLSTYLE_END
300
CELLSTYLE
  1
TABLEFORMAT_BEGIN
 90
        5
170
     1
 91
        0
 92
        0
 62
   257
 93
        1
300
CONTENTFORMAT
  1
CONTENTFORMAT_BEGIN
 90
        0
 91
        0
 92
        4
 93
        0
300

 40
0.0
140
1.0
 94
        5
 62
     0
340
11
144
0.18
309
CONTENTFORMAT_END
171
     1
301
MARGIN
  1
CELLMARGIN_BEGIN
 40
0.06
 40
0.06
 40
0.06
 40
0.06
 40
0.06
 40
0.06
309
CELLMARGIN_END
 94
        6
 95
        1
302
GRIDFORMAT
  1
GRIDFORMAT_BEGIN
 90
        0
 91
        1
 62
     0
 92
       -2
340
14
 93
        0
 40
0.045
309
GRIDFORMAT_END
 95
        2
302
GRIDFORMAT
  1
GRIDFORMAT_BEGIN
 90
        0
 91
        1
 62
     0
 92
       -2
340
14
 93
        0
 40
0.045
309
GRIDFORMAT_END
 95
        4
302
GRIDFORMAT
  1
GRIDFORMAT_BEGIN
 90
        0
 91
        1
 62
     0
 92
       -2
340
14
 93
        0
 40
0.045
309
GRIDFORMAT_END
 95
        8
302
GRIDFORMAT
  1
GRIDFORMAT_BEGIN
 90
        0
 91
        1
 62
     0
 92
       -2
340
14
 93
        0
 40
0.045
309
GRIDFORMAT_END
 95
       16
302
GRIDFORMAT
  1
GRIDFORMAT_BEGIN
 90
        0
 91
        1
 62
     0
 92
       -2
340
14
 93
        0
 40
0.045
309
GRIDFORMAT_END
 95
       32
302
GRIDFORMAT
  1
GRIDFORMAT_BEGIN
 90
        0
 91
        1
 62
     0
 92
       -2
340
14
 93
        0
 40
0.045
309
GRIDFORMAT_END
309
TABLEFORMAT_END
  1
CELLSTYLE_BEGIN
 90
        2
 91
        1
300
_HEADER
309
CELLSTYLE_END
300
CELLSTYLE
  1
TABLEFORMAT_BEGIN
 90
        5
170
     1
 91
        0
 92
        0
 62
   257
 93
        1
300
CONTENTFORMAT
  1
CONTENTFORMAT_BEGIN
 90
        0
 91
        0
 92
        4
 93
        0
300

 40
0.0
140
1.0
 94
        2
 62
     0
340
11
144
0.18
309
CONTENTFORMAT_END
171
     1
301
MARGIN
  1
CELLMARGIN_BEGIN
 40
0.06
 40
0.06
 40
0.06
 40
0.06
 40
0.06
 40
0.06
309
CELLMARGIN_END
 94
        6
 95
        1
302
GRIDFORMAT
  1
GRIDFORMAT_BEGIN
 90
        0
 91
        1
 62
     0
 92
       -2
340
14
 93
        0
 40
0.045
309
GRIDFORMAT_END
 95
        2
302
GRIDFORMAT
  1
GRIDFORMAT_BEGIN
 90
        0
 91
        1
 62
     0
 92
       -2
340
14
 93
        0
 40
0.045
309
GRIDFORMAT_END
 95
        4
302
GRIDFORMAT
  1
GRIDFORMAT_BEGIN
 90
        0
 91
        1
 62
     0
 92
       -2
340
14
 93
        0
 40
0.045
309
GRIDFORMAT_END
 95
        8
302
GRIDFORMAT
  1
GRIDFORMAT_BEGIN
 90
        0
 91
        1
 62
     0
 92
       -2
340
14
 93
        0
 40
0.045
309
GRIDFORMAT_END
 95
       16
302
GRIDFORMAT
  1
GRIDFORMAT_BEGIN
 90
        0
 91
        1
 62
     0
 92
       -2
340
14
 93
        0
 40
0.045
309
GRIDFORMAT_END
 95
       32
302
GRIDFORMAT
  1
GRIDFORMAT_BEGIN
 90
        0
 91
        1
 62
     0
 92
       -2
340
14
 93
        0
 40
0.045
309
GRIDFORMAT_END
309
TABLEFORMAT_END
  1
CELLSTYLE_BEGIN
 90
        3
 91
        2
300
_DATA
309
CELLSTYLE_END
  0
ENDSEC
  0
EOF