0
SECTION
  2
HEADER
  9
$ACADVER
  1
AC1027
  9
$ACADMAINTVER
 70
     8
  9
$DWGCODEPAGE
  3
ANSI_1252
  9
$REQUIREDVERSIONS
160
                 0
  9
$COMMENTS
  1
File was created by Cadenas
  9
$CUSTOMPROPERTYTAG
  1
NN
  9
$CUSTOMPROPERTY
  1
Grip Tight Two-Bolt Pillow Block Inch Bore
  9
$CUSTOMPROPERTYTAG
  1
NT
  9
$CUSTOMPROPERTY
  1
GT Normal Duty Pillow Blocks
  9
$CUSTOMPROPERTYTAG
  1
NB
  9
$CUSTOMPROPERTY
  1
129841
  9
$CUSTOMPROPERTYTAG
  1
NBSYN
  9
$CUSTOMPROPERTY
  1
$PN.$LUBE.
  9
$CUSTOMPROPERTYTAG
  1
LINA
  9
$CUSTOMPROPERTY
  1
129841
  9
$CUSTOMPROPERTYTAG
  1
SERIES
  9
$CUSTOMPROPERTY
  1
206
  9
$CUSTOMPROPERTYTAG
  1
SS
  9
$CUSTOMPROPERTY
  1
1-1/8
  9
$CUSTOMPROPERTYTAG
  1
PN
  9
$CUSTOMPROPERTY
  1
129841
  9
$CUSTOMPROPERTYTAG
  1
DESCRIPTION
  9
$CUSTOMPROPERTY
  1
P2B-GTU-102
  9
$CUSTOMPROPERTYTAG
  1
A
  9
$CUSTOMPROPERTY
  1
1-39/64
  9
$CUSTOMPROPERTYTAG
  1
B
  9
$CUSTOMPROPERTY
  1
6-1/4
  9
$CUSTOMPROPERTYTAG
  1
C
  9
$CUSTOMPROPERTY
  1
1-47/64
  9
$CUSTOMPROPERTYTAG
  1
DMIN
  9
$CUSTOMPROPERTY
  1
4-1/4
  9
$CUSTOMPROPERTYTAG
  1
DMAX
  9
$CUSTOMPROPERTY
  1
5
  9
$CUSTOMPROPERTYTAG
  1
F
  9
$CUSTOMPROPERTY
  1
1/2
  9
$CUSTOMPROPERTYTAG
  1
G
  9
$CUSTOMPROPERTY
  1
15/16
  9
$CUSTOMPROPERTYTAG
  1
H
  9
$CUSTOMPROPERTY
  1
45/64
  9
$CUSTOMPROPERTYTAG
  1
J
  9
$CUSTOMPROPERTY
  1
3-1/4
  9
$CUSTOMPROPERTYTAG
  1
L
  9
$CUSTOMPROPERTY
  1
2
  9
$CUSTOMPROPERTYTAG
  1
M
  9
$CUSTOMPROPERTY
  1
1-11/16
  9
$CUSTOMPROPERTYTAG
  1
R
  9
$CUSTOMPROPERTY
  1
17/32
  9
$CUSTOMPROPERTYTAG
  1
S
  9
$CUSTOMPROPERTY
  1
1-5/64
  9
$CUSTOMPROPERTYTAG
  1
U
  9
$CUSTOMPROPERTY
  1
2-7/8
  9
$CUSTOMPROPERTYTAG
  1
V
  9
$CUSTOMPROPERTY
  1
5-3/4
  9
$CUSTOMPROPERTYTAG
  1
W
  9
$CUSTOMPROPERTY
  1
9/16
  9
$CUSTOMPROPERTYTAG
  1
X
  9
$CUSTOMPROPERTY
  1
3/16
  9
$CUSTOMPROPERTYTAG
  1
Z
  9
$CUSTOMPROPERTY
  1
1-1/32
  9
$CUSTOMPROPERTYTAG
  1
COMPANY
  9
$CUSTOMPROPERTY
  1
baldor
  9
$INSBASE
 10
0.0
 20
0.0
 30
0.0
  9
$EXTMIN
 10
1.000000000000000E+20
 20
1.000000000000000E+20
 30
1.000000000000000E+20
  9
$EXTMAX
 10
-1.000000000000000E+20
 20
-1.000000000000000E+20
 30
-1.000000000000000E+20
  9
$LIMMIN
 10
0.0
 20
0.0
  9
$LIMMAX
 10
12.0
 20
9.0
  9
$ORTHOMODE
 70
     0
  9
$REGENMODE
 70
     1
  9
$FILLMODE
 70
     1
  9
$QTEXTMODE
 70
     0
  9
$MIRRTEXT
 70
     1
  9
$LTSCALE
 40
1.0
  9
$ATTMODE
 70
     1
  9
$TEXTSIZE
 40
0.2
  9
$TRACEWID
 40
0.05
  9
$TEXTSTYLE
  7
Standard
  9
$CLAYER
  8
0
  9
$CELTYPE
  6
ByLayer
  9
$CECOLOR
 62
   256
  9
$CELTSCALE
 40
1.0
  9
$DISPSILH
 70
     0
  9
$DIMSCALE
 40
1.0
  9
$DIMASZ
 40
0.18
  9
$DIMEXO
 40
0.0625
  9
$DIMDLI
 40
0.38
  9
$DIMRND
 40
0.0
  9
$DIMDLE
 40
0.0
  9
$DIMEXE
 40
0.18
  9
$DIMTP
 40
0.0
  9
$DIMTM
 40
0.0
  9
$DIMTXT
 40
0.18
  9
$DIMCEN
 40
0.09
  9
$DIMTSZ
 40
0.0
  9
$DIMTOL
 70
     0
  9
$DIMLIM
 70
     0
  9
$DIMTIH
 70
     1
  9
$DIMTOH
 70
     1
  9
$DIMSE1
 70
     0
  9
$DIMSE2
 70
     0
  9
$DIMTAD
 70
     0
  9
$DIMZIN
 70
     0
  9
$DIMBLK
  1

  9
$DIMASO
 70
     1
  9
$DIMSHO
 70
     1
  9
$DIMPOST
  1

  9
$DIMAPOST
  1

  9
$DIMALT
 70
     0
  9
$DIMALTD
 70
     2
  9
$DIMALTF
 40
25.4
  9
$DIMLFAC
 40
1.0
  9
$DIMTOFL
 70
     0
  9
$DIMTVP
 40
0.0
  9
$DIMTIX
 70
     0
  9
$DIMSOXD
 70
     0
  9
$DIMSAH
 70
     0
  9
$DIMBLK1
  1

  9
$DIMBLK2
  1

  9
$DIMSTYLE
  2
Standard
  9
$DIMCLRD
 70
     0
  9
$DIMCLRE
 70
     0
  9
$DIMCLRT
 70
     0
  9
$DIMTFAC
 40
1.0
  9
$DIMGAP
 40
0.09
  9
$DIMJUST
 70
     0
  9
$DIMSD1
 70
     0
  9
$DIMSD2
 70
     0
  9
$DIMTOLJ
 70
     1
  9
$DIMTZIN
 70
     0
  9
$DIMALTZ
 70
     0
  9
$DIMALTTZ
 70
     0
  9
$DIMUPT
 70
     0
  9
$DIMDEC
 70
     4
  9
$DIMTDEC
 70
     4
  9
$DIMALTU
 70
     2
  9
$DIMALTTD
 70
     2
  9
$DIMTXSTY
  7
Standard
  9
$DIMAUNIT
 70
     0
  9
$DIMADEC
 70
     0
  9
$DIMALTRND
 40
0.0
  9
$DIMAZIN
 70
     0
  9
$DIMDSEP
 70
    46
  9
$DIMATFIT
 70
     3
  9
$DIMFRAC
 70
     0
  9
$DIMLDRBLK
  1

  9
$DIMLUNIT
 70
     2
  9
$DIMLWD
 70
    -2
  9
$DIMLWE
 70
    -2
  9
$DIMTMOVE
 70
     0
  9
$DIMFXL
 40
1.0
  9
$DIMFXLON
 70
     0
  9
$DIMJOGANG
 40
0.7853981633974483
  9
$DIMTFILL
 70
     0
  9
$DIMTFILLCLR
 70
     0
  9
$DIMARCSYM
 70
     0
  9
$DIMLTYPE
  6

  9
$DIMLTEX1
  6

  9
$DIMLTEX2
  6

  9
$DIMTXTDIRECTION
 70
     0
  9
$LUNITS
 70
     2
  9
$LUPREC
 70
     4
  9
$SKETCHINC
 40
0.1
  9
$FILLETRAD
 40
0.5
  9
$AUNITS
 70
     0
  9
$AUPREC
 70
     0
  9
$MENU
  1
.
  9
$ELEVATION
 40
0.0
  9
$PELEVATION
 40
0.0
  9
$THICKNESS
 40
0.0
  9
$LIMCHECK
 70
     0
  9
$CHAMFERA
 40
0.0
  9
$CHAMFERB
 40
0.0
  9
$CHAMFERC
 40
0.0
  9
$CHAMFERD
 40
0.0
  9
$SKPOLY
 70
     0
  9
$TDCREATE
 40
2458168.995152859
  9
$TDUCREATE
 40
2458168.953486192
  9
$TDUPDATE
 40
2458168.995153032
  9
$TDUUPDATE
 40
2458168.953486366
  9
$TDINDWG
 40
0.0000000116
  9
$TDUSRTIMER
 40
0.0000000116
  9
$USRTIMER
 70
     1
  9
$ANGBASE
 50
0.0
  9
$ANGDIR
 70
     0
  9
$PDMODE
 70
     0
  9
$PDSIZE
 40
0.0
  9
$PLINEWID
 40
0.0
  9
$SPLFRAME
 70
     0
  9
$SPLINETYPE
 70
     6
  9
$SPLINESEGS
 70
     8
  9
$HANDSEED
  5
277
  9
$SURFTAB1
 70
     6
  9
$SURFTAB2
 70
     6
  9
$SURFTYPE
 70
     6
  9
$SURFU
 70
     6
  9
$SURFV
 70
     6
  9
$UCSBASE
  2

  9
$UCSNAME
  2

  9
$UCSORG
 10
0.0
 20
0.0
 30
0.0
  9
$UCSXDIR
 10
1.0
 20
0.0
 30
0.0
  9
$UCSYDIR
 10
0.0
 20
1.0
 30
0.0
  9
$UCSORTHOREF
  2

  9
$UCSORTHOVIEW
 70
     0
  9
$UCSORGTOP
 10
0.0
 20
0.0
 30
0.0
  9
$UCSORGBOTTOM
 10
0.0
 20
0.0
 30
0.0
  9
$UCSORGLEFT
 10
0.0
 20
0.0
 30
0.0
  9
$UCSORGRIGHT
 10
0.0
 20
0.0
 30
0.0
  9
$UCSORGFRONT
 10
0.0
 20
0.0
 30
0.0
  9
$UCSORGBACK
 10
0.0
 20
0.0
 30
0.0
  9
$PUCSBASE
  2

  9
$PUCSNAME
  2

  9
$PUCSORG
 10
0.0
 20
0.0
 30
0.0
  9
$PUCSXDIR
 10
1.0
 20
0.0
 30
0.0
  9
$PUCSYDIR
 10
0.0
 20
1.0
 30
0.0
  9
$PUCSORTHOREF
  2

  9
$PUCSORTHOVIEW
 70
     0
  9
$PUCSORGTOP
 10
0.0
 20
0.0
 30
0.0
  9
$PUCSORGBOTTOM
 10
0.0
 20
0.0
 30
0.0
  9
$PUCSORGLEFT
 10
0.0
 20
0.0
 30
0.0
  9
$PUCSORGRIGHT
 10
0.0
 20
0.0
 30
0.0
  9
$PUCSORGFRONT
 10
0.0
 20
0.0
 30
0.0
  9
$PUCSORGBACK
 10
0.0
 20
0.0
 30
0.0
  9
$USERI1
 70
     0
  9
$USERI2
 70
     0
  9
$USERI3
 70
     0
  9
$USERI4
 70
     0
  9
$USERI5
 70
     0
  9
$USERR1
 40
0.0
  9
$USERR2
 40
0.0
  9
$USERR3
 40
0.0
  9
$USERR4
 40
0.0
  9
$USERR5
 40
0.0
  9
$WORLDVIEW
 70
     1
  9
$SHADEDGE
 70
     3
  9
$SHADEDIF
 70
    70
  9
$TILEMODE
 70
     1
  9
$MAXACTVP
 70
    64
  9
$PINSBASE
 10
0.0
 20
0.0
 30
0.0
  9
$PLIMCHECK
 70
     0
  9
$PEXTMIN
 10
1.000000000000000E+20
 20
1.000000000000000E+20
 30
1.000000000000000E+20
  9
$PEXTMAX
 10
-1.000000000000000E+20
 20
-1.000000000000000E+20
 30
-1.000000000000000E+20
  9
$PLIMMIN
 10
0.0
 20
0.0
  9
$PLIMMAX
 10
12.0
 20
9.0
  9
$UNITMODE
 70
     0
  9
$VISRETAIN
 70
     1
  9
$PLINEGEN
 70
     0
  9
$PSLTSCALE
 70
     1
  9
$TREEDEPTH
 70
  3020
  9
$CMLSTYLE
  2
Standard
  9
$CMLJUST
 70
     0
  9
$CMLSCALE
 40
1.0
  9
$PROXYGRAPHICS
 70
     1
  9
$MEASUREMENT
 70
     0
  9
$CELWEIGHT
370
    -1
  9
$ENDCAPS
280
     0
  9
$JOINSTYLE
280
     0
  9
$LWDISPLAY
290
     0
  9
$INSUNITS
 70
     1
  9
$HYPERLINKBASE
  1

  9
$STYLESHEET
  1

  9
$XEDIT
290
     1
  9
$CEPSNTYPE
380
     0
  9
$PSTYLEMODE
290
     1
  9
$FINGERPRINTGUID
  2
{DF9FBD22-21C6-41DE-8579-427C5A7B164D}
  9
$VERSIONGUID
  2
{FAEB1C32-E019-11D5-929B-00C0DF256EC4}
  9
$EXTNAMES
290
     1
  9
$PSVPSCALE
 40
0.0
  9
$OLESTARTUP
290
     0
  9
$SORTENTS
280
   127
  9
$INDEXCTL
280
     0
  9
$HIDETEXT
280
     1
  9
$XCLIPFRAME
280
     2
  9
$HALOGAP
280
     0
  9
$OBSCOLOR
 70
   257
  9
$OBSLTYPE
280
     0
  9
$INTERSECTIONDISPLAY
280
     0
  9
$INTERSECTIONCOLOR
 70
   257
  9
$DIMASSOC
280
     2
  9
$PROJECTNAME
  1

  9
$CAMERADISPLAY
290
     0
  9
$LENSLENGTH
 40
50.0
  9
$CAMERAHEIGHT
 40
0.0
  9
$STEPSPERSEC
 40
2.0
  9
$STEPSIZE
 40
6.0
  9
$3DDWFPREC
 40
2.0
  9
$PSOLWIDTH
 40
0.25
  9
$PSOLHEIGHT
 40
4.0
  9
$LOFTANG1
 40
1.570796326794897
  9
$LOFTANG2
 40
1.570796326794897
  9
$LOFTMAG1
 40
0.0
  9
$LOFTMAG2
 40
0.0
  9
$LOFTPARAM
 70
     7
  9
$LOFTNORMALS
280
     1
  9
$LATITUDE
 40
37.795
  9
$LONGITUDE
 40
-122.394
  9
$NORTHDIRECTION
 40
0.0
  9
$TIMEZONE
 70
 -8000
  9
$LIGHTGLYPHDISPLAY
280
     1
  9
$TILEMODELIGHTSYNCH
280
     1
  9
$CMATERIAL
347
44
  9
$SOLIDHIST
280
     0
  9
$SHOWHIST
280
     1
  9
$DWFFRAME
280
     2
  9
$DGNFRAME
280
     2
  9
$REALWORLDSCALE
290
     1
  9
$INTERFERECOLOR
 62
   256
  9
$CSHADOW
280
     0
  9
$SHADOWPLANELOCATION
 40
0.0
  0
ENDSEC
  0
SECTION
  2
CLASSES
  0
CLASS
  1
ACDBDICTIONARYWDFLT
  2
AcDbDictionaryWithDefault
  3
ObjectDBX Classes
 90
        0
 91
        4
280
     0
281
     0
  0
CLASS
  1
VISUALSTYLE
  2
AcDbVisualStyle
  3
ObjectDBX Classes
 90
     4095
 91
        4
280
     0
281
     0
  0
CLASS
  1
MATERIAL
  2
AcDbMaterial
  3
ObjectDBX Classes
 90
     1153
 91
        4
280
     0
281
     0
  0
CLASS
  1
SCALE
  2
AcDbScale
  3
ObjectDBX Classes
 90
     1153
 91
        4
280
     0
281
     0
  0
CLASS
  1
TABLESTYLE
  2
AcDbTableStyle
  3
ObjectDBX Classes
 90
     4095
 91
        4
280
     0
281
     0
  0
CLASS
  1
MLEADERSTYLE
  2
AcDbMLeaderStyle
  3
ACDB_MLEADERSTYLE_CLASS
 90
     4095
 91
        4
280
     0
281
     0
  0
CLASS
  1
SUN
  2
AcDbSun
  3
SCENEOE
 90
     1153
 91
        4
280
     0
281
     0
  0
CLASS
  1
DICTIONARYVAR
  2
AcDbDictionaryVar
  3
ObjectDBX Classes
 90
        0
 91
        4
280
     0
281
     0
  0
CLASS
  1
CELLSTYLEMAP
  2
AcDbCellStyleMap
  3
ObjectDBX Classes
 90
     1152
 91
        4
280
     0
281
     0
  0
ENDSEC
  0
SECTION
  2
TABLES
  0
TABLE
  2
VPORT
  5
8
330
0
100
AcDbSymbolTable
 70
     1
  0
VPORT
  5
29
330
8
100
AcDbSymbolTableRecord
100
AcDbViewportTableRecord
  2
*Active
 70
     0
 10
0.0
 20
0.0
 11
1.0
 21
1.0
 12
0.0
 22
-0.1023437499999993
 13
0.0
 23
0.0
 14
0.5
 24
0.5
 15
0.5
 25
0.5
 16
0.0
 26
0.0
 36
1.0
 17
0.0
 27
0.0
 37
0.0
 40
2.15475
 41
2.958579881656804
 42
50.0
 43
0.0
 44
0.0
 50
0.0
 51
0.0
 71
     0
 72
   100
 73
     1
 74
     3
 75
     0
 76
     0
 77
     0
 78
     0
281
     0
 65
     1
110
0.0
120
0.0
130
0.0
111
1.0
121
0.0
131
0.0
112
0.0
122
1.0
132
0.0
 79
     0
146
0.0
348
2F
 60
     3
 61
     5
292
     1
282
     1
141
0.0
142
0.0
 63
   250
361
6D
  0
ENDTAB
  0
TABLE
  2
LTYPE
  5
5
330
0
100
AcDbSymbolTable
 70
     3
  0
LTYPE
  5
14
330
5
100
AcDbSymbolTableRecord
100
AcDbLinetypeTableRecord
  2
ByBlock
 70
     0
  3

 72
    65
 73
     0
 40
0.0
  0
LTYPE
  5
15
330
5
100
AcDbSymbolTableRecord
100
AcDbLinetypeTableRecord
  2
ByLayer
 70
     0
  3

 72
    65
 73
     0
 40
0.0
  0
LTYPE
  5
16
330
5
100
AcDbSymbolTableRecord
100
AcDbLinetypeTableRecord
  2
Continuous
 70
     0
  3
Solid line
 72
    65
 73
     0
 40
0.0
  0
LTYPE
  5
A5
330
5
100
AcDbSymbolTableRecord
100
AcDbLinetypeTableRecord
  2
Dashed
 70
     0
  3

 72
    65
 73
     2
 40
2.0
 49
1.0
 74
     0
 49
-1.0
 74
     0
  0
LTYPE
  5
115
330
5
100
AcDbSymbolTableRecord
100
AcDbLinetypeTableRecord
  2
Center
 70
     0
  3

 72
    65
 73
     4
 40
1.5
 49
0.45
 74
     0
 49
-0.5
 74
     0
 49
0.05
 74
     0
 49
-0.5
 74
     0
  0
ENDTAB
  0
TABLE
  2
LAYER
  5
2
330
0
100
AcDbSymbolTable
 70
     7
  0
LAYER
  5
10
330
2
100
AcDbSymbolTableRecord
100
AcDbLayerTableRecord
  2
0
 70
     0
 62
     7
  6
Continuous
370
    -3
390
F
347
46
348
0
  0
LAYER
  5
72
330
2
100
AcDbSymbolTableRecord
100
AcDbLayerTableRecord
  2
AM_6
 70
     0
 62
    -2
  6
Continuous
370
    35
390
F
347
46
348
0
  0
LAYER
  5
A6
330
2
100
AcDbSymbolTableRecord
100
AcDbLayerTableRecord
  2
AM_9
 70
     0
 62
     6
  6
Dashed
370
    25
390
F
347
46
348
0
  0
LAYER
  5
112
330
2
100
AcDbSymbolTableRecord
100
AcDbLayerTableRecord
  2
AM_5
 70
     0
 62
     3
  6
Continuous
370
    25
390
F
347
46
348
0
  0
LAYER
  5
116
330
2
100
AcDbSymbolTableRecord
100
AcDbLayerTableRecord
  2
AM_7
 70
     0
 62
     7
  6
Center
370
    25
390
F
347
46
348
0
  0
LAYER
  5
118
330
2
100
AcDbSymbolTableRecord
100
AcDbLayerTableRecord
  2
AM_4
 70
     0
 62
     7
  6
Continuous
370
    50
390
F
347
46
348
0
  0
LAYER
  5
269
330
2
100
AcDbSymbolTableRecord
100
AcDbLayerTableRecord
  2
ConnectionPoints
 70
     0
 62
     7
  6
Continuous
370
    50
390
F
347
46
348
0
  0
ENDTAB
  0
TABLE
  2
STYLE
  5
3
330
0
100
AcDbSymbolTable
 70
     1
  0
STYLE
  5
11
330
3
100
AcDbSymbolTableRecord
100
AcDbTextStyleTableRecord
  2
Standard
 70
     0
 40
0.0
 41
1.0
 50
0.0
 71
     0
 42
0.2
  3
txt
  4

  0
ENDTAB
  0
TABLE
  2
VIEW
  5
6
330
0
100
AcDbSymbolTable
 70
     0
  0
ENDTAB
  0
TABLE
  2
UCS
  5
7
330
0
100
AcDbSymbolTable
 70
     0
  0
ENDTAB
  0
TABLE
  2
APPID
  5
9
330
0
100
AcDbSymbolTable
 70
     1
  0
APPID
  5
12
330
9
100
AcDbSymbolTableRecord
100
AcDbRegAppTableRecord
  2
ACAD
 70
     0
  0
ENDTAB
  0
TABLE
  2
DIMSTYLE
  5
A
330
0
100
AcDbSymbolTable
 70
     1
100
AcDbDimStyleTable
  0
DIMSTYLE
105
27
330
A
100
AcDbSymbolTableRecord
100
AcDbDimStyleTableRecord
  2
Standard
 70
     0
178
     0
340
11
  0
ENDTAB
  0
TABLE
  2
BLOCK_RECORD
  5
1
330
0
100
AcDbSymbolTable
 70
     5
  0
BLOCK_RECORD
  5
1F
330
1
100
AcDbSymbolTableRecord
100
AcDbBlockTableRecord
  2
*Model_Space
340
22
 70
     0
280
     1
281
     0
  0
BLOCK_RECORD
  5
1B
330
1
100
AcDbSymbolTableRecord
100
AcDbBlockTableRecord
  2
*Paper_Space
340
1E
 70
     0
280
     1
281
     0
  0
BLOCK_RECORD
  5
23
330
1
100
AcDbSymbolTableRecord
100
AcDbBlockTableRecord
  2
*Paper_Space0
340
26
 70
     0
280
     1
281
     0
  0
BLOCK_RECORD
  5
6E
330
1
100
AcDbSymbolTableRecord
100
AcDbBlockTableRecord
  2
1_129841_4
340
0
102
{BLKREFS
331
6F
102
}
 70
     0
280
     1
281
     0
  0
BLOCK_RECORD
  5
8F
330
1
100
AcDbSymbolTableRecord
100
AcDbBlockTableRecord
  2
2_129519I_0_in_129841_4
340
0
102
{BLKREFS
331
90
102
}
 70
     0
280
     1
281
     0
  0
BLOCK_RECORD
  5
D4
330
1
100
AcDbSymbolTableRecord
100
AcDbBlockTableRecord
  2
3_129908_0_in_129841_4
340
0
102
{BLKREFS
331
D5
102
}
 70
     0
280
     1
281
     0
  0
BLOCK_RECORD
  5
12B
330
1
100
AcDbSymbolTableRecord
100
AcDbBlockTableRecord
  2
4_129419I_0_in_129841_4
340
0
102
{BLKREFS
331
12C
102
}
 70
     0
280
     1
281
     0
  0
ENDTAB
  0
ENDSEC
  0
SECTION
  2
BLOCKS
  0
BLOCK
  5
20
330
1F
100
AcDbEntity
  8
0
100
AcDbBlockBegin
  2
*Model_Space
 70
     0
 10
0.0
 20
0.0
 30
0.0
  3
*Model_Space
  1

  0
ENDBLK
  5
21
330
1F
100
AcDbEntity
  8
0
100
AcDbBlockEnd
  0
BLOCK
  5
1C
330
1B
100
AcDbEntity
 67
     1
  8
0
100
AcDbBlockBegin
  2
*Paper_Space
 70
     0
 10
0.0
 20
0.0
 30
0.0
  3
*Paper_Space
  1

  0
ENDBLK
  5
1D
330
1B
100
AcDbEntity
 67
     1
  8
0
100
AcDbBlockEnd
  0
BLOCK
  5
24
330
23
100
AcDbEntity
  8
0
100
AcDbBlockBegin
  2
*Paper_Space0
 70
     0
 10
0.0
 20
0.0
 30
0.0
  3
*Paper_Space0
  1

  0
ENDBLK
  5
25
330
23
100
AcDbEntity
  8
0
100
AcDbBlockEnd
  0
BLOCK
  5
70
330
6E
100
AcDbEntity
  8
0
100
AcDbBlockBegin
  2
1_129841_4
 70
     2
 10
0.0
 20
0.0
 30
0.0
  3
1_129841_4
  1

  0
ATTDEF
  5
73
330
6E
100
AcDbEntity
  8
AM_6
100
AcDbText
 10
8.125
 20
0.95390625
 30
0.0
 40
0.5
  1
Grip Tight Two-Bolt Pillow Block Inch Bore
100
AcDbAttributeDefinition
  3

  2
NN
 70
     8
280
     0
  0
ATTDEF
  5
74
330
6E
100
AcDbEntity
  8
AM_6
100
AcDbText
 10
8.125
 20
0.45390625
 30
0.0
 40
0.5
  1
GT Normal Duty Pillow Blocks
100
AcDbAttributeDefinition
  3

  2
NT
 70
     8
280
     0
  0
ATTDEF
  5
75
330
6E
100
AcDbEntity
  8
AM_6
100
AcDbText
 10
8.125
 20
-0.04609375
 30
0.0
 40
0.5
  1
129841
100
AcDbAttributeDefinition
  3

  2
NB
 70
     8
280
     0
  0
ATTDEF
  5
76
330
6E
100
AcDbEntity
  8
AM_6
100
AcDbText
 10
8.125
 20
-0.54609375
 30
0.0
 40
0.5
  1
$PN.$LUBE.
100
AcDbAttributeDefinition
  3

  2
NBSYN
 70
     8
280
     0
  0
ATTDEF
  5
77
330
6E
100
AcDbEntity
  8
AM_6
100
AcDbText
 10
8.125
 20
-1.04609375
 30
0.0
 40
0.5
  1
129841
100
AcDbAttributeDefinition
  3

  2
LINA
 70
     8
280
     0
  0
ATTDEF
  5
78
330
6E
100
AcDbEntity
  8
AM_6
100
AcDbText
 10
8.125
 20
-1.54609375
 30
0.0
 40
0.5
  1
206
100
AcDbAttributeDefinition
  3

  2
SERIES
 70
     8
280
     0
  0
ATTDEF
  5
79
330
6E
100
AcDbEntity
  8
AM_6
100
AcDbText
 10
8.125
 20
-2.04609375
 30
0.0
 40
0.5
  1
1-1/8
100
AcDbAttributeDefinition
  3

  2
SS
 70
     8
280
     0
  0
ATTDEF
  5
7A
330
6E
100
AcDbEntity
  8
AM_6
100
AcDbText
 10
8.125
 20
-2.54609375
 30
0.0
 40
0.5
  1
129841
100
AcDbAttributeDefinition
  3

  2
PN
 70
     8
280
     0
  0
ATTDEF
  5
7B
330
6E
100
AcDbEntity
  8
AM_6
100
AcDbText
 10
8.125
 20
-3.04609375
 30
0.0
 40
0.5
  1
P2B-GTU-102
100
AcDbAttributeDefinition
  3

  2
DESCRIPTION
 70
     8
280
     0
  0
ATTDEF
  5
7C
330
6E
100
AcDbEntity
  8
AM_6
100
AcDbText
 10
8.125
 20
-3.54609375
 30
0.0
 40
0.5
  1
1-39/64
100
AcDbAttributeDefinition
  3

  2
A
 70
     8
280
     0
  0
ATTDEF
  5
7D
330
6E
100
AcDbEntity
  8
AM_6
100
AcDbText
 10
8.125
 20
-4.04609375
 30
0.0
 40
0.5
  1
6-1/4
100
AcDbAttributeDefinition
  3

  2
B
 70
     8
280
     0
  0
ATTDEF
  5
7E
330
6E
100
AcDbEntity
  8
AM_6
100
AcDbText
 10
8.125
 20
-4.54609375
 30
0.0
 40
0.5
  1
1-47/64
100
AcDbAttributeDefinition
  3

  2
C
 70
     8
280
     0
  0
ATTDEF
  5
7F
330
6E
100
AcDbEntity
  8
AM_6
100
AcDbText
 10
8.125
 20
-5.04609375
 30
0.0
 40
0.5
  1
4-1/4
100
AcDbAttributeDefinition
  3

  2
DMIN
 70
     8
280
     0
  0
ATTDEF
  5
80
330
6E
100
AcDbEntity
  8
AM_6
100
AcDbText
 10
8.125
 20
-5.54609375
 30
0.0
 40
0.5
  1
5
100
AcDbAttributeDefinition
  3

  2
DMAX
 70
     8
280
     0
  0
ATTDEF
  5
81
330
6E
100
AcDbEntity
  8
AM_6
100
AcDbText
 10
8.125
 20
-6.04609375
 30
0.0
 40
0.5
  1
1/2
100
AcDbAttributeDefinition
  3

  2
F
 70
     8
280
     0
  0
ATTDEF
  5
82
330
6E
100
AcDbEntity
  8
AM_6
100
AcDbText
 10
8.125
 20
-6.54609375
 30
0.0
 40
0.5
  1
15/16
100
AcDbAttributeDefinition
  3

  2
G
 70
     8
280
     0
  0
ATTDEF
  5
83
330
6E
100
AcDbEntity
  8
AM_6
100
AcDbText
 10
8.125
 20
-7.04609375
 30
0.0
 40
0.5
  1
45/64
100
AcDbAttributeDefinition
  3

  2
H
 70
     8
280
     0
  0
ATTDEF
  5
84
330
6E
100
AcDbEntity
  8
AM_6
100
AcDbText
 10
8.125
 20
-7.54609375
 30
0.0
 40
0.5
  1
3-1/4
100
AcDbAttributeDefinition
  3

  2
J
 70
     8
280
     0
  0
ATTDEF
  5
85
330
6E
100
AcDbEntity
  8
AM_6
100
AcDbText
 10
8.125
 20
-8.04609375
 30
0.0
 40
0.5
  1
2
100
AcDbAttributeDefinition
  3

  2
L
 70
     8
280
     0
  0
ATTDEF
  5
86
330
6E
100
AcDbEntity
  8
AM_6
100
AcDbText
 10
8.125
 20
-8.54609375
 30
0.0
 40
0.5
  1
1-11/16
100
AcDbAttributeDefinition
  3

  2
M
 70
     8
280
     0
  0
ATTDEF
  5
87
330
6E
100
AcDbEntity
  8
AM_6
100
AcDbText
 10
8.125
 20
-9.04609375
 30
0.0
 40
0.5
  1
17/32
100
AcDbAttributeDefinition
  3

  2
R
 70
     8
280
     0
  0
ATTDEF
  5
88
330
6E
100
AcDbEntity
  8
AM_6
100
AcDbText
 10
8.125
 20
-9.54609375
 30
0.0
 40
0.5
  1
1-5/64
100
AcDbAttributeDefinition
  3

  2
S
 70
     8
280
     0
  0
ATTDEF
  5
89
330
6E
100
AcDbEntity
  8
AM_6
100
AcDbText
 10
8.125
 20
-10.04609375
 30
0.0
 40
0.5
  1
2-7/8
100
AcDbAttributeDefinition
  3

  2
U
 70
     8
280
     0
  0
ATTDEF
  5
8A
330
6E
100
AcDbEntity
  8
AM_6
100
AcDbText
 10
8.125
 20
-10.54609375
 30
0.0
 40
0.5
  1
5-3/4
100
AcDbAttributeDefinition
  3

  2
V
 70
     8
280
     0
  0
ATTDEF
  5
8B
330
6E
100
AcDbEntity
  8
AM_6
100
AcDbText
 10
8.125
 20
-11.04609375
 30
0.0
 40
0.5
  1
9/16
100
AcDbAttributeDefinition
  3

  2
W
 70
     8
280
     0
  0
ATTDEF
  5
8C
330
6E
100
AcDbEntity
  8
AM_6
100
AcDbText
 10
8.125
 20
-11.54609375
 30
0.0
 40
0.5
  1
3/16
100
AcDbAttributeDefinition
  3

  2
X
 70
     8
280
     0
  0
ATTDEF
  5
8D
330
6E
100
AcDbEntity
  8
AM_6
100
AcDbText
 10
8.125
 20
-12.04609375
 30
0.0
 40
0.5
  1
1-1/32
100
AcDbAttributeDefinition
  3

  2
Z
 70
     8
280
     0
  0
ATTDEF
  5
8E
330
6E
100
AcDbEntity
  8
AM_6
100
AcDbText
 10
8.125
 20
-12.54609375
 30
0.0
 40
0.5
  1
baldor
100
AcDbAttributeDefinition
  3

  2
COMPANY
 70
     8
280
     0
  0
INSERT
  5
90
330
6E
100
AcDbEntity
  8
0
100
AcDbBlockReference
  2
2_129519I_0_in_129841_4
 10
0.0
 20
0.0
 30
0.0
  0
INSERT
  5
D5
330
6E
100
AcDbEntity
  8
0
100
AcDbBlockReference
  2
3_129908_0_in_129841_4
 10
0.0
 20
0.0
 30
0.0
  0
INSERT
  5
12C
330
6E
100
AcDbEntity
  8
0
100
AcDbBlockReference
  2
4_129419I_0_in_129841_4
 10
0.0
 20
0.0
 30
0.0
  0
ENDBLK
  5
71
330
6E
100
AcDbEntity
  8
0
100
AcDbBlockEnd
  0
BLOCK
  5
91
330
8F
100
AcDbEntity
  8
0
100
AcDbBlockBegin
  2
2_129519I_0_in_129841_4
 70
     2
 10
0.0
 20
0.0
 30
0.0
  3
2_129519I_0_in_129841_4
  1

  0
ATTDEF
  5
93
330
8F
100
AcDbEntity
  8
AM_6
100
AcDbText
 10
6.219944037690783
 20
0.4680000000000001
 30
0.0
 40
0.5
  1
INS-GT B
100
AcDbAttributeDefinition
  3

  2
NN
 70
     8
280
     0
  0
ATTDEF
  5
94
330
8F
100
AcDbEntity
  8
AM_6
100
AcDbText
 10
6.219944037690783
 20
-0.0319999999999999
 30
0.0
 40
0.5
  1
GT Normal Duty Bearing Inserts
100
AcDbAttributeDefinition
  3

  2
NT
 70
     8
280
     0
  0
ATTDEF
  5
95
330
8F
100
AcDbEntity
  8
AM_6
100
AcDbText
 10
6.219944037690783
 20
-0.5319999999999999
 30
0.0
 40
0.5
  1
129519I
100
AcDbAttributeDefinition
  3

  2
NB
 70
     8
280
     0
  0
ATTDEF
  5
96
330
8F
100
AcDbEntity
  8
AM_6
100
AcDbText
 10
6.219944037690783
 20
-1.032
 30
0.0
 40
0.5
  1
$PN.I
100
AcDbAttributeDefinition
  3

  2
NBSYN
 70
     8
280
     0
  0
ATTDEF
  5
97
330
8F
100
AcDbEntity
  8
AM_6
100
AcDbText
 10
6.219944037690783
 20
-1.532
 30
0.0
 40
0.5
  1
129519
100
AcDbAttributeDefinition
  3

  2
LINA
 70
     8
280
     0
  0
ATTDEF
  5
98
330
8F
100
AcDbEntity
  8
AM_6
100
AcDbText
 10
6.219944037690783
 20
-2.032
 30
0.0
 40
0.5
  1
206
100
AcDbAttributeDefinition
  3

  2
SERIES
 70
     8
280
     0
  0
ATTDEF
  5
99
330
8F
100
AcDbEntity
  8
AM_6
100
AcDbText
 10
6.219944037690783
 20
-2.532
 30
0.0
 40
0.5
  1
129519
100
AcDbAttributeDefinition
  3

  2
PN
 70
     8
280
     0
  0
ATTDEF
  5
9A
330
8F
100
AcDbEntity
  8
AM_6
100
AcDbText
 10
6.219944037690783
 20
-3.032
 30
0.0
 40
0.5
  1
INS-GT-06
100
AcDbAttributeDefinition
  3

  2
DESCRIPTION
 70
     8
280
     0
  0
ATTDEF
  5
9B
330
8F
100
AcDbEntity
  8
AM_6
100
AcDbText
 10
6.219944037690783
 20
-3.532
 30
0.0
 40
0.5
  1
1.61
100
AcDbAttributeDefinition
  3

  2
A
 70
     8
280
     0
  0
ATTDEF
  5
9C
330
8F
100
AcDbEntity
  8
AM_6
100
AcDbText
 10
6.219944037690783
 20
-4.032
 30
0.0
 40
0.5
  1
0.69
100
AcDbAttributeDefinition
  3

  2
C
 70
     8
280
     0
  0
ATTDEF
  5
9D
330
8F
100
AcDbEntity
  8
AM_6
100
AcDbText
 10
6.219944037690783
 20
-4.532
 30
0.0
 40
0.5
  1
2.4409
100
AcDbAttributeDefinition
  3

  2
D
 70
     8
280
     0
  0
ATTDEF
  5
9E
330
8F
100
AcDbEntity
  8
AM_6
100
AcDbText
 10
6.219944037690783
 20
-5.032
 30
0.0
 40
0.5
  1
0.16
100
AcDbAttributeDefinition
  3

  2
J
 70
     8
280
     0
  0
ATTDEF
  5
9F
330
8F
100
AcDbEntity
  8
AM_6
100
AcDbText
 10
6.219944037690783
 20
-5.532
 30
0.0
 40
0.5
  1
2.08
100
AcDbAttributeDefinition
  3

  2
L
 70
     8
280
     0
  0
ATTDEF
  5
A0
330
8F
100
AcDbEntity
  8
AM_6
100
AcDbText
 10
6.219944037690783
 20
-6.032
 30
0.0
 40
0.5
  1
#10 - 32 x 1/4
100
AcDbAttributeDefinition
  3

  2
N
 70
     8
280
     0
  0
ATTDEF
  5
A1
330
8F
100
AcDbEntity
  8
AM_6
100
AcDbText
 10
6.219944037690783
 20
-6.532
 30
0.0
 40
0.5
  1
0.52000
100
AcDbAttributeDefinition
  3

  2
W
 70
     8
280
     0
  0
ATTDEF
  5
A2
330
8F
100
AcDbEntity
  8
AM_6
100
AcDbText
 10
6.219944037690783
 20
-7.032
 30
0.0
 40
0.5
  1
1.13
100
AcDbAttributeDefinition
  3

  2
X
 70
     8
280
     0
  0
ATTDEF
  5
A3
330
8F
100
AcDbEntity
  8
AM_6
100
AcDbText
 10
6.219944037690783
 20
-7.532
 30
0.0
 40
0.5
  1
1.09
100
AcDbAttributeDefinition
  3

  2
Y
 70
     8
280
     0
  0
ATTDEF
  5
A4
330
8F
100
AcDbEntity
  8
AM_6
100
AcDbText
 10
6.219944037690783
 20
-8.032
 30
0.0
 40
0.5
  1
baldor
100
AcDbAttributeDefinition
  3

  2
COMPANY
 70
     8
280
     0
  0
LINE
  5
A7
330
8F
100
AcDbEntity
  8
AM_9
100
AcDbLine
 10
0.7758729564444445
 20
-0.8474992824485647
 30
0.0
 11
0.7758729564444445
 21
-0.4237492824485647
 31
0.0
  0
LINE
  5
A8
330
8F
100
AcDbEntity
  8
AM_9
100
AcDbLine
 10
-0.7758729564444445
 20
-0.4237492824485647
 30
0.0
 11
-0.7758729564444445
 21
-0.8474992824485647
 31
0.0
  0
LINE
  5
A9
330
8F
100
AcDbEntity
  8
AM_9
100
AcDbLine
 10
-0.7758729564444445
 20
-0.4237492824485647
 30
0.0
 11
0.7758729564444445
 21
-0.4237492824485647
 31
0.0
  0
LINE
  5
AA
330
8F
100
AcDbEntity
  8
AM_9
100
AcDbLine
 10
0.7758729564444445
 20
-0.4237492824485647
 30
0.0
 11
0.8070135275812623
 21
0.4680000000000001
 31
0.0
  0
LINE
  5
AB
330
8F
100
AcDbEntity
  8
AM_9
100
AcDbLine
 10
-0.8070135275812623
 20
0.4680000000000001
 30
0.0
 11
-0.7758729564444445
 21
-0.4237492824485647
 31
0.0
  0
LINE
  5
AC
330
8F
100
AcDbEntity
  8
AM_9
100
AcDbLine
 10
0.8501587004444445
 20
-0.7062492824485647
 30
0.0
 11
0.8501587004444445
 21
-0.5649992824485646
 31
0.0
  0
LINE
  5
AD
330
8F
100
AcDbEntity
  8
AM_9
100
AcDbLine
 10
-0.8501587004444445
 20
-0.5649992824485646
 30
0.0
 11
-0.8501587004444445
 21
-0.7062492824485647
 31
0.0
  0
LINE
  5
AE
330
8F
100
AcDbEntity
  8
AM_9
100
AcDbLine
 10
0.8968444444444446
 20
-0.8474992824485647
 30
0.0
 11
0.9244444444444444
 21
-0.8198992824485647
 31
0.0
  0
LINE
  5
AF
330
8F
100
AcDbEntity
  8
AM_9
100
AcDbLine
 10
-0.9244444444444444
 20
-0.8198992824485647
 30
0.0
 11
-0.8968444444444446
 21
-0.8474992824485647
 31
0.0
  0
LINE
  5
B0
330
8F
100
AcDbEntity
  8
AM_9
100
AcDbLine
 10
-0.8960514991031976
 20
-0.8474992824485647
 30
0.0
 11
0.8968444444444446
 21
-0.8474992824485647
 31
0.0
  0
LINE
  5
B1
330
8F
100
AcDbEntity
  8
AM_9
100
AcDbLine
 10
0.9244444444444444
 20
-0.8198992824485647
 30
0.0
 11
0.9244444444444444
 21
-0.7062492824485647
 31
0.0
  0
LINE
  5
B2
330
8F
100
AcDbEntity
  8
AM_9
100
AcDbLine
 10
-0.9244444444444444
 20
-0.7062492824485647
 30
0.0
 11
-0.9244444444444444
 21
-0.8198992824485647
 31
0.0
  0
LINE
  5
B3
330
8F
100
AcDbEntity
  8
AM_9
100
AcDbLine
 10
-0.9244444444444444
 20
-0.8198992824485647
 30
0.0
 11
0.9244444444444444
 21
-0.8198992824485647
 31
0.0
  0
LINE
  5
B4
330
8F
100
AcDbEntity
  8
AM_9
100
AcDbLine
 10
-0.9244444444444444
 20
-0.7062492824485647
 30
0.0
 11
0.9244444444444444
 21
-0.7062492824485647
 31
0.0
  0
LINE
  5
B5
330
8F
100
AcDbEntity
  8
AM_9
100
AcDbLine
 10
-0.8968444444444446
 20
0.4680000000000001
 30
0.0
 11
0.8968444444444446
 21
0.4680000000000001
 31
0.0
  0
LINE
  5
B6
330
8F
100
AcDbEntity
  8
AM_9
100
AcDbLine
 10
-0.8968444444444446
 20
0.4680000000000001
 30
0.0
 11
-0.9244444444444444
 21
0.4404
 31
0.0
  0
LINE
  5
B7
330
8F
100
AcDbEntity
  8
AM_9
100
AcDbLine
 10
0.9244444444444444
 20
0.4404
 30
0.0
 11
0.8968444444444446
 21
0.4680000000000001
 31
0.0
  0
LINE
  5
B8
330
8F
100
AcDbEntity
  8
AM_9
100
AcDbLine
 10
-0.9244444444444446
 20
0.4404
 30
0.0
 11
0.9244444444444446
 21
0.4404
 31
0.0
  0
LINE
  5
B9
330
8F
100
AcDbEntity
  8
AM_9
100
AcDbLine
 10
0.9244444444444446
 20
0.3449999999999999
 30
0.0
 11
0.9244444444444446
 21
0.4404
 31
0.0
  0
LINE
  5
BA
330
8F
100
AcDbEntity
  8
AM_9
100
AcDbLine
 10
-0.9244444444444446
 20
0.4404
 30
0.0
 11
-0.9244444444444446
 21
0.3449999999999999
 31
0.0
  0
LINE
  5
BB
330
8F
100
AcDbEntity
  8
AM_9
100
AcDbLine
 10
0.9244444444444446
 20
-0.5649992824485646
 30
0.0
 11
0.9244444444444446
 21
-0.3449999999999999
 31
0.0
  0
LINE
  5
BC
330
8F
100
AcDbEntity
  8
AM_9
100
AcDbLine
 10
-0.9244444444444446
 20
-0.3449999999999999
 30
0.0
 11
-0.9244444444444446
 21
-0.5649992824485646
 31
0.0
  0
LINE
  5
BD
330
8F
100
AcDbEntity
  8
AM_9
100
AcDbLine
 10
-0.9244444444444446
 20
-0.5649992824485646
 30
0.0
 11
0.9244444444444446
 21
-0.5649992824485646
 31
0.0
  0
LINE
  5
BE
330
8F
100
AcDbEntity
  8
AM_9
100
AcDbLine
 10
1.15145
 20
-0.1920000000000001
 30
0.0
 11
1.15145
 21
-0.128
 31
0.0
  0
LINE
  5
BF
330
8F
100
AcDbEntity
  8
AM_9
100
AcDbLine
 10
-1.15145
 20
-0.128
 30
0.0
 11
-1.15145
 21
-0.1920000000000001
 31
0.0
  0
LINE
  5
C0
330
8F
100
AcDbEntity
  8
AM_9
100
AcDbLine
 10
-1.13284088208356
 20
-0.3449999999999999
 30
0.0
 11
1.13284088208356
 21
-0.3449999999999999
 31
0.0
  0
ARC
  5
C1
330
8F
100
AcDbEntity
  8
AM_9
100
AcDbCircle
 10
1.13284088208356
 20
-0.3173999999999998
 30
0.0
 40
0.0276
100
AcDbArc
 50
270.0
 51
338.5875110795952
  0
ARC
  5
C2
330
8F
100
AcDbEntity
  8
AM_9
100
AcDbCircle
 10
-1.13284088208356
 20
-0.3173999999999998
 30
0.0
 40
0.0276
100
AcDbArc
 50
201.4124889204048
 51
270.0
  0
LINE
  5
C3
330
8F
100
AcDbEntity
  8
AM_9
100
AcDbLine
 10
-1.132840882083558
 20
0.3449999999999999
 30
0.0
 11
1.132840882083558
 21
0.3449999999999999
 31
0.0
  0
ARC
  5
C4
330
8F
100
AcDbEntity
  8
AM_9
100
AcDbCircle
 10
1.132840882083558
 20
0.3173999999999991
 30
0.0
 40
0.0276000000000006
100
AcDbArc
 50
21.41247796226357
 51
90.0
  0
ARC
  5
C5
330
8F
100
AcDbEntity
  8
AM_9
100
AcDbCircle
 10
-1.132840882083558
 20
0.3173999999999991
 30
0.0
 40
0.0276000000000008
100
AcDbArc
 50
90.0
 51
158.5875220377364
  0
LINE
  5
C6
330
8F
100
AcDbEntity
  8
AM_9
100
AcDbLine
 10
-1.158535826874395
 20
-0.3274762002856205
 30
0.0
 11
1.158535826874395
 21
-0.3274762002856205
 31
0.0
  0
ARC
  5
C7
330
8F
100
AcDbEntity
  8
AM_9
100
AcDbCircle
 10
0.3234499999998808
 20
0.0000000000000381
 30
0.0
 40
0.8970000000001247
100
AcDbArc
 50
338.5875322800852
 51
347.0877781677902
  0
ARC
  5
C8
330
8F
100
AcDbEntity
  8
AM_9
100
AcDbCircle
 10
-0.3234499999998809
 20
0.000000000000038
 30
0.0
 40
0.8970000000001245
100
AcDbArc
 50
192.9122218322098
 51
201.4124677199149
  0
LINE
  5
C9
330
8F
100
AcDbEntity
  8
AM_9
100
AcDbLine
 10
-1.197768054584991
 20
-0.2004418604651163
 30
0.0
 11
1.197768054584991
 21
-0.2004418604651163
 31
0.0
  0
LINE
  5
CA
330
8F
100
AcDbEntity
  8
AM_9
100
AcDbLine
 10
-1.191042531088183
 20
-0.1920000000000001
 30
0.0
 11
1.191042531088183
 21
-0.1920000000000001
 31
0.0
  0
ARC
  5
CB
330
8F
100
AcDbEntity
  8
AM_9
100
AcDbCircle
 10
1.191042531088183
 20
-0.1988999999999999
 30
0.0
 40
0.0069
100
AcDbArc
 50
347.0877781677898
 51
90.0
  0
ARC
  5
CC
330
8F
100
AcDbEntity
  8
AM_9
100
AcDbCircle
 10
-1.191042531088183
 20
-0.1988999999999999
 30
0.0
 40
0.0068999999999998
100
AcDbArc
 50
90.0
 51
192.9122218322102
  0
LINE
  5
CD
330
8F
100
AcDbEntity
  8
AM_9
100
AcDbLine
 10
-1.205273565119463
 20
-0.1280000000000001
 30
0.0
 11
1.205273565119463
 21
-0.1280000000000001
 31
0.0
  0
ARC
  5
CE
330
8F
100
AcDbEntity
  8
AM_9
100
AcDbCircle
 10
1.205273565119463
 20
-0.1211000000000006
 30
0.0
 40
0.0068999999999995
100
AcDbArc
 50
270.0
 51
352.1805361994656
  0
ARC
  5
CF
330
8F
100
AcDbEntity
  8
AM_9
100
AcDbCircle
 10
-1.205273565119463
 20
-0.1211000000000006
 30
0.0
 40
0.0068999999999996
100
AcDbArc
 50
187.8194638005344
 51
270.0
  0
LINE
  5
D0
330
8F
100
AcDbEntity
  8
AM_9
100
AcDbLine
 10
-1.158535828801523
 20
0.3274761953713166
 30
0.0
 11
1.158535828801523
 21
0.3274761953713166
 31
0.0
  0
ARC
  5
D1
330
8F
100
AcDbEntity
  8
AM_9
100
AcDbCircle
 10
0.3234499999999665
 20
-0.0000000000000044
 30
0.0
 40
0.8970000000000327
100
AcDbArc
 50
352.1805361994589
 51
21.41246738274132
  0
ARC
  5
D2
330
8F
100
AcDbEntity
  8
AM_9
100
AcDbCircle
 10
-0.3234499999999704
 20
-0.0000000000000039
 30
0.0
 40
0.8970000000000289
100
AcDbArc
 50
158.5875326172586
 51
187.8194638005412
  0
LINE
  5
D3
330
8F
100
AcDbEntity
  8
AM_9
100
AcDbLine
 10
-1.212109406709537
 20
-0.1220387596899222
 30
0.0
 11
1.212109406709537
 21
-0.1220387596899222
 31
0.0
  0
ENDBLK
  5
92
330
8F
100
AcDbEntity
  8
0
100
AcDbBlockEnd
  0
BLOCK
  5
D6
330
D4
100
AcDbEntity
  8
0
100
AcDbBlockBegin
  2
3_129908_0_in_129841_4
 70
     2
 10
0.0
 20
0.0
 30
0.0
  3
3_129908_0_in_129841_4
  1

  0
ATTDEF
  5
D8
330
D4
100
AcDbEntity
  8
AM_6
100
AcDbText
 10
5.995477272467835
 20
0.53125
 30
0.0
 40
0.5
  1
Grip Tight Normal Duty Adapter and Nut Inch Bore
100
AcDbAttributeDefinition
  3

  2
NN
 70
     8
280
     0
  0
ATTDEF
  5
D9
330
D4
100
AcDbEntity
  8
AM_6
100
AcDbText
 10
5.995477272467835
 20
0.03125
 30
0.0
 40
0.5
  1
GT and GTM Adapter & Lock Nut Assemblies
100
AcDbAttributeDefinition
  3

  2
NT
 70
     8
280
     0
  0
ATTDEF
  5
DA
330
D4
100
AcDbEntity
  8
AM_6
100
AcDbText
 10
5.995477272467835
 20
-0.46875
 30
0.0
 40
0.5
  1
129908
100
AcDbAttributeDefinition
  3

  2
NB
 70
     8
280
     0
  0
ATTDEF
  5
DB
330
D4
100
AcDbEntity
  8
AM_6
100
AcDbText
 10
5.995477272467835
 20
-0.96875
 30
0.0
 40
0.5
  1
$PN.
100
AcDbAttributeDefinition
  3

  2
NBSYN
 70
     8
280
     0
  0
ATTDEF
  5
DC
330
D4
100
AcDbEntity
  8
AM_6
100
AcDbText
 10
5.995477272467835
 20
-1.46875
 30
0.0
 40
0.5
  1
129908
100
AcDbAttributeDefinition
  3

  2
LINA
 70
     8
280
     0
  0
ATTDEF
  5
DD
330
D4
100
AcDbEntity
  8
AM_6
100
AcDbText
 10
5.995477272467835
 20
-1.96875
 30
0.0
 40
0.5
  1
206
100
AcDbAttributeDefinition
  3

  2
SERIES
 70
     8
280
     0
  0
ATTDEF
  5
DE
330
D4
100
AcDbEntity
  8
AM_6
100
AcDbText
 10
5.995477272467835
 20
-2.46875
 30
0.0
 40
0.5
  1
1-1/8
100
AcDbAttributeDefinition
  3

  2
SS
 70
     8
280
     0
  0
ATTDEF
  5
DF
330
D4
100
AcDbEntity
  8
AM_6
100
AcDbText
 10
5.995477272467835
 20
-2.96875
 30
0.0
 40
0.5
  1
129908
100
AcDbAttributeDefinition
  3

  2
PN
 70
     8
280
     0
  0
ATTDEF
  5
E0
330
D4
100
AcDbEntity
  8
AM_6
100
AcDbText
 10
5.995477272467835
 20
-3.46875
 30
0.0
 40
0.5
  1
AN-GT-06-102
100
AcDbAttributeDefinition
  3

  2
DESCRIPTION
 70
     8
280
     0
  0
ATTDEF
  5
E1
330
D4
100
AcDbEntity
  8
AM_6
100
AcDbText
 10
5.995477272467835
 20
-3.96875
 30
0.0
 40
0.5
  1
1-39/64
100
AcDbAttributeDefinition
  3

  2
A
 70
     8
280
     0
  0
ATTDEF
  5
E2
330
D4
100
AcDbEntity
  8
AM_6
100
AcDbText
 10
5.995477272467835
 20
-4.46875
 30
0.0
 40
0.5
  1
0.7087
100
AcDbAttributeDefinition
  3

  2
C
 70
     8
280
     0
  0
ATTDEF
  5
E3
330
D4
100
AcDbEntity
  8
AM_6
100
AcDbText
 10
5.995477272467835
 20
-4.96875
 30
0.0
 40
0.5
  1
2.4409
100
AcDbAttributeDefinition
  3

  2
D
 70
     8
280
     0
  0
ATTDEF
  5
E4
330
D4
100
AcDbEntity
  8
AM_6
100
AcDbText
 10
5.995477272467835
 20
-5.46875
 30
0.0
 40
0.5
  1
0.190
100
AcDbAttributeDefinition
  3

  2
J
 70
     8
280
     0
  0
ATTDEF
  5
E5
330
D4
100
AcDbEntity
  8
AM_6
100
AcDbText
 10
5.995477272467835
 20
-5.96875
 30
0.0
 40
0.5
  1
2
100
AcDbAttributeDefinition
  3

  2
L
 70
     8
280
     0
  0
ATTDEF
  5
E6
330
D4
100
AcDbEntity
  8
AM_6
100
AcDbText
 10
5.995477272467835
 20
-6.46875
 30
0.0
 40
0.5
  1
10 - 32 x 1/4
100
AcDbAttributeDefinition
  3

  2
N
 70
     8
280
     0
  0
ATTDEF
  5
E7
330
D4
100
AcDbEntity
  8
AM_6
100
AcDbText
 10
5.995477272467835
 20
-6.96875
 30
0.0
 40
0.5
  1
17/32
100
AcDbAttributeDefinition
  3

  2
W
 70
     8
280
     0
  0
ATTDEF
  5
E8
330
D4
100
AcDbEntity
  8
AM_6
100
AcDbText
 10
5.995477272467835
 20
-7.46875
 30
0.0
 40
0.5
  1
1-1/32
100
AcDbAttributeDefinition
  3

  2
X
 70
     8
280
     0
  0
ATTDEF
  5
E9
330
D4
100
AcDbEntity
  8
AM_6
100
AcDbText
 10
5.995477272467835
 20
-7.96875
 30
0.0
 40
0.5
  1
1-5/64
100
AcDbAttributeDefinition
  3

  2
Y
 70
     8
280
     0
  0
ATTDEF
  5
EA
330
D4
100
AcDbEntity
  8
AM_6
100
AcDbText
 10
5.995477272467835
 20
-8.46875
 30
0.0
 40
0.5
  1
baldor
100
AcDbAttributeDefinition
  3

  2
COMPANY
 70
     8
280
     0
  0
LINE
  5
EB
330
D4
100
AcDbEntity
  8
AM_9
100
AcDbLine
 10
-0.9774499999999999
 20
-0.9818147333418
 30
0.0
 11
-0.77255
 21
-0.9818147333418
 31
0.0
  0
LINE
  5
EC
330
D4
100
AcDbEntity
  8
AM_9
100
AcDbLine
 10
-0.77255
 20
-0.8369147333418001
 30
0.0
 11
-0.9774499999999999
 21
-0.8369147333418001
 31
0.0
  0
LINE
  5
ED
330
D4
100
AcDbEntity
  8
AM_9
100
AcDbLine
 10
-0.77255
 20
-0.9818147333418
 30
0.0
 11
-0.7499999999999999
 21
-1.0043647333418
 31
0.0
  0
LINE
  5
EE
330
D4
100
AcDbEntity
  8
AM_9
100
AcDbLine
 10
-0.7499999999999999
 20
-0.8143647333418002
 30
0.0
 11
-0.77255
 21
-0.8369147333418001
 31
0.0
  0
LINE
  5
EF
330
D4
100
AcDbEntity
  8
AM_9
100
AcDbLine
 10
-0.7499999999999999
 20
-0.8143647333418002
 30
0.0
 11
-0.7499999999999999
 21
-1.0043647333418
 31
0.0
  0
LINE
  5
F0
330
D4
100
AcDbEntity
  8
AM_9
100
AcDbLine
 10
-0.77255
 20
-0.8369147333418001
 30
0.0
 11
-0.77255
 21
-0.9818147333418
 31
0.0
  0
LINE
  5
F1
330
D4
100
AcDbEntity
  8
AM_9
100
AcDbLine
 10
0.9333331639996614
 20
-0.515625
 30
0.0
 11
0.9333331639996614
 21
-1.03125
 31
0.0
  0
LINE
  5
F2
330
D4
100
AcDbEntity
  8
AM_9
100
AcDbLine
 10
-0.9774499999999999
 20
-0.8369147333418001
 30
0.0
 11
-0.9998579351655761
 21
-0.8145067981762241
 31
0.0
  0
LINE
  5
F3
330
D4
100
AcDbEntity
  8
AM_9
100
AcDbLine
 10
-0.9992681838790302
 20
-1.00363291722083
 30
0.0
 11
-0.9774499999999999
 21
-0.9818147333418
 31
0.0
  0
LINE
  5
F4
330
D4
100
AcDbEntity
  8
AM_9
100
AcDbLine
 10
-0.9774499999999999
 20
-0.8369147333418001
 30
0.0
 11
-0.9774499999999999
 21
-0.9818147333418
 31
0.0
  0
LINE
  5
F5
330
D4
100
AcDbEntity
  8
AM_9
100
AcDbLine
 10
0.5625
 20
-1.078125
 30
0.0
 11
0.5625
 21
0.5312499999999998
 31
0.0
  0
LINE
  5
F6
330
D4
100
AcDbEntity
  8
AM_9
100
AcDbLine
 10
-0.5625
 20
0.5312499999999998
 30
0.0
 11
-0.5625
 21
-1.078125
 31
0.0
  0
LINE
  5
F7
330
D4
100
AcDbEntity
  8
AM_9
100
AcDbLine
 10
0.7460317460317463
 20
-0.7734374999999999
 30
0.0
 11
0.7460317460317463
 21
-0.3867187500000001
 31
0.0
  0
LINE
  5
F8
330
D4
100
AcDbEntity
  8
AM_9
100
AcDbLine
 10
-0.7460317460317463
 20
-0.3867187500000001
 30
0.0
 11
-0.7460317460317463
 21
-0.7734374999999999
 31
0.0
  0
LINE
  5
F9
330
D4
100
AcDbEntity
  8
AM_9
100
AcDbLine
 10
0.05
 20
0.53125
 30
0.0
 11
0.05
 21
-1.03125
 31
0.0
  0
LINE
  5
FA
330
D4
100
AcDbEntity
  8
AM_9
100
AcDbLine
 10
-0.05
 20
0.53125
 30
0.0
 11
-0.05
 21
-1.03125
 31
0.0
  0
LINE
  5
FB
330
D4
100
AcDbEntity
  8
AM_9
100
AcDbLine
 10
0.7460317460317459
 20
-0.3867187500000001
 30
0.0
 11
0.7780879211511239
 21
0.53125
 31
0.0
  0
LINE
  5
FC
330
D4
100
AcDbEntity
  8
AM_9
100
AcDbLine
 10
-0.7780879211511239
 20
0.53125
 30
0.0
 11
-0.7460317460317459
 21
-0.3867187500000001
 31
0.0
  0
LINE
  5
FD
330
D4
100
AcDbEntity
  8
AM_9
100
AcDbLine
 10
-0.7460317460317459
 20
-0.3867187500000001
 30
0.0
 11
0.7460317460317459
 21
-0.3867187500000001
 31
0.0
  0
LINE
  5
FE
330
D4
100
AcDbEntity
  8
AM_9
100
AcDbLine
 10
-0.7780879211511239
 20
0.53125
 30
0.0
 11
0.7780879211511239
 21
0.53125
 31
0.0
  0
LINE
  5
FF
330
D4
100
AcDbEntity
  8
AM_9
100
AcDbLine
 10
-0.5800110495934394
 20
-0.543973
 30
0.0
 11
-0.5800110495934394
 21
-0.6335884255727074
 31
0.0
  0
LINE
  5
100
330
D4
100
AcDbEntity
  8
AM_9
100
AcDbLine
 10
-1.0
 20
-0.5439730000000002
 30
0.0
 11
-1.0
 21
-0.6760564127940604
 31
0.0
  0
LINE
  5
101
330
D4
100
AcDbEntity
  8
AM_9
100
AcDbLine
 10
-0.5657707611085088
 20
-0.515625
 30
0.0
 11
-0.5800110495934394
 21
-0.543973
 31
0.0
  0
LINE
  5
102
330
D4
100
AcDbEntity
  8
AM_9
100
AcDbLine
 10
-0.971652
 20
-0.515625
 30
0.0
 11
-1.0
 21
-0.5439730000000002
 31
0.0
  0
LINE
  5
103
330
D4
100
AcDbEntity
  8
AM_9
100
AcDbLine
 10
-1.0
 20
-0.5439730000000002
 30
0.0
 11
-0.5800110495934394
 21
-0.543973
 31
0.0
  0
LINE
  5
104
330
D4
100
AcDbEntity
  8
AM_9
100
AcDbLine
 10
0.8174603174603172
 20
-0.64453125
 30
0.0
 11
0.8174603174603172
 21
-0.515625
 31
0.0
  0
LINE
  5
105
330
D4
100
AcDbEntity
  8
AM_9
100
AcDbLine
 10
-0.8174603174603172
 20
-0.515625
 30
0.0
 11
-0.8174603174603172
 21
-0.64453125
 31
0.0
  0
LINE
  5
106
330
D4
100
AcDbEntity
  8
AM_9
100
AcDbLine
 10
-0.3843941686403093
 20
-0.5156249999999999
 30
0.0
 11
-0.3843941686403093
 21
-1.03125
 31
0.0
  0
LINE
  5
107
330
D4
100
AcDbEntity
  8
AM_9
100
AcDbLine
 10
-0.5489389953593525
 20
-0.5156249999999999
 30
0.0
 11
-0.5489389953593525
 21
-0.6317484882926393
 31
0.0
  0
LINE
  5
108
330
D4
100
AcDbEntity
  8
AM_9
100
AcDbLine
 10
-0.8888888888888888
 20
-0.64453125
 30
0.0
 11
0.8888888888888888
 21
-0.64453125
 31
0.0
  0
LINE
  5
109
330
D4
100
AcDbEntity
  8
AM_9
100
AcDbLine
 10
-0.8888888888888888
 20
-0.7734374999999999
 30
0.0
 11
0.8888888888888888
 21
-0.7734374999999999
 31
0.0
  0
LINE
  5
10A
330
D4
100
AcDbEntity
  8
AM_9
100
AcDbLine
 10
0.8888888888888888
 20
-0.7734374999999999
 30
0.0
 11
0.8888888888888888
 21
-0.64453125
 31
0.0
  0
LINE
  5
10B
330
D4
100
AcDbEntity
  8
AM_9
100
AcDbLine
 10
-0.8888888888888888
 20
-0.64453125
 30
0.0
 11
-0.8888888888888888
 21
-0.7734374999999999
 31
0.0
  0
LINE
  5
10C
330
D4
100
AcDbEntity
  8
AM_9
100
AcDbLine
 10
0.9669966954979732
 20
-0.515625
 30
0.0
 11
0.9954772724678349
 21
-0.5439730000000002
 31
0.0
  0
LINE
  5
10D
330
D4
100
AcDbEntity
  8
AM_9
100
AcDbLine
 10
-0.971652
 20
-0.515625
 30
0.0
 11
0.9669966954979732
 21
-0.515625
 31
0.0
  0
LINE
  5
10E
330
D4
100
AcDbEntity
  8
AM_9
100
AcDbLine
 10
-0.4154662228743963
 20
-0.543973
 30
0.0
 11
-0.4012259343894655
 21
-0.515625
 31
0.0
  0
LINE
  5
10F
330
D4
100
AcDbEntity
  8
AM_9
100
AcDbLine
 10
0.9954772724678349
 20
-0.5439730000000002
 30
0.0
 11
0.9954772724678349
 21
-0.675327729927207
 31
0.0
  0
LINE
  5
110
330
D4
100
AcDbEntity
  8
AM_9
100
AcDbLine
 10
-0.4154662228743963
 20
-0.543973
 30
0.0
 11
0.9954772724678349
 21
-0.5439730000000002
 31
0.0
  0
LINE
  5
111
330
D4
100
AcDbEntity
  8
AM_9
100
AcDbLine
 10
-0.4154662228743963
 20
-0.6252193255634318
 30
0.0
 11
-0.4154662228743963
 21
-0.543973
 31
0.0
  0
LINE
  5
113
330
D4
100
AcDbEntity
  8
AM_5
100
AcDbLine
 10
-0.9985372666581999
 20
-1.0043647333418
 30
0.0
 11
-0.7499999999999999
 21
-1.0043647333418
 31
0.0
  0
LINE
  5
114
330
D4
100
AcDbEntity
  8
AM_5
100
AcDbLine
 10
-0.9244444444444444
 20
-0.8143647333417999
 30
0.0
 11
-0.7758729564444445
 21
-0.8143647333417999
 31
0.0
  0
LINE
  5
117
330
D4
100
AcDbEntity
  8
AM_7
100
AcDbLine
 10
-0.7374999999999999
 20
-0.9093647333418
 30
0.0
 11
-1.0125
 21
-0.9093647333418
 31
0.0
  0
LINE
  5
119
330
D4
100
AcDbEntity
  8
AM_4
100
AcDbLine
 10
0.05
 20
-1.078125
 30
0.0
 11
0.05
 21
-1.03125
 31
0.0
  0
LINE
  5
11A
330
D4
100
AcDbEntity
  8
AM_4
100
AcDbLine
 10
-0.05
 20
-1.078125
 30
0.0
 11
-0.05
 21
-1.03125
 31
0.0
  0
LINE
  5
11B
330
D4
100
AcDbEntity
  8
AM_4
100
AcDbLine
 10
0.7460317460317459
 20
-1.078125
 30
0.0
 11
0.7460317460317459
 21
-1.03125
 31
0.0
  0
LINE
  5
11C
330
D4
100
AcDbEntity
  8
AM_4
100
AcDbLine
 10
-0.7460317460317459
 20
-1.03125
 30
0.0
 11
-0.7460317460317459
 21
-1.078125
 31
0.0
  0
LINE
  5
11D
330
D4
100
AcDbEntity
  8
AM_4
100
AcDbLine
 10
-0.7460317460317459
 20
-1.078125
 30
0.0
 11
0.7460317460317459
 21
-1.078125
 31
0.0
  0
LINE
  5
11E
330
D4
100
AcDbEntity
  8
AM_4
100
AcDbLine
 10
-0.9992686333291
 20
-1.0036333666709
 30
0.0
 11
-0.971652
 21
-1.03125
 31
0.0
  0
LINE
  5
11F
330
D4
100
AcDbEntity
  8
AM_4
100
AcDbLine
 10
-0.5800110495934396
 20
-1.002902
 30
0.0
 11
-0.5657707611085089
 21
-1.03125
 31
0.0
  0
LINE
  5
120
330
D4
100
AcDbEntity
  8
AM_4
100
AcDbLine
 10
-0.9998740586901647
 20
-1.002902
 30
0.0
 11
-0.5800110495934396
 21
-1.002902
 31
0.0
  0
LINE
  5
121
330
D4
100
AcDbEntity
  8
AM_4
100
AcDbLine
 10
-0.5800110495934394
 20
-0.6335884255727074
 30
0.0
 11
-0.5800110495934396
 21
-1.002902
 31
0.0
  0
LINE
  5
122
330
D4
100
AcDbEntity
  8
AM_4
100
AcDbLine
 10
-1.0
 20
-0.6760564127940604
 30
0.0
 11
-1.0
 21
-0.8146264319223536
 31
0.0
  0
LWPOLYLINE
  5
123
330
D4
100
AcDbEntity
  8
AM_4
100
AcDbPolyline
 90
       21
 70
     0
 43
0.0
 10
-0.9999999999999967
 20
-0.8143647333418392
 10
-0.9999919540302019
 20
-0.8144575183599186
 10
-0.9998324452714662
 20
-0.8163157607860242
 10
-0.9994722729581027
 20
-0.8206526441436178
 10
-0.9989676059084103
 20
-0.8271078879455717
 10
-0.9983472187042113
 20
-0.8358061013925444
 10
-0.9976842878305199
 20
-0.8464019237273747
 10
-0.997034751708831
 20
-0.858880165034281
 10
-0.9964758542286121
 20
-0.8728687066060479
 10
-0.9960693475663225
 20
-0.888204127789149
 10
-0.995875596485803
 20
-0.9042093756815947
 10
-0.9959235940607528
 20
-0.9208061127958608
 10
-0.996211120766831
 20
-0.9368613820657307
 10
-0.9967221441495053
 20
-0.9525849180402686
 10
-0.9972277170583684
 20
-0.9638539200052462
 10
-0.9978010479740566
 20
-0.9743182947971836
 10
-0.9984040315848939
 20
-0.9837617991527677
 10
-0.9989819030510961
 20
-0.9918113265078925
 10
-0.9995068763495097
 20
-0.9985025230120376
 10
-0.9998677179544927
 20
-1.002827759814401
 10
-0.9998740586901643
 20
-1.002902
  0
LINE
  5
124
330
D4
100
AcDbEntity
  8
AM_4
100
AcDbLine
 10
-0.5489389953593525
 20
-0.6317484882926393
 30
0.0
 11
-0.5489389953593525
 21
-1.03125
 31
0.0
  0
LINE
  5
125
330
D4
100
AcDbEntity
  8
AM_4
100
AcDbLine
 10
0.9954772724678349
 20
-1.002902
 30
0.0
 11
0.9669966954979732
 21
-1.03125
 31
0.0
  0
LINE
  5
126
330
D4
100
AcDbEntity
  8
AM_4
100
AcDbLine
 10
-0.4012259343894653
 20
-1.03125
 30
0.0
 11
-0.4154662228743962
 21
-1.002902
 31
0.0
  0
LINE
  5
127
330
D4
100
AcDbEntity
  8
AM_4
100
AcDbLine
 10
-0.971652
 20
-1.03125
 30
0.0
 11
0.9669966954979732
 21
-1.03125
 31
0.0
  0
LINE
  5
128
330
D4
100
AcDbEntity
  8
AM_4
100
AcDbLine
 10
0.9954772724678349
 20
-0.675327729927207
 30
0.0
 11
0.9954772724678349
 21
-1.002902
 31
0.0
  0
LINE
  5
129
330
D4
100
AcDbEntity
  8
AM_4
100
AcDbLine
 10
-0.4154662228743962
 20
-1.002902
 30
0.0
 11
-0.4154662228743963
 21
-0.6252193255634318
 31
0.0
  0
LINE
  5
12A
330
D4
100
AcDbEntity
  8
AM_4
100
AcDbLine
 10
-0.4154662228743962
 20
-1.002902
 30
0.0
 11
0.9954772724678349
 21
-1.002902
 31
0.0
  0
ENDBLK
  5
D7
330
D4
100
AcDbEntity
  8
0
100
AcDbBlockEnd
  0
BLOCK
  5
12D
330
12B
100
AcDbEntity
  8
0
100
AcDbBlockBegin
  2
4_129419I_0_in_129841_4
 70
     2
 10
0.0
 20
0.0
 30
0.0
  3
4_129419I_0_in_129841_4
  1

  0
ATTDEF
  5
12F
330
12B
100
AcDbEntity
  8
AM_6
100
AcDbText
 10
8.125
 20
0.95390625
 30
0.0
 40
0.5
  1
GT-I
100
AcDbAttributeDefinition
  3

  2
NN
 70
     8
280
     0
  0
ATTDEF
  5
130
330
12B
100
AcDbEntity
  8
AM_6
100
AcDbText
 10
8.125
 20
0.45390625
 30
0.0
 40
0.5
  1
GT Normal and Medium Duty Pillow Blocks
100
AcDbAttributeDefinition
  3

  2
NT
 70
     8
280
     0
  0
ATTDEF
  5
131
330
12B
100
AcDbEntity
  8
AM_6
100
AcDbText
 10
8.125
 20
-0.04609375
 30
0.0
 40
0.5
  1
129419I
100
AcDbAttributeDefinition
  3

  2
NB
 70
     8
280
     0
  0
ATTDEF
  5
132
330
12B
100
AcDbEntity
  8
AM_6
100
AcDbText
 10
8.125
 20
-0.54609375
 30
0.0
 40
0.5
  1
$PN.$LUBE.I
100
AcDbAttributeDefinition
  3

  2
NBSYN
 70
     8
280
     0
  0
ATTDEF
  5
133
330
12B
100
AcDbEntity
  8
AM_6
100
AcDbText
 10
8.125
 20
-1.04609375
 30
0.0
 40
0.5
  1
129419
100
AcDbAttributeDefinition
  3

  2
LINA
 70
     8
280
     0
  0
ATTDEF
  5
134
330
12B
100
AcDbEntity
  8
AM_6
100
AcDbText
 10
8.125
 20
-1.54609375
 30
0.0
 40
0.5
  1
206
100
AcDbAttributeDefinition
  3

  2
SERIES
 70
     8
280
     0
  0
ATTDEF
  5
135
330
12B
100
AcDbEntity
  8
AM_6
100
AcDbText
 10
8.125
 20
-2.04609375
 30
0.0
 40
0.5
  1
129419
100
AcDbAttributeDefinition
  3

  2
PN
 70
     8
280
     0
  0
ATTDEF
  5
136
330
12B
100
AcDbEntity
  8
AM_6
100
AcDbText
 10
8.125
 20
-2.54609375
 30
0.0
 40
0.5
  1
P2B-GTU-06
100
AcDbAttributeDefinition
  3

  2
DESCRIPTION
 70
     8
280
     0
  0
ATTDEF
  5
137
330
12B
100
AcDbEntity
  8
AM_6
100
AcDbText
 10
8.125
 20
-3.04609375
 30
0.0
 40
0.5
  1
1-39/64
100
AcDbAttributeDefinition
  3

  2
A
 70
     8
280
     0
  0
ATTDEF
  5
138
330
12B
100
AcDbEntity
  8
AM_6
100
AcDbText
 10
8.125
 20
-3.54609375
 30
0.0
 40
0.5
  1
6-1/4
100
AcDbAttributeDefinition
  3

  2
B
 70
     8
280
     0
  0
ATTDEF
  5
139
330
12B
100
AcDbEntity
  8
AM_6
100
AcDbText
 10
8.125
 20
-4.04609375
 30
0.0
 40
0.5
  1
1-47/64
100
AcDbAttributeDefinition
  3

  2
C
 70
     8
280
     0
  0
ATTDEF
  5
13A
330
12B
100
AcDbEntity
  8
AM_6
100
AcDbText
 10
8.125
 20
-4.54609375
 30
0.0
 40
0.5
  1
4-1/4
100
AcDbAttributeDefinition
  3

  2
DMIN
 70
     8
280
     0
  0
ATTDEF
  5
13B
330
12B
100
AcDbEntity
  8
AM_6
100
AcDbText
 10
8.125
 20
-5.04609375
 30
0.0
 40
0.5
  1
5
100
AcDbAttributeDefinition
  3

  2
DMAX
 70
     8
280
     0
  0
ATTDEF
  5
13C
330
12B
100
AcDbEntity
  8
AM_6
100
AcDbText
 10
8.125
 20
-5.54609375
 30
0.0
 40
0.5
  1
1/2
100
AcDbAttributeDefinition
  3

  2
F
 70
     8
280
     0
  0
ATTDEF
  5
13D
330
12B
100
AcDbEntity
  8
AM_6
100
AcDbText
 10
8.125
 20
-6.04609375
 30
0.0
 40
0.5
  1
15/16
100
AcDbAttributeDefinition
  3

  2
G
 70
     8
280
     0
  0
ATTDEF
  5
13E
330
12B
100
AcDbEntity
  8
AM_6
100
AcDbText
 10
8.125
 20
-6.54609375
 30
0.0
 40
0.5
  1
45/64
100
AcDbAttributeDefinition
  3

  2
H
 70
     8
280
     0
  0
ATTDEF
  5
13F
330
12B
100
AcDbEntity
  8
AM_6
100
AcDbText
 10
8.125
 20
-7.04609375
 30
0.0
 40
0.5
  1
3-1/4
100
AcDbAttributeDefinition
  3

  2
J
 70
     8
280
     0
  0
ATTDEF
  5
140
330
12B
100
AcDbEntity
  8
AM_6
100
AcDbText
 10
8.125
 20
-7.54609375
 30
0.0
 40
0.5
  1
2
100
AcDbAttributeDefinition
  3

  2
L
 70
     8
280
     0
  0
ATTDEF
  5
141
330
12B
100
AcDbEntity
  8
AM_6
100
AcDbText
 10
8.125
 20
-8.04609375
 30
0.0
 40
0.5
  1
1-11/16
100
AcDbAttributeDefinition
  3

  2
M
 70
     8
280
     0
  0
ATTDEF
  5
142
330
12B
100
AcDbEntity
  8
AM_6
100
AcDbText
 10
8.125
 20
-8.54609375
 30
0.0
 40
0.5
  1
17/32
100
AcDbAttributeDefinition
  3

  2
R
 70
     8
280
     0
  0
ATTDEF
  5
143
330
12B
100
AcDbEntity
  8
AM_6
100
AcDbText
 10
8.125
 20
-9.04609375
 30
0.0
 40
0.5
  1
1-5/64
100
AcDbAttributeDefinition
  3

  2
S
 70
     8
280
     0
  0
ATTDEF
  5
144
330
12B
100
AcDbEntity
  8
AM_6
100
AcDbText
 10
8.125
 20
-9.54609375
 30
0.0
 40
0.5
  1
2-7/8
100
AcDbAttributeDefinition
  3

  2
U
 70
     8
280
     0
  0
ATTDEF
  5
145
330
12B
100
AcDbEntity
  8
AM_6
100
AcDbText
 10
8.125
 20
-10.04609375
 30
0.0
 40
0.5
  1
5-3/4
100
AcDbAttributeDefinition
  3

  2
V
 70
     8
280
     0
  0
ATTDEF
  5
146
330
12B
100
AcDbEntity
  8
AM_6
100
AcDbText
 10
8.125
 20
-10.54609375
 30
0.0
 40
0.5
  1
9/16
100
AcDbAttributeDefinition
  3

  2
W
 70
     8
280
     0
  0
ATTDEF
  5
147
330
12B
100
AcDbEntity
  8
AM_6
100
AcDbText
 10
8.125
 20
-11.04609375
 30
0.0
 40
0.5
  1
3/16
100
AcDbAttributeDefinition
  3

  2
X
 70
     8
280
     0
  0
ATTDEF
  5
148
330
12B
100
AcDbEntity
  8
AM_6
100
AcDbText
 10
8.125
 20
-11.54609375
 30
0.0
 40
0.5
  1
1-1/32
100
AcDbAttributeDefinition
  3

  2
Z
 70
     8
280
     0
  0
ATTDEF
  5
149
330
12B
100
AcDbEntity
  8
AM_6
100
AcDbText
 10
8.125
 20
-12.04609375
 30
0.0
 40
0.5
  1
baldor
100
AcDbAttributeDefinition
  3

  2
COMPANY
 70
     8
280
     0
  0
LINE
  5
14A
330
12B
100
AcDbEntity
  8
AM_9
100
AcDbLine
 10
-1.1971949
 20
-0.7400000578125003
 30
0.0
 11
-1.1971949
 21
0.7400000578124998
 31
0.0
  0
LINE
  5
14B
330
12B
100
AcDbEntity
  8
AM_9
100
AcDbLine
 10
-1.25625
 20
-0.8671875000000001
 30
0.0
 11
-1.25625
 21
0.8671874999999999
 31
0.0
  0
LINE
  5
14C
330
12B
100
AcDbEntity
  8
AM_9
100
AcDbLine
 10
1.25625
 20
-0.8671875000000001
 30
0.0
 11
1.25625
 21
0.8671874999999999
 31
0.0
  0
LINE
  5
14D
330
12B
100
AcDbEntity
  8
AM_9
100
AcDbLine
 10
1.1971949
 20
-0.7400000578125
 30
0.0
 11
1.1971949
 21
0.7400000578125
 31
0.0
  0
LWPOLYLINE
  5
14E
330
12B
100
AcDbEntity
  8
AM_9
100
AcDbPolyline
 90
        5
 70
     0
 43
0.0
 10
1.234745298662138
 20
-0.0909214090671168
 10
1.231381470005759
 20
-0.0460980447457687
 10
1.230129862157117
 20
-0.0008744807129145
 10
1.231324765342258
 20
0.0450211226067941
 10
1.234745298662138
 20
0.0909214090671169
  0
LINE
  5
14F
330
12B
100
AcDbEntity
  8
AM_9
100
AcDbLine
 10
1.234745298662138
 20
0.0909214090671169
 30
0.0
 11
1.322949802161492
 21
0.0909214090671169
 31
0.0
  0
LINE
  5
150
330
12B
100
AcDbEntity
  8
AM_9
100
AcDbLine
 10
1.234745298662138
 20
-0.0909214090671168
 30
0.0
 11
1.322949802161492
 21
-0.0909214090671168
 31
0.0
  0
LINE
  5
151
330
12B
100
AcDbEntity
  8
AM_9
100
AcDbLine
 10
1.118773777946977
 20
0.110236
 30
0.0
 11
1.104836689195316
 21
0.110236
 31
0.0
  0
LINE
  5
152
330
12B
100
AcDbEntity
  8
AM_9
100
AcDbLine
 10
1.104851286378769
 20
-0.1102359999999998
 30
0.0
 11
1.118773777946977
 21
-0.1102359999999998
 31
0.0
  0
LWPOLYLINE
  5
153
330
12B
100
AcDbEntity
  8
AM_9
100
AcDbPolyline
 90
       20
 70
     0
 43
0.0
 10
1.104861728447098
 20
0.110235999505545
 10
1.095885983052
 20
0.109509841229863
 10
1.082865948643834
 20
0.1058367806991428
 10
1.070330360472136
 20
0.0991961759084552
 10
1.058656969532992
 20
0.0897272929545393
 10
1.048206278411069
 20
0.077740151738298
 10
1.039312049489749
 20
0.0635065609165157
 10
1.032264753534612
 20
0.047480159023315
 10
1.027327399687882
 20
0.0300906962447464
 10
1.024636057684436
 20
0.0118489400610678
 10
1.02431559423556
 20
-0.0066934129590126
 10
1.026333603692261
 20
-0.025046771365122
 10
1.030649829127793
 20
-0.0426657287747154
 10
1.037086639662032
 20
-0.0590851739512347
 10
1.045474905971316
 20
-0.073846460792695
 10
1.055505403303498
 20
-0.0865306207768635
 10
1.066898635629375
 20
-0.0967642032856323
 10
1.07926449778047
 20
-0.1042678379267713
 10
1.092220935870627
 20
-0.1087839719715063
 10
1.104857740180343
 20
-0.110235999895469
  0
LWPOLYLINE
  5
154
330
12B
100
AcDbEntity
  8
AM_9
100
AcDbPolyline
 90
       11
 70
     0
 43
0.0
 10
1.104857740180343
 20
-0.110235999895469
 10
1.105388072549793
 20
-0.1102334145878951
 10
1.118354850302906
 20
-0.1085376486400854
 10
1.130795755462472
 20
-0.1037954576642142
 10
1.142365670856826
 20
-0.0961010578675343
 10
1.152783650063559
 20
-0.0857123663365087
 10
1.161791758440283
 20
-0.0728571179938505
 10
1.169172097190119
 20
-0.0579492041960249
 10
1.174734125742601
 20
-0.0413659885527825
 10
1.17836727363853
 20
-0.0236115336167612
 10
1.180049860382704
 20
0.0000000000000001
  0
LWPOLYLINE
  5
155
330
12B
100
AcDbEntity
  8
AM_9
100
AcDbPolyline
 90
        5
 70
     0
 43
0.0
 10
1.12338976920749
 20
-0.1818428181342336
 10
1.147474533336655
 20
-0.1594311359735595
 10
1.173916589545657
 20
-0.1368193539571326
 10
1.203216695123415
 20
-0.1138715522972782
 10
1.234745298662138
 20
-0.0909214090671168
  0
LWPOLYLINE
  5
156
330
12B
100
AcDbEntity
  8
AM_9
100
AcDbPolyline
 90
        5
 70
     0
 43
0.0
 10
1.234745298662138
 20
0.0909214090671169
 10
1.203932877220215
 20
0.1133330912277909
 10
1.17498760531393
 20
0.1359448732442181
 10
1.148077306106452
 20
0.1588926749040724
 10
1.12338976920749
 20
0.1818428181342338
  0
LINE
  5
157
330
12B
100
AcDbEntity
  8
AM_9
100
AcDbLine
 10
1.22045
 20
-0.7400000578124999
 30
0.0
 11
1.22045
 21
0.7400000578124999
 31
0.0
  0
LINE
  5
158
330
12B
100
AcDbEntity
  8
AM_9
100
AcDbLine
 10
-1.22045
 20
0.7400000578124999
 30
0.0
 11
-1.22045
 21
-0.7400000578125002
 31
0.0
  0
LINE
  5
159
330
12B
100
AcDbEntity
  8
AM_9
100
AcDbLine
 10
0.9954772724678349
 20
-0.7400000578125
 30
0.0
 11
-1.0
 21
-0.7400000578125002
 31
0.0
  0
ELLIPSE
  5
15A
330
12B
100
AcDbEntity
  8
AM_9
100
AcDbEllipse
 10
1.118773777946976
 20
0.0000000000000001
 30
0.0
 11
-2.892860668945852E-17
 21
-0.1574799999999986
 31
0.0
210
0.0
220
0.0
230
1.0
 40
0.7071067811865491
 41
0.0
 42
6.283185307179586
  0
ELLIPSE
  5
15B
330
12B
100
AcDbEntity
  8
AM_9
100
AcDbEllipse
 10
1.216210263967358
 20
0.0000000000000007
 30
0.0
 11
6.750008227540313E-18
 21
0.1102359999999989
 31
0.0
210
0.0
220
0.0
230
1.0
 40
0.7071067811865516
 41
3.141592653589793
 42
6.283185307179586
  0
ELLIPSE
  5
15C
330
12B
100
AcDbEntity
  8
AM_9
100
AcDbEllipse
 10
1.230129660955048
 20
0.000000000000006
 30
0.0
 11
6.750008227538766E-18
 21
0.1102359999999736
 31
0.0
210
0.0
220
0.0
230
1.0
 40
0.7071067811864116
 41
4.71238898038469
 42
5.033924910050639
  0
ELLIPSE
  5
15D
330
12B
100
AcDbEntity
  8
AM_9
100
AcDbEllipse
 10
1.230129660955018
 20
-0.0000000000000018
 30
0.0
 11
6.750008227540482E-18
 21
0.1102360000000016
 31
0.0
210
0.0
220
0.0
230
1.0
 40
0.7071067811865218
 41
5.242968300280189
 42
5.688265813986926
  0
LINE
  5
15E
330
12B
100
AcDbEntity
  8
AM_9
100
AcDbLine
 10
1.322949802161492
 20
-0.0909214090671168
 30
0.0
 11
1.307409746624804
 21
-0.1055810806952321
 31
0.0
  0
LWPOLYLINE
  5
15F
330
12B
100
AcDbEntity
  8
AM_9
100
AcDbPolyline
 90
        5
 70
     0
 43
0.0
 10
1.322949802161492
 20
0.0909214090671169
 10
1.326313630817872
 20
0.0460980447457688
 10
1.327565238666513
 20
0.0008744807129147
 10
1.326370335481373
 20
-0.0450211226067939
 10
1.322949802161492
 20
-0.0909214090671168
  0
LINE
  5
160
330
12B
100
AcDbEntity
  8
AM_9
100
AcDbLine
 10
1.307504963378431
 20
0.1054934469255283
 30
0.0
 11
1.322949802161492
 21
0.0909214090671169
 31
0.0
  0
ELLIPSE
  5
161
330
12B
100
AcDbEntity
  8
AM_9
100
AcDbEllipse
 10
1.216210263967356
 20
0.0000000000000001
 30
0.0
 11
9.642868896486252E-18
 21
0.1574799999999999
 31
0.0
210
0.0
220
0.0
230
1.0
 40
0.7071067811865573
 41
3.987262705848579
 42
5.434500691846821
  0
ELLIPSE
  5
162
330
12B
100
AcDbEntity
  8
AM_9
100
AcDbEllipse
 10
1.23012966095502
 20
-0.0000000000000081
 30
0.0
 11
6.750008227539653E-18
 21
0.1102359999999881
 31
0.0
210
0.0
220
0.0
230
1.0
 40
0.7071067811865482
 41
3.737676472534799
 42
4.102524391137433
  0
LWPOLYLINE
  5
163
330
12B
100
AcDbEntity
  8
AM_9
100
AcDbPolyline
 90
        3
 70
     0
 43
0.0
 10
1.25545512130243
 20
-0.0712616804260668
 10
1.253973995263621
 20
-0.0690988382098644
 10
1.252353829822118
 20
-0.066536829990597
  0
LWPOLYLINE
  5
164
330
12B
100
AcDbEntity
  8
AM_9
100
AcDbPolyline
 90
        3
 70
     0
 43
0.0
 10
1.261034331994251
 20
-0.0780586732003746
 10
1.257819782743501
 20
-0.074390656134522
 10
1.25545512130243
 20
-0.0712616804260668
  0
LWPOLYLINE
  5
165
330
12B
100
AcDbEntity
  8
AM_9
100
AcDbPolyline
 90
       23
 70
     0
 43
0.0
 10
1.308073072797458
 20
0.0000000000000001
 10
1.307983609440899
 20
-0.0052637405261766
 10
1.307234328856345
 20
-0.0160675309202012
 10
1.305748759398487
 20
-0.0265822949038174
 10
1.303583048443428
 20
-0.0366062068784028
 10
1.300821275050626
 20
-0.045957756190174
 10
1.297574158268141
 20
-0.0544760914125884
 10
1.293976502882487
 20
-0.0620279001335701
 10
1.2901832775611
 20
-0.0685143321832428
 10
1.286364110823135
 20
-0.0738774443203576
 10
1.282704697600985
 20
-0.078096671531591
 10
1.279383600090031
 20
-0.0812133136359977
 10
1.276563473491625
 20
-0.0833243496706982
 10
1.274377194404859
 20
-0.08457995667931
 10
1.272906242026415
 20
-0.0851800234752562
 10
1.272133223323511
 20
-0.0853663746438099
 10
1.271771876892769
 20
-0.0853805316344901
 10
1.271069452649256
 20
-0.0852401287610088
 10
1.269702484009554
 20
-0.0847231268723041
 10
1.267634118925428
 20
-0.0835948831432064
 10
1.264977766505872
 20
-0.0816934286036247
 10
1.261543407572895
 20
-0.0785808551768728
 10
1.261034331994251
 20
-0.0780586732003746
  0
LWPOLYLINE
  5
166
330
12B
100
AcDbEntity
  8
AM_9
100
AcDbPolyline
 90
       21
 70
     0
 43
0.0
 10
1.263107570202227
 20
0.0800871524749771
 10
1.264105889864733
 20
0.0809711799084687
 10
1.266978079001726
 20
0.0831689901447435
 10
1.269226889338145
 20
0.0844954583796706
 10
1.270764800887408
 20
0.085146118737007
 10
1.271596485414724
 20
0.085359633098353
 10
1.27196589189263
 20
0.0853830011669202
 10
1.27251759856452
 20
0.0852902049437335
 10
1.273733034423879
 20
0.0848724230722314
 10
1.275666485062694
 20
0.0838840083804336
 10
1.278212736505171
 20
0.0821516041854859
 10
1.281577285205242
 20
0.0792294840979472
 10
1.28526126439226
 20
0.0752385116666978
 10
1.289096719287639
 20
0.0701485664252628
 10
1.292923491176248
 20
0.063961113456587
 10
1.296585021724888
 20
0.056716686243157
 10
1.299929547708091
 20
0.0485051475316609
 10
1.302826873228016
 20
0.039438766829129
 10
1.305165830818652
 20
0.0296562575872911
 10
1.306856486551797
 20
0.0193208707679364
 10
1.307204092146115
 20
0.016352541706955
  0
LINE
  5
167
330
12B
100
AcDbEntity
  8
AM_9
100
AcDbLine
 10
1.254829087773331
 20
0.0703674702140295
 30
0.0
 11
1.256886029126226
 21
0.0732007252430871
 31
0.0
  0
LWPOLYLINE
  5
168
330
12B
100
AcDbEntity
  8
AM_9
100
AcDbPolyline
 90
        3
 70
     0
 43
0.0
 10
1.252741093665414
 20
0.0671688481888923
 10
1.253240879925152
 20
0.0679660068289006
 10
1.254829087773331
 20
0.0703674702140295
  0
ELLIPSE
  5
169
330
12B
100
AcDbEntity
  8
AM_9
100
AcDbEllipse
 10
1.307211858559308
 20
0.0000000000000001
 30
0.0
 11
6.258279876480433E-18
 21
0.1022054666020879
 31
0.0
210
0.0
220
0.0
230
1.0
 40
0.7071067811865487
 41
2.279421096990458
 42
7.03463113330203
  0
ELLIPSE
  5
16A
330
12B
100
AcDbEntity
  8
AM_9
100
AcDbEllipse
 10
1.30721185855931
 20
-0.0000000000000036
 30
0.0
 11
6.258279876480735E-18
 21
0.1022054666020928
 31
0.0
210
0.0
220
0.0
230
1.0
 40
0.7071067811865471
 41
0.7716385141302871
 42
0.8520110755635097
  0
ELLIPSE
  5
16B
330
12B
100
AcDbEntity
  8
AM_9
100
AcDbEllipse
 10
1.322101022846159
 20
0.0000000000000003
 30
0.0
 11
6.365617546288425E-18
 21
0.1039584237793365
 31
0.0
210
0.0
220
0.0
230
1.0
 40
0.7071067811865603
 41
3.694304707716622
 42
5.730473253052755
  0
ELLIPSE
  5
16C
330
12B
100
AcDbEntity
  8
AM_9
100
AcDbEllipse
 10
1.366343937436157
 20
0.0000000000000008
 30
0.0
 11
4.354225479598905E-18
 21
0.07110989850511162
 31
0.0
210
0.0
220
0.0
230
1.0
 40
0.7071067811865395
 41
3.766626590235788
 42
5.658260265012752
  0
LWPOLYLINE
  5
16D
330
12B
100
AcDbEntity
  8
AM_9
100
AcDbPolyline
 90
       11
 70
     0
 43
0.0
 10
1.180049860382704
 20
0.0000000000000001
 10
1.179017358995474
 20
0.0184793896486755
 10
1.175969686693336
 20
0.0364372615351248
 10
1.170949744173923
 20
0.0533520702054231
 10
1.164096421954729
 20
0.0687658476510078
 10
1.155529276029597
 20
0.0822400530781947
 10
1.145482729936087
 20
0.0933986868599768
 10
1.134170768166877
 20
0.1018985553811912
 10
1.121908807577236
 20
0.107522599807639
 10
1.109032479893596
 20
0.1100656429583373
 10
1.104861728447098
 20
0.110235999505545
  0
ELLIPSE
  5
16E
330
12B
100
AcDbEntity
  8
AM_9
100
AcDbEllipse
 10
1.118773777946976
 20
0.0000000000000004
 30
0.0
 11
6.750008227540393E-18
 21
0.1102360000000002
 31
0.0
210
0.0
220
0.0
230
1.0
 40
0.7071067811865493
 41
0.0
 42
6.283185307179586
  0
LINE
  5
16F
330
12B
100
AcDbEntity
  8
AM_7
100
AcDbLine
 10
-2.9734375
 20
-0.5625000000000003
 30
0.0
 11
-2.7765625
 21
-0.5625000000000003
 31
0.0
  0
LINE
  5
170
330
12B
100
AcDbEntity
  8
AM_7
100
AcDbLine
 10
-2.875
 20
-0.6609375000000003
 30
0.0
 11
-2.875
 21
-0.4640625000000004
 31
0.0
  0
LINE
  5
171
330
12B
100
AcDbEntity
  8
AM_7
100
AcDbLine
 10
2.7765625
 20
-0.5624999999999998
 30
0.0
 11
2.9734375
 21
-0.5624999999999998
 31
0.0
  0
LINE
  5
172
330
12B
100
AcDbEntity
  8
AM_7
100
AcDbLine
 10
2.875
 20
-0.6609374999999997
 30
0.0
 11
2.875
 21
-0.4640624999999998
 31
0.0
  0
LINE
  5
173
330
12B
100
AcDbEntity
  8
AM_7
100
AcDbLine
 10
0.0
 20
0.95390625
 30
0.0
 11
0.0
 21
-1.15859375
 31
0.0
  0
LINE
  5
174
330
12B
100
AcDbEntity
  8
AM_7
100
AcDbLine
 10
1.8296875
 20
0.0
 30
0.0
 11
2.795312500000001
 21
0.0000000000000001
 31
0.0
  0
LINE
  5
175
330
12B
100
AcDbEntity
  8
AM_7
100
AcDbLine
 10
2.125
 20
-0.2953125000000003
 30
0.0
 11
2.125
 21
0.2953125000000003
 31
0.0
  0
LINE
  5
176
330
12B
100
AcDbEntity
  8
AM_7
100
AcDbLine
 10
-2.795312500000001
 20
0.0000000000000001
 30
0.0
 11
-1.8296875
 21
0.0000000000000001
 31
0.0
  0
LINE
  5
177
330
12B
100
AcDbEntity
  8
AM_7
100
AcDbLine
 10
-2.5
 20
-0.2953125000000004
 30
0.0
 11
-2.5
 21
0.2953125000000005
 31
0.0
  0
LINE
  5
178
330
12B
100
AcDbEntity
  8
AM_7
100
AcDbLine
 10
-2.125
 20
-0.2953125000000001
 30
0.0
 11
-2.125
 21
0.2953125000000004
 31
0.0
  0
LINE
  5
179
330
12B
100
AcDbEntity
  8
AM_7
100
AcDbLine
 10
2.5
 20
-0.2953125000000003
 30
0.0
 11
2.5
 21
0.2953125000000006
 31
0.0
  0
LINE
  5
17A
330
12B
100
AcDbEntity
  8
AM_4
100
AcDbLine
 10
2.9446875
 20
0.8671874999999999
 30
0.0
 11
1.250000000000002
 21
0.8671874999999999
 31
0.0
  0
LINE
  5
17B
330
12B
100
AcDbEntity
  8
AM_4
100
AcDbLine
 10
3.125
 20
-0.6868749999999996
 30
0.0
 11
3.125
 21
0.6868749999999996
 31
0.0
  0
LINE
  5
17C
330
12B
100
AcDbEntity
  8
AM_4
100
AcDbLine
 10
3.125
 20
0.6868749999999996
 30
0.0
 11
2.9446875
 21
0.8671874999999999
 31
0.0
  0
LINE
  5
17D
330
12B
100
AcDbEntity
  8
AM_4
100
AcDbLine
 10
-1.249999999999998
 20
0.8671874999999999
 30
0.0
 11
-2.944687500000001
 21
0.8671874999999999
 31
0.0
  0
LINE
  5
17E
330
12B
100
AcDbEntity
  8
AM_4
100
AcDbLine
 10
-3.125
 20
0.6868749999999999
 30
0.0
 11
-3.125
 21
-0.686875
 31
0.0
  0
LINE
  5
17F
330
12B
100
AcDbEntity
  8
AM_4
100
AcDbLine
 10
-2.944687500000001
 20
0.8671874999999999
 30
0.0
 11
-3.125
 21
0.6868749999999999
 31
0.0
  0
LINE
  5
180
330
12B
100
AcDbEntity
  8
AM_4
100
AcDbLine
 10
-3.125
 20
-0.686875
 30
0.0
 11
-2.9446875
 21
-0.8671875000000001
 31
0.0
  0
LWPOLYLINE
  5
181
330
12B
100
AcDbEntity
  8
AM_4
100
AcDbPolyline
 90
       10
 70
     0
 43
0.0
 10
-3.0659449
 20
0.2652006224803969
 10
-3.077767327747527
 20
0.2383483060302328
 10
-3.08833844713506
 20
0.2109096290421694
 10
-3.097690509779598
 20
0.1827321934400304
 10
-3.105667668622904
 20
0.1542455029649063
 10
-3.114046718917391
 20
0.1164973260928662
 10
-3.120060795447818
 20
0.0784194487905864
 10
-3.123732889125568
 20
0.0397779213015592
 10
-3.124999280574764
 20
0.0009483042905817
 10
-3.125
 20
0.0000000000000026
  0
LINE
  5
182
330
12B
100
AcDbEntity
  8
AM_4
100
AcDbLine
 10
-1.249999999999998
 20
-0.8671875000000001
 30
0.0
 11
-2.9446875
 21
-0.8671875000000001
 31
0.0
  0
ARC
  5
183
330
12B
100
AcDbEntity
  8
AM_4
100
AcDbCircle
 10
-2.0337402
 20
0.7037401999999994
 30
0.0
 40
0.0787401999999994
100
AcDbArc
 50
270.0
 51
0.0
  0
CIRCLE
  5
184
330
12B
100
AcDbEntity
  8
AM_4
100
AcDbCircle
 10
-2.875
 20
-0.5625000000000003
 30
0.0
 40
0.09375
  0
LINE
  5
185
330
12B
100
AcDbEntity
  8
AM_4
100
AcDbLine
 10
-2.125
 20
0.2812500000000002
 30
0.0
 11
-2.5
 21
0.2812500000000001
 31
0.0
  0
ARC
  5
186
330
12B
100
AcDbEntity
  8
AM_4
100
AcDbCircle
 10
-2.125
 20
0.0000000000000001
 30
0.0
 40
0.28125
100
AcDbArc
 50
270.0
 51
90.0
  0
LINE
  5
187
330
12B
100
AcDbEntity
  8
AM_4
100
AcDbLine
 10
-2.5
 20
-0.2812500000000001
 30
0.0
 11
-2.125
 21
-0.2812499999999999
 31
0.0
  0
ARC
  5
188
330
12B
100
AcDbEntity
  8
AM_4
100
AcDbCircle
 10
-2.5
 20
0.0000000000000001
 30
0.0
 40
0.2812500000000001
100
AcDbArc
 50
90.0
 51
270.0
  0
LINE
  5
189
330
12B
100
AcDbEntity
  8
AM_4
100
AcDbLine
 10
-2.5
 20
0.6250000000000001
 30
0.0
 11
-2.0337402
 21
0.625
 31
0.0
  0
ARC
  5
18A
330
12B
100
AcDbEntity
  8
AM_4
100
AcDbCircle
 10
-2.5
 20
0.0000000000000003
 30
0.0
 40
0.6249999999999998
100
AcDbArc
 50
90.0
 51
154.8923077609762
  0
LINE
  5
18B
330
12B
100
AcDbEntity
  8
AM_4
100
AcDbLine
 10
-3.0659449
 20
-0.7459301000000003
 30
0.0
 11
-3.065944899999999
 21
0.2652006224803974
 31
0.0
  0
LINE
  5
18C
330
12B
100
AcDbEntity
  8
AM_4
100
AcDbLine
 10
2.944687499999999
 20
-0.8671875000000001
 30
0.0
 11
3.125
 21
-0.6868749999999996
 31
0.0
  0
ARC
  5
18D
330
12B
100
AcDbEntity
  8
AM_4
100
AcDbCircle
 10
2.5
 20
0.0000000000000016
 30
0.0
 40
0.6249999999999983
100
AcDbArc
 50
25.10769223902393
 51
90.0
  0
CIRCLE
  5
18E
330
12B
100
AcDbEntity
  8
AM_4
100
AcDbCircle
 10
2.875
 20
-0.5624999999999998
 30
0.0
 40
0.09375
  0
LINE
  5
18F
330
12B
100
AcDbEntity
  8
AM_4
100
AcDbLine
 10
2.5
 20
0.2812500000000002
 30
0.0
 11
2.125
 21
0.2812500000000001
 31
0.0
  0
ARC
  5
190
330
12B
100
AcDbEntity
  8
AM_4
100
AcDbCircle
 10
2.5
 20
0.0000000000000001
 30
0.0
 40
0.28125
100
AcDbArc
 50
270.0
 51
90.0
  0
LINE
  5
191
330
12B
100
AcDbEntity
  8
AM_4
100
AcDbLine
 10
2.125
 20
-0.2812500000000001
 30
0.0
 11
2.5
 21
-0.2812499999999999
 31
0.0
  0
ARC
  5
192
330
12B
100
AcDbEntity
  8
AM_4
100
AcDbCircle
 10
2.125
 20
0.0
 30
0.0
 40
0.28125
100
AcDbArc
 50
90.0
 51
270.0
  0
ARC
  5
193
330
12B
100
AcDbEntity
  8
AM_4
100
AcDbCircle
 10
2.0337402
 20
0.7037402000000003
 30
0.0
 40
0.0787402000000004
100
AcDbArc
 50
180.0
 51
270.0
  0
LINE
  5
194
330
12B
100
AcDbEntity
  8
AM_4
100
AcDbLine
 10
2.944687499999999
 20
-0.8671875000000001
 30
0.0
 11
1.250000000000002
 21
-0.8671875000000001
 31
0.0
  0
LINE
  5
195
330
12B
100
AcDbEntity
  8
AM_4
100
AcDbLine
 10
2.0337402
 20
0.6249999999999999
 30
0.0
 11
2.5
 21
0.625
 31
0.0
  0
LWPOLYLINE
  5
196
330
12B
100
AcDbEntity
  8
AM_4
100
AcDbPolyline
 90
       10
 70
     0
 43
0.0
 10
3.125
 20
0.0000000000000001
 10
3.124999280574764
 20
0.0009483042905901
 10
3.123779972251696
 20
0.0390326301659718
 10
3.120213054115414
 20
0.077206006921944
 10
3.114193660309184
 20
0.115720126322113
 10
3.105667668622903
 20
0.1542455029649084
 10
3.097900613381956
 20
0.182043556649174
 10
3.088750718361448
 20
0.2097560288260605
 10
3.078081226754635
 20
0.2375859744889346
 10
3.065944899999999
 20
0.2652006224803993
  0
LINE
  5
197
330
12B
100
AcDbEntity
  8
AM_4
100
AcDbLine
 10
3.065944899999999
 20
-0.745930100000001
 30
0.0
 11
3.065944899999998
 21
0.2652006224803996
 31
0.0
  0
LWPOLYLINE
  5
198
330
12B
100
AcDbEntity
  8
AM_4
100
AcDbPolyline
 90
       31
 70
     0
 43
0.0
 10
1.955
 20
0.6014357821081151
 10
1.903228319019752
 20
0.5843306611116648
 10
1.853144454441165
 20
0.5627784309556547
 10
1.805129574715148
 20
0.5369431171251646
 10
1.759549102068592
 20
0.5070213419582338
 10
1.71674993142058
 20
0.4732408282311439
 10
1.677057790302588
 20
0.4358586660505904
 10
1.640774759875294
 20
0.3951593562427337
 10
1.608176975908544
 20
0.3514526451301268
 10
1.579512527221404
 20
0.3050711671751705
 10
1.55499956757645
 20
0.256367913431004
 10
1.534824655397911
 20
0.2057135450664491
 10
1.51914133394941
 20
0.1534935724107038
 10
1.508068962777018
 20
0.1001054209869601
 10
1.501691809311039
 20
0.0459554068641998
 10
1.500058407539978
 20
-0.0085443556534304
 10
1.503181188637589
 20
-0.062979090465315
 10
1.511036386354131
 20
-0.1169345163709441
 10
1.523564217891884
 20
-0.1699999999999988
 10
1.540669338888335
 20
-0.221771680980247
 10
1.562221569044345
 20
-0.2718555455588333
 10
1.588056882874834
 20
-0.3198704252848504
 10
1.617978658041765
 20
-0.3654508979314063
 10
1.651759171768855
 20
-0.4082500685794189
 10
1.689141333949409
 20
-0.4479422096974109
 10
1.729840643757266
 20
-0.4842252401247045
 10
1.773547354869872
 20
-0.5168230240914549
 10
1.819928832824829
 20
-0.5454874727785953
 10
1.868632086568995
 20
-0.570000432423549
 10
1.91928645493355
 20
-0.5901753446020883
 10
1.955
 20
-0.601435782108115
  0
LINE
  5
199
330
12B
100
AcDbEntity
  8
AM_4
100
AcDbLine
 10
1.955
 20
0.6014357821081151
 30
0.0
 11
1.955
 21
0.8671874999999999
 31
0.0
  0
LINE
  5
19A
330
12B
100
AcDbEntity
  8
AM_4
100
AcDbLine
 10
1.955000000000001
 20
-0.8671875000000001
 30
0.0
 11
1.955
 21
-0.601435782108115
 31
0.0
  0
LWPOLYLINE
  5
19B
330
12B
100
AcDbEntity
  8
AM_4
100
AcDbPolyline
 90
       31
 70
     0
 43
0.0
 10
-1.955
 20
-0.6014357821081154
 10
-1.903228319019752
 20
-0.584330661111665
 10
-1.853144454441165
 20
-0.5627784309556549
 10
-1.805129574715148
 20
-0.5369431171251648
 10
-1.759549102068592
 20
-0.5070213419582339
 10
-1.71674993142058
 20
-0.4732408282311441
 10
-1.677057790302588
 20
-0.4358586660505905
 10
-1.640774759875294
 20
-0.3951593562427338
 10
-1.608176975908544
 20
-0.3514526451301269
 10
-1.579512527221404
 20
-0.3050711671751706
 10
-1.55499956757645
 20
-0.256367913431004
 10
-1.534824655397911
 20
-0.2057135450664491
 10
-1.51914133394941
 20
-0.1534935724107038
 10
-1.508068962777018
 20
-0.1001054209869601
 10
-1.501691809311039
 20
-0.0459554068641997
 10
-1.500058407539978
 20
0.0085443556534305
 10
-1.503181188637589
 20
0.0629790904653151
 10
-1.511036386354131
 20
0.1169345163709441
 10
-1.523564217891884
 20
0.1699999999999988
 10
-1.540669338888335
 20
0.221771680980247
 10
-1.562221569044345
 20
0.2718555455588333
 10
-1.588056882874835
 20
0.3198704252848504
 10
-1.617978658041765
 20
0.3654508979314064
 10
-1.651759171768855
 20
0.408250068579419
 10
-1.689141333949409
 20
0.447942209697411
 10
-1.729840643757266
 20
0.4842252401247046
 10
-1.773547354869872
 20
0.516823024091455
 10
-1.819928832824829
 20
0.5454874727785953
 10
-1.868632086568995
 20
0.570000432423549
 10
-1.91928645493355
 20
0.5901753446020883
 10
-1.955
 20
0.601435782108115
  0
LINE
  5
19C
330
12B
100
AcDbEntity
  8
AM_4
100
AcDbLine
 10
-1.954999999999998
 20
-0.8671875000000001
 30
0.0
 11
-1.955
 21
-0.6014357821081153
 31
0.0
  0
LINE
  5
19D
330
12B
100
AcDbEntity
  8
AM_4
100
AcDbLine
 10
-1.955
 20
0.6014357821081149
 30
0.0
 11
-1.955
 21
0.8671874999999999
 31
0.0
  0
LINE
  5
19E
330
12B
100
AcDbEntity
  8
AM_4
100
AcDbLine
 10
-1.0
 20
-0.7400000578125002
 30
0.0
 11
-1.25
 21
-0.7400000578125002
 31
0.0
  0
LINE
  5
19F
330
12B
100
AcDbEntity
  8
AM_4
100
AcDbLine
 10
1.250000000000001
 20
-0.7400000578124999
 30
0.0
 11
0.9954772724678349
 21
-0.7400000578125
 31
0.0
  0
LINE
  5
1A0
330
12B
100
AcDbEntity
  8
AM_4
100
AcDbLine
 10
1.230129660955015
 20
0.1102359999999997
 30
0.0
 11
1.216210263967358
 21
0.1102359999999997
 31
0.0
  0
LINE
  5
1A1
330
12B
100
AcDbEntity
  8
AM_4
100
AcDbLine
 10
1.216210263967358
 20
-0.1102359999999995
 30
0.0
 11
1.230129660955015
 21
-0.1102359999999995
 31
0.0
  0
ELLIPSE
  5
1A2
330
12B
100
AcDbEntity
  8
AM_4
100
AcDbEllipse
 10
1.216210263967358
 20
0.0000000000000001
 30
0.0
 11
6.750008227540352E-18
 21
0.1102359999999995
 31
0.0
210
0.0
220
0.0
230
1.0
 40
0.7071067811865475
 41
0.0
 42
3.141592653589793
  0
ELLIPSE
  5
1A3
330
12B
100
AcDbEntity
  8
AM_4
100
AcDbEllipse
 10
1.230129660955015
 20
0.0000000000000001
 30
0.0
 11
6.750008227540352E-18
 21
0.1102359999999995
 31
0.0
210
0.0
220
0.0
230
1.0
 40
0.7071067811865495
 41
5.688265813986899
 42
10.0208617797144
  0
LWPOLYLINE
  5
1A4
330
12B
100
AcDbEntity
  8
AM_4
100
AcDbPolyline
 90
        5
 70
     0
 43
0.0
 10
1.012034239752842
 20
-0.0909214090671167
 10
1.036119003882006
 20
-0.1133330912277907
 10
1.062561060091008
 20
-0.135944873244218
 10
1.091861165668767
 20
-0.1588926749040721
 10
1.12338976920749
 20
-0.1818428181342336
  0
LINE
  5
1A5
330
12B
100
AcDbEntity
  8
AM_4
100
AcDbLine
 10
1.12338976920749
 20
-0.1818428181342336
 30
0.0
 11
1.211594272706844
 21
-0.1818428181342336
 31
0.0
  0
LINE
  5
1A6
330
12B
100
AcDbEntity
  8
AM_4
100
AcDbLine
 10
1.12338976920749
 20
0.1818428181342338
 30
0.0
 11
1.211594272706844
 21
0.1818428181342338
 31
0.0
  0
LWPOLYLINE
  5
1A7
330
12B
100
AcDbEntity
  8
AM_4
100
AcDbPolyline
 90
        5
 70
     0
 43
0.0
 10
1.12338976920749
 20
0.1818428181342338
 10
1.092577347765567
 20
0.1594311359735599
 10
1.063632075859282
 20
0.1368193539571327
 10
1.036721776651804
 20
0.1138715522972784
 10
1.012034239752842
 20
0.0909214090671169
  0
LINE
  5
1A8
330
12B
100
AcDbEntity
  8
AM_4
100
AcDbLine
 10
1.012034239752842
 20
0.0909214090671169
 30
0.0
 11
1.100238743252195
 21
0.0909214090671169
 31
0.0
  0
LWPOLYLINE
  5
1A9
330
12B
100
AcDbEntity
  8
AM_4
100
AcDbPolyline
 90
        5
 70
     0
 43
0.0
 10
1.012034239752842
 20
0.0909214090671169
 10
1.008670411096462
 20
0.0460980447457688
 10
1.007418803247821
 20
0.0008744807129147
 10
1.008613706432961
 20
-0.0450211226067939
 10
1.012034239752842
 20
-0.0909214090671167
  0
LINE
  5
1AA
330
12B
100
AcDbEntity
  8
AM_4
100
AcDbLine
 10
1.012034239752842
 20
-0.0909214090671167
 30
0.0
 11
1.100238743252195
 21
-0.0909214090671168
 31
0.0
  0
LWPOLYLINE
  5
1AB
330
12B
100
AcDbEntity
  8
AM_4
100
AcDbPolyline
 90
        5
 70
     0
 43
0.0
 10
1.307409746624804
 20
-0.1055810806952321
 10
1.298865038032328
 20
-0.1133330912277907
 10
1.272422981823326
 20
-0.1359448732442179
 10
1.243122876245567
 20
-0.1588926749040721
 10
1.211594272706844
 20
-0.1818428181342336
  0
LWPOLYLINE
  5
1AC
330
12B
100
AcDbEntity
  8
AM_4
100
AcDbPolyline
 90
        5
 70
     0
 43
0.0
 10
1.211594272706844
 20
0.1818428181342338
 10
1.242406694148767
 20
0.1594311359735598
 10
1.271351966055053
 20
0.1368193539571326
 10
1.29826226526253
 20
0.1138715522972782
 10
1.307504963378431
 20
0.1054934469255283
  0
LWPOLYLINE
  5
1AD
330
12B
100
AcDbEntity
  8
AM_4
100
AcDbPolyline
 90
        5
 70
     0
 43
0.0
 10
1.100238743252195
 20
0.0909214090671169
 10
1.131051164694119
 20
0.1133330912277909
 10
1.159996436600404
 20
0.135944873244218
 10
1.186906735807882
 20
0.1588926749040724
 10
1.211594272706844
 20
0.1818428181342338
  0
LWPOLYLINE
  5
1AE
330
12B
100
AcDbEntity
  8
AM_4
100
AcDbPolyline
 90
        5
 70
     0
 43
0.0
 10
1.100238743252195
 20
-0.0909214090671168
 10
1.103602571908575
 20
-0.0460980447457687
 10
1.104854179757217
 20
-0.0008744807129145
 10
1.103659276572076
 20
0.0450211226067941
 10
1.100238743252195
 20
0.0909214090671169
  0
LWPOLYLINE
  5
1AF
330
12B
100
AcDbEntity
  8
AM_4
100
AcDbPolyline
 90
        5
 70
     0
 43
0.0
 10
1.211594272706844
 20
-0.1818428181342336
 10
1.18750950857768
 20
-0.1594311359735596
 10
1.161067452368677
 20
-0.1368193539571326
 10
1.131767346790919
 20
-0.1138715522972782
 10
1.100238743252195
 20
-0.0909214090671168
  0
ELLIPSE
  5
1B0
330
12B
100
AcDbEntity
  8
AM_4
100
AcDbEllipse
 10
1.216210263967358
 20
0.0
 30
0.0
 11
9.642868896486252E-18
 21
0.1574799999999999
 31
0.0
210
0.0
220
0.0
230
1.0
 40
0.7071067811865489
 41
5.434500691846823
 42
10.27044801302817
  0
ELLIPSE
  5
1B1
330
12B
100
AcDbEntity
  8
AM_4
100
AcDbEllipse
 10
1.307211858561635
 20
0.0000000000010777
 30
0.0
 11
6.258279876582751E-18
 21
0.1022054666037589
 31
0.0
210
0.0
220
0.0
230
1.0
 40
0.707106781197087
 41
-4.021418729948602
 42
-4.003764210194714
  0
LINE
  5
1B2
330
12B
100
AcDbEntity
  8
AM_4
100
AcDbLine
 10
1.249560105124554
 20
0.0616434303866057
 30
0.0
 11
1.248895248040902
 21
0.0603859078685716
 31
0.0
  0
LWPOLYLINE
  5
1B3
330
12B
100
AcDbEntity
  8
AM_4
100
AcDbPolyline
 90
       15
 70
     0
 43
0.0
 10
1.352567795688101
 20
0.0946955220765795
 10
1.350970104841904
 20
0.0957289522795818
 10
1.342025788859398
 20
0.1005123261075604
 10
1.332753378146353
 20
0.1038567621997884
 10
1.32331491718067
 20
0.1057442097559019
 10
1.313855152527452
 20
0.1061892997645113
 10
1.304497262255806
 20
0.1052246790051163
 10
1.295359183920178
 20
0.1028930456811153
 10
1.286535372579241
 20
0.0992388921073523
 10
1.278107968218904
 20
0.094301911745023
 10
1.270163158016168
 20
0.0881236811973285
 10
1.262796102362702
 20
0.0807592926685574
 10
1.256108809166981
 20
0.0722886366229592
 10
1.250201845809072
 20
0.0628212116372629
 10
1.249560105124554
 20
0.0616434303866057
  0
LWPOLYLINE
  5
1B4
330
12B
100
AcDbEntity
  8
AM_4
100
AcDbPolyline
 90
        3
 70
     0
 43
0.0
 10
1.362875076559061
 20
0.0865068759008929
 10
1.359419723771413
 20
0.0895677078510106
 10
1.353196263654733
 20
0.0942730158988465
  0
LWPOLYLINE
  5
1B5
330
12B
100
AcDbEntity
  8
AM_4
100
AcDbPolyline
 90
       15
 70
     0
 43
0.0
 10
1.25188322840049
 20
-0.0657531641815792
 10
1.25696308598809
 20
-0.0734860666703884
 10
1.263982853121836
 20
-0.0820696319196083
 10
1.271778546896016
 20
-0.0895145945001362
 10
1.280223684704169
 20
-0.0956862073748815
 10
1.289164788264265
 20
-0.1004806006709716
 10
1.298435287173486
 20
-0.1038363579038051
 10
1.307873042008774
 20
-0.1057351226728829
 10
1.317333144109267
 20
-0.106191327524464
 10
1.326692251151346
 20
-0.1052375330425676
 10
1.335832446754778
 20
-0.1029163645825746
 10
1.344659022768433
 20
-0.0992723523123267
 10
1.353089836775274
 20
-0.0943452097163024
 10
1.361038760252381
 20
-0.0881764575714022
 10
1.36183788258962
 20
-0.087462167747863
  0
ELLIPSE
  5
1B6
330
12B
100
AcDbEntity
  8
AM_4
100
AcDbEllipse
 10
1.307211858559309
 20
-0.0000000000000001
 30
0.0
 11
6.258279876480460E-18
 21
0.1022054666020883
 31
0.0
210
0.0
220
0.0
230
1.0
 40
0.7071067811865565
 41
0.935965264970271
 42
2.261766577236057
  0
ELLIPSE
  5
1B7
330
12B
100
AcDbEntity
  8
AM_4
100
AcDbEllipse
 10
1.307211858559389
 20
-0.0000000000000175
 30
0.0
 11
6.258279876482332E-18
 21
0.1022054666021189
 31
0.0
210
0.0
220
0.0
230
1.0
 40
0.7071067811870207
 41
0.8520110755637962
 42
0.9359652649704797
  0
LINE
  5
1B8
330
12B
100
AcDbEntity
  8
AM_4
100
AcDbLine
 10
1.392742009533568
 20
0.0605219071451576
 30
0.0
 11
1.360693427332055
 21
0.0884794128974547
 31
0.0
  0
LINE
  5
1B9
330
12B
100
AcDbEntity
  8
AM_4
100
AcDbLine
 10
1.360693427332055
 20
-0.0884794128974546
 30
0.0
 11
1.392742009533568
 21
-0.0605219071451574
 31
0.0
  0
ELLIPSE
  5
1BA
330
12B
100
AcDbEntity
  8
AM_4
100
AcDbEllipse
 10
1.32210102284616
 20
0.0000000000000001
 30
0.0
 11
6.365617546288455E-18
 21
0.103958423779337
 31
0.0
210
0.0
220
0.0
230
1.0
 40
0.7071067811865486
 41
5.730473253052756
 42
9.97749001489621
  0
ELLIPSE
  5
1BB
330
12B
100
AcDbEntity
  8
AM_4
100
AcDbEllipse
 10
1.366343937436155
 20
0.0000000000000001
 30
0.0
 11
4.354225479598972E-18
 21
0.07110989850511271
 31
0.0
210
0.0
220
0.0
230
1.0
 40
0.7071067811865475
 41
5.730473253052756
 42
9.97749001489621
  0
ELLIPSE
  5
1BC
330
12B
100
AcDbEntity
  8
AM_4
100
AcDbEllipse
 10
1.366343937436089
 20
0.0000000000000374
 30
0.0
 11
4.354225479596161E-18
 21
0.0711098985050668
 31
0.0
210
0.0
220
0.0
230
1.0
 40
0.7071067811872319
 41
-0.6249250421677601
 42
-0.5527120541277943
  0
ELLIPSE
  5
1BD
330
12B
100
AcDbEntity
  8
AM_4
100
AcDbEllipse
 10
1.369323630831587
 20
0.0000000000000001
 30
0.0
 11
-1.178200542891342E-17
 21
-0.06413825024007742
 31
0.0
210
0.0
220
0.0
230
1.0
 40
0.7071067811865481
 41
0.0
 42
6.283185307179586
  0
LWPOLYLINE
  5
1BE
330
12B
100
AcDbEntity
  8
AM_4
100
AcDbPolyline
 90
        9
 70
     0
 43
0.0
 10
1.416982469572587
 20
0.0000000000000001
 10
1.416833928830874
 20
0.0054077437163067
 10
1.415765773984634
 20
0.0153961249159453
 10
1.413680114609085
 20
0.0251032744493363
 10
1.410606610936248
 20
0.0343394570279672
 10
1.4065888628871
 20
0.0429260721684517
 10
1.401686036484718
 20
0.0506896596244459
 10
1.395980564491187
 20
0.0574582681829519
 10
1.395898242442977
 20
0.0575423654186663
  0
LWPOLYLINE
  5
1BF
330
12B
100
AcDbEntity
  8
AM_4
100
AcDbPolyline
 90
        9
 70
     0
 43
0.0
 10
1.398208267252528
 20
-0.0550466959071384
 10
1.398786041879259
 20
-0.0543759314184081
 10
1.404028542918064
 20
-0.0472600076385663
 10
1.408489157538244
 20
-0.0391981616977053
 10
1.412073881764369
 20
-0.0303578007868472
 10
1.414711904353833
 20
-0.0209229711728824
 10
1.416355565670764
 20
-0.0110835433581111
 10
1.41697021791713
 20
-0.0015541005933601
 10
1.416982469572587
 20
0.0000000000000001
  0
LINE
  5
1C0
330
12B
100
AcDbEntity
  8
AM_4
100
AcDbLine
 10
1.395933439649152
 20
-0.0575064511500113
 30
0.0
 11
1.397757939736747
 21
-0.0555560929558916
 31
0.0
  0
ELLIPSE
  5
1C1
330
12B
100
AcDbEntity
  8
AM_4
100
AcDbEllipse
 10
1.366343937436324
 20
-0.0000000000001785
 30
0.0
 11
4.354225479585845E-18
 21
0.07110989850489832
 31
0.0
210
0.0
220
0.0
230
1.0
 40
0.7071067811859002
 41
3.694304707715492
 42
3.766626590234992
  0
LINE
  5
1C2
330
12B
100
AcDbEntity
  8
AM_4
100
AcDbLine
 10
-0.246400920458
 20
0.0335047000000002
 30
0.0
 11
-0.2433398951829999
 21
0.0218508999999999
 31
0.0
  0
LINE
  5
1C3
330
12B
100
AcDbEntity
  8
AM_4
100
AcDbLine
 10
-0.243339895183
 20
-0.0218508779411999
 30
0.0
 11
-0.2464009204580001
 21
-0.0335047031319001
 31
0.0
  0
LINE
  5
1C4
330
12B
100
AcDbEntity
  8
AM_4
100
AcDbLine
 10
-0.243339895183
 20
0.0218509000000001
 30
0.0
 11
-0.243339895183
 21
-0.0218508779411999
 31
0.0
  0
LINE
  5
1C5
330
12B
100
AcDbEntity
  8
AM_4
100
AcDbLine
 10
-0.3290446658729999
 20
-0.050985460603
 30
0.0
 11
-0.3290446658729999
 21
0.0509854000000001
 31
0.0
  0
LINE
  5
1C6
330
12B
100
AcDbEntity
  8
AM_4
100
AcDbLine
 10
-0.273948573129
 20
-0.050985460603
 30
0.0
 11
-0.3290446658729999
 21
-0.050985460603
 31
0.0
  0
LINE
  5
1C7
330
12B
100
AcDbEntity
  8
AM_4
100
AcDbLine
 10
-0.2617052594310001
 20
-0.0480720732030001
 30
0.0
 11
-0.2739485731290002
 21
-0.050985460603
 31
0.0
  0
LINE
  5
1C8
330
12B
100
AcDbEntity
  8
AM_4
100
AcDbLine
 10
-0.2525225773069999
 20
-0.0422449047019999
 30
0.0
 11
-0.2617052594310001
 21
-0.0480720732030001
 31
0.0
  0
LINE
  5
1C9
330
12B
100
AcDbEntity
  8
AM_4
100
AcDbLine
 10
-0.2464009204580001
 20
-0.0335047031318998
 30
0.0
 11
-0.2525225773070002
 21
-0.0422449047020002
 31
0.0
  0
LINE
  5
1CA
330
12B
100
AcDbEntity
  8
AM_4
100
AcDbLine
 10
-0.2525225773070001
 20
0.0422449000000003
 30
0.0
 11
-0.2464009204579999
 21
0.0335047
 31
0.0
  0
LINE
  5
1CB
330
12B
100
AcDbEntity
  8
AM_4
100
AcDbLine
 10
-0.261705259431
 20
0.0480720000000001
 30
0.0
 11
-0.2525225773069998
 21
0.0422449
 31
0.0
  0
LINE
  5
1CC
330
12B
100
AcDbEntity
  8
AM_4
100
AcDbLine
 10
-0.273948573129
 20
0.0509853999999999
 30
0.0
 11
-0.2617052594309999
 21
0.0480719999999999
 31
0.0
  0
LINE
  5
1CD
330
12B
100
AcDbEntity
  8
AM_4
100
AcDbLine
 10
-0.3290446658729999
 20
0.0509854000000001
 30
0.0
 11
-0.273948573129
 21
0.0509854000000001
 31
0.0
  0
LINE
  5
1CE
330
12B
100
AcDbEntity
  8
AM_4
100
AcDbLine
 10
-0.1821221455900009
 20
0.0218508999999966
 30
0.0
 11
-0.1790615140160008
 21
0.0335046999999969
 31
0.0
  0
LINE
  5
1CF
330
12B
100
AcDbEntity
  8
AM_4
100
AcDbLine
 10
-0.18212214559
 20
-0.0218508779411999
 30
0.0
 11
-0.18212214559
 21
0.0218509000000001
 31
0.0
  0
LINE
  5
1D0
330
12B
100
AcDbEntity
  8
AM_4
100
AcDbLine
 10
-0.1790615140160002
 20
-0.0335047031318988
 30
0.0
 11
-0.1821221455900003
 21
-0.0218508779411988
 31
0.0
  0
LINE
  5
1D1
330
12B
100
AcDbEntity
  8
AM_4
100
AcDbLine
 10
-0.1729394634660004
 20
-0.0422449047019993
 30
0.0
 11
-0.1790615140160002
 21
-0.0335047031318995
 31
0.0
  0
LINE
  5
1D2
330
12B
100
AcDbEntity
  8
AM_4
100
AcDbLine
 10
-0.1637571750430003
 20
-0.0480720732029998
 30
0.0
 11
-0.1729394634660004
 21
-0.0422449047019998
 31
0.0
  0
LINE
  5
1D3
330
12B
100
AcDbEntity
  8
AM_4
100
AcDbLine
 10
-0.1515134676440002
 20
-0.0509854606029999
 30
0.0
 11
-0.1637571750430003
 21
-0.0480720732029999
 31
0.0
  0
LINE
  5
1D4
330
12B
100
AcDbEntity
  8
AM_4
100
AcDbLine
 10
-0.127026446547
 20
-0.050985460603
 30
0.0
 11
-0.151513467644
 21
-0.0509854606029999
 31
0.0
  0
LINE
  5
1D5
330
12B
100
AcDbEntity
  8
AM_4
100
AcDbLine
 10
-0.1147831328490001
 20
-0.0480720732030001
 30
0.0
 11
-0.1270264465470002
 21
-0.0509854606030001
 31
0.0
  0
LINE
  5
1D6
330
12B
100
AcDbEntity
  8
AM_4
100
AcDbLine
 10
-0.105600450725
 20
-0.0422449047019999
 30
0.0
 11
-0.1147831328490001
 21
-0.0480720732029999
 31
0.0
  0
LINE
  5
1D7
330
12B
100
AcDbEntity
  8
AM_4
100
AcDbLine
 10
-0.0994784001750001
 20
-0.0335047031318999
 30
0.0
 11
-0.105600450725
 21
-0.0422449047019998
 31
0.0
  0
LINE
  5
1D8
330
12B
100
AcDbEntity
  8
AM_4
100
AcDbLine
 10
-0.096417768601
 20
-0.0218508779411999
 30
0.0
 11
-0.0994784001750001
 21
-0.0335047031318999
 31
0.0
  0
LINE
  5
1D9
330
12B
100
AcDbEntity
  8
AM_4
100
AcDbLine
 10
-0.096417768601
 20
0.0218509000000001
 30
0.0
 11
-0.096417768601
 21
-0.0218508779411999
 31
0.0
  0
LINE
  5
1DA
330
12B
100
AcDbEntity
  8
AM_4
100
AcDbLine
 10
-0.0994784001749999
 20
0.0335046999999998
 30
0.0
 11
-0.0964177686009999
 21
0.0218508999999998
 31
0.0
  0
LINE
  5
1DB
330
12B
100
AcDbEntity
  8
AM_4
100
AcDbLine
 10
-0.1056004507249998
 20
0.0422448999999999
 30
0.0
 11
-0.0994784001749999
 21
0.0335047
 31
0.0
  0
LINE
  5
1DC
330
12B
100
AcDbEntity
  8
AM_4
100
AcDbLine
 10
-0.114783132849
 20
0.0480720000000001
 30
0.0
 11
-0.1056004507249999
 21
0.0422449
 31
0.0
  0
LINE
  5
1DD
330
12B
100
AcDbEntity
  8
AM_4
100
AcDbLine
 10
-0.127026446547
 20
0.0509854
 30
0.0
 11
-0.114783132849
 21
0.048072
 31
0.0
  0
LINE
  5
1DE
330
12B
100
AcDbEntity
  8
AM_4
100
AcDbLine
 10
-0.151513467644
 20
0.0509854000000001
 30
0.0
 11
-0.127026446547
 21
0.0509854000000001
 31
0.0
  0
LINE
  5
1DF
330
12B
100
AcDbEntity
  8
AM_4
100
AcDbLine
 10
-0.1637571750430009
 20
0.0480719999999998
 30
0.0
 11
-0.1515134676440007
 21
0.0509853999999998
 31
0.0
  0
LINE
  5
1E0
330
12B
100
AcDbEntity
  8
AM_4
100
AcDbLine
 10
-0.172939463466001
 20
0.0422448999999995
 30
0.0
 11
-0.1637571750430009
 21
0.0480719999999995
 31
0.0
  0
LINE
  5
1E1
330
12B
100
AcDbEntity
  8
AM_4
100
AcDbLine
 10
-0.1790615140160008
 20
0.033504699999999
 30
0.0
 11
-0.172939463466001
 21
0.0422448999999988
 31
0.0
  0
LINE
  5
1E2
330
12B
100
AcDbEntity
  8
AM_4
100
AcDbLine
 10
0.0198957
 20
-0.050985460603
 30
0.0
 11
-0.0352000977482
 21
-0.050985460603
 31
0.0
  0
LINE
  5
1E3
330
12B
100
AcDbEntity
  8
AM_4
100
AcDbLine
 10
0.0321391999999999
 20
-0.048072073203
 30
0.0
 11
0.0198956999999999
 21
-0.050985460603
 31
0.0
  0
LINE
  5
1E4
330
12B
100
AcDbEntity
  8
AM_4
100
AcDbLine
 10
0.0413216999999998
 20
-0.042244904702
 30
0.0
 11
0.0321391999999999
 21
-0.0480720732029999
 31
0.0
  0
LINE
  5
1E5
330
12B
100
AcDbEntity
  8
AM_4
100
AcDbLine
 10
0.0474436999999999
 20
-0.0335047031318999
 30
0.0
 11
0.0413216999999998
 21
-0.042244904702
 31
0.0
  0
LINE
  5
1E6
330
12B
100
AcDbEntity
  8
AM_4
100
AcDbLine
 10
0.0505043
 20
-0.0218508779412
 30
0.0
 11
0.0474436999999999
 21
-0.0335047031319003
 31
0.0
  0
LINE
  5
1E7
330
12B
100
AcDbEntity
  8
AM_4
100
AcDbLine
 10
0.0505043
 20
0.0218509000000001
 30
0.0
 11
0.0505043
 21
-0.0218508779411999
 31
0.0
  0
LINE
  5
1E8
330
12B
100
AcDbEntity
  8
AM_4
100
AcDbLine
 10
0.0474437000000001
 20
0.0335046999999998
 30
0.0
 11
0.0505043000000001
 21
0.0218508999999995
 31
0.0
  0
LINE
  5
1E9
330
12B
100
AcDbEntity
  8
AM_4
100
AcDbLine
 10
0.0413217
 20
0.0422449
 30
0.0
 11
0.0474437000000001
 21
0.0335046999999999
 31
0.0
  0
LINE
  5
1EA
330
12B
100
AcDbEntity
  8
AM_4
100
AcDbLine
 10
0.0321392000000001
 20
0.0480720000000001
 30
0.0
 11
0.0413217
 21
0.0422449000000001
 31
0.0
  0
LINE
  5
1EB
330
12B
100
AcDbEntity
  8
AM_4
100
AcDbLine
 10
0.0198957000000001
 20
0.0509854
 30
0.0
 11
0.0321392000000001
 21
0.048072
 31
0.0
  0
LINE
  5
1EC
330
12B
100
AcDbEntity
  8
AM_4
100
AcDbLine
 10
-0.0352000977482
 20
0.0509854000000001
 30
0.0
 11
0.0198957
 21
0.0509854000000001
 31
0.0
  0
LINE
  5
1ED
330
12B
100
AcDbEntity
  8
AM_4
100
AcDbLine
 10
-0.0352000977482
 20
-0.050985460603
 30
0.0
 11
-0.0352000977482
 21
0.0509854000000001
 31
0.0
  0
LINE
  5
1EE
330
12B
100
AcDbEntity
  8
AM_4
100
AcDbLine
 10
1.955000000000001
 20
-0.8671875000000001
 30
0.0
 11
1.488325530555601
 21
-0.7014727918463796
 31
0.0
  0
LINE
  5
1EF
330
12B
100
AcDbEntity
  8
AM_4
100
AcDbLine
 10
-1.4883255305556
 20
-0.7014727918463795
 30
0.0
 11
-1.954999999999998
 21
-0.8671875000000001
 31
0.0
  0
LINE
  5
1F0
330
12B
100
AcDbEntity
  8
AM_4
100
AcDbLine
 10
-1.249999999999998
 20
-0.8671875000000001
 30
0.0
 11
-1.25
 21
-0.7400000578125002
 31
0.0
  0
LWPOLYLINE
  5
1F1
330
12B
100
AcDbEntity
  8
AM_4
100
AcDbPolyline
 90
       35
 70
     0
 43
0.0
 10
1.212821045965252
 20
-0.7400000578124999
 10
1.196331165507586
 20
-0.7280617618039552
 10
1.170736482515899
 20
-0.7163320113466032
 10
1.136231787982251
 20
-0.7049000769240413
 10
1.093079683466547
 20
-0.6938529624600159
 10
1.041608582540103
 20
-0.6832747431660287
 10
0.9822102113600716
 20
-0.6732459256782097
 10
0.915336627396849
 20
-0.6638428353532074
 10
0.8414967790037696
 20
-0.6551370353861359
 10
0.761252632012824
 20
-0.6471947821714504
 10
0.6752148928353543
 20
-0.6400765210517784
 10
0.584038360617508
 20
-0.6338364262923639
 10
0.4884169438233587
 20
-0.6285219887821986
 10
0.3890783791724995
 20
-0.6241736545996798
 10
0.2867786931241891
 20
-0.6208245171935325
 10
0.1822964480594944
 20
-0.6185000655216819
 10
0.0764268169514619
 20
-0.6172179900648929
 10
-0.0300244683813449
 20
-0.6169880481915303
 10
-0.1362472493805
 20
-0.617811989898093
 10
-0.2414331065435311
 20
-0.6196835444906843
 10
-0.3447815119844703
 20
-0.6225884683087791
 10
-0.4455059219344388
 20
-0.6265046531280809
 10
-0.5428397628146557
 20
-0.6314022944174575
 10
-0.6360422653242427
 20
-0.6372441181694204
 10
-0.724404102141892
 20
-0.6439856645778272
 10
-0.8072527863350855
 20
-0.6515756264038532
 10
-0.8839577893917097
 20
-0.6599562394550578
 10
-0.9539353399227566
 20
-0.6690637222057689
 10
-1.016652866515085
 20
-0.6788287612130055
 10
-1.071633050921448
 20
-0.6891770386336302
 10
-1.118457460740572
 20
-0.7000297978280117
 10
-1.15676973394038
 20
-0.7113044427456054
 10
-1.186278290988241
 20
-0.7229151665307718
 10
-1.206758553947264
 20
-0.734773604564759
 10
-1.212821045965252
 20
-0.7400000578125002
  0
LINE
  5
1F2
330
12B
100
AcDbEntity
  8
AM_4
100
AcDbLine
 10
1.250000000000001
 20
-0.7400000578124999
 30
0.0
 11
1.250000000000002
 21
-0.8671875000000001
 31
0.0
  0
LINE
  5
1F3
330
12B
100
AcDbEntity
  8
AM_4
100
AcDbLine
 10
0.347409
 20
-0.0684661787039999
 30
0.0
 11
0.237218
 21
-0.068466178704
 31
0.0
  0
LINE
  5
1F4
330
12B
100
AcDbEntity
  8
AM_4
100
AcDbLine
 10
0.237218
 20
-0.068466178704
 30
0.0
 11
0.237218
 21
0.0684661000000001
 31
0.0
  0
LINE
  5
1F5
330
12B
100
AcDbEntity
  8
AM_4
100
AcDbLine
 10
0.237218
 20
0.0684661000000001
 30
0.0
 11
0.347409
 21
0.0684661000000001
 31
0.0
  0
LINE
  5
1F6
330
12B
100
AcDbEntity
  8
AM_4
100
AcDbLine
 10
0.347409
 20
0.0684661000000001
 30
0.0
 11
0.347409
 21
0.0509854000000001
 31
0.0
  0
LINE
  5
1F7
330
12B
100
AcDbEntity
  8
AM_4
100
AcDbLine
 10
0.347409
 20
0.0509854000000001
 30
0.0
 11
0.255583
 21
0.0509854000000001
 31
0.0
  0
LINE
  5
1F8
330
12B
100
AcDbEntity
  8
AM_4
100
AcDbLine
 10
0.255583
 20
0.0509854000000001
 30
0.0
 11
0.255583
 21
0.0131105000000001
 31
0.0
  0
LINE
  5
1F9
330
12B
100
AcDbEntity
  8
AM_4
100
AcDbLine
 10
0.255583
 20
0.0131105000000001
 30
0.0
 11
0.335166
 21
0.0131105000000001
 31
0.0
  0
LINE
  5
1FA
330
12B
100
AcDbEntity
  8
AM_4
100
AcDbLine
 10
0.335166
 20
0.0131105000000001
 30
0.0
 11
0.335166
 21
-0.0043701598401999
 31
0.0
  0
LINE
  5
1FB
330
12B
100
AcDbEntity
  8
AM_4
100
AcDbLine
 10
0.335166
 20
-0.0043701598401999
 30
0.0
 11
0.255583
 21
-0.0043701598401999
 31
0.0
  0
LINE
  5
1FC
330
12B
100
AcDbEntity
  8
AM_4
100
AcDbLine
 10
0.255583
 20
-0.0043701598401999
 30
0.0
 11
0.255583
 21
-0.0509854606029999
 31
0.0
  0
LINE
  5
1FD
330
12B
100
AcDbEntity
  8
AM_4
100
AcDbLine
 10
0.255583
 20
-0.0509854606029999
 30
0.0
 11
0.347409
 21
-0.050985460603
 31
0.0
  0
LINE
  5
1FE
330
12B
100
AcDbEntity
  8
AM_4
100
AcDbLine
 10
0.347409
 20
-0.050985460603
 30
0.0
 11
0.347409
 21
-0.0684661787039999
 31
0.0
  0
LINE
  5
1FF
330
12B
100
AcDbEntity
  8
AM_4
100
AcDbLine
 10
0.0933567
 20
-0.0218508779411999
 30
0.0
 11
0.0933567
 21
0.0218509000000001
 31
0.0
  0
LINE
  5
200
330
12B
100
AcDbEntity
  8
AM_4
100
AcDbLine
 10
0.0933566999999992
 20
0.0218508999999967
 30
0.0
 11
0.0964176999999987
 21
0.0364180999999943
 31
0.0
  0
LINE
  5
201
330
12B
100
AcDbEntity
  8
AM_4
100
AcDbLine
 10
0.0964177000000001
 20
0.0364181000000001
 30
0.0
 11
0.1025389999999998
 21
0.0480719999999995
 31
0.0
  0
LINE
  5
202
330
12B
100
AcDbEntity
  8
AM_4
100
AcDbLine
 10
0.1025389999999998
 20
0.0480719999999999
 30
0.0
 11
0.1147830000000001
 21
0.0597256000000003
 31
0.0
  0
LINE
  5
203
330
12B
100
AcDbEntity
  8
AM_4
100
AcDbLine
 10
0.1147830000000001
 20
0.0597256000000001
 30
0.0
 11
0.1270260000000001
 21
0.0655528000000002
 31
0.0
  0
LINE
  5
204
330
12B
100
AcDbEntity
  8
AM_4
100
AcDbLine
 10
0.1270260000000002
 20
0.0655528
 30
0.0
 11
0.1423309999999993
 21
0.0684660999999998
 31
0.0
  0
LINE
  5
205
330
12B
100
AcDbEntity
  8
AM_4
100
AcDbLine
 10
0.142331
 20
0.0684661000000001
 30
0.0
 11
0.169879
 21
0.0684661000000001
 31
0.0
  0
LINE
  5
206
330
12B
100
AcDbEntity
  8
AM_4
100
AcDbLine
 10
0.1698789999999999
 20
0.0684660999999999
 30
0.0
 11
0.1851830000000001
 21
0.0655527999999999
 31
0.0
  0
LINE
  5
207
330
12B
100
AcDbEntity
  8
AM_4
100
AcDbLine
 10
0.1851830000000001
 20
0.0655528000000001
 30
0.0
 11
0.1974269999999999
 21
0.0597256000000002
 31
0.0
  0
LINE
  5
208
330
12B
100
AcDbEntity
  8
AM_4
100
AcDbLine
 10
0.1974269999999999
 20
0.0597256000000001
 30
0.0
 11
0.2096699999999998
 21
0.0480720000000002
 31
0.0
  0
LINE
  5
209
330
12B
100
AcDbEntity
  8
AM_4
100
AcDbLine
 10
0.2096700000000001
 20
0.0480719999999994
 30
0.0
 11
0.2127310000000001
 21
0.0335046999999999
 31
0.0
  0
LINE
  5
20A
330
12B
100
AcDbEntity
  8
AM_4
100
AcDbLine
 10
0.212731
 20
0.0335047000000001
 30
0.0
 11
0.194366
 21
0.0335047
 31
0.0
  0
LINE
  5
20B
330
12B
100
AcDbEntity
  8
AM_4
100
AcDbLine
 10
0.1943659999999999
 20
0.0335047000000003
 30
0.0
 11
0.1913050000000007
 21
0.0422448999999981
 31
0.0
  0
LINE
  5
20C
330
12B
100
AcDbEntity
  8
AM_4
100
AcDbLine
 10
0.1913050000000007
 20
0.0422448999999997
 30
0.0
 11
0.1821219999999998
 21
0.0480720000000002
 31
0.0
  0
LINE
  5
20D
330
12B
100
AcDbEntity
  8
AM_4
100
AcDbLine
 10
0.1821219999999998
 20
0.048072
 30
0.0
 11
0.1698790000000003
 21
0.0509853999999998
 31
0.0
  0
LINE
  5
20E
330
12B
100
AcDbEntity
  8
AM_4
100
AcDbLine
 10
0.169879
 20
0.0509854000000001
 30
0.0
 11
0.142331
 21
0.0509854000000001
 31
0.0
  0
LINE
  5
20F
330
12B
100
AcDbEntity
  8
AM_4
100
AcDbLine
 10
0.142331
 20
0.0509854000000002
 30
0.0
 11
0.1300869999999999
 21
0.0480720000000001
 31
0.0
  0
LINE
  5
210
330
12B
100
AcDbEntity
  8
AM_4
100
AcDbLine
 10
0.1300869999999999
 20
0.0480720000000001
 30
0.0
 11
0.1209049999999999
 21
0.0422449000000001
 31
0.0
  0
LINE
  5
211
330
12B
100
AcDbEntity
  8
AM_4
100
AcDbLine
 10
0.1209050000000002
 20
0.0422449000000003
 30
0.0
 11
0.1147830000000002
 21
0.0335047000000002
 31
0.0
  0
LINE
  5
212
330
12B
100
AcDbEntity
  8
AM_4
100
AcDbLine
 10
0.1147830000000002
 20
0.0335047000000008
 30
0.0
 11
0.1117220000000001
 21
0.0218509000000004
 31
0.0
  0
LINE
  5
213
330
12B
100
AcDbEntity
  8
AM_4
100
AcDbLine
 10
0.111722
 20
0.0218509000000001
 30
0.0
 11
0.111722
 21
-0.0218508779411999
 31
0.0
  0
LINE
  5
214
330
12B
100
AcDbEntity
  8
AM_4
100
AcDbLine
 10
0.1117219999999999
 20
-0.0218508779411996
 30
0.0
 11
0.114783
 21
-0.0335047031319
 31
0.0
  0
LINE
  5
215
330
12B
100
AcDbEntity
  8
AM_4
100
AcDbLine
 10
0.114783
 20
-0.0335047031318999
 30
0.0
 11
0.1209050000000001
 21
-0.042244904702
 31
0.0
  0
LINE
  5
216
330
12B
100
AcDbEntity
  8
AM_4
100
AcDbLine
 10
0.120905
 20
-0.042244904702
 30
0.0
 11
0.1300870000000001
 21
-0.048072073203
 31
0.0
  0
LINE
  5
217
330
12B
100
AcDbEntity
  8
AM_4
100
AcDbLine
 10
0.130087
 20
-0.048072073203
 30
0.0
 11
0.1423309999999998
 21
-0.050985460603
 31
0.0
  0
LINE
  5
218
330
12B
100
AcDbEntity
  8
AM_4
100
AcDbLine
 10
0.142331
 20
-0.0509854606029999
 30
0.0
 11
0.169879
 21
-0.050985460603
 31
0.0
  0
LINE
  5
219
330
12B
100
AcDbEntity
  8
AM_4
100
AcDbLine
 10
0.1698789999999998
 20
-0.0509854606030001
 30
0.0
 11
0.1821219999999993
 21
-0.0480720732030002
 31
0.0
  0
LINE
  5
21A
330
12B
100
AcDbEntity
  8
AM_4
100
AcDbLine
 10
0.1821219999999993
 20
-0.0480720732030004
 30
0.0
 11
0.1913050000000001
 21
-0.0422449047019999
 31
0.0
  0
LINE
  5
21B
330
12B
100
AcDbEntity
  8
AM_4
100
AcDbLine
 10
0.1913050000000001
 20
-0.0422449047019995
 30
0.0
 11
0.1943659999999993
 21
-0.0335047031319017
 31
0.0
  0
LINE
  5
21C
330
12B
100
AcDbEntity
  8
AM_4
100
AcDbLine
 10
0.194366
 20
-0.0335047031318999
 30
0.0
 11
0.194366
 21
-0.0101970921205999
 31
0.0
  0
LINE
  5
21D
330
12B
100
AcDbEntity
  8
AM_4
100
AcDbLine
 10
0.194366
 20
-0.0101970921205999
 30
0.0
 11
0.166818
 21
-0.0101970921206
 31
0.0
  0
LINE
  5
21E
330
12B
100
AcDbEntity
  8
AM_4
100
AcDbLine
 10
0.166818
 20
-0.0101970921206
 30
0.0
 11
0.166818
 21
0.0072836200000001
 31
0.0
  0
LINE
  5
21F
330
12B
100
AcDbEntity
  8
AM_4
100
AcDbLine
 10
0.166818
 20
0.0072836200000001
 30
0.0
 11
0.212731
 21
0.0072836200000001
 31
0.0
  0
LINE
  5
220
330
12B
100
AcDbEntity
  8
AM_4
100
AcDbLine
 10
0.212731
 20
0.0072836200000001
 30
0.0
 11
0.212731
 21
-0.0364181299019999
 31
0.0
  0
LINE
  5
221
330
12B
100
AcDbEntity
  8
AM_4
100
AcDbLine
 10
0.2127309999999999
 20
-0.0364181299020004
 30
0.0
 11
0.2096699999999999
 21
-0.0480720732030003
 31
0.0
  0
LINE
  5
222
330
12B
100
AcDbEntity
  8
AM_4
100
AcDbLine
 10
0.20967
 20
-0.0480720732030001
 30
0.0
 11
0.1974270000000001
 21
-0.0597256228029999
 31
0.0
  0
LINE
  5
223
330
12B
100
AcDbEntity
  8
AM_4
100
AcDbLine
 10
0.1974270000000001
 20
-0.0597256228029998
 30
0.0
 11
0.185183
 21
-0.0655527913039998
 31
0.0
  0
LINE
  5
224
330
12B
100
AcDbEntity
  8
AM_4
100
AcDbLine
 10
0.185183
 20
-0.065552791304
 30
0.0
 11
0.1698790000000001
 21
-0.0684661787039999
 31
0.0
  0
LINE
  5
225
330
12B
100
AcDbEntity
  8
AM_4
100
AcDbLine
 10
0.169879
 20
-0.0684661787039999
 30
0.0
 11
0.142331
 21
-0.068466178704
 31
0.0
  0
LINE
  5
226
330
12B
100
AcDbEntity
  8
AM_4
100
AcDbLine
 10
0.1423309999999999
 20
-0.0684661787039998
 30
0.0
 11
0.1270260000000008
 21
-0.065552791304
 31
0.0
  0
LINE
  5
227
330
12B
100
AcDbEntity
  8
AM_4
100
AcDbLine
 10
0.1270260000000007
 20
-0.0655527913040003
 30
0.0
 11
0.1147830000000006
 21
-0.0597256228030002
 31
0.0
  0
LINE
  5
228
330
12B
100
AcDbEntity
  8
AM_4
100
AcDbLine
 10
0.1147830000000007
 20
-0.0597256228030005
 30
0.0
 11
0.1025390000000004
 21
-0.0480720732030001
 31
0.0
  0
LINE
  5
229
330
12B
100
AcDbEntity
  8
AM_4
100
AcDbLine
 10
0.1025390000000004
 20
-0.0480720732030008
 30
0.0
 11
0.0964177000000007
 21
-0.0364181299020015
 31
0.0
  0
LINE
  5
22A
330
12B
100
AcDbEntity
  8
AM_4
100
AcDbLine
 10
0.0964177000000007
 20
-0.0364181299020036
 30
0.0
 11
0.0933566999999998
 21
-0.0218508779411995
 31
0.0
  0
LINE
  5
22B
330
12B
100
AcDbEntity
  8
AM_4
100
AcDbLine
 10
0.0198957
 20
-0.0684661787039999
 30
0.0
 11
-0.053565383256
 21
-0.068466178704
 31
0.0
  0
LINE
  5
22C
330
12B
100
AcDbEntity
  8
AM_4
100
AcDbLine
 10
-0.053565383256
 20
-0.068466178704
 30
0.0
 11
-0.053565383256
 21
0.0684661000000001
 31
0.0
  0
LINE
  5
22D
330
12B
100
AcDbEntity
  8
AM_4
100
AcDbLine
 10
-0.053565383256
 20
0.0684661000000001
 30
0.0
 11
0.0198957
 21
0.0684661000000001
 31
0.0
  0
LINE
  5
22E
330
12B
100
AcDbEntity
  8
AM_4
100
AcDbLine
 10
0.0198957000000001
 20
0.0684661
 30
0.0
 11
0.0352000999999999
 21
0.0655528
 31
0.0
  0
LINE
  5
22F
330
12B
100
AcDbEntity
  8
AM_4
100
AcDbLine
 10
0.0352000999999999
 20
0.0655528000000001
 30
0.0
 11
0.0474437000000001
 21
0.0597256000000001
 31
0.0
  0
LINE
  5
230
330
12B
100
AcDbEntity
  8
AM_4
100
AcDbLine
 10
0.0474437000000001
 20
0.0597256
 30
0.0
 11
0.059687
 21
0.0480720000000001
 31
0.0
  0
LINE
  5
231
330
12B
100
AcDbEntity
  8
AM_4
100
AcDbLine
 10
0.059687
 20
0.0480720000000001
 30
0.0
 11
0.0658091
 21
0.0364181000000001
 31
0.0
  0
LINE
  5
232
330
12B
100
AcDbEntity
  8
AM_4
100
AcDbLine
 10
0.0658091
 20
0.0364181000000001
 30
0.0
 11
0.0688696999999999
 21
0.0218509000000008
 31
0.0
  0
LINE
  5
233
330
12B
100
AcDbEntity
  8
AM_4
100
AcDbLine
 10
0.0688697
 20
0.0218509000000001
 30
0.0
 11
0.0688697
 21
-0.0218508779411999
 31
0.0
  0
LINE
  5
234
330
12B
100
AcDbEntity
  8
AM_4
100
AcDbLine
 10
0.0688697
 20
-0.0218508779411997
 30
0.0
 11
0.0658090999999998
 21
-0.0364181299020007
 31
0.0
  0
LINE
  5
235
330
12B
100
AcDbEntity
  8
AM_4
100
AcDbLine
 10
0.0658090999999998
 20
-0.0364181299020002
 30
0.0
 11
0.0596869999999998
 21
-0.0480720732030001
 31
0.0
  0
LINE
  5
236
330
12B
100
AcDbEntity
  8
AM_4
100
AcDbLine
 10
0.0596870000000002
 20
-0.0480720732029998
 30
0.0
 11
0.0474436999999999
 21
-0.059725622803
 31
0.0
  0
LINE
  5
237
330
12B
100
AcDbEntity
  8
AM_4
100
AcDbLine
 10
0.0474436999999999
 20
-0.0597256228030001
 30
0.0
 11
0.0352001000000001
 21
-0.065552791304
 31
0.0
  0
LINE
  5
238
330
12B
100
AcDbEntity
  8
AM_4
100
AcDbLine
 10
0.0352001000000001
 20
-0.065552791304
 30
0.0
 11
0.0198956999999999
 21
-0.068466178704
 31
0.0
  0
LINE
  5
239
330
12B
100
AcDbEntity
  8
AM_4
100
AcDbLine
 10
-0.200487509838
 20
-0.0218508779411999
 30
0.0
 11
-0.200487509838
 21
0.0218509000000001
 31
0.0
  0
LINE
  5
23A
330
12B
100
AcDbEntity
  8
AM_4
100
AcDbLine
 10
-0.200487509838
 20
0.0218508999999999
 30
0.0
 11
-0.1974268782640004
 21
0.0364180999999981
 31
0.0
  0
LINE
  5
23B
330
12B
100
AcDbEntity
  8
AM_4
100
AcDbLine
 10
-0.1974268782640004
 20
0.0364180999999992
 30
0.0
 11
-0.1913048277140005
 21
0.048071999999999
 31
0.0
  0
LINE
  5
23C
330
12B
100
AcDbEntity
  8
AM_4
100
AcDbLine
 10
-0.1913048277140005
 20
0.0480719999999997
 30
0.0
 11
-0.1790615140160008
 21
0.0597255999999995
 31
0.0
  0
LINE
  5
23D
330
12B
100
AcDbEntity
  8
AM_4
100
AcDbLine
 10
-0.1790615140160008
 20
0.0597255999999997
 30
0.0
 11
-0.1668178066170008
 21
0.0655527999999997
 31
0.0
  0
LINE
  5
23E
330
12B
100
AcDbEntity
  8
AM_4
100
AcDbLine
 10
-0.1668178066170008
 20
0.0655527999999999
 30
0.0
 11
-0.1515134676440007
 21
0.0684660999999999
 31
0.0
  0
LINE
  5
23F
330
12B
100
AcDbEntity
  8
AM_4
100
AcDbLine
 10
-0.151513467644
 20
0.0684661000000001
 30
0.0
 11
-0.127026446547
 21
0.0684661000000001
 31
0.0
  0
LINE
  5
240
330
12B
100
AcDbEntity
  8
AM_4
100
AcDbLine
 10
-0.127026446547
 20
0.0684661000000001
 30
0.0
 11
-0.1117221075739999
 21
0.0655528000000001
 31
0.0
  0
LINE
  5
241
330
12B
100
AcDbEntity
  8
AM_4
100
AcDbLine
 10
-0.1117221075739998
 20
0.0655528000000002
 30
0.0
 11
-0.0994784001749999
 21
0.0597256000000002
 31
0.0
  0
LINE
  5
242
330
12B
100
AcDbEntity
  8
AM_4
100
AcDbLine
 10
-0.0994784001749999
 20
0.0597255999999999
 30
0.0
 11
-0.0872350864770001
 21
0.0480720000000001
 31
0.0
  0
LINE
  5
243
330
12B
100
AcDbEntity
  8
AM_4
100
AcDbLine
 10
-0.0872350864770001
 20
0.0480720000000003
 30
0.0
 11
-0.0811134296279999
 21
0.0364180999999999
 31
0.0
  0
LINE
  5
244
330
12B
100
AcDbEntity
  8
AM_4
100
AcDbLine
 10
-0.0811134296279999
 20
0.0364180999999996
 30
0.0
 11
-0.0780524043530002
 21
0.021850900000001
 31
0.0
  0
LINE
  5
245
330
12B
100
AcDbEntity
  8
AM_4
100
AcDbLine
 10
-0.078052404353
 20
0.0218509000000001
 30
0.0
 11
-0.078052404353
 21
-0.0218508779411999
 31
0.0
  0
LINE
  5
246
330
12B
100
AcDbEntity
  8
AM_4
100
AcDbLine
 10
-0.078052404353
 20
-0.0218508779411999
 30
0.0
 11
-0.081113429628
 21
-0.0364181299020002
 31
0.0
  0
LINE
  5
247
330
12B
100
AcDbEntity
  8
AM_4
100
AcDbLine
 10
-0.081113429628
 20
-0.0364181299019999
 30
0.0
 11
-0.0872350864769999
 21
-0.0480720732029997
 31
0.0
  0
LINE
  5
248
330
12B
100
AcDbEntity
  8
AM_4
100
AcDbLine
 10
-0.0872350864769999
 20
-0.0480720732029998
 30
0.0
 11
-0.0994784001750001
 21
-0.0597256228029999
 31
0.0
  0
LINE
  5
249
330
12B
100
AcDbEntity
  8
AM_4
100
AcDbLine
 10
-0.099478400175
 20
-0.0597256228029999
 30
0.0
 11
-0.111722107574
 21
-0.0655527913039999
 31
0.0
  0
LINE
  5
24A
330
12B
100
AcDbEntity
  8
AM_4
100
AcDbLine
 10
-0.111722107574
 20
-0.065552791304
 30
0.0
 11
-0.1270264465469998
 21
-0.0684661787039999
 31
0.0
  0
LINE
  5
24B
330
12B
100
AcDbEntity
  8
AM_4
100
AcDbLine
 10
-0.127026446547
 20
-0.0684661787039999
 30
0.0
 11
-0.151513467644
 21
-0.068466178704
 31
0.0
  0
LINE
  5
24C
330
12B
100
AcDbEntity
  8
AM_4
100
AcDbLine
 10
-0.1515134676440002
 20
-0.0684661787039997
 30
0.0
 11
-0.1668178066169989
 21
-0.065552791304
 31
0.0
  0
LINE
  5
24D
330
12B
100
AcDbEntity
  8
AM_4
100
AcDbLine
 10
-0.1668178066169989
 20
-0.0655527913040004
 30
0.0
 11
-0.1790615140160002
 21
-0.0597256228029998
 31
0.0
  0
LINE
  5
24E
330
12B
100
AcDbEntity
  8
AM_4
100
AcDbLine
 10
-0.1790615140160002
 20
-0.0597256228029996
 30
0.0
 11
-0.191304827714
 21
-0.0480720732029998
 31
0.0
  0
LINE
  5
24F
330
12B
100
AcDbEntity
  8
AM_4
100
AcDbLine
 10
-0.191304827714
 20
-0.048072073203
 30
0.0
 11
-0.1974268782639999
 21
-0.0364181299020002
 31
0.0
  0
LINE
  5
250
330
12B
100
AcDbEntity
  8
AM_4
100
AcDbLine
 10
-0.1974268782639999
 20
-0.0364181299020002
 30
0.0
 11
-0.2004875098379996
 21
-0.0218508779412021
 31
0.0
  0
LINE
  5
251
330
12B
100
AcDbEntity
  8
AM_4
100
AcDbLine
 10
-0.3474096364199999
 20
-0.0684661787039999
 30
0.0
 11
-0.3474096364199999
 21
0.0684661000000001
 31
0.0
  0
LINE
  5
252
330
12B
100
AcDbEntity
  8
AM_4
100
AcDbLine
 10
-0.3474096364199999
 20
0.0684661000000001
 30
0.0
 11
-0.273948573129
 21
0.0684661000000001
 31
0.0
  0
LINE
  5
253
330
12B
100
AcDbEntity
  8
AM_4
100
AcDbLine
 10
-0.2739485731289999
 20
0.0684660999999999
 30
0.0
 11
-0.2586442341559999
 21
0.0655527999999999
 31
0.0
  0
LINE
  5
254
330
12B
100
AcDbEntity
  8
AM_4
100
AcDbLine
 10
-0.2586442341559999
 20
0.0655528000000001
 30
0.0
 11
-0.2464009204579999
 21
0.0597256000000001
 31
0.0
  0
LINE
  5
255
330
12B
100
AcDbEntity
  8
AM_4
100
AcDbLine
 10
-0.2464009204580003
 20
0.0597256000000002
 30
0.0
 11
-0.2341572130589999
 21
0.0480719999999999
 31
0.0
  0
LINE
  5
256
330
12B
100
AcDbEntity
  8
AM_4
100
AcDbLine
 10
-0.2341572130589999
 20
0.0480719999999999
 30
0.0
 11
-0.2280355562099999
 21
0.0364181
 31
0.0
  0
LINE
  5
257
330
12B
100
AcDbEntity
  8
AM_4
100
AcDbLine
 10
-0.2280355562099999
 20
0.0364180999999999
 30
0.0
 11
-0.2249745309350002
 21
0.0218509000000011
 31
0.0
  0
LINE
  5
258
330
12B
100
AcDbEntity
  8
AM_4
100
AcDbLine
 10
-0.224974530935
 20
0.0218509000000001
 30
0.0
 11
-0.224974530935
 21
-0.0218508779411999
 31
0.0
  0
LINE
  5
259
330
12B
100
AcDbEntity
  8
AM_4
100
AcDbLine
 10
-0.2249745309350001
 20
-0.0218508779412007
 30
0.0
 11
-0.2280355562100001
 21
-0.036418129902001
 31
0.0
  0
LINE
  5
25A
330
12B
100
AcDbEntity
  8
AM_4
100
AcDbLine
 10
-0.2280355562100002
 20
-0.0364181299020002
 30
0.0
 11
-0.2341572130590001
 21
-0.0480720732030002
 31
0.0
  0
LINE
  5
25B
330
12B
100
AcDbEntity
  8
AM_4
100
AcDbLine
 10
-0.2341572130590001
 20
-0.048072073203
 30
0.0
 11
-0.2464009204580001
 21
-0.059725622803
 31
0.0
  0
LINE
  5
25C
330
12B
100
AcDbEntity
  8
AM_4
100
AcDbLine
 10
-0.2464009204580001
 20
-0.0597256228030001
 30
0.0
 11
-0.2586442341560001
 21
-0.0655527913040001
 31
0.0
  0
LINE
  5
25D
330
12B
100
AcDbEntity
  8
AM_4
100
AcDbLine
 10
-0.258644234156
 20
-0.0655527913039999
 30
0.0
 11
-0.2739485731290002
 21
-0.0684661787039999
 31
0.0
  0
LINE
  5
25E
330
12B
100
AcDbEntity
  8
AM_4
100
AcDbLine
 10
-0.273948573129
 20
-0.0684661787039999
 30
0.0
 11
-0.3474096364199999
 21
-0.0684661787039999
 31
0.0
  0
LWPOLYLINE
  5
25F
330
12B
100
AcDbEntity
  8
AM_4
100
AcDbPolyline
 90
       30
 70
     0
 43
0.0
 10
1.488325530555601
 20
-0.7014727918463796
 10
1.441201752368347
 20
-0.6869558328505541
 10
1.383109558624159
 20
-0.672960260345695
 10
1.314491065994457
 20
-0.6595925890893224
 10
1.23586850264113
 20
-0.6469545551313176
 10
1.147840233744899
 20
-0.6351423415411546
 10
1.051076207584987
 20
-0.6242458463966643
 10
0.9463128568281868
 20
-0.6143479986053797
 10
0.8343474938315985
 20
-0.6055241267654766
 10
0.716032242614161
 20
-0.597841385869656
 10
0.5922675536783406
 20
-0.591358246215101
 10
0.4639953510381015
 20
-0.5861240484092094
 10
0.3321918636084094
 20
-0.582178627857779
 10
0.1978601955137259
 20
-0.5795520115935164
 10
0.0620226918599305
 20
-0.5782641897521869
 10
-0.0742868419292443
 20
-0.578324963435611
 10
-0.2100310079957159
 20
-0.5797338701193618
 10
-0.3441767112711503
 20
-0.5824801871728549
 10
-0.4757030219542308
 20
-0.5865430134650415
 10
-0.6036089454029018
 20
-0.5918914284346365
 10
-0.7269210403080104
 20
-0.59848472741426
 10
-0.8447008271694502
 20
-0.6062727314175343
 10
-0.9560519306918259
 20
-0.6151961690314692
 10
-1.060126901741698
 20
-0.6251871275077037
 10
-1.15613366694719
 20
-0.6361695696195278
 10
-1.243341556854621
 20
-0.6480599123510908
 10
-1.321086866764228
 20
-0.6607676630146204
 10
-1.388777907923701
 20
-0.6741961079544172
 10
-1.445899510636846
 20
-0.6882430485961728
 10
-1.488325530555601
 20
-0.7014727918463795
  0
LINE
  5
260
330
12B
100
AcDbEntity
  8
AM_4
100
AcDbLine
 10
1.488325530555601
 20
-0.7014727918463796
 30
0.0
 11
1.488325530555601
 21
0.7014727918463793
 31
0.0
  0
LINE
  5
261
330
12B
100
AcDbEntity
  8
AM_4
100
AcDbLine
 10
-1.4883255305556
 20
-0.7014727918463795
 30
0.0
 11
-1.4883255305556
 21
0.7014727918463798
 31
0.0
  0
LINE
  5
262
330
12B
100
AcDbEntity
  8
AM_4
100
AcDbLine
 10
1.488325530555601
 20
0.7014727918463793
 30
0.0
 11
1.955
 21
0.8671874999999999
 31
0.0
  0
LINE
  5
263
330
12B
100
AcDbEntity
  8
AM_4
100
AcDbLine
 10
1.250000000000002
 20
0.8671874999999999
 30
0.0
 11
1.25
 21
0.7400000578125002
 31
0.0
  0
LINE
  5
264
330
12B
100
AcDbEntity
  8
AM_4
100
AcDbLine
 10
1.25
 20
0.7400000578125002
 30
0.0
 11
-1.25
 21
0.7400000578124999
 31
0.0
  0
LWPOLYLINE
  5
265
330
12B
100
AcDbEntity
  8
AM_4
100
AcDbPolyline
 90
       35
 70
     0
 43
0.0
 10
-1.212821045965252
 20
0.7400000578124998
 10
-1.196331165507586
 20
0.7280617618039551
 10
-1.1707364825159
 20
0.7163320113466032
 10
-1.136231787982251
 20
0.7049000769240412
 10
-1.093079683466547
 20
0.6938529624600159
 10
-1.041608582540103
 20
0.6832747431660287
 10
-0.9822102113600718
 20
0.6732459256782097
 10
-0.915336627396849
 20
0.6638428353532074
 10
-0.8414967790037696
 20
0.6551370353861359
 10
-0.761252632012824
 20
0.6471947821714504
 10
-0.6752148928353543
 20
0.6400765210517784
 10
-0.584038360617508
 20
0.6338364262923639
 10
-0.4884169438233587
 20
0.6285219887821987
 10
-0.3890783791724995
 20
0.6241736545996799
 10
-0.2867786931241891
 20
0.6208245171935325
 10
-0.1822964480594942
 20
0.6185000655216819
 10
-0.0764268169514618
 20
0.6172179900648931
 10
0.0300244683813451
 20
0.6169880481915305
 10
0.1362472493805002
 20
0.617811989898093
 10
0.2414331065435313
 20
0.6196835444906845
 10
0.3447815119844705
 20
0.6225884683087793
 10
0.445505921934439
 20
0.626504653128081
 10
0.5428397628146561
 20
0.6314022944174578
 10
0.6360422653242429
 20
0.6372441181694205
 10
0.7244041021418923
 20
0.6439856645778274
 10
0.8072527863350857
 20
0.6515756264038532
 10
0.88395778939171
 20
0.6599562394550579
 10
0.953935339922757
 20
0.6690637222057689
 10
1.016652866515085
 20
0.6788287612130055
 10
1.071633050921449
 20
0.6891770386336302
 10
1.118457460740572
 20
0.7000297978280117
 10
1.156769733940381
 20
0.7113044427456054
 10
1.186278290988241
 20
0.7229151665307718
 10
1.206758553947264
 20
0.734773604564759
 10
1.212821045965252
 20
0.7400000578124999
  0
LINE
  5
266
330
12B
100
AcDbEntity
  8
AM_4
100
AcDbLine
 10
-1.25
 20
0.7400000578124999
 30
0.0
 11
-1.249999999999998
 21
0.8671874999999999
 31
0.0
  0
LINE
  5
267
330
12B
100
AcDbEntity
  8
AM_4
100
AcDbLine
 10
-1.955
 20
0.8671874999999999
 30
0.0
 11
-1.4883255305556
 21
0.7014727918463798
 31
0.0
  0
LWPOLYLINE
  5
268
330
12B
100
AcDbEntity
  8
AM_4
100
AcDbPolyline
 90
       30
 70
     0
 43
0.0
 10
-1.488325530555601
 20
0.7014727918463795
 10
-1.441201752368347
 20
0.6869558328505538
 10
-1.383109558624159
 20
0.6729602603456949
 10
-1.314491065994457
 20
0.6595925890893222
 10
-1.23586850264113
 20
0.6469545551313174
 10
-1.147840233744899
 20
0.6351423415411546
 10
-1.051076207584987
 20
0.6242458463966643
 10
-0.9463128568281867
 20
0.6143479986053797
 10
-0.8343474938315981
 20
0.6055241267654766
 10
-0.7160322426141607
 20
0.5978413858696561
 10
-0.5922675536783403
 20
0.591358246215101
 10
-0.4639953510381011
 20
0.5861240484092094
 10
-0.3321918636084089
 20
0.5821786278577791
 10
-0.1978601955137254
 20
0.5795520115935165
 10
-0.0620226918599299
 20
0.5782641897521871
 10
0.0742868419292449
 20
0.5783249634356111
 10
0.2100310079957166
 20
0.5797338701193621
 10
0.3441767112711509
 20
0.5824801871728551
 10
0.4757030219542316
 20
0.5865430134650417
 10
0.6036089454029023
 20
0.5918914284346367
 10
0.726921040308011
 20
0.5984847274142601
 10
0.8447008271694507
 20
0.6062727314175345
 10
0.9560519306918267
 20
0.6151961690314693
 10
1.060126901741699
 20
0.6251871275077038
 10
1.156133666947191
 20
0.6361695696195279
 10
1.243341556854622
 20
0.6480599123510911
 10
1.321086866764229
 20
0.6607676630146205
 10
1.388777907923702
 20
0.6741961079544174
 10
1.445899510636846
 20
0.6882430485961729
 10
1.488325530555601
 20
0.7014727918463795
  0
ENDBLK
  5
12E
330
12B
100
AcDbEntity
  8
0
100
AcDbBlockEnd
  0
ENDSEC
  0
SECTION
  2
ENTITIES
  0
INSERT
  5
6F
330
1F
100
AcDbEntity
  8
0
100
AcDbBlockReference
  2
1_129841_4
 10
0.0
 20
0.0
 30
0.0
  0
POINT
  5
26A
330
1F
100
AcDbEntity
  8
ConnectionPoints
100
AcDbPoint
 10
0.0
 20
0.0
 30
0.0
  0
POINT
  5
26B
330
1F
100
AcDbEntity
  8
ConnectionPoints
100
AcDbPoint
 10
0.0
 20
0.53125
 30
0.0
  0
POINT
  5
26C
330
1F
100
AcDbEntity
  8
ConnectionPoints
100
AcDbPoint
 10
0.0
 20
0.0
 30
0.0
  0
POINT
  5
26D
330
1F
100
AcDbEntity
  8
ConnectionPoints
100
AcDbPoint
 10
0.0
 20
0.0
 30
0.0
  0
ENDSEC
  0
SECTION
  2
OBJECTS
  0
DICTIONARY
  5
C
330
0
100
AcDbDictionary
281
     1
  3
ACAD_DETAILVIEWSTYLE
350
275
  3
ACAD_GROUP
350
D
  3
ACAD_LAYOUT
350
1A
  3
ACAD_MATERIAL
350
43
  3
ACAD_MLEADERSTYLE
350
6B
  3
ACAD_MLINESTYLE
350
17
  3
ACAD_PLOTSETTINGS
350
19
  3
ACAD_PLOTSTYLENAME
350
E
  3
ACAD_SCALELIST
350
47
  3
ACAD_SECTIONVIEWSTYLE
350
276
  3
ACAD_TABLESTYLE
350
69
  3
ACAD_VISUALSTYLE
350
2A
  3
ACDB_RECOMPOSE_DATA
350
272
  3
AcDbVariableDictionary
350
26E
  0
SUN
  5
6D
330
29
100
AcDbSun
 90
        1
290
     0
 63
     7
421
 16777215
 40
1.0
291
     1
 91
  2455826
 92
 54000000
292
     0
 70
     2
 71
   256
280
     1
  0
DICTIONARY
  5
275
102
{ACAD_REACTORS
330
C
102
}
330
C
100
AcDbDictionary
281
     1
  0
DICTIONARY
  5
D
102
{ACAD_REACTORS
330
C
102
}
330
C
100
AcDbDictionary
281
     1
  0
DICTIONARY
  5
1A
102
{ACAD_REACTORS
330
C
102
}
330
C
100
AcDbDictionary
281
     1
  3
Layout1
350
1E
  3
Layout2
350
26
  3
Model
350
22
  0
DICTIONARY
  5
43
102
{ACAD_REACTORS
330
C
102
}
330
C
100
AcDbDictionary
281
     1
  3
ByBlock
350
45
  3
ByLayer
350
44
  3
Global
350
46
  0
DICTIONARY
  5
6B
102
{ACAD_REACTORS
330
C
102
}
330
C
100
AcDbDictionary
281
     1
  3
Standard
350
6C
  0
DICTIONARY
  5
17
102
{ACAD_REACTORS
330
C
102
}
330
C
100
AcDbDictionary
281
     1
  3
Standard
350
18
  0
DICTIONARY
  5
19
102
{ACAD_REACTORS
330
C
102
}
330
C
100
AcDbDictionary
281
     1
  0
ACDBDICTIONARYWDFLT
  5
E
102
{ACAD_REACTORS
330
C
102
}
330
C
100
AcDbDictionary
281
     1
  3
Normal
350
F
100
AcDbDictionaryWithDefault
340
F
  0
DICTIONARY
  5
47
102
{ACAD_REACTORS
330
C
102
}
330
C
100
AcDbDictionary
281
     1
  3
A0
350
48
  3
A1
350
49
  3
A2
350
4A
  3
A3
350
4B
  3
A4
350
4C
  3
A5
350
4D
  3
A6
350
4E
  3
A7
350
4F
  3
A8
350
50
  3
A9
350
51
  3
B0
350
52
  3
B1
350
53
  3
B2
350
54
  3
B3
350
55
  3
B4
350
56
  3
B5
350
57
  3
B6
350
58
  3
B7
350
59
  3
B8
350
5A
  3
B9
350
5B
  3
C0
350
5C
  3
C1
350
5D
  3
C2
350
5E
  3
C3
350
5F
  3
C4
350
60
  3
C5
350
61
  3
C6
350
62
  3
C7
350
63
  3
C8
350
64
  3
C9
350
65
  3
D0
350
66
  3
D1
350
67
  3
D2
350
68
  0
DICTIONARY
  5
276
102
{ACAD_REACTORS
330
C
102
}
330
C
100
AcDbDictionary
281
     1
  0
DICTIONARY
  5
69
102
{ACAD_REACTORS
330
C
102
}
330
C
100
AcDbDictionary
281
     1
  3
Standard
350
6A
  0
DICTIONARY
  5
2A
102
{ACAD_REACTORS
330
C
102
}
330
C
100
AcDbDictionary
281
     1
  3
2dWireframe
350
2F
  3
Basic
350
32
  3
Brighten
350
36
  3
ColorChange
350
3A
  3
Conceptual
350
34
  3
Dim
350
35
  3
EdgeColorOff
350
3D
  3
Facepattern
350
39
  3
Flat
350
2B
  3
FlatWithEdges
350
2C
  3
Gouraud
350
2D
  3
GouraudWithEdges
350
2E
  3
Hidden
350
31
  3
JitterOff
350
3B
  3
Linepattern
350
38
  3
OverhangOff
350
3C
  3
Realistic
350
33
  3
Shaded
350
42
  3
Shaded with edges
350
41
  3
Shades of Gray
350
3E
  3
Sketchy
350
3F
  3
Thicken
350
37
  3
Wireframe
350
30
  3
X-Ray
350
40
  0
XRECORD
  5
272
102
{ACAD_REACTORS
330
C
102
}
330
C
100
AcDbXrecord
280
     1
 90
        1
330
6A
  0
DICTIONARY
  5
26E
102
{ACAD_REACTORS
330
C
102
}
330
C
100
AcDbDictionary
281
     1
  3
CANNOSCALE
350
26F
  3
CMLEADERSTYLE
350
274
  3
CTABLESTYLE
350
273
  0
LAYOUT
  5
1E
102
{ACAD_REACTORS
330
1A
102
}
330
1A
100
AcDbPlotSettings
  1

  2
none_device
  4

  6

 40
0.0
 41
0.0
 42
0.0
 43
0.0
 44
0.0
 45
0.0
 46
0.0
 47
0.0
 48
0.0
 49
0.0
140
0.0
141
0.0
142
1.0
143
1.0
 70
   688
 72
     0
 73
     0
 74
     5
  7

 75
    16
 76
     0
 77
     2
 78
   300
147
1.0
148
0.0
149
0.0
100
AcDbLayout
  1
Layout1
 70
     1
 71
     1
 10
0.0
 20
0.0
 11
12.0
 21
9.0
 12
0.0
 22
0.0
 32
0.0
 14
1.000000000000000E+20
 24
1.000000000000000E+20
 34
1.000000000000000E+20
 15
-1.000000000000000E+20
 25
-1.000000000000000E+20
 35
-1.000000000000000E+20
146
0.0
 13
0.0
 23
0.0
 33
0.0
 16
1.0
 26
0.0
 36
0.0
 17
0.0
 27
1.0
 37
0.0
 76
     0
330
1B
  0
LAYOUT
  5
26
102
{ACAD_REACTORS
330
1A
102
}
330
1A
100
AcDbPlotSettings
  1

  2
none_device
  4

  6

 40
0.0
 41
0.0
 42
0.0
 43
0.0
 44
0.0
 45
0.0
 46
0.0
 47
0.0
 48
0.0
 49
0.0
140
0.0
141
0.0
142
1.0
143
1.0
 70
   688
 72
     0
 73
     0
 74
     5
  7

 75
    16
 76
     0
 77
     2
 78
   300
147
1.0
148
0.0
149
0.0
100
AcDbLayout
  1
Layout2
 70
     1
 71
     2
 10
0.0
 20
0.0
 11
0.0
 21
0.0
 12
0.0
 22
0.0
 32
0.0
 14
0.0
 24
0.0
 34
0.0
 15
0.0
 25
0.0
 35
0.0
146
0.0
 13
0.0
 23
0.0
 33
0.0
 16
1.0
 26
0.0
 36
0.0
 17
0.0
 27
1.0
 37
0.0
 76
     0
330
23
  0
LAYOUT
  5
22
102
{ACAD_REACTORS
330
1A
102
}
330
1A
100
AcDbPlotSettings
  1

  2
none_device
  4
Letter_(8.50_x_11.00_Inches)
  6

 40
6.35
 41
6.35
 42
6.35000508
 43
6.35000508
 44
215.9
 45
279.4
 46
0.0
 47
0.0
 48
0.0
 49
0.0
140
0.0
141
0.0
142
1.0
143
1.0
 70
  1712
 72
     0
 73
     0
 74
     0
  7

 75
     0
 76
     0
 77
     2
 78
   300
147
1.0
148
0.0
149
0.0
100
AcDbLayout
  1
Model
 70
     1
 71
     0
 10
0.0
 20
0.0
 11
12.0
 21
9.0
 12
0.0
 22
0.0
 32
0.0
 14
1.000000000000000E+20
 24
1.000000000000000E+20
 34
1.000000000000000E+20
 15
-1.000000000000000E+20
 25
-1.000000000000000E+20
 35
-1.000000000000000E+20
146
0.0
 13
0.0
 23
0.0
 33
0.0
 16
1.0
 26
0.0
 36
0.0
 17
0.0
 27
1.0
 37
0.0
 76
     0
330
1F
331
29
  0
MATERIAL
  5
45
102
{ACAD_REACTORS
330
43
102
}
330
43
100
AcDbMaterial
  1
ByBlock
 72
     1
 94
      127
  0
MATERIAL
  5
44
102
{ACAD_REACTORS
330
43
102
}
330
43
100
AcDbMaterial
  1
ByLayer
 72
     1
 94
      127
  0
MATERIAL
  5
46
102
{ACAD_REACTORS
330
43
102
}
330
43
100
AcDbMaterial
  1
Global
 72
     1
 94
      127
  0
MLEADERSTYLE
  5
6C
102
{ACAD_REACTORS
330
6B
102
}
330
6B
100
AcDbMLeaderStyle
179
     2
170
     2
171
     1
172
     0
 90
        2
 40
0.0
 41
0.0
173
     1
 91
-1056964608
340
14
 92
       -2
290
     1
 42
0.09
291
     1
 43
0.36
  3
Standard
341
0
 44
0.18
300

342
11
174
     1
178
     6
175
     1
176
     0
 93
-1056964608
 45
0.18
292
     0
297
     0
 46
0.18
343
0
 94
-1056964608
 47
1.0
 49
1.0
140
1.0
293
     1
141
0.0
294
     1
177
     0
142
1.0
295
     0
296
     0
143
0.125
271
     0
272
     9
273
     9
298
     0
  0
MLINESTYLE
  5
18
102
{ACAD_REACTORS
330
17
102
}
330
17
100
AcDbMlineStyle
  2
Standard
 70
     0
  3

 62
   256
 51
90.0
 52
90.0
 71
     2
 49
0.5
 62
   256
  6
BYLAYER
 49
-0.5
 62
   256
  6
BYLAYER
  0
ACDBPLACEHOLDER
  5
F
102
{ACAD_REACTORS
330
E
102
}
330
E
  0
SCALE
  5
48
102
{ACAD_REACTORS
330
47
102
}
330
47
100
AcDbScale
 70
     0
300
1:1
140
1.0
141
1.0
290
     1
  0
SCALE
  5
49
102
{ACAD_REACTORS
330
47
102
}
330
47
100
AcDbScale
 70
     0
300
1:2
140
1.0
141
2.0
290
     0
  0
SCALE
  5
4A
102
{ACAD_REACTORS
330
47
102
}
330
47
100
AcDbScale
 70
     0
300
1:4
140
1.0
141
4.0
290
     0
  0
SCALE
  5
4B
102
{ACAD_REACTORS
330
47
102
}
330
47
100
AcDbScale
 70
     0
300
1:5
140
1.0
141
5.0
290
     0
  0
SCALE
  5
4C
102
{ACAD_REACTORS
330
47
102
}
330
47
100
AcDbScale
 70
     0
300
1:8
140
1.0
141
8.0
290
     0
  0
SCALE
  5
4D
102
{ACAD_REACTORS
330
47
102
}
330
47
100
AcDbScale
 70
     0
300
1:10
140
1.0
141
10.0
290
     0
  0
SCALE
  5
4E
102
{ACAD_REACTORS
330
47
102
}
330
47
100
AcDbScale
 70
     0
300
1:16
140
1.0
141
16.0
290
     0
  0
SCALE
  5
4F
102
{ACAD_REACTORS
330
47
102
}
330
47
100
AcDbScale
 70
     0
300
1:20
140
1.0
141
20.0
290
     0
  0
SCALE
  5
50
102
{ACAD_REACTORS
330
47
102
}
330
47
100
AcDbScale
 70
     0
300
1:30
140
1.0
141
30.0
290
     0
  0
SCALE
  5
51
102
{ACAD_REACTORS
330
47
102
}
330
47
100
AcDbScale
 70
     0
300
1:40
140
1.0
141
40.0
290
     0
  0
SCALE
  5
52
102
{ACAD_REACTORS
330
47
102
}
330
47
100
AcDbScale
 70
     0
300
1:50
140
1.0
141
50.0
290
     0
  0
SCALE
  5
53
102
{ACAD_REACTORS
330
47
102
}
330
47
100
AcDbScale
 70
     0
300
1:100
140
1.0
141
100.0
290
     0
  0
SCALE
  5
54
102
{ACAD_REACTORS
330
47
102
}
330
47
100
AcDbScale
 70
     0
300
2:1
140
2.0
141
1.0
290
     0
  0
SCALE
  5
55
102
{ACAD_REACTORS
330
47
102
}
330
47
100
AcDbScale
 70
     0
300
4:1
140
4.0
141
1.0
290
     0
  0
SCALE
  5
56
102
{ACAD_REACTORS
330
47
102
}
330
47
100
AcDbScale
 70
     0
300
8:1
140
8.0
141
1.0
290
     0
  0
SCALE
  5
57
102
{ACAD_REACTORS
330
47
102
}
330
47
100
AcDbScale
 70
     0
300
10:1
140
10.0
141
1.0
290
     0
  0
SCALE
  5
58
102
{ACAD_REACTORS
330
47
102
}
330
47
100
AcDbScale
 70
     0
300
100:1
140
100.0
141
1.0
290
     0
  0
SCALE
  5
59
102
{ACAD_REACTORS
330
47
102
}
330
47
100
AcDbScale
 70
     0
300
1/128" = 1'-0"
140
0.0078125
141
12.0
290
     0
  0
SCALE
  5
5A
102
{ACAD_REACTORS
330
47
102
}
330
47
100
AcDbScale
 70
     0
300
1/64" = 1'-0"
140
0.015625
141
12.0
290
     0
  0
SCALE
  5
5B
102
{ACAD_REACTORS
330
47
102
}
330
47
100
AcDbScale
 70
     0
300
1/32" = 1'-0"
140
0.03125
141
12.0
290
     0
  0
SCALE
  5
5C
102
{ACAD_REACTORS
330
47
102
}
330
47
100
AcDbScale
 70
     0
300
1/16" = 1'-0"
140
0.0625
141
12.0
290
     0
  0
SCALE
  5
5D
102
{ACAD_REACTORS
330
47
102
}
330
47
100
AcDbScale
 70
     0
300
3/32" = 1'-0"
140
0.09375
141
12.0
290
     0
  0
SCALE
  5
5E
102
{ACAD_REACTORS
330
47
102
}
330
47
100
AcDbScale
 70
     0
300
1/8" = 1'-0"
140
0.125
141
12.0
290
     0
  0
SCALE
  5
5F
102
{ACAD_REACTORS
330
47
102
}
330
47
100
AcDbScale
 70
     0
300
3/16" = 1'-0"
140
0.1875
141
12.0
290
     0
  0
SCALE
  5
60
102
{ACAD_REACTORS
330
47
102
}
330
47
100
AcDbScale
 70
     0
300
1/4" = 1'-0"
140
0.25
141
12.0
290
     0
  0
SCALE
  5
61
102
{ACAD_REACTORS
330
47
102
}
330
47
100
AcDbScale
 70
     0
300
3/8" = 1'-0"
140
0.375
141
12.0
290
     0
  0
SCALE
  5
62
102
{ACAD_REACTORS
330
47
102
}
330
47
100
AcDbScale
 70
     0
300
1/2" = 1'-0"
140
0.5
141
12.0
290
     0
  0
SCALE
  5
63
102
{ACAD_REACTORS
330
47
102
}
330
47
100
AcDbScale
 70
     0
300
3/4" = 1'-0"
140
0.75
141
12.0
290
     0
  0
SCALE
  5
64
102
{ACAD_REACTORS
330
47
102
}
330
47
100
AcDbScale
 70
     0
300
1" = 1'-0"
140
1.0
141
12.0
290
     0
  0
SCALE
  5
65
102
{ACAD_REACTORS
330
47
102
}
330
47
100
AcDbScale
 70
     0
300
1-1/2" = 1'-0"
140
1.5
141
12.0
290
     0
  0
SCALE
  5
66
102
{ACAD_REACTORS
330
47
102
}
330
47
100
AcDbScale
 70
     0
300
3" = 1'-0"
140
3.0
141
12.0
290
     0
  0
SCALE
  5
67
102
{ACAD_REACTORS
330
47
102
}
330
47
100
AcDbScale
 70
     0
300
6" = 1'-0"
140
6.0
141
12.0
290
     0
  0
SCALE
  5
68
102
{ACAD_REACTORS
330
47
102
}
330
47
100
AcDbScale
 70
     0
300
1'-0" = 1'-0"
140
12.0
141
12.0
290
     0
  0
TABLESTYLE
  5
6A
102
{ACAD_REACTORS
330
69
102
}
102
{ACAD_XDICTIONARY
360
270
102
}
330
69
100
AcDbTableStyle
  3
Standard
 70
     0
 71
     0
 40
0.06
 41
0.06
280
     0
281
     0
  7
Standard
140
0.18
170
     2
 62
     0
 63
   257
283
     0
 90
        4
 91
        0
  1

274
    -2
284
     1
 64
     0
275
    -2
285
     1
 65
     0
276
    -2
286
     1
 66
     0
277
    -2
287
     1
 67
     0
278
    -2
288
     1
 68
     0
279
    -2
289
     1
 69
     0
  7
Standard
140
0.25
170
     5
 62
     0
 63
   257
283
     0
 90
        4
 91
        0
  1

274
    -2
284
     1
 64
     0
275
    -2
285
     1
 65
     0
276
    -2
286
     1
 66
     0
277
    -2
287
     1
 67
     0
278
    -2
288
     1
 68
     0
279
    -2
289
     1
 69
     0
  7
Standard
140
0.18
170
     5
 62
     0
 63
   257
283
     0
 90
        4
 91
        0
  1

274
    -2
284
     1
 64
     0
275
    -2
285
     1
 65
     0
276
    -2
286
     1
 66
     0
277
    -2
287
     1
 67
     0
278
    -2
288
     1
 68
     0
279
    -2
289
     1
 69
     0
  0
VISUALSTYLE
  5
2F
102
{ACAD_REACTORS
330
2A
102
}
330
2A
100
AcDbVisualStyle
  2
2dWireframe
 70
     4
177
     3
291
     0
 70
    58
 90
        0
176
     1
 90
        2
176
     1
 90
        0
176
     1
 90
        0
176
     1
 40
0.6
176
     1
 40
30.0
176
     1
 62
     7
420
 16777215
176
     1
 90
        1
176
     1
 90
        4
176
     1
 62
     7
176
     1
 62
   257
176
     1
 90
        1
176
     1
 90
        1
176
     1
 40
1.0
176
     1
 90
        0
176
     1
 62
   257
176
     1
 40
1.0
176
     1
 90
        1
176
     1
 90
        6
176
     1
 90
        2
176
     1
 62
     7
176
     1
 90
        5
176
     1
 90
        0
176
     1
 90
        0
176
     1
290
     0
176
     1
 90
        1
176
     1
 40
0.0
176
     1
 90
        0
176
     1
290
     1
176
     1
290
     1
176
     1
290
     0
176
     1
290
     0
176
     1
290
     0
176
     1
290
     0
176
     1
290
     0
176
     1
290
     0
176
     1
290
     0
176
     1
 90
       50
176
     1
 40
0.0
176
     1
 40
1.0
176
     1
 90
        0
176
     1
 62
    18
420
        0
176
     1
 90
       50
176
     1
 90
        3
176
     1
 62
     5
420
      255
176
     1
290
     0
176
     1
 90
       50
176
     1
 90
       50
176
     1
 90
       50
176
     1
290
     0
176
     1
 90
       50
176
     1
 62
   256
176
     0
 40
1.0
176
     0
 90
        2
176
     1
  1
strokes_ogs.tif
176
     1
290
     0
176
     1
 40
1.0
176
     1
 40
1.0
176
     1
  0
VISUALSTYLE
  5
32
102
{ACAD_REACTORS
330
2A
102
}
330
2A
100
AcDbVisualStyle
  2
Basic
 70
     7
177
     3
291
     1
 70
    58
 90
        1
176
     1
 90
        0
176
     1
 90
        1
176
     1
 90
        0
176
     1
 40
0.6
176
     1
 40
30.0
176
     1
 62
     7
420
 16777215
176
     1
 90
        0
176
     1
 90
        4
176
     1
 62
     7
176
     1
 62
   257
176
     1
 90
        1
176
     1
 90
        1
176
     1
 40
1.0
176
     1
 90
        8
176
     1
 62
     7
176
     1
 40
1.0
176
     1
 90
        1
176
     1
 90
        6
176
     1
 90
        2
176
     1
 62
     7
176
     1
 90
        5
176
     1
 90
        0
176
     1
 90
        0
176
     1
290
     0
176
     1
 90
        1
176
     1
 40
0.0
176
     1
 90
        0
176
     1
290
     0
176
     1
290
     1
176
     1
290
     1
176
     1
290
     0
176
     1
290
     0
176
     1
290
     0
176
     1
290
     0
176
     1
290
     0
176
     1
290
     0
176
     1
 90
       50
176
     1
 40
0.0
176
     1
 40
1.0
176
     1
 90
        0
176
     1
 62
    18
420
        0
176
     1
 90
       50
176
     1
 90
        3
176
     1
 62
     5
420
      255
176
     1
290
     0
176
     1
 90
       50
176
     1
 90
       50
176
     1
 90
       50
176
     1
290
     0
176
     1
 90
       50
176
     1
 62
   256
176
     0
 40
1.0
176
     0
 90
        2
176
     1
  1
strokes_ogs.tif
176
     1
290
     0
176
     1
 40
1.0
176
     1
 40
1.0
176
     1
  0
VISUALSTYLE
  5
36
102
{ACAD_REACTORS
330
2A
102
}
330
2A
100
AcDbVisualStyle
  2
Brighten
 70
    12
177
     3
291
     1
 70
    58
 90
        2
176
     1
 90
        2
176
     1
 90
        0
176
     1
 90
        0
176
     1
 40
0.6
176
     1
 40
30.0
176
     1
 62
     7
420
 16777215
176
     1
 90
        1
176
     1
 90
        4
176
     1
 62
     7
176
     1
 62
   257
176
     1
 90
        1
176
     1
 90
        1
176
     1
 40
1.0
176
     1
 90
        8
176
     1
 62
     7
176
     1
 40
1.0
176
     1
 90
        1
176
     1
 90
        6
176
     1
 90
        2
176
     1
 62
     7
176
     1
 90
        5
176
     1
 90
        0
176
     1
 90
        0
176
     1
290
     0
176
     1
 90
        1
176
     1
 40
50.0
176
     1
 90
        0
176
     1
290
     0
176
     1
290
     1
176
     1
290
     1
176
     1
290
     0
176
     1
290
     0
176
     1
290
     0
176
     1
290
     0
176
     1
290
     0
176
     1
290
     0
176
     1
 90
       50
176
     1
 40
0.0
176
     1
 40
1.0
176
     1
 90
        0
176
     1
 62
    18
420
        0
176
     1
 90
       50
176
     1
 90
        3
176
     1
 62
     5
420
      255
176
     1
290
     0
176
     1
 90
       50
176
     1
 90
       50
176
     1
 90
       50
176
     1
290
     0
176
     1
 90
       50
176
     1
 62
   256
176
     0
 40
1.0
176
     0
 90
        2
176
     1
  1
strokes_ogs.tif
176
     1
290
     0
176
     1
 40
1.0
176
     1
 40
1.0
176
     1
  0
VISUALSTYLE
  5
3A
102
{ACAD_REACTORS
330
2A
102
}
330
2A
100
AcDbVisualStyle
  2
ColorChange
 70
    16
177
     3
291
     1
 70
    58
 90
        2
176
     1
 90
        2
176
     1
 90
        3
176
     1
 90
        0
176
     1
 40
0.6
176
     1
 40
30.0
176
     1
 62
     8
420
  8421504
176
     1
 90
        1
176
     1
 90
        4
176
     1
 62
     7
176
     1
 62
   257
176
     1
 90
        1
176
     1
 90
        1
176
     1
 40
1.0
176
     1
 90
        8
176
     1
 62
     8
420
  8421504
176
     1
 40
1.0
176
     1
 90
        1
176
     1
 90
        6
176
     1
 90
        2
176
     1
 62
     7
176
     1
 90
        5
176
     1
 90
        0
176
     1
 90
        0
176
     1
290
     0
176
     1
 90
        1
176
     1
 40
0.0
176
     1
 90
        0
176
     1
290
     0
176
     1
290
     1
176
     1
290
     1
176
     1
290
     0
176
     1
290
     0
176
     1
290
     0
176
     1
290
     0
176
     1
290
     0
176
     1
290
     0
176
     1
 90
       50
176
     1
 40
0.0
176
     1
 40
1.0
176
     1
 90
        0
176
     1
 62
    18
420
        0
176
     1
 90
       50
176
     1
 90
        3
176
     1
 62
     5
420
      255
176
     1
290
     0
176
     1
 90
       50
176
     1
 90
       50
176
     1
 90
       50
176
     1
290
     0
176
     1
 90
       50
176
     1
 62
   256
176
     0
 40
1.0
176
     0
 90
        2
176
     1
  1
strokes_ogs.tif
176
     1
290
     0
176
     1
 40
1.0
176
     1
 40
1.0
176
     1
  0
VISUALSTYLE
  5
34
102
{ACAD_REACTORS
330
2A
102
}
330
2A
100
AcDbVisualStyle
  2
Conceptual
 70
     9
177
     3
291
     0
 70
    58
 90
        3
176
     1
 90
        2
176
     1
 90
        0
176
     1
 90
        0
176
     1
 40
0.6
176
     1
 40
30.0
176
     1
 62
     7
420
 16777215
176
     1
 90
        2
176
     1
 90
        2
176
     1
 62
     7
176
     1
 62
   257
176
     1
 90
        1
176
     1
 90
        1
176
     1
 40
179.0
176
     1
 90
        8
176
     1
 62
     7
176
     1
 40
1.0
176
     1
 90
        1
176
     1
 90
        6
176
     1
 90
        2
176
     1
 62
     7
176
     1
 90
        3
176
     1
 90
        0
176
     1
 90
        0
176
     1
290
     0
176
     1
 90
        1
176
     1
 40
0.0
176
     1
 90
        0
176
     1
290
     0
176
     1
290
     1
176
     1
290
     1
176
     1
290
     0
176
     1
290
     0
176
     1
290
     0
176
     1
290
     0
176
     1
290
     0
176
     1
290
     0
176
     1
 90
       50
176
     1
 40
0.0
176
     1
 40
1.0
176
     1
 90
        0
176
     1
 62
    18
420
        0
176
     1
 90
       50
176
     1
 90
        3
176
     1
 62
     5
420
      255
176
     1
290
     0
176
     1
 90
       50
176
     1
 90
       50
176
     1
 90
       50
176
     1
290
     0
176
     1
 90
       50
176
     1
 62
   256
176
     0
 40
1.0
176
     0
 90
        2
176
     1
  1
strokes_ogs.tif
176
     1
290
     0
176
     1
 40
1.0
176
     1
 40
1.0
176
     1
  0
VISUALSTYLE
  5
35
102
{ACAD_REACTORS
330
2A
102
}
330
2A
100
AcDbVisualStyle
  2
Dim
 70
    11
177
     3
291
     1
 70
    58
 90
        2
176
     1
 90
        2
176
     1
 90
        0
176
     1
 90
        0
176
     1
 40
0.6
176
     1
 40
30.0
176
     1
 62
     7
420
 16777215
176
     1
 90
        1
176
     1
 90
        4
176
     1
 62
     7
176
     1
 62
   257
176
     1
 90
        1
176
     1
 90
        1
176
     1
 40
1.0
176
     1
 90
        8
176
     1
 62
     7
176
     1
 40
1.0
176
     1
 90
        1
176
     1
 90
        6
176
     1
 90
        2
176
     1
 62
     7
176
     1
 90
        5
176
     1
 90
        0
176
     1
 90
        0
176
     1
290
     0
176
     1
 90
        1
176
     1
 40
-50.0
176
     1
 90
        0
176
     1
290
     0
176
     1
290
     1
176
     1
290
     1
176
     1
290
     0
176
     1
290
     0
176
     1
290
     0
176
     1
290
     0
176
     1
290
     0
176
     1
290
     0
176
     1
 90
       50
176
     1
 40
0.0
176
     1
 40
1.0
176
     1
 90
        0
176
     1
 62
    18
420
        0
176
     1
 90
       50
176
     1
 90
        3
176
     1
 62
     5
420
      255
176
     1
290
     0
176
     1
 90
       50
176
     1
 90
       50
176
     1
 90
       50
176
     1
290
     0
176
     1
 90
       50
176
     1
 62
   256
176
     0
 40
1.0
176
     0
 90
        2
176
     1
  1
strokes_ogs.tif
176
     1
290
     0
176
     1
 40
1.0
176
     1
 40
1.0
176
     1
  0
VISUALSTYLE
  5
3D
102
{ACAD_REACTORS
330
2A
102
}
330
2A
100
AcDbVisualStyle
  2
EdgeColorOff
 70
    22
177
     3
291
     1
 70
    58
 90
        2
176
     0
 90
        2
176
     0
 90
        0
176
     0
 90
        0
176
     0
 40
0.6
176
     0
 40
30.0
176
     0
 62
     7
420
 16777215
176
     0
 90
        1
176
     0
 90
        4
176
     0
 62
     7
176
     0
 62
   257
176
     0
 90
        1
176
     0
 90
        1
176
     0
 40
1.0
176
     0
 90
        8
176
     2
 62
     7
176
     0
 40
1.0
176
     0
 90
        1
176
     0
 90
        6
176
     0
 90
        2
176
     0
 62
     7
176
     0
 90
        5
176
     0
 90
        0
176
     0
 90
        0
176
     0
290
     0
176
     0
 90
        1
176
     0
 40
0.0
176
     0
 90
        0
176
     0
290
     0
176
     0
290
     1
176
     0
290
     1
176
     0
290
     0
176
     0
290
     0
176
     0
290
     0
176
     0
290
     0
176
     0
290
     0
176
     0
290
     0
176
     0
 90
       50
176
     0
 40
0.0
176
     0
 40
1.0
176
     0
 90
        0
176
     0
 62
    18
420
        0
176
     0
 90
       50
176
     0
 90
        3
176
     0
 62
     5
420
      255
176
     0
290
     0
176
     0
 90
       50
176
     0
 90
       50
176
     0
 90
       50
176
     0
290
     0
176
     0
 90
       50
176
     0
 62
   256
176
     0
 40
1.0
176
     0
 90
        2
176
     0
  1
strokes_ogs.tif
176
     0
290
     0
176
     0
 40
1.0
176
     0
 40
1.0
176
     0
  0
VISUALSTYLE
  5
39
102
{ACAD_REACTORS
330
2A
102
}
330
2A
100
AcDbVisualStyle
  2
Facepattern
 70
    15
177
     3
291
     1
 70
    58
 90
        2
176
     1
 90
        2
176
     1
 90
        0
176
     1
 90
        0
176
     1
 40
0.6
176
     1
 40
30.0
176
     1
 62
     7
420
 16777215
176
     1
 90
        1
176
     1
 90
        4
176
     1
 62
     7
176
     1
 62
   257
176
     1
 90
        1
176
     1
 90
        1
176
     1
 40
1.0
176
     1
 90
        8
176
     1
 62
     7
176
     1
 40
1.0
176
     1
 90
        1
176
     1
 90
        6
176
     1
 90
        2
176
     1
 62
     7
176
     1
 90
        5
176
     1
 90
        0
176
     1
 90
        0
176
     1
290
     0
176
     1
 90
        1
176
     1
 40
0.0
176
     1
 90
        0
176
     1
290
     0
176
     1
290
     1
176
     1
290
     1
176
     1
290
     0
176
     1
290
     0
176
     1
290
     0
176
     1
290
     0
176
     1
290
     0
176
     1
290
     0
176
     1
 90
       50
176
     1
 40
0.0
176
     1
 40
1.0
176
     1
 90
        0
176
     1
 62
    18
420
        0
176
     1
 90
       50
176
     1
 90
        3
176
     1
 62
     5
420
      255
176
     1
290
     0
176
     1
 90
       50
176
     1
 90
       50
176
     1
 90
       50
176
     1
290
     0
176
     1
 90
       50
176
     1
 62
   256
176
     0
 40
1.0
176
     0
 90
        2
176
     1
  1
strokes_ogs.tif
176
     1
290
     0
176
     1
 40
1.0
176
     1
 40
1.0
176
     1
  0
VISUALSTYLE
  5
2B
102
{ACAD_REACTORS
330
2A
102
}
330
2A
100
AcDbVisualStyle
  2
Flat
 70
     0
177
     3
291
     1
 70
    58
 90
        2
176
     1
 90
        1
176
     1
 90
        1
176
     1
 90
        2
176
     1
 40
0.6
176
     1
 40
30.0
176
     1
 62
     7
420
 16777215
176
     1
 90
        0
176
     1
 90
        0
176
     1
 62
     7
176
     1
 62
   257
176
     1
 90
        1
176
     1
 90
        1
176
     1
 40
1.0
176
     1
 90
        8
176
     1
 62
     7
176
     1
 40
1.0
176
     1
 90
        1
176
     1
 90
        6
176
     1
 90
        2
176
     1
 62
     7
176
     1
 90
        5
176
     1
 90
        0
176
     1
 90
        0
176
     1
290
     0
176
     1
 90
       13
176
     1
 40
0.0
176
     1
 90
        0
176
     1
290
     0
176
     1
290
     1
176
     1
290
     1
176
     1
290
     0
176
     1
290
     0
176
     1
290
     0
176
     1
290
     0
176
     1
290
     0
176
     1
290
     0
176
     1
 90
       50
176
     1
 40
0.0
176
     1
 40
1.0
176
     1
 90
        0
176
     1
 62
    18
420
        0
176
     1
 90
       50
176
     1
 90
        3
176
     1
 62
     5
420
      255
176
     1
290
     0
176
     1
 90
       50
176
     1
 90
       50
176
     1
 90
       50
176
     1
290
     0
176
     1
 90
       50
176
     1
 62
   256
176
     0
 40
1.0
176
     0
 90
        2
176
     1
  1
strokes_ogs.tif
176
     1
290
     0
176
     1
 40
1.0
176
     1
 40
1.0
176
     1
  0
VISUALSTYLE
  5
2C
102
{ACAD_REACTORS
330
2A
102
}
330
2A
100
AcDbVisualStyle
  2
FlatWithEdges
 70
     1
177
     3
291
     1
 70
    58
 90
        2
176
     1
 90
        1
176
     1
 90
        1
176
     1
 90
        2
176
     1
 40
0.6
176
     1
 40
30.0
176
     1
 62
     7
420
 16777215
176
     1
 90
        1
176
     1
 90
        0
176
     1
 62
     7
176
     1
 62
   257
176
     1
 90
        1
176
     1
 90
        1
176
     1
 40
1.0
176
     1
 90
        0
176
     1
 62
   257
176
     1
 40
1.0
176
     1
 90
        1
176
     1
 90
        6
176
     1
 90
        2
176
     1
 62
     7
176
     1
 90
        5
176
     1
 90
        0
176
     1
 90
        0
176
     1
290
     0
176
     1
 90
       13
176
     1
 40
0.0
176
     1
 90
        0
176
     1
290
     0
176
     1
290
     1
176
     1
290
     1
176
     1
290
     0
176
     1
290
     0
176
     1
290
     0
176
     1
290
     0
176
     1
290
     0
176
     1
290
     0
176
     1
 90
       50
176
     1
 40
0.0
176
     1
 40
1.0
176
     1
 90
        0
176
     1
 62
    18
420
        0
176
     1
 90
       50
176
     1
 90
        3
176
     1
 62
     5
420
      255
176
     1
290
     0
176
     1
 90
       50
176
     1
 90
       50
176
     1
 90
       50
176
     1
290
     0
176
     1
 90
       50
176
     1
 62
   256
176
     0
 40
1.0
176
     0
 90
        2
176
     1
  1
strokes_ogs.tif
176
     1
290
     0
176
     1
 40
1.0
176
     1
 40
1.0
176
     1
  0
VISUALSTYLE
  5
2D
102
{ACAD_REACTORS
330
2A
102
}
330
2A
100
AcDbVisualStyle
  2
Gouraud
 70
     2
177
     3
291
     1
 70
    58
 90
        2
176
     1
 90
        2
176
     1
 90
        1
176
     1
 90
        2
176
     1
 40
0.6
176
     1
 40
30.0
176
     1
 62
     7
420
 16777215
176
     1
 90
        0
176
     1
 90
        0
176
     1
 62
     7
176
     1
 62
   257
176
     1
 90
        1
176
     1
 90
        1
176
     1
 40
1.0
176
     1
 90
        0
176
     1
 62
     7
176
     1
 40
1.0
176
     1
 90
        1
176
     1
 90
        6
176
     1
 90
        2
176
     1
 62
     7
176
     1
 90
        5
176
     1
 90
        0
176
     1
 90
        0
176
     1
290
     0
176
     1
 90
       13
176
     1
 40
0.0
176
     1
 90
        0
176
     1
290
     0
176
     1
290
     1
176
     1
290
     1
176
     1
290
     0
176
     1
290
     0
176
     1
290
     0
176
     1
290
     0
176
     1
290
     0
176
     1
290
     0
176
     1
 90
       50
176
     1
 40
0.0
176
     1
 40
1.0
176
     1
 90
        0
176
     1
 62
    18
420
        0
176
     1
 90
       50
176
     1
 90
        3
176
     1
 62
     5
420
      255
176
     1
290
     0
176
     1
 90
       50
176
     1
 90
       50
176
     1
 90
       50
176
     1
290
     0
176
     1
 90
       50
176
     1
 62
   256
176
     0
 40
1.0
176
     0
 90
        2
176
     1
  1
strokes_ogs.tif
176
     1
290
     0
176
     1
 40
1.0
176
     1
 40
1.0
176
     1
  0
VISUALSTYLE
  5
2E
102
{ACAD_REACTORS
330
2A
102
}
330
2A
100
AcDbVisualStyle
  2
GouraudWithEdges
 70
     3
177
     3
291
     1
 70
    58
 90
        2
176
     1
 90
        2
176
     1
 90
        1
176
     1
 90
        2
176
     1
 40
0.6
176
     1
 40
30.0
176
     1
 62
     7
420
 16777215
176
     1
 90
        1
176
     1
 90
        0
176
     1
 62
     7
176
     1
 62
   257
176
     1
 90
        1
176
     1
 90
        1
176
     1
 40
1.0
176
     1
 90
        0
176
     1
 62
   257
176
     1
 40
1.0
176
     1
 90
        1
176
     1
 90
        6
176
     1
 90
        2
176
     1
 62
     7
176
     1
 90
        5
176
     1
 90
        0
176
     1
 90
        0
176
     1
290
     0
176
     1
 90
       13
176
     1
 40
0.0
176
     1
 90
        0
176
     1
290
     0
176
     1
290
     1
176
     1
290
     1
176
     1
290
     0
176
     1
290
     0
176
     1
290
     0
176
     1
290
     0
176
     1
290
     0
176
     1
290
     0
176
     1
 90
       50
176
     1
 40
0.0
176
     1
 40
1.0
176
     1
 90
        0
176
     1
 62
    18
420
        0
176
     1
 90
       50
176
     1
 90
        3
176
     1
 62
     5
420
      255
176
     1
290
     0
176
     1
 90
       50
176
     1
 90
       50
176
     1
 90
       50
176
     1
290
     0
176
     1
 90
       50
176
     1
 62
   256
176
     0
 40
1.0
176
     0
 90
        2
176
     1
  1
strokes_ogs.tif
176
     1
290
     0
176
     1
 40
1.0
176
     1
 40
1.0
176
     1
  0
VISUALSTYLE
  5
31
102
{ACAD_REACTORS
330
2A
102
}
330
2A
100
AcDbVisualStyle
  2
Hidden
 70
     6
177
     3
291
     0
 70
    58
 90
        1
176
     1
 90
        2
176
     1
 90
        2
176
     1
 90
        0
176
     1
 40
0.6
176
     1
 40
30.0
176
     1
 62
     7
420
 16777215
176
     1
 90
        2
176
     1
 90
        2
176
     1
 62
     7
176
     1
 62
   257
176
     1
 90
        2
176
     1
 90
        1
176
     1
 40
40.0
176
     1
 90
        0
176
     1
 62
   257
176
     1
 40
1.0
176
     1
 90
        1
176
     1
 90
        6
176
     1
 90
        2
176
     1
 62
     7
176
     1
 90
        3
176
     1
 90
        0
176
     1
 90
        0
176
     1
290
     0
176
     1
 90
        1
176
     1
 40
0.0
176
     1
 90
        0
176
     1
290
     0
176
     1
290
     1
176
     1
290
     1
176
     1
290
     0
176
     1
290
     0
176
     1
290
     0
176
     1
290
     0
176
     1
290
     0
176
     1
290
     0
176
     1
 90
       50
176
     1
 40
0.0
176
     1
 40
1.0
176
     1
 90
        0
176
     1
 62
    18
420
        0
176
     1
 90
       50
176
     1
 90
        3
176
     1
 62
     5
420
      255
176
     1
290
     0
176
     1
 90
       50
176
     1
 90
       50
176
     1
 90
       50
176
     1
290
     0
176
     1
 90
       50
176
     1
 62
   256
176
     0
 40
1.0
176
     0
 90
        2
176
     1
  1
strokes_ogs.tif
176
     1
290
     0
176
     1
 40
1.0
176
     1
 40
1.0
176
     1
  0
VISUALSTYLE
  5
3B
102
{ACAD_REACTORS
330
2A
102
}
330
2A
100
AcDbVisualStyle
  2
JitterOff
 70
    20
177
     3
291
     1
 70
    58
 90
        2
176
     0
 90
        2
176
     0
 90
        0
176
     0
 90
        0
176
     0
 40
0.6
176
     0
 40
30.0
176
     0
 62
     7
420
 16777215
176
     0
 90
        1
176
     0
 90
        4
176
     0
 62
     7
176
     0
 62
   257
176
     0
 90
        1
176
     0
 90
        1
176
     0
 40
1.0
176
     0
 90
       10
176
     2
 62
     7
176
     0
 40
1.0
176
     0
 90
        1
176
     0
 90
        6
176
     0
 90
        2
176
     0
 62
     7
176
     0
 90
        5
176
     0
 90
        0
176
     0
 90
        0
176
     0
290
     0
176
     0
 90
        1
176
     0
 40
0.0
176
     0
 90
        0
176
     0
290
     0
176
     0
290
     1
176
     0
290
     1
176
     0
290
     0
176
     0
290
     0
176
     0
290
     0
176
     0
290
     0
176
     0
290
     0
176
     0
290
     0
176
     0
 90
       50
176
     0
 40
0.0
176
     0
 40
1.0
176
     0
 90
        0
176
     0
 62
    18
420
        0
176
     0
 90
       50
176
     0
 90
        3
176
     0
 62
     5
420
      255
176
     0
290
     0
176
     0
 90
       50
176
     0
 90
       50
176
     0
 90
       50
176
     0
290
     0
176
     0
 90
       50
176
     0
 62
   256
176
     0
 40
1.0
176
     0
 90
        2
176
     0
  1
strokes_ogs.tif
176
     0
290
     0
176
     0
 40
1.0
176
     0
 40
1.0
176
     0
  0
VISUALSTYLE
  5
38
102
{ACAD_REACTORS
330
2A
102
}
330
2A
100
AcDbVisualStyle
  2
Linepattern
 70
    14
177
     3
291
     1
 70
    58
 90
        2
176
     1
 90
        2
176
     1
 90
        0
176
     1
 90
        0
176
     1
 40
0.6
176
     1
 40
30.0
176
     1
 62
     7
420
 16777215
176
     1
 90
        1
176
     1
 90
        4
176
     1
 62
     7
176
     1
 62
   257
176
     1
 90
        7
176
     1
 90
        7
176
     1
 40
1.0
176
     1
 90
        8
176
     1
 62
     7
176
     1
 40
1.0
176
     1
 90
        1
176
     1
 90
        6
176
     1
 90
        2
176
     1
 62
     7
176
     1
 90
        5
176
     1
 90
        0
176
     1
 90
        0
176
     1
290
     0
176
     1
 90
        1
176
     1
 40
0.0
176
     1
 90
        0
176
     1
290
     0
176
     1
290
     1
176
     1
290
     1
176
     1
290
     0
176
     1
290
     0
176
     1
290
     0
176
     1
290
     0
176
     1
290
     0
176
     1
290
     0
176
     1
 90
       50
176
     1
 40
0.0
176
     1
 40
1.0
176
     1
 90
        0
176
     1
 62
    18
420
        0
176
     1
 90
       50
176
     1
 90
        3
176
     1
 62
     5
420
      255
176
     1
290
     0
176
     1
 90
       50
176
     1
 90
       50
176
     1
 90
       50
176
     1
290
     0
176
     1
 90
       50
176
     1
 62
   256
176
     0
 40
1.0
176
     0
 90
        2
176
     1
  1
strokes_ogs.tif
176
     1
290
     0
176
     1
 40
1.0
176
     1
 40
1.0
176
     1
  0
VISUALSTYLE
  5
3C
102
{ACAD_REACTORS
330
2A
102
}
330
2A
100
AcDbVisualStyle
  2
OverhangOff
 70
    21
177
     3
291
     1
 70
    58
 90
        2
176
     0
 90
        2
176
     0
 90
        0
176
     0
 90
        0
176
     0
 40
0.6
176
     0
 40
30.0
176
     0
 62
     7
420
 16777215
176
     0
 90
        1
176
     0
 90
        4
176
     0
 62
     7
176
     0
 62
   257
176
     0
 90
        1
176
     0
 90
        1
176
     0
 40
1.0
176
     0
 90
        9
176
     2
 62
     7
176
     0
 40
1.0
176
     0
 90
        1
176
     0
 90
        6
176
     0
 90
        2
176
     0
 62
     7
176
     0
 90
        5
176
     0
 90
        0
176
     0
 90
        0
176
     0
290
     0
176
     0
 90
        1
176
     0
 40
0.0
176
     0
 90
        0
176
     0
290
     0
176
     0
290
     1
176
     0
290
     1
176
     0
290
     0
176
     0
290
     0
176
     0
290
     0
176
     0
290
     0
176
     0
290
     0
176
     0
290
     0
176
     0
 90
       50
176
     0
 40
0.0
176
     0
 40
1.0
176
     0
 90
        0
176
     0
 62
    18
420
        0
176
     0
 90
       50
176
     0
 90
        3
176
     0
 62
     5
420
      255
176
     0
290
     0
176
     0
 90
       50
176
     0
 90
       50
176
     0
 90
       50
176
     0
290
     0
176
     0
 90
       50
176
     0
 62
   256
176
     0
 40
1.0
176
     0
 90
        2
176
     0
  1
strokes_ogs.tif
176
     0
290
     0
176
     0
 40
1.0
176
     0
 40
1.0
176
     0
  0
VISUALSTYLE
  5
33
102
{ACAD_REACTORS
330
2A
102
}
330
2A
100
AcDbVisualStyle
  2
Realistic
 70
     8
177
     3
291
     0
 70
    58
 90
        2
176
     1
 90
        3
176
     1
 90
        0
176
     1
 90
        2
176
     1
 40
0.6
176
     1
 40
30.0
176
     1
 62
     7
420
 16777215
176
     1
 90
        0
176
     1
 90
        0
176
     1
 62
     7
176
     1
 62
   257
176
     1
 90
        1
176
     1
 90
        1
176
     1
 40
1.0
176
     1
 90
        8
176
     1
 62
   257
176
     1
 40
1.0
176
     1
 90
        1
176
     1
 90
        6
176
     1
 90
        2
176
     1
 62
     7
176
     1
 90
        3
176
     1
 90
        0
176
     1
 90
        0
176
     1
290
     0
176
     1
 90
       13
176
     1
 40
0.0
176
     1
 90
        0
176
     1
290
     0
176
     1
290
     1
176
     1
290
     1
176
     1
290
     0
176
     1
290
     0
176
     1
290
     0
176
     1
290
     0
176
     1
290
     0
176
     1
290
     0
176
     1
 90
       50
176
     1
 40
0.0
176
     1
 40
1.0
176
     1
 90
        0
176
     1
 62
    18
420
        0
176
     1
 90
       50
176
     1
 90
        3
176
     1
 62
     5
420
      255
176
     1
290
     0
176
     1
 90
       50
176
     1
 90
       50
176
     1
 90
       50
176
     1
290
     0
176
     1
 90
       50
176
     1
 62
   256
176
     0
 40
1.0
176
     0
 90
        2
176
     1
  1
strokes_ogs.tif
176
     1
290
     0
176
     1
 40
1.0
176
     1
 40
1.0
176
     1
  0
VISUALSTYLE
  5
42
102
{ACAD_REACTORS
330
2A
102
}
330
2A
100
AcDbVisualStyle
  2
Shaded
 70
    27
177
     3
291
     0
 70
    58
 90
        2
176
     1
 90
        2
176
     1
 90
        1
176
     1
 90
        2
176
     1
 40
0.6
176
     1
 40
30.0
176
     1
 62
     7
420
 16777215
176
     1
 90
        0
176
     1
 90
        4
176
     1
 62
     7
176
     1
 62
   257
176
     1
 90
        1
176
     1
 90
        1
176
     1
 40
1.0
176
     1
 90
        8
176
     1
 62
   257
176
     1
 40
1.0
176
     1
 90
        1
176
     1
 90
        6
176
     1
 90
        2
176
     1
 62
     8
420
  7895160
176
     1
 90
        3
176
     1
 90
        0
176
     1
 90
        0
176
     1
290
     0
176
     1
 90
        5
176
     1
 40
0.0
176
     1
 90
        0
176
     1
290
     0
176
     1
290
     1
176
     1
290
     1
176
     1
290
     0
176
     1
290
     0
176
     1
290
     0
176
     1
290
     0
176
     1
290
     0
176
     1
290
     0
176
     1
 90
       50
176
     1
 40
0.0
176
     1
 40
1.0
176
     1
 90
        0
176
     1
 62
    18
420
        0
176
     1
 90
       50
176
     1
 90
        3
176
     1
 62
     5
420
      255
176
     1
290
     0
176
     1
 90
       50
176
     1
 90
       50
176
     1
 90
       50
176
     1
290
     0
176
     1
 90
       50
176
     1
 62
   256
176
     0
 40
1.0
176
     0
 90
        2
176
     1
  1
strokes_ogs.tif
176
     1
290
     0
176
     1
 40
1.0
176
     1
 40
1.0
176
     1
  0
VISUALSTYLE
  5
41
102
{ACAD_REACTORS
330
2A
102
}
330
2A
100
AcDbVisualStyle
  2
Shaded with edges
 70
    26
177
     3
291
     0
 70
    58
 90
        2
176
     1
 90
        2
176
     1
 90
        1
176
     1
 90
        2
176
     1
 40
0.6
176
     1
 40
30.0
176
     1
 62
     7
420
 16777215
176
     1
 90
        1
176
     1
 90
       10
176
     1
 62
     7
176
     1
 62
   257
176
     1
 90
        2
176
     1
 90
        1
176
     1
 40
1.0
176
     1
 90
        8
176
     1
 62
   257
176
     1
 40
1.0
176
     1
 90
        1
176
     1
 90
        6
176
     1
 90
        2
176
     1
 62
     7
176
     1
 90
        3
176
     1
 90
        0
176
     1
 90
        0
176
     1
290
     0
176
     1
 90
        5
176
     1
 40
0.0
176
     1
 90
        0
176
     1
290
     0
176
     1
290
     1
176
     1
290
     1
176
     1
290
     0
176
     1
290
     0
176
     1
290
     0
176
     1
290
     0
176
     1
290
     0
176
     1
290
     0
176
     1
 90
       50
176
     1
 40
0.0
176
     1
 40
1.0
176
     1
 90
        0
176
     1
 62
    18
420
        0
176
     1
 90
       50
176
     1
 90
        3
176
     1
 62
     5
420
      255
176
     1
290
     0
176
     1
 90
       50
176
     1
 90
       50
176
     1
 90
       50
176
     1
290
     0
176
     1
 90
       50
176
     1
 62
   256
176
     0
 40
1.0
176
     0
 90
        2
176
     1
  1
strokes_ogs.tif
176
     1
290
     0
176
     1
 40
1.0
176
     1
 40
1.0
176
     1
  0
VISUALSTYLE
  5
3E
102
{ACAD_REACTORS
330
2A
102
}
330
2A
100
AcDbVisualStyle
  2
Shades of Gray
 70
    23
177
     3
291
     0
 70
    58
 90
        2
176
     1
 90
        2
176
     1
 90
        3
176
     1
 90
        0
176
     1
 40
0.6
176
     1
 40
30.0
176
     1
 62
     7
420
 16777215
176
     1
 90
        2
176
     1
 90
        2
176
     1
 62
     7
176
     1
 62
     7
176
     1
 90
        1
176
     1
 90
        1
176
     1
 40
40.0
176
     1
 90
        8
176
     1
 62
     7
176
     1
 40
1.0
176
     1
 90
        1
176
     1
 90
        6
176
     1
 90
        2
176
     1
 62
     7
176
     1
 90
        3
176
     1
 90
        0
176
     1
 90
        0
176
     1
290
     0
176
     1
 90
        1
176
     1
 40
0.0
176
     1
 90
        0
176
     1
290
     0
176
     1
290
     1
176
     1
290
     1
176
     1
290
     0
176
     1
290
     0
176
     1
290
     0
176
     1
290
     0
176
     1
290
     0
176
     1
290
     0
176
     1
 90
       50
176
     1
 40
0.0
176
     1
 40
1.0
176
     1
 90
        0
176
     1
 62
    18
420
        0
176
     1
 90
       50
176
     1
 90
        3
176
     1
 62
     5
420
      255
176
     1
290
     0
176
     1
 90
       50
176
     1
 90
       50
176
     1
 90
       50
176
     1
290
     0
176
     1
 90
       50
176
     1
 62
   256
176
     0
 40
1.0
176
     0
 90
        2
176
     1
  1
strokes_ogs.tif
176
     1
290
     0
176
     1
 40
1.0
176
     1
 40
1.0
176
     1
  0
VISUALSTYLE
  5
3F
102
{ACAD_REACTORS
330
2A
102
}
330
2A
100
AcDbVisualStyle
  2
Sketchy
 70
    24
177
     3
291
     0
 70
    58
 90
        1
176
     1
 90
        2
176
     1
 90
        2
176
     1
 90
        0
176
     1
 40
0.6
176
     1
 40
30.0
176
     1
 62
     7
420
 16777215
176
     1
 90
        2
176
     1
 90
        2
176
     1
 62
     7
176
     1
 62
     7
176
     1
 90
        1
176
     1
 90
        1
176
     1
 40
40.0
176
     1
 90
       11
176
     1
 62
     7
176
     1
 40
1.0
176
     1
 90
        1
176
     1
 90
        6
176
     1
 90
        2
176
     1
 62
     7
176
     1
 90
        6
176
     1
 90
        0
176
     1
 90
        0
176
     1
290
     0
176
     1
 90
        1
176
     1
 40
0.0
176
     1
 90
        0
176
     1
290
     0
176
     1
290
     1
176
     1
290
     1
176
     1
290
     0
176
     1
290
     0
176
     1
290
     0
176
     1
290
     0
176
     1
290
     0
176
     1
290
     0
176
     1
 90
       50
176
     1
 40
0.0
176
     1
 40
1.0
176
     1
 90
        0
176
     1
 62
    18
420
        0
176
     1
 90
       50
176
     1
 90
        3
176
     1
 62
     5
420
      255
176
     1
290
     0
176
     1
 90
       50
176
     1
 90
       50
176
     1
 90
       50
176
     1
290
     0
176
     1
 90
       50
176
     1
 62
   256
176
     0
 40
1.0
176
     0
 90
        2
176
     1
  1
strokes_ogs.tif
176
     1
290
     0
176
     1
 40
1.0
176
     1
 40
1.0
176
     1
  0
VISUALSTYLE
  5
37
102
{ACAD_REACTORS
330
2A
102
}
330
2A
100
AcDbVisualStyle
  2
Thicken
 70
    13
177
     3
291
     1
 70
    58
 90
        2
176
     1
 90
        2
176
     1
 90
        0
176
     1
 90
        0
176
     1
 40
0.6
176
     1
 40
30.0
176
     1
 62
     7
420
 16777215
176
     1
 90
        1
176
     1
 90
        4
176
     1
 62
     7
176
     1
 62
   257
176
     1
 90
        1
176
     1
 90
        1
176
     1
 40
1.0
176
     1
 90
       12
176
     1
 62
     7
176
     1
 40
1.0
176
     1
 90
        1
176
     1
 90
        6
176
     1
 90
        2
176
     1
 62
     7
176
     1
 90
        5
176
     1
 90
        0
176
     1
 90
        0
176
     1
290
     0
176
     1
 90
        1
176
     1
 40
0.0
176
     1
 90
        0
176
     1
290
     0
176
     1
290
     1
176
     1
290
     1
176
     1
290
     0
176
     1
290
     0
176
     1
290
     0
176
     1
290
     0
176
     1
290
     0
176
     1
290
     0
176
     1
 90
       50
176
     1
 40
0.0
176
     1
 40
1.0
176
     1
 90
        0
176
     1
 62
    18
420
        0
176
     1
 90
       50
176
     1
 90
        3
176
     1
 62
     5
420
      255
176
     1
290
     0
176
     1
 90
       50
176
     1
 90
       50
176
     1
 90
       50
176
     1
290
     0
176
     1
 90
       50
176
     1
 62
   256
176
     0
 40
1.0
176
     0
 90
        2
176
     1
  1
strokes_ogs.tif
176
     1
290
     0
176
     1
 40
1.0
176
     1
 40
1.0
176
     1
  0
VISUALSTYLE
  5
30
102
{ACAD_REACTORS
330
2A
102
}
330
2A
100
AcDbVisualStyle
  2
Wireframe
 70
     5
177
     3
291
     0
 70
    58
 90
        0
176
     1
 90
        2
176
     1
 90
        0
176
     1
 90
        0
176
     1
 40
0.6
176
     1
 40
30.0
176
     1
 62
     7
420
 16777215
176
     1
 90
        1
176
     1
 90
        4
176
     1
 62
     7
176
     1
 62
   257
176
     1
 90
        1
176
     1
 90
        1
176
     1
 40
1.0
176
     1
 90
        0
176
     1
 62
   257
176
     1
 40
1.0
176
     1
 90
        1
176
     1
 90
        6
176
     1
 90
        2
176
     1
 62
     7
176
     1
 90
        3
176
     1
 90
        0
176
     1
 90
        0
176
     1
290
     0
176
     1
 90
        1
176
     1
 40
0.0
176
     1
 90
        0
176
     1
290
     0
176
     1
290
     1
176
     1
290
     1
176
     1
290
     0
176
     1
290
     0
176
     1
290
     0
176
     1
290
     0
176
     1
290
     0
176
     1
290
     0
176
     1
 90
       50
176
     1
 40
0.0
176
     1
 40
1.0
176
     1
 90
        0
176
     1
 62
    18
420
        0
176
     1
 90
       50
176
     1
 90
        3
176
     1
 62
     5
420
      255
176
     1
290
     0
176
     1
 90
       50
176
     1
 90
       50
176
     1
 90
       50
176
     1
290
     0
176
     1
 90
       50
176
     1
 62
   256
176
     0
 40
1.0
176
     0
 90
        2
176
     1
  1
strokes_ogs.tif
176
     1
290
     0
176
     1
 40
1.0
176
     1
 40
1.0
176
     1
  0
VISUALSTYLE
  5
40
102
{ACAD_REACTORS
330
2A
102
}
330
2A
100
AcDbVisualStyle
  2
X-Ray
 70
    25
177
     3
291
     0
 70
    58
 90
        2
176
     1
 90
        2
176
     1
 90
        1
176
     1
 90
        1
176
     1
 40
0.5
176
     1
 40
30.0
176
     1
 62
     7
420
 16777215
176
     1
 90
        1
176
     1
 90
        0
176
     1
 62
     7
176
     1
 62
   257
176
     1
 90
        1
176
     1
 90
        1
176
     1
 40
1.0
176
     1
 90
        8
176
     1
 62
     7
176
     1
 40
1.0
176
     1
 90
        1
176
     1
 90
        6
176
     1
 90
        2
176
     1
 62
     7
176
     1
 90
        3
176
     1
 90
        0
176
     1
 90
        0
176
     1
290
     0
176
     1
 90
       13
176
     1
 40
0.0
176
     1
 90
        0
176
     1
290
     0
176
     1
290
     1
176
     1
290
     1
176
     1
290
     0
176
     1
290
     0
176
     1
290
     0
176
     1
290
     0
176
     1
290
     0
176
     1
290
     0
176
     1
 90
       50
176
     1
 40
0.0
176
     1
 40
1.0
176
     1
 90
        0
176
     1
 62
    18
420
        0
176
     1
 90
       50
176
     1
 90
        3
176
     1
 62
     5
420
      255
176
     1
290
     0
176
     1
 90
       50
176
     1
 90
       50
176
     1
 90
       50
176
     1
290
     0
176
     1
 90
       50
176
     1
 62
   256
176
     0
 40
1.0
176
     0
 90
        2
176
     1
  1
strokes_ogs.tif
176
     1
290
     0
176
     1
 40
1.0
176
     1
 40
1.0
176
     1
  0
DICTIONARYVAR
  5
26F
102
{ACAD_REACTORS
330
26E
102
}
330
26E
100
DictionaryVariables
280
     0
  1
1:1
  0
DICTIONARYVAR
  5
274
102
{ACAD_REACTORS
330
26E
102
}
330
26E
100
DictionaryVariables
280
     0
  1
Standard
  0
DICTIONARYVAR
  5
273
102
{ACAD_REACTORS
330
26E
102
}
330
26E
100
DictionaryVariables
280
     0
  1
Standard
  0
DICTIONARY
  5
270
330
6A
100
AcDbDictionary
280
     1
281
     1
  3
ACAD_ROUNDTRIP_2008_TABLESTYLE_CELLSTYLEMAP
360
271
  0
CELLSTYLEMAP
  5
271
102
{ACAD_REACTORS
330
270
102
}
330
270
100
AcDbCellStyleMap
 90
        3
300
CELLSTYLE
  1
TABLEFORMAT_BEGIN
 90
        5
170
     1
 91
        0
 92
    32768
 62
   257
 93
        1
300
CONTENTFORMAT
  1
CONTENTFORMAT_BEGIN
 90
        0
 91
        0
 92
        4
 93
        0
300

 40
0.0
140
1.0
 94
        5
 62
     0
340
11
144
0.25
309
CONTENTFORMAT_END
171
     1
301
MARGIN
  1
CELLMARGIN_BEGIN
 40
0.06
 40
0.06
 40
0.06
 40
0.06
 40
0.06
 40
0.06
309
CELLMARGIN_END
 94
        6
 95
        1
302
GRIDFORMAT
  1
GRIDFORMAT_BEGIN
 90
        0
 91
        1
 62
     0
 92
       -2
340
14
 93
        0
 40
0.045
309
GRIDFORMAT_END
 95
        2
302
GRIDFORMAT
  1
GRIDFORMAT_BEGIN
 90
        0
 91
        1
 62
     0
 92
       -2
340
14
 93
        0
 40
0.045
309
GRIDFORMAT_END
 95
        4
302
GRIDFORMAT
  1
GRIDFORMAT_BEGIN
 90
        0
 91
        1
 62
     0
 92
       -2
340
14
 93
        0
 40
0.045
309
GRIDFORMAT_END
 95
        8
302
GRIDFORMAT
  1
GRIDFORMAT_BEGIN
 90
        0
 91
        1
 62
     0
 92
       -2
340
14
 93
        0
 40
0.045
309
GRIDFORMAT_END
 95
       16
302
GRIDFORMAT
  1
GRIDFORMAT_BEGIN
 90
        0
 91
        1
 62
     0
 92
       -2
340
14
 93
        0
 40
0.045
309
GRIDFORMAT_END
 95
       32
302
GRIDFORMAT
  1
GRIDFORMAT_BEGIN
 90
        0
 91
        1
 62
     0
 92
       -2
340
14
 93
        0
 40
0.045
309
GRIDFORMAT_END
309
TABLEFORMAT_END
  1
CELLSTYLE_BEGIN
 90
        1
 91
        1
300
_TITLE
309
CELLSTYLE_END
300
CELLSTYLE
  1
TABLEFORMAT_BEGIN
 90
        5
170
     1
 91
        0
 92
        0
 62
   257
 93
        1
300
CONTENTFORMAT
  1
CONTENTFORMAT_BEGIN
 90
        0
 91
        0
 92
        4
 93
        0
300

 40
0.0
140
1.0
 94
        5
 62
     0
340
11
144
0.18
309
CONTENTFORMAT_END
171
     1
301
MARGIN
  1
CELLMARGIN_BEGIN
 40
0.06
 40
0.06
 40
0.06
 40
0.06
 40
0.06
 40
0.06
309
CELLMARGIN_END
 94
        6
 95
        1
302
GRIDFORMAT
  1
GRIDFORMAT_BEGIN
 90
        0
 91
        1
 62
     0
 92
       -2
340
14
 93
        0
 40
0.045
309
GRIDFORMAT_END
 95
        2
302
GRIDFORMAT
  1
GRIDFORMAT_BEGIN
 90
        0
 91
        1
 62
     0
 92
       -2
340
14
 93
        0
 40
0.045
309
GRIDFORMAT_END
 95
        4
302
GRIDFORMAT
  1
GRIDFORMAT_BEGIN
 90
        0
 91
        1
 62
     0
 92
       -2
340
14
 93
        0
 40
0.045
309
GRIDFORMAT_END
 95
        8
302
GRIDFORMAT
  1
GRIDFORMAT_BEGIN
 90
        0
 91
        1
 62
     0
 92
       -2
340
14
 93
        0
 40
0.045
309
GRIDFORMAT_END
 95
       16
302
GRIDFORMAT
  1
GRIDFORMAT_BEGIN
 90
        0
 91
        1
 62
     0
 92
       -2
340
14
 93
        0
 40
0.045
309
GRIDFORMAT_END
 95
       32
302
GRIDFORMAT
  1
GRIDFORMAT_BEGIN
 90
        0
 91
        1
 62
     0
 92
       -2
340
14
 93
        0
 40
0.045
309
GRIDFORMAT_END
309
TABLEFORMAT_END
  1
CELLSTYLE_BEGIN
 90
        2
 91
        1
300
_HEADER
309
CELLSTYLE_END
300
CELLSTYLE
  1
TABLEFORMAT_BEGIN
 90
        5
170
     1
 91
        0
 92
        0
 62
   257
 93
        1
300
CONTENTFORMAT
  1
CONTENTFORMAT_BEGIN
 90
        0
 91
        0
 92
        4
 93
        0
300

 40
0.0
140
1.0
 94
        2
 62
     0
340
11
144
0.18
309
CONTENTFORMAT_END
171
     1
301
MARGIN
  1
CELLMARGIN_BEGIN
 40
0.06
 40
0.06
 40
0.06
 40
0.06
 40
0.06
 40
0.06
309
CELLMARGIN_END
 94
        6
 95
        1
302
GRIDFORMAT
  1
GRIDFORMAT_BEGIN
 90
        0
 91
        1
 62
     0
 92
       -2
340
14
 93
        0
 40
0.045
309
GRIDFORMAT_END
 95
        2
302
GRIDFORMAT
  1
GRIDFORMAT_BEGIN
 90
        0
 91
        1
 62
     0
 92
       -2
340
14
 93
        0
 40
0.045
309
GRIDFORMAT_END
 95
        4
302
GRIDFORMAT
  1
GRIDFORMAT_BEGIN
 90
        0
 91
        1
 62
     0
 92
       -2
340
14
 93
        0
 40
0.045
309
GRIDFORMAT_END
 95
        8
302
GRIDFORMAT
  1
GRIDFORMAT_BEGIN
 90
        0
 91
        1
 62
     0
 92
       -2
340
14
 93
        0
 40
0.045
309
GRIDFORMAT_END
 95
       16
302
GRIDFORMAT
  1
GRIDFORMAT_BEGIN
 90
        0
 91
        1
 62
     0
 92
       -2
340
14
 93
        0
 40
0.045
309
GRIDFORMAT_END
 95
       32
302
GRIDFORMAT
  1
GRIDFORMAT_BEGIN
 90
        0
 91
        1
 62
     0
 92
       -2
340
14
 93
        0
 40
0.045
309
GRIDFORMAT_END
309
TABLEFORMAT_END
  1
CELLSTYLE_BEGIN
 90
        3
 91
        2
300
_DATA
309
CELLSTYLE_END
  0
ENDSEC
  0
EOF