0
SECTION
  2
HEADER
  9
$ACADVER
  1
AC1027
  9
$ACADMAINTVER
 70
     8
  9
$DWGCODEPAGE
  3
ANSI_1252
  9
$REQUIREDVERSIONS
160
                 0
  9
$COMMENTS
  1
File was created by Cadenas
  9
$CUSTOMPROPERTYTAG
  1
NN
  9
$CUSTOMPROPERTY
  1
Grip Tight Medium Duty Flange Cartridge Inch Bore
  9
$CUSTOMPROPERTYTAG
  1
NT
  9
$CUSTOMPROPERTY
  1
GTM Medium Duty Piloted Flange Bearings
  9
$CUSTOMPROPERTYTAG
  1
NB
  9
$CUSTOMPROPERTY
  1
129761
  9
$CUSTOMPROPERTYTAG
  1
NBSYN
  9
$CUSTOMPROPERTY
  1
$PN.
  9
$CUSTOMPROPERTYTAG
  1
LINA
  9
$CUSTOMPROPERTY
  1
129761
  9
$CUSTOMPROPERTYTAG
  1
SERIES
  9
$CUSTOMPROPERTY
  1
209
  9
$CUSTOMPROPERTYTAG
  1
SS
  9
$CUSTOMPROPERTY
  1
1-1/2
  9
$CUSTOMPROPERTYTAG
  1
PN
  9
$CUSTOMPROPERTY
  1
129761
  9
$CUSTOMPROPERTYTAG
  1
DESCRIPTION
  9
$CUSTOMPROPERTY
  1
FC-GTM-108L
  9
$CUSTOMPROPERTYTAG
  1
PNSL
  9
$CUSTOMPROPERTY
  1
129504
  9
$CUSTOMPROPERTYTAG
  1
DESCRIPTIONSL
  9
$CUSTOMPROPERTY
  1
FC-GT-09
  9
$CUSTOMPROPERTYTAG
  1
PNA
  9
$CUSTOMPROPERTY
  1
136598
  9
$CUSTOMPROPERTYTAG
  1
DESCRIPTIONA
  9
$CUSTOMPROPERTY
  1
AN-GTM-09-108-D
  9
$CUSTOMPROPERTYTAG
  1
W
  9
$CUSTOMPROPERTY
  1
6.1
  9
$CUSTOMPROPERTYTAG
  1
A
  9
$CUSTOMPROPERTY
  1
1.85
  9
$CUSTOMPROPERTYTAG
  1
B
  9
$CUSTOMPROPERTY
  1
5.75
  9
$CUSTOMPROPERTYTAG
  1
C
  9
$CUSTOMPROPERTY
  1
1.97
  9
$CUSTOMPROPERTYTAG
  1
D
  9
$CUSTOMPROPERTY
  1
4.75
  9
$CUSTOMPROPERTYTAG
  1
E
  9
$CUSTOMPROPERTY
  1
0.44
  9
$CUSTOMPROPERTYTAG
  1
F
  9
$CUSTOMPROPERTY
  1
1/2
  9
$CUSTOMPROPERTYTAG
  1
G
  9
$CUSTOMPROPERTY
  1
1.53
  9
$CUSTOMPROPERTYTAG
  1
H
  9
$CUSTOMPROPERTY
  1
0.91
  9
$CUSTOMPROPERTYTAG
  1
K
  9
$CUSTOMPROPERTY
  1
4.000/3.998
  9
$CUSTOMPROPERTYTAG
  1
L
  9
$CUSTOMPROPERTY
  1
2.86
  9
$CUSTOMPROPERTYTAG
  1
Z
  9
$CUSTOMPROPERTY
  1
1.57
  9
$CUSTOMPROPERTYTAG
  1
CAPS
  9
$CUSTOMPROPERTY
  1
4450
  9
$CUSTOMPROPERTYTAG
  1
CAPD
  9
$CUSTOMPROPERTY
  1
7891
  9
$CUSTOMPROPERTYTAG
  1
COMPANY
  9
$CUSTOMPROPERTY
  1
baldor
  9
$INSBASE
 10
0.0
 20
0.0
 30
0.0
  9
$EXTMIN
 10
1.000000000000000E+20
 20
1.000000000000000E+20
 30
1.000000000000000E+20
  9
$EXTMAX
 10
-1.000000000000000E+20
 20
-1.000000000000000E+20
 30
-1.000000000000000E+20
  9
$LIMMIN
 10
0.0
 20
0.0
  9
$LIMMAX
 10
12.0
 20
9.0
  9
$ORTHOMODE
 70
     0
  9
$REGENMODE
 70
     1
  9
$FILLMODE
 70
     1
  9
$QTEXTMODE
 70
     0
  9
$MIRRTEXT
 70
     1
  9
$LTSCALE
 40
1.0
  9
$ATTMODE
 70
     1
  9
$TEXTSIZE
 40
0.2
  9
$TRACEWID
 40
0.05
  9
$TEXTSTYLE
  7
Standard
  9
$CLAYER
  8
0
  9
$CELTYPE
  6
ByLayer
  9
$CECOLOR
 62
   256
  9
$CELTSCALE
 40
1.0
  9
$DISPSILH
 70
     0
  9
$DIMSCALE
 40
1.0
  9
$DIMASZ
 40
0.18
  9
$DIMEXO
 40
0.0625
  9
$DIMDLI
 40
0.38
  9
$DIMRND
 40
0.0
  9
$DIMDLE
 40
0.0
  9
$DIMEXE
 40
0.18
  9
$DIMTP
 40
0.0
  9
$DIMTM
 40
0.0
  9
$DIMTXT
 40
0.18
  9
$DIMCEN
 40
0.09
  9
$DIMTSZ
 40
0.0
  9
$DIMTOL
 70
     0
  9
$DIMLIM
 70
     0
  9
$DIMTIH
 70
     1
  9
$DIMTOH
 70
     1
  9
$DIMSE1
 70
     0
  9
$DIMSE2
 70
     0
  9
$DIMTAD
 70
     0
  9
$DIMZIN
 70
     0
  9
$DIMBLK
  1

  9
$DIMASO
 70
     1
  9
$DIMSHO
 70
     1
  9
$DIMPOST
  1

  9
$DIMAPOST
  1

  9
$DIMALT
 70
     0
  9
$DIMALTD
 70
     2
  9
$DIMALTF
 40
25.4
  9
$DIMLFAC
 40
1.0
  9
$DIMTOFL
 70
     0
  9
$DIMTVP
 40
0.0
  9
$DIMTIX
 70
     0
  9
$DIMSOXD
 70
     0
  9
$DIMSAH
 70
     0
  9
$DIMBLK1
  1

  9
$DIMBLK2
  1

  9
$DIMSTYLE
  2
Standard
  9
$DIMCLRD
 70
     0
  9
$DIMCLRE
 70
     0
  9
$DIMCLRT
 70
     0
  9
$DIMTFAC
 40
1.0
  9
$DIMGAP
 40
0.09
  9
$DIMJUST
 70
     0
  9
$DIMSD1
 70
     0
  9
$DIMSD2
 70
     0
  9
$DIMTOLJ
 70
     1
  9
$DIMTZIN
 70
     0
  9
$DIMALTZ
 70
     0
  9
$DIMALTTZ
 70
     0
  9
$DIMUPT
 70
     0
  9
$DIMDEC
 70
     4
  9
$DIMTDEC
 70
     4
  9
$DIMALTU
 70
     2
  9
$DIMALTTD
 70
     2
  9
$DIMTXSTY
  7
Standard
  9
$DIMAUNIT
 70
     0
  9
$DIMADEC
 70
     0
  9
$DIMALTRND
 40
0.0
  9
$DIMAZIN
 70
     0
  9
$DIMDSEP
 70
    46
  9
$DIMATFIT
 70
     3
  9
$DIMFRAC
 70
     0
  9
$DIMLDRBLK
  1

  9
$DIMLUNIT
 70
     2
  9
$DIMLWD
 70
    -2
  9
$DIMLWE
 70
    -2
  9
$DIMTMOVE
 70
     0
  9
$DIMFXL
 40
1.0
  9
$DIMFXLON
 70
     0
  9
$DIMJOGANG
 40
0.7853981633974483
  9
$DIMTFILL
 70
     0
  9
$DIMTFILLCLR
 70
     0
  9
$DIMARCSYM
 70
     0
  9
$DIMLTYPE
  6

  9
$DIMLTEX1
  6

  9
$DIMLTEX2
  6

  9
$DIMTXTDIRECTION
 70
     0
  9
$LUNITS
 70
     2
  9
$LUPREC
 70
     4
  9
$SKETCHINC
 40
0.1
  9
$FILLETRAD
 40
0.5
  9
$AUNITS
 70
     0
  9
$AUPREC
 70
     0
  9
$MENU
  1
.
  9
$ELEVATION
 40
0.0
  9
$PELEVATION
 40
0.0
  9
$THICKNESS
 40
0.0
  9
$LIMCHECK
 70
     0
  9
$CHAMFERA
 40
0.0
  9
$CHAMFERB
 40
0.0
  9
$CHAMFERC
 40
0.0
  9
$CHAMFERD
 40
0.0
  9
$SKPOLY
 70
     0
  9
$TDCREATE
 40
2458168.9938075
  9
$TDUCREATE
 40
2458168.952140833
  9
$TDUPDATE
 40
2458168.993807859
  9
$TDUUPDATE
 40
2458168.952141192
  9
$TDINDWG
 40
0.0000000116
  9
$TDUSRTIMER
 40
0.0000000116
  9
$USRTIMER
 70
     1
  9
$ANGBASE
 50
0.0
  9
$ANGDIR
 70
     0
  9
$PDMODE
 70
     0
  9
$PDSIZE
 40
0.0
  9
$PLINEWID
 40
0.0
  9
$SPLFRAME
 70
     0
  9
$SPLINETYPE
 70
     6
  9
$SPLINESEGS
 70
     8
  9
$HANDSEED
  5
1E4
  9
$SURFTAB1
 70
     6
  9
$SURFTAB2
 70
     6
  9
$SURFTYPE
 70
     6
  9
$SURFU
 70
     6
  9
$SURFV
 70
     6
  9
$UCSBASE
  2

  9
$UCSNAME
  2

  9
$UCSORG
 10
0.0
 20
0.0
 30
0.0
  9
$UCSXDIR
 10
1.0
 20
0.0
 30
0.0
  9
$UCSYDIR
 10
0.0
 20
1.0
 30
0.0
  9
$UCSORTHOREF
  2

  9
$UCSORTHOVIEW
 70
     0
  9
$UCSORGTOP
 10
0.0
 20
0.0
 30
0.0
  9
$UCSORGBOTTOM
 10
0.0
 20
0.0
 30
0.0
  9
$UCSORGLEFT
 10
0.0
 20
0.0
 30
0.0
  9
$UCSORGRIGHT
 10
0.0
 20
0.0
 30
0.0
  9
$UCSORGFRONT
 10
0.0
 20
0.0
 30
0.0
  9
$UCSORGBACK
 10
0.0
 20
0.0
 30
0.0
  9
$PUCSBASE
  2

  9
$PUCSNAME
  2

  9
$PUCSORG
 10
0.0
 20
0.0
 30
0.0
  9
$PUCSXDIR
 10
1.0
 20
0.0
 30
0.0
  9
$PUCSYDIR
 10
0.0
 20
1.0
 30
0.0
  9
$PUCSORTHOREF
  2

  9
$PUCSORTHOVIEW
 70
     0
  9
$PUCSORGTOP
 10
0.0
 20
0.0
 30
0.0
  9
$PUCSORGBOTTOM
 10
0.0
 20
0.0
 30
0.0
  9
$PUCSORGLEFT
 10
0.0
 20
0.0
 30
0.0
  9
$PUCSORGRIGHT
 10
0.0
 20
0.0
 30
0.0
  9
$PUCSORGFRONT
 10
0.0
 20
0.0
 30
0.0
  9
$PUCSORGBACK
 10
0.0
 20
0.0
 30
0.0
  9
$USERI1
 70
     0
  9
$USERI2
 70
     0
  9
$USERI3
 70
     0
  9
$USERI4
 70
     0
  9
$USERI5
 70
     0
  9
$USERR1
 40
0.0
  9
$USERR2
 40
0.0
  9
$USERR3
 40
0.0
  9
$USERR4
 40
0.0
  9
$USERR5
 40
0.0
  9
$WORLDVIEW
 70
     1
  9
$SHADEDGE
 70
     3
  9
$SHADEDIF
 70
    70
  9
$TILEMODE
 70
     1
  9
$MAXACTVP
 70
    64
  9
$PINSBASE
 10
0.0
 20
0.0
 30
0.0
  9
$PLIMCHECK
 70
     0
  9
$PEXTMIN
 10
1.000000000000000E+20
 20
1.000000000000000E+20
 30
1.000000000000000E+20
  9
$PEXTMAX
 10
-1.000000000000000E+20
 20
-1.000000000000000E+20
 30
-1.000000000000000E+20
  9
$PLIMMIN
 10
0.0
 20
0.0
  9
$PLIMMAX
 10
12.0
 20
9.0
  9
$UNITMODE
 70
     0
  9
$VISRETAIN
 70
     1
  9
$PLINEGEN
 70
     0
  9
$PSLTSCALE
 70
     1
  9
$TREEDEPTH
 70
  3020
  9
$CMLSTYLE
  2
Standard
  9
$CMLJUST
 70
     0
  9
$CMLSCALE
 40
1.0
  9
$PROXYGRAPHICS
 70
     1
  9
$MEASUREMENT
 70
     0
  9
$CELWEIGHT
370
    -1
  9
$ENDCAPS
280
     0
  9
$JOINSTYLE
280
     0
  9
$LWDISPLAY
290
     0
  9
$INSUNITS
 70
     1
  9
$HYPERLINKBASE
  1

  9
$STYLESHEET
  1

  9
$XEDIT
290
     1
  9
$CEPSNTYPE
380
     0
  9
$PSTYLEMODE
290
     1
  9
$FINGERPRINTGUID
  2
{9E93FA11-1F50-45FF-9F87-E8467C4964E0}
  9
$VERSIONGUID
  2
{FAEB1C32-E019-11D5-929B-00C0DF256EC4}
  9
$EXTNAMES
290
     1
  9
$PSVPSCALE
 40
0.0
  9
$OLESTARTUP
290
     0
  9
$SORTENTS
280
   127
  9
$INDEXCTL
280
     0
  9
$HIDETEXT
280
     1
  9
$XCLIPFRAME
280
     2
  9
$HALOGAP
280
     0
  9
$OBSCOLOR
 70
   257
  9
$OBSLTYPE
280
     0
  9
$INTERSECTIONDISPLAY
280
     0
  9
$INTERSECTIONCOLOR
 70
   257
  9
$DIMASSOC
280
     2
  9
$PROJECTNAME
  1

  9
$CAMERADISPLAY
290
     0
  9
$LENSLENGTH
 40
50.0
  9
$CAMERAHEIGHT
 40
0.0
  9
$STEPSPERSEC
 40
2.0
  9
$STEPSIZE
 40
6.0
  9
$3DDWFPREC
 40
2.0
  9
$PSOLWIDTH
 40
0.25
  9
$PSOLHEIGHT
 40
4.0
  9
$LOFTANG1
 40
1.570796326794897
  9
$LOFTANG2
 40
1.570796326794897
  9
$LOFTMAG1
 40
0.0
  9
$LOFTMAG2
 40
0.0
  9
$LOFTPARAM
 70
     7
  9
$LOFTNORMALS
280
     1
  9
$LATITUDE
 40
37.795
  9
$LONGITUDE
 40
-122.394
  9
$NORTHDIRECTION
 40
0.0
  9
$TIMEZONE
 70
 -8000
  9
$LIGHTGLYPHDISPLAY
280
     1
  9
$TILEMODELIGHTSYNCH
280
     1
  9
$CMATERIAL
347
44
  9
$SOLIDHIST
280
     0
  9
$SHOWHIST
280
     1
  9
$DWFFRAME
280
     2
  9
$DGNFRAME
280
     2
  9
$REALWORLDSCALE
290
     1
  9
$INTERFERECOLOR
 62
   256
  9
$CSHADOW
280
     0
  9
$SHADOWPLANELOCATION
 40
0.0
  0
ENDSEC
  0
SECTION
  2
CLASSES
  0
CLASS
  1
ACDBDICTIONARYWDFLT
  2
AcDbDictionaryWithDefault
  3
ObjectDBX Classes
 90
        0
 91
        4
280
     0
281
     0
  0
CLASS
  1
VISUALSTYLE
  2
AcDbVisualStyle
  3
ObjectDBX Classes
 90
     4095
 91
        4
280
     0
281
     0
  0
CLASS
  1
MATERIAL
  2
AcDbMaterial
  3
ObjectDBX Classes
 90
     1153
 91
        4
280
     0
281
     0
  0
CLASS
  1
SCALE
  2
AcDbScale
  3
ObjectDBX Classes
 90
     1153
 91
        4
280
     0
281
     0
  0
CLASS
  1
TABLESTYLE
  2
AcDbTableStyle
  3
ObjectDBX Classes
 90
     4095
 91
        4
280
     0
281
     0
  0
CLASS
  1
MLEADERSTYLE
  2
AcDbMLeaderStyle
  3
ACDB_MLEADERSTYLE_CLASS
 90
     4095
 91
        4
280
     0
281
     0
  0
CLASS
  1
SUN
  2
AcDbSun
  3
SCENEOE
 90
     1153
 91
        4
280
     0
281
     0
  0
CLASS
  1
DICTIONARYVAR
  2
AcDbDictionaryVar
  3
ObjectDBX Classes
 90
        0
 91
        4
280
     0
281
     0
  0
CLASS
  1
CELLSTYLEMAP
  2
AcDbCellStyleMap
  3
ObjectDBX Classes
 90
     1152
 91
        4
280
     0
281
     0
  0
ENDSEC
  0
SECTION
  2
TABLES
  0
TABLE
  2
VPORT
  5
8
330
0
100
AcDbSymbolTable
 70
     1
  0
VPORT
  5
29
330
8
100
AcDbSymbolTableRecord
100
AcDbViewportTableRecord
  2
*Active
 70
     0
 10
0.0
 20
0.0
 11
1.0
 21
1.0
 12
0.0000000000000018
 22
-0.9982500000000005
 13
0.0
 23
0.0
 14
0.5
 24
0.5
 15
0.5
 25
0.5
 16
0.0
 26
0.0
 36
1.0
 17
0.0
 27
0.0
 37
0.0
 40
2.174129999999999
 41
2.697630776448512
 42
50.0
 43
0.0
 44
0.0
 50
0.0
 51
0.0
 71
     0
 72
   100
 73
     1
 74
     3
 75
     0
 76
     0
 77
     0
 78
     0
281
     0
 65
     1
110
0.0
120
0.0
130
0.0
111
1.0
121
0.0
131
0.0
112
0.0
122
1.0
132
0.0
 79
     0
146
0.0
348
2F
 60
     3
 61
     5
292
     1
282
     1
141
0.0
142
0.0
 63
   250
361
6D
  0
ENDTAB
  0
TABLE
  2
LTYPE
  5
5
330
0
100
AcDbSymbolTable
 70
     3
  0
LTYPE
  5
14
330
5
100
AcDbSymbolTableRecord
100
AcDbLinetypeTableRecord
  2
ByBlock
 70
     0
  3

 72
    65
 73
     0
 40
0.0
  0
LTYPE
  5
15
330
5
100
AcDbSymbolTableRecord
100
AcDbLinetypeTableRecord
  2
ByLayer
 70
     0
  3

 72
    65
 73
     0
 40
0.0
  0
LTYPE
  5
16
330
5
100
AcDbSymbolTableRecord
100
AcDbLinetypeTableRecord
  2
Continuous
 70
     0
  3
Solid line
 72
    65
 73
     0
 40
0.0
  0
LTYPE
  5
A5
330
5
100
AcDbSymbolTableRecord
100
AcDbLinetypeTableRecord
  2
Dashed
 70
     0
  3

 72
    65
 73
     2
 40
2.0
 49
1.0
 74
     0
 49
-1.0
 74
     0
  0
LTYPE
  5
111
330
5
100
AcDbSymbolTableRecord
100
AcDbLinetypeTableRecord
  2
Center
 70
     0
  3

 72
    65
 73
     4
 40
1.5
 49
0.45
 74
     0
 49
-0.5
 74
     0
 49
0.05
 74
     0
 49
-0.5
 74
     0
  0
ENDTAB
  0
TABLE
  2
LAYER
  5
2
330
0
100
AcDbSymbolTable
 70
     7
  0
LAYER
  5
10
330
2
100
AcDbSymbolTableRecord
100
AcDbLayerTableRecord
  2
0
 70
     0
 62
     7
  6
Continuous
370
    -3
390
F
347
46
348
0
  0
LAYER
  5
72
330
2
100
AcDbSymbolTableRecord
100
AcDbLayerTableRecord
  2
AM_6
 70
     0
 62
    -2
  6
Continuous
370
    35
390
F
347
46
348
0
  0
LAYER
  5
A6
330
2
100
AcDbSymbolTableRecord
100
AcDbLayerTableRecord
  2
AM_9
 70
     0
 62
     6
  6
Dashed
370
    25
390
F
347
46
348
0
  0
LAYER
  5
112
330
2
100
AcDbSymbolTableRecord
100
AcDbLayerTableRecord
  2
AM_7
 70
     0
 62
     7
  6
Center
370
    25
390
F
347
46
348
0
  0
LAYER
  5
114
330
2
100
AcDbSymbolTableRecord
100
AcDbLayerTableRecord
  2
AM_4
 70
     0
 62
     7
  6
Continuous
370
    50
390
F
347
46
348
0
  0
LAYER
  5
134
330
2
100
AcDbSymbolTableRecord
100
AcDbLayerTableRecord
  2
AM_5
 70
     0
 62
     3
  6
Continuous
370
    25
390
F
347
46
348
0
  0
LAYER
  5
1D6
330
2
100
AcDbSymbolTableRecord
100
AcDbLayerTableRecord
  2
ConnectionPoints
 70
     0
 62
     7
  6
Continuous
370
    50
390
F
347
46
348
0
  0
ENDTAB
  0
TABLE
  2
STYLE
  5
3
330
0
100
AcDbSymbolTable
 70
     1
  0
STYLE
  5
11
330
3
100
AcDbSymbolTableRecord
100
AcDbTextStyleTableRecord
  2
Standard
 70
     0
 40
0.0
 41
1.0
 50
0.0
 71
     0
 42
0.2
  3
txt
  4

  0
ENDTAB
  0
TABLE
  2
VIEW
  5
6
330
0
100
AcDbSymbolTable
 70
     0
  0
ENDTAB
  0
TABLE
  2
UCS
  5
7
330
0
100
AcDbSymbolTable
 70
     0
  0
ENDTAB
  0
TABLE
  2
APPID
  5
9
330
0
100
AcDbSymbolTable
 70
     1
  0
APPID
  5
12
330
9
100
AcDbSymbolTableRecord
100
AcDbRegAppTableRecord
  2
ACAD
 70
     0
  0
ENDTAB
  0
TABLE
  2
DIMSTYLE
  5
A
330
0
100
AcDbSymbolTable
 70
     1
100
AcDbDimStyleTable
  0
DIMSTYLE
105
27
330
A
100
AcDbSymbolTableRecord
100
AcDbDimStyleTableRecord
  2
Standard
 70
     0
178
     0
340
11
  0
ENDTAB
  0
TABLE
  2
BLOCK_RECORD
  5
1
330
0
100
AcDbSymbolTable
 70
     5
  0
BLOCK_RECORD
  5
1F
330
1
100
AcDbSymbolTableRecord
100
AcDbBlockTableRecord
  2
*Model_Space
340
22
 70
     0
280
     1
281
     0
  0
BLOCK_RECORD
  5
1B
330
1
100
AcDbSymbolTableRecord
100
AcDbBlockTableRecord
  2
*Paper_Space
340
1E
 70
     0
280
     1
281
     0
  0
BLOCK_RECORD
  5
23
330
1
100
AcDbSymbolTableRecord
100
AcDbBlockTableRecord
  2
*Paper_Space0
340
26
 70
     0
280
     1
281
     0
  0
BLOCK_RECORD
  5
6E
330
1
100
AcDbSymbolTableRecord
100
AcDbBlockTableRecord
  2
1_129761_4
340
0
102
{BLKREFS
331
6F
102
}
 70
     0
280
     1
281
     0
  0
BLOCK_RECORD
  5
8F
330
1
100
AcDbSymbolTableRecord
100
AcDbBlockTableRecord
  2
2_129522I_0_in_129761_4
340
0
102
{BLKREFS
331
90
102
}
 70
     0
280
     1
281
     0
  0
BLOCK_RECORD
  5
D8
330
1
100
AcDbSymbolTableRecord
100
AcDbBlockTableRecord
  2
3_136532_0_in_129761_4
340
0
102
{BLKREFS
331
D9
102
}
 70
     0
280
     1
281
     0
  0
BLOCK_RECORD
  5
136
330
1
100
AcDbSymbolTableRecord
100
AcDbBlockTableRecord
  2
4_129743h_0_in_129761_4
340
0
102
{BLKREFS
331
137
102
}
 70
     0
280
     1
281
     0
  0
ENDTAB
  0
ENDSEC
  0
SECTION
  2
BLOCKS
  0
BLOCK
  5
20
330
1F
100
AcDbEntity
  8
0
100
AcDbBlockBegin
  2
*Model_Space
 70
     0
 10
0.0
 20
0.0
 30
0.0
  3
*Model_Space
  1

  0
ENDBLK
  5
21
330
1F
100
AcDbEntity
  8
0
100
AcDbBlockEnd
  0
BLOCK
  5
1C
330
1B
100
AcDbEntity
 67
     1
  8
0
100
AcDbBlockBegin
  2
*Paper_Space
 70
     0
 10
0.0
 20
0.0
 30
0.0
  3
*Paper_Space
  1

  0
ENDBLK
  5
1D
330
1B
100
AcDbEntity
 67
     1
  8
0
100
AcDbBlockEnd
  0
BLOCK
  5
24
330
23
100
AcDbEntity
  8
0
100
AcDbBlockBegin
  2
*Paper_Space0
 70
     0
 10
0.0
 20
0.0
 30
0.0
  3
*Paper_Space0
  1

  0
ENDBLK
  5
25
330
23
100
AcDbEntity
  8
0
100
AcDbBlockEnd
  0
BLOCK
  5
70
330
6E
100
AcDbEntity
  8
0
100
AcDbBlockBegin
  2
1_129761_4
 70
     2
 10
0.0
 20
0.0
 30
0.0
  3
1_129761_4
  1

  0
ATTDEF
  5
73
330
6E
100
AcDbEntity
  8
AM_6
100
AcDbText
 10
7.875000000000003
 20
0.0675
 30
0.0
 40
0.5
  1
Grip Tight Medium Duty Flange Cartridge Inch Bore
100
AcDbAttributeDefinition
  3

  2
NN
 70
     8
280
     0
  0
ATTDEF
  5
74
330
6E
100
AcDbEntity
  8
AM_6
100
AcDbText
 10
7.875000000000003
 20
-0.4325
 30
0.0
 40
0.5
  1
GTM Medium Duty Piloted Flange Bearings
100
AcDbAttributeDefinition
  3

  2
NT
 70
     8
280
     0
  0
ATTDEF
  5
75
330
6E
100
AcDbEntity
  8
AM_6
100
AcDbText
 10
7.875000000000003
 20
-0.9325
 30
0.0
 40
0.5
  1
129761
100
AcDbAttributeDefinition
  3

  2
NB
 70
     8
280
     0
  0
ATTDEF
  5
76
330
6E
100
AcDbEntity
  8
AM_6
100
AcDbText
 10
7.875000000000003
 20
-1.4325
 30
0.0
 40
0.5
  1
$PN.
100
AcDbAttributeDefinition
  3

  2
NBSYN
 70
     8
280
     0
  0
ATTDEF
  5
77
330
6E
100
AcDbEntity
  8
AM_6
100
AcDbText
 10
7.875000000000003
 20
-1.9325
 30
0.0
 40
0.5
  1
129761
100
AcDbAttributeDefinition
  3

  2
LINA
 70
     8
280
     0
  0
ATTDEF
  5
78
330
6E
100
AcDbEntity
  8
AM_6
100
AcDbText
 10
7.875000000000003
 20
-2.4325
 30
0.0
 40
0.5
  1
209
100
AcDbAttributeDefinition
  3

  2
SERIES
 70
     8
280
     0
  0
ATTDEF
  5
79
330
6E
100
AcDbEntity
  8
AM_6
100
AcDbText
 10
7.875000000000003
 20
-2.9325
 30
0.0
 40
0.5
  1
1-1/2
100
AcDbAttributeDefinition
  3

  2
SS
 70
     8
280
     0
  0
ATTDEF
  5
7A
330
6E
100
AcDbEntity
  8
AM_6
100
AcDbText
 10
7.875000000000003
 20
-3.4325
 30
0.0
 40
0.5
  1
129761
100
AcDbAttributeDefinition
  3

  2
PN
 70
     8
280
     0
  0
ATTDEF
  5
7B
330
6E
100
AcDbEntity
  8
AM_6
100
AcDbText
 10
7.875000000000003
 20
-3.9325
 30
0.0
 40
0.5
  1
FC-GTM-108L
100
AcDbAttributeDefinition
  3

  2
DESCRIPTION
 70
     8
280
     0
  0
ATTDEF
  5
7C
330
6E
100
AcDbEntity
  8
AM_6
100
AcDbText
 10
7.875000000000003
 20
-4.4325
 30
0.0
 40
0.5
  1
129504
100
AcDbAttributeDefinition
  3

  2
PNSL
 70
     8
280
     0
  0
ATTDEF
  5
7D
330
6E
100
AcDbEntity
  8
AM_6
100
AcDbText
 10
7.875000000000003
 20
-4.9325
 30
0.0
 40
0.5
  1
FC-GT-09
100
AcDbAttributeDefinition
  3

  2
DESCRIPTIONSL
 70
     8
280
     0
  0
ATTDEF
  5
7E
330
6E
100
AcDbEntity
  8
AM_6
100
AcDbText
 10
7.875000000000003
 20
-5.4325
 30
0.0
 40
0.5
  1
136598
100
AcDbAttributeDefinition
  3

  2
PNA
 70
     8
280
     0
  0
ATTDEF
  5
7F
330
6E
100
AcDbEntity
  8
AM_6
100
AcDbText
 10
7.875000000000003
 20
-5.9325
 30
0.0
 40
0.5
  1
AN-GTM-09-108-D
100
AcDbAttributeDefinition
  3

  2
DESCRIPTIONA
 70
     8
280
     0
  0
ATTDEF
  5
80
330
6E
100
AcDbEntity
  8
AM_6
100
AcDbText
 10
7.875000000000003
 20
-6.4325
 30
0.0
 40
0.5
  1
6.1
100
AcDbAttributeDefinition
  3

  2
W
 70
     8
280
     0
  0
ATTDEF
  5
81
330
6E
100
AcDbEntity
  8
AM_6
100
AcDbText
 10
7.875000000000003
 20
-6.9325
 30
0.0
 40
0.5
  1
1.85
100
AcDbAttributeDefinition
  3

  2
A
 70
     8
280
     0
  0
ATTDEF
  5
82
330
6E
100
AcDbEntity
  8
AM_6
100
AcDbText
 10
7.875000000000003
 20
-7.4325
 30
0.0
 40
0.5
  1
5.75
100
AcDbAttributeDefinition
  3

  2
B
 70
     8
280
     0
  0
ATTDEF
  5
83
330
6E
100
AcDbEntity
  8
AM_6
100
AcDbText
 10
7.875000000000003
 20
-7.9325
 30
0.0
 40
0.5
  1
1.97
100
AcDbAttributeDefinition
  3

  2
C
 70
     8
280
     0
  0
ATTDEF
  5
84
330
6E
100
AcDbEntity
  8
AM_6
100
AcDbText
 10
7.875000000000003
 20
-8.432500000000001
 30
0.0
 40
0.5
  1
4.75
100
AcDbAttributeDefinition
  3

  2
D
 70
     8
280
     0
  0
ATTDEF
  5
85
330
6E
100
AcDbEntity
  8
AM_6
100
AcDbText
 10
7.875000000000003
 20
-8.932500000000001
 30
0.0
 40
0.5
  1
0.44
100
AcDbAttributeDefinition
  3

  2
E
 70
     8
280
     0
  0
ATTDEF
  5
86
330
6E
100
AcDbEntity
  8
AM_6
100
AcDbText
 10
7.875000000000003
 20
-9.432500000000001
 30
0.0
 40
0.5
  1
1/2
100
AcDbAttributeDefinition
  3

  2
F
 70
     8
280
     0
  0
ATTDEF
  5
87
330
6E
100
AcDbEntity
  8
AM_6
100
AcDbText
 10
7.875000000000003
 20
-9.932500000000001
 30
0.0
 40
0.5
  1
1.53
100
AcDbAttributeDefinition
  3

  2
G
 70
     8
280
     0
  0
ATTDEF
  5
88
330
6E
100
AcDbEntity
  8
AM_6
100
AcDbText
 10
7.875000000000003
 20
-10.4325
 30
0.0
 40
0.5
  1
0.91
100
AcDbAttributeDefinition
  3

  2
H
 70
     8
280
     0
  0
ATTDEF
  5
89
330
6E
100
AcDbEntity
  8
AM_6
100
AcDbText
 10
7.875000000000003
 20
-10.9325
 30
0.0
 40
0.5
  1
4.000/3.998
100
AcDbAttributeDefinition
  3

  2
K
 70
     8
280
     0
  0
ATTDEF
  5
8A
330
6E
100
AcDbEntity
  8
AM_6
100
AcDbText
 10
7.875000000000003
 20
-11.4325
 30
0.0
 40
0.5
  1
2.86
100
AcDbAttributeDefinition
  3

  2
L
 70
     8
280
     0
  0
ATTDEF
  5
8B
330
6E
100
AcDbEntity
  8
AM_6
100
AcDbText
 10
7.875000000000003
 20
-11.9325
 30
0.0
 40
0.5
  1
1.57
100
AcDbAttributeDefinition
  3

  2
Z
 70
     8
280
     0
  0
ATTDEF
  5
8C
330
6E
100
AcDbEntity
  8
AM_6
100
AcDbText
 10
7.875000000000003
 20
-12.4325
 30
0.0
 40
0.5
  1
4450
100
AcDbAttributeDefinition
  3

  2
CAPS
 70
     8
280
     0
  0
ATTDEF
  5
8D
330
6E
100
AcDbEntity
  8
AM_6
100
AcDbText
 10
7.875000000000003
 20
-12.9325
 30
0.0
 40
0.5
  1
7891
100
AcDbAttributeDefinition
  3

  2
CAPD
 70
     8
280
     0
  0
ATTDEF
  5
8E
330
6E
100
AcDbEntity
  8
AM_6
100
AcDbText
 10
7.875000000000003
 20
-13.4325
 30
0.0
 40
0.5
  1
baldor
100
AcDbAttributeDefinition
  3

  2
COMPANY
 70
     8
280
     0
  0
INSERT
  5
90
330
6E
100
AcDbEntity
  8
0
100
AcDbBlockReference
  2
2_129522I_0_in_129761_4
 10
0.0
 20
0.0
 30
0.0
  0
INSERT
  5
D9
330
6E
100
AcDbEntity
  8
0
100
AcDbBlockReference
  2
3_136532_0_in_129761_4
 10
0.0
 20
0.0
 30
0.0
  0
INSERT
  5
137
330
6E
100
AcDbEntity
  8
0
100
AcDbBlockReference
  2
4_129743h_0_in_129761_4
 10
0.0
 20
0.0
 30
0.0
  0
ENDBLK
  5
71
330
6E
100
AcDbEntity
  8
0
100
AcDbBlockEnd
  0
BLOCK
  5
91
330
8F
100
AcDbEntity
  8
0
100
AcDbBlockBegin
  2
2_129522I_0_in_129761_4
 70
     2
 10
0.0
 20
0.0
 30
0.0
  3
2_129522I_0_in_129761_4
  1

  0
ATTDEF
  5
93
330
8F
100
AcDbEntity
  8
AM_6
100
AcDbText
 10
6.673112852363566
 20
-0.152
 30
0.0
 40
0.5
  1
INS-GT B
100
AcDbAttributeDefinition
  3

  2
NN
 70
     8
280
     0
  0
ATTDEF
  5
94
330
8F
100
AcDbEntity
  8
AM_6
100
AcDbText
 10
6.673112852363566
 20
-0.6519999999999999
 30
0.0
 40
0.5
  1
GT Normal Duty Bearing Inserts
100
AcDbAttributeDefinition
  3

  2
NT
 70
     8
280
     0
  0
ATTDEF
  5
95
330
8F
100
AcDbEntity
  8
AM_6
100
AcDbText
 10
6.673112852363566
 20
-1.152
 30
0.0
 40
0.5
  1
129522I
100
AcDbAttributeDefinition
  3

  2
NB
 70
     8
280
     0
  0
ATTDEF
  5
96
330
8F
100
AcDbEntity
  8
AM_6
100
AcDbText
 10
6.673112852363566
 20
-1.652
 30
0.0
 40
0.5
  1
$PN.I
100
AcDbAttributeDefinition
  3

  2
NBSYN
 70
     8
280
     0
  0
ATTDEF
  5
97
330
8F
100
AcDbEntity
  8
AM_6
100
AcDbText
 10
6.673112852363566
 20
-2.152
 30
0.0
 40
0.5
  1
129522
100
AcDbAttributeDefinition
  3

  2
LINA
 70
     8
280
     0
  0
ATTDEF
  5
98
330
8F
100
AcDbEntity
  8
AM_6
100
AcDbText
 10
6.673112852363566
 20
-2.652
 30
0.0
 40
0.5
  1
209
100
AcDbAttributeDefinition
  3

  2
SERIES
 70
     8
280
     0
  0
ATTDEF
  5
99
330
8F
100
AcDbEntity
  8
AM_6
100
AcDbText
 10
6.673112852363566
 20
-3.152
 30
0.0
 40
0.5
  1
129522
100
AcDbAttributeDefinition
  3

  2
PN
 70
     8
280
     0
  0
ATTDEF
  5
9A
330
8F
100
AcDbEntity
  8
AM_6
100
AcDbText
 10
6.673112852363566
 20
-3.652
 30
0.0
 40
0.5
  1
INS-GT-09
100
AcDbAttributeDefinition
  3

  2
DESCRIPTION
 70
     8
280
     0
  0
ATTDEF
  5
9B
330
8F
100
AcDbEntity
  8
AM_6
100
AcDbText
 10
6.673112852363566
 20
-4.152
 30
0.0
 40
0.5
  1
1.85
100
AcDbAttributeDefinition
  3

  2
A
 70
     8
280
     0
  0
ATTDEF
  5
9C
330
8F
100
AcDbEntity
  8
AM_6
100
AcDbText
 10
6.673112852363566
 20
-4.652
 30
0.0
 40
0.5
  1
0.87
100
AcDbAttributeDefinition
  3

  2
C
 70
     8
280
     0
  0
ATTDEF
  5
9D
330
8F
100
AcDbEntity
  8
AM_6
100
AcDbText
 10
6.673112852363566
 20
-5.152
 30
0.0
 40
0.5
  1
3.3465
100
AcDbAttributeDefinition
  3

  2
D
 70
     8
280
     0
  0
ATTDEF
  5
9E
330
8F
100
AcDbEntity
  8
AM_6
100
AcDbText
 10
6.673112852363566
 20
-5.652
 30
0.0
 40
0.5
  1
0.25
100
AcDbAttributeDefinition
  3

  2
J
 70
     8
280
     0
  0
ATTDEF
  5
9F
330
8F
100
AcDbEntity
  8
AM_6
100
AcDbText
 10
6.673112852363566
 20
-6.152
 30
0.0
 40
0.5
  1
2.86
100
AcDbAttributeDefinition
  3

  2
L
 70
     8
280
     0
  0
ATTDEF
  5
A0
330
8F
100
AcDbEntity
  8
AM_6
100
AcDbText
 10
6.673112852363566
 20
-6.652
 30
0.0
 40
0.5
  1
#10 - 32 x 1/4
100
AcDbAttributeDefinition
  3

  2
N
 70
     8
280
     0
  0
ATTDEF
  5
A1
330
8F
100
AcDbEntity
  8
AM_6
100
AcDbText
 10
6.673112852363566
 20
-7.152
 30
0.0
 40
0.5
  1
0.62000
100
AcDbAttributeDefinition
  3

  2
W
 70
     8
280
     0
  0
ATTDEF
  5
A2
330
8F
100
AcDbEntity
  8
AM_6
100
AcDbText
 10
6.673112852363566
 20
-7.652
 30
0.0
 40
0.5
  1
1.26
100
AcDbAttributeDefinition
  3

  2
X
 70
     8
280
     0
  0
ATTDEF
  5
A3
330
8F
100
AcDbEntity
  8
AM_6
100
AcDbText
 10
6.673112852363566
 20
-8.152000000000001
 30
0.0
 40
0.5
  1
1.23
100
AcDbAttributeDefinition
  3

  2
Y
 70
     8
280
     0
  0
ATTDEF
  5
A4
330
8F
100
AcDbEntity
  8
AM_6
100
AcDbText
 10
6.673112852363566
 20
-8.652000000000001
 30
0.0
 40
0.5
  1
baldor
100
AcDbAttributeDefinition
  3

  2
COMPANY
 70
     8
280
     0
  0
LINE
  5
A7
330
8F
100
AcDbEntity
  8
AM_9
100
AcDbLine
 10
1.066825315111111
 20
-1.6549991998984
 30
0.0
 11
1.066825315111111
 21
-1.1824991998984
 31
0.0
  0
LINE
  5
A8
330
8F
100
AcDbEntity
  8
AM_9
100
AcDbLine
 10
-1.066825315111111
 20
-1.1824991998984
 30
0.0
 11
-1.066825315111111
 21
-1.6549991998984
 31
0.0
  0
LINE
  5
A9
330
8F
100
AcDbEntity
  8
AM_9
100
AcDbLine
 10
1.066825315111111
 20
-1.1824991998984
 30
0.0
 11
1.102811140132194
 21
-0.152
 31
0.0
  0
LINE
  5
AA
330
8F
100
AcDbEntity
  8
AM_9
100
AcDbLine
 10
-1.102811140132194
 20
-0.152
 30
0.0
 11
-1.066825315111111
 21
-1.1824991998984
 31
0.0
  0
LINE
  5
AB
330
8F
100
AcDbEntity
  8
AM_9
100
AcDbLine
 10
-1.066825315111111
 20
-1.1824991998984
 30
0.0
 11
1.066825315111111
 21
-1.1824991998984
 31
0.0
  0
LINE
  5
AC
330
8F
100
AcDbEntity
  8
AM_9
100
AcDbLine
 10
1.168968213111111
 20
-1.4974991998984
 30
0.0
 11
1.168968213111111
 21
-1.34
 31
0.0
  0
LINE
  5
AD
330
8F
100
AcDbEntity
  8
AM_9
100
AcDbLine
 10
-1.168968213111111
 20
-1.34
 30
0.0
 11
-1.168968213111111
 21
-1.4974991998984
 31
0.0
  0
LINE
  5
AE
330
8F
100
AcDbEntity
  8
AM_9
100
AcDbLine
 10
1.271111111111111
 20
-1.6201991998984
 30
0.0
 11
1.271111111111111
 21
-1.4974991998984
 31
0.0
  0
LINE
  5
AF
330
8F
100
AcDbEntity
  8
AM_9
100
AcDbLine
 10
-1.271111111111111
 20
-1.4974991998984
 30
0.0
 11
-1.271111111111111
 21
-1.6201991998984
 31
0.0
  0
LINE
  5
B0
330
8F
100
AcDbEntity
  8
AM_9
100
AcDbLine
 10
-1.271111111111111
 20
-1.4974991998984
 30
0.0
 11
1.271111111111111
 21
-1.4974991998984
 31
0.0
  0
LINE
  5
B1
330
8F
100
AcDbEntity
  8
AM_9
100
AcDbLine
 10
-1.236311111111111
 20
-0.152
 30
0.0
 11
-1.271111111111111
 21
-0.1868
 31
0.0
  0
LINE
  5
B2
330
8F
100
AcDbEntity
  8
AM_9
100
AcDbLine
 10
1.271111111111111
 20
-0.1868
 30
0.0
 11
1.236311111111111
 21
-0.152
 31
0.0
  0
LINE
  5
B3
330
8F
100
AcDbEntity
  8
AM_9
100
AcDbLine
 10
-1.236311111111111
 20
-0.152
 30
0.0
 11
1.236311111111111
 21
-0.152
 31
0.0
  0
LINE
  5
B4
330
8F
100
AcDbEntity
  8
AM_9
100
AcDbLine
 10
1.236311111111111
 20
-1.6549991998984
 30
0.0
 11
1.271111111111111
 21
-1.6201991998984
 31
0.0
  0
LINE
  5
B5
330
8F
100
AcDbEntity
  8
AM_9
100
AcDbLine
 10
-1.271111111111111
 20
-1.6201991998984
 30
0.0
 11
-1.236311111111111
 21
-1.6549991998984
 31
0.0
  0
LINE
  5
B6
330
8F
100
AcDbEntity
  8
AM_9
100
AcDbLine
 10
-1.236311111111111
 20
-1.6549991998984
 30
0.0
 11
1.236311111111111
 21
-1.6549991998984
 31
0.0
  0
LINE
  5
B7
330
8F
100
AcDbEntity
  8
AM_9
100
AcDbLine
 10
-1.271111111111111
 20
-1.6201991998984
 30
0.0
 11
1.271111111111111
 21
-1.6201991998984
 31
0.0
  0
LINE
  5
B8
330
8F
100
AcDbEntity
  8
AM_9
100
AcDbLine
 10
1.271111111111111
 20
-0.2749999999999999
 30
0.0
 11
1.271111111111111
 21
-0.1868
 31
0.0
  0
LINE
  5
B9
330
8F
100
AcDbEntity
  8
AM_9
100
AcDbLine
 10
-1.271111111111111
 20
-0.1868
 30
0.0
 11
-1.271111111111111
 21
-0.2749999999999999
 31
0.0
  0
LINE
  5
BA
330
8F
100
AcDbEntity
  8
AM_9
100
AcDbLine
 10
-1.271111111111111
 20
-0.1868
 30
0.0
 11
1.271111111111111
 21
-0.1868
 31
0.0
  0
LINE
  5
BB
330
8F
100
AcDbEntity
  8
AM_9
100
AcDbLine
 10
1.271111111111111
 20
-1.3399991998984
 30
0.0
 11
1.271111111111111
 21
-1.145
 31
0.0
  0
LINE
  5
BC
330
8F
100
AcDbEntity
  8
AM_9
100
AcDbLine
 10
-1.271111111111111
 20
-1.145
 30
0.0
 11
-1.271111111111111
 21
-1.3399991998984
 31
0.0
  0
LINE
  5
BD
330
8F
100
AcDbEntity
  8
AM_9
100
AcDbLine
 10
-1.271111111111111
 20
-1.3399991998984
 30
0.0
 11
1.271111111111111
 21
-1.3399991998984
 31
0.0
  0
LINE
  5
BE
330
8F
100
AcDbEntity
  8
AM_9
100
AcDbLine
 10
1.58625
 20
-1.01
 30
0.0
 11
1.58625
 21
-0.9099999999999998
 31
0.0
  0
LINE
  5
BF
330
8F
100
AcDbEntity
  8
AM_9
100
AcDbLine
 10
-1.58625
 20
-0.9099999999999998
 30
0.0
 11
-1.58625
 21
-1.01
 31
0.0
  0
LINE
  5
C0
330
8F
100
AcDbEntity
  8
AM_9
100
AcDbLine
 10
-1.562786330102051
 20
-1.145
 30
0.0
 11
1.562786330102177
 21
-1.145
 31
0.0
  0
ARC
  5
C1
330
8F
100
AcDbEntity
  8
AM_9
100
AcDbCircle
 10
1.562786329583616
 20
-1.1102
 30
0.0
 40
0.0347999999999997
100
AcDbArc
 50
270.0
 51
338.587532953116
  0
ARC
  5
C2
330
8F
100
AcDbEntity
  8
AM_9
100
AcDbCircle
 10
-1.562786329583616
 20
-1.1102
 30
0.0
 40
0.0347999999999997
100
AcDbArc
 50
201.412467046884
 51
270.0
  0
LINE
  5
C3
330
8F
100
AcDbEntity
  8
AM_9
100
AcDbLine
 10
-1.56278632958349
 20
-0.2749999999999999
 30
0.0
 11
1.562786329583616
 21
-0.2749999999999999
 31
0.0
  0
ARC
  5
C4
330
8F
100
AcDbEntity
  8
AM_9
100
AcDbCircle
 10
1.562786329583616
 20
-0.3097999999999996
 30
0.0
 40
0.0347999999999994
100
AcDbArc
 50
21.41246168013129
 51
90.0
  0
ARC
  5
C5
330
8F
100
AcDbEntity
  8
AM_9
100
AcDbCircle
 10
-1.562786329583616
 20
-0.3097999999999996
 30
0.0
 40
0.0347999999999997
100
AcDbArc
 50
90.0
 51
158.5875383198687
  0
ARC
  5
C6
330
8F
100
AcDbEntity
  8
AM_9
100
AcDbCircle
 10
0.542249999999733
 20
-0.7099999999999076
 30
0.0
 40
1.131000000000282
100
AcDbArc
 50
338.5875329531165
 51
344.0344016750366
  0
ARC
  5
C7
330
8F
100
AcDbEntity
  8
AM_9
100
AcDbCircle
 10
-0.542249999999791
 20
-0.7099999999999272
 30
0.0
 40
1.131000000000221
100
AcDbArc
 50
195.9655983249632
 51
201.4124670468837
  0
LINE
  5
C8
330
8F
100
AcDbEntity
  8
AM_9
100
AcDbLine
 10
-1.595184308300556
 20
-1.122904761904762
 30
0.0
 11
1.595184308300556
 21
-1.122904761904762
 31
0.0
  0
LINE
  5
C9
330
8F
100
AcDbEntity
  8
AM_9
100
AcDbLine
 10
-1.621259545832513
 20
-1.01
 30
0.0
 11
1.621259545833585
 21
-1.01
 31
0.0
  0
ARC
  5
CA
330
8F
100
AcDbEntity
  8
AM_9
100
AcDbCircle
 10
1.621259545833585
 20
-1.0187
 30
0.0
 40
0.0087000000000005
100
AcDbArc
 50
344.0344118819925
 51
90.0
  0
ARC
  5
CB
330
8F
100
AcDbEntity
  8
AM_9
100
AcDbCircle
 10
-1.621259545833585
 20
-1.0187
 30
0.0
 40
0.0087000000000004
100
AcDbArc
 50
90.0
 51
195.9655881180074
  0
LINE
  5
CC
330
8F
100
AcDbEntity
  8
AM_9
100
AcDbLine
 10
-1.629623961347176
 20
-1.021093021754185
 30
0.0
 11
1.629623961347176
 21
-1.021093021754185
 31
0.0
  0
LINE
  5
CD
330
8F
100
AcDbEntity
  8
AM_9
100
AcDbLine
 10
0.1092106940551153
 20
-0.9099999999999997
 30
0.0
 11
1.648125942409455
 21
-0.9099999999999998
 31
0.0
  0
LINE
  5
CE
330
8F
100
AcDbEntity
  8
AM_9
100
AcDbLine
 10
-0.1052215546405967
 20
-0.9099999999999997
 30
0.0
 11
0.1052215546405967
 21
-0.9099999999999997
 31
0.0
  0
LINE
  5
CF
330
8F
100
AcDbEntity
  8
AM_9
100
AcDbLine
 10
-1.648125942406492
 20
-0.9099999999999998
 30
0.0
 11
-0.1092106940551153
 21
-0.9099999999999997
 31
0.0
  0
ARC
  5
D0
330
8F
100
AcDbEntity
  8
AM_9
100
AcDbCircle
 10
1.648125942409455
 20
-0.9013000000000002
 30
0.0
 40
0.0086999999999998
100
AcDbArc
 50
270.0
 51
350.185810542431
  0
ARC
  5
D1
330
8F
100
AcDbEntity
  8
AM_9
100
AcDbCircle
 10
-1.648125942409455
 20
-0.9013000000000002
 30
0.0
 40
0.0086999999999997
100
AcDbArc
 50
189.814189457569
 51
270.0
  0
ARC
  5
D2
330
8F
100
AcDbEntity
  8
AM_9
100
AcDbCircle
 10
0.5422500000000181
 20
-0.7099999999999995
 30
0.0
 40
1.130999999999982
100
AcDbArc
 50
350.1858105424291
 51
21.41246688175357
  0
ARC
  5
D3
330
8F
100
AcDbEntity
  8
AM_9
100
AcDbCircle
 10
-0.542250000000015
 20
-0.7099999999999999
 30
0.0
 40
1.130999999999985
100
AcDbArc
 50
158.5875331182465
 51
189.8141894575707
  0
LINE
  5
D4
330
8F
100
AcDbEntity
  8
AM_9
100
AcDbLine
 10
0.1099609087433517
 20
-0.9027829457364339
 30
0.0
 11
1.656698624133559
 21
-0.902782945736434
 31
0.0
  0
LINE
  5
D5
330
8F
100
AcDbEntity
  8
AM_9
100
AcDbLine
 10
-0.1060000062106027
 20
-0.9027829457364339
 30
0.0
 11
0.1060000062106027
 21
-0.9027829457364339
 31
0.0
  0
LINE
  5
D6
330
8F
100
AcDbEntity
  8
AM_9
100
AcDbLine
 10
-1.656698624133559
 20
-0.902782945736434
 30
0.0
 11
-0.1099609087433517
 21
-0.9027829457364339
 31
0.0
  0
LINE
  5
D7
330
8F
100
AcDbEntity
  8
AM_9
100
AcDbLine
 10
-1.595184309490579
 20
-0.2970952411298758
 30
0.0
 11
1.595184309490579
 21
-0.2970952411298758
 31
0.0
  0
ENDBLK
  5
92
330
8F
100
AcDbEntity
  8
0
100
AcDbBlockEnd
  0
BLOCK
  5
DA
330
D8
100
AcDbEntity
  8
0
100
AcDbBlockBegin
  2
3_136532_0_in_129761_4
 70
     2
 10
0.0
 20
0.0
 30
0.0
  3
3_136532_0_in_129761_4
  1

  0
ATTDEF
  5
DC
330
D8
100
AcDbEntity
  8
AM_6
100
AcDbText
 10
6.43
 20
-0.0899999999999997
 30
0.0
 40
0.5
  1
Grip Tight Normal Duty Adapter and Nut Inch Bore D
100
AcDbAttributeDefinition
  3

  2
NN
 70
     8
280
     0
  0
ATTDEF
  5
DD
330
D8
100
AcDbEntity
  8
AM_6
100
AcDbText
 10
6.43
 20
-0.5899999999999997
 30
0.0
 40
0.5
  1
GT and GTM Adapter & Lock Nut Assemblies
100
AcDbAttributeDefinition
  3

  2
NT
 70
     8
280
     0
  0
ATTDEF
  5
DE
330
D8
100
AcDbEntity
  8
AM_6
100
AcDbText
 10
6.43
 20
-1.09
 30
0.0
 40
0.5
  1
136532
100
AcDbAttributeDefinition
  3

  2
NB
 70
     8
280
     0
  0
ATTDEF
  5
DF
330
D8
100
AcDbEntity
  8
AM_6
100
AcDbText
 10
6.43
 20
-1.59
 30
0.0
 40
0.5
  1
$PN.
100
AcDbAttributeDefinition
  3

  2
NBSYN
 70
     8
280
     0
  0
ATTDEF
  5
E0
330
D8
100
AcDbEntity
  8
AM_6
100
AcDbText
 10
6.43
 20
-2.09
 30
0.0
 40
0.5
  1
136532
100
AcDbAttributeDefinition
  3

  2
LINA
 70
     8
280
     0
  0
ATTDEF
  5
E1
330
D8
100
AcDbEntity
  8
AM_6
100
AcDbText
 10
6.43
 20
-2.59
 30
0.0
 40
0.5
  1
209
100
AcDbAttributeDefinition
  3

  2
SERIES
 70
     8
280
     0
  0
ATTDEF
  5
E2
330
D8
100
AcDbEntity
  8
AM_6
100
AcDbText
 10
6.43
 20
-3.09
 30
0.0
 40
0.5
  1
1-11/16
100
AcDbAttributeDefinition
  3

  2
SS
 70
     8
280
     0
  0
ATTDEF
  5
E3
330
D8
100
AcDbEntity
  8
AM_6
100
AcDbText
 10
6.43
 20
-3.59
 30
0.0
 40
0.5
  1
136532
100
AcDbAttributeDefinition
  3

  2
PN
 70
     8
280
     0
  0
ATTDEF
  5
E4
330
D8
100
AcDbEntity
  8
AM_6
100
AcDbText
 10
6.43
 20
-4.09
 30
0.0
 40
0.5
  1
AN-GT-09-111-D
100
AcDbAttributeDefinition
  3

  2
DESCRIPTION
 70
     8
280
     0
  0
ATTDEF
  5
E5
330
D8
100
AcDbEntity
  8
AM_6
100
AcDbText
 10
6.43
 20
-4.59
 30
0.0
 40
0.5
  1
1.85
100
AcDbAttributeDefinition
  3

  2
A
 70
     8
280
     0
  0
ATTDEF
  5
E6
330
D8
100
AcDbEntity
  8
AM_6
100
AcDbText
 10
6.43
 20
-5.09
 30
0.0
 40
0.5
  1
0.87
100
AcDbAttributeDefinition
  3

  2
C
 70
     8
280
     0
  0
ATTDEF
  5
E7
330
D8
100
AcDbEntity
  8
AM_6
100
AcDbText
 10
6.43
 20
-5.59
 30
0.0
 40
0.5
  1
3.3465
100
AcDbAttributeDefinition
  3

  2
D
 70
     8
280
     0
  0
ATTDEF
  5
E8
330
D8
100
AcDbEntity
  8
AM_6
100
AcDbText
 10
6.43
 20
-6.09
 30
0.0
 40
0.5
  1
0.25
100
AcDbAttributeDefinition
  3

  2
J
 70
     8
280
     0
  0
ATTDEF
  5
E9
330
D8
100
AcDbEntity
  8
AM_6
100
AcDbText
 10
6.43
 20
-6.59
 30
0.0
 40
0.5
  1
2.86
100
AcDbAttributeDefinition
  3

  2
L
 70
     8
280
     0
  0
ATTDEF
  5
EA
330
D8
100
AcDbEntity
  8
AM_6
100
AcDbText
 10
6.43
 20
-7.09
 30
0.0
 40
0.5
  1
10 - 32 x 1/4
100
AcDbAttributeDefinition
  3

  2
N
 70
     8
280
     0
  0
ATTDEF
  5
EB
330
D8
100
AcDbEntity
  8
AM_6
100
AcDbText
 10
6.43
 20
-7.59
 30
0.0
 40
0.5
  1
0.62
100
AcDbAttributeDefinition
  3

  2
W
 70
     8
280
     0
  0
ATTDEF
  5
EC
330
D8
100
AcDbEntity
  8
AM_6
100
AcDbText
 10
6.43
 20
-8.09
 30
0.0
 40
0.5
  1
1.26
100
AcDbAttributeDefinition
  3

  2
X
 70
     8
280
     0
  0
ATTDEF
  5
ED
330
D8
100
AcDbEntity
  8
AM_6
100
AcDbText
 10
6.43
 20
-8.59
 30
0.0
 40
0.5
  1
1.23
100
AcDbAttributeDefinition
  3

  2
Y
 70
     8
280
     0
  0
ATTDEF
  5
EE
330
D8
100
AcDbEntity
  8
AM_6
100
AcDbText
 10
6.43
 20
-9.09
 30
0.0
 40
0.5
  1
baldor
100
AcDbAttributeDefinition
  3

  2
COMPANY
 70
     8
280
     0
  0
LINE
  5
EF
330
D8
100
AcDbEntity
  8
AM_9
100
AcDbLine
 10
0.125
 20
-1.34
 30
0.0
 11
0.125
 21
-1.97
 31
0.0
  0
LINE
  5
F0
330
D8
100
AcDbEntity
  8
AM_9
100
AcDbLine
 10
-0.125
 20
-1.34
 30
0.0
 11
-0.125
 21
-1.97
 31
0.0
  0
LINE
  5
F1
330
D8
100
AcDbEntity
  8
AM_9
100
AcDbLine
 10
1.066825396825397
 20
-1.655
 30
0.0
 11
1.066825396825397
 21
-1.97
 31
0.0
  0
LINE
  5
F2
330
D8
100
AcDbEntity
  8
AM_9
100
AcDbLine
 10
1.066825396825397
 20
-1.94
 30
0.0
 11
-1.066825396825397
 21
-1.94
 31
0.0
  0
LINE
  5
F3
330
D8
100
AcDbEntity
  8
AM_9
100
AcDbLine
 10
-1.171175909629429
 20
-1.3748
 30
0.0
 11
-1.296175909629429
 21
-1.3748
 31
0.0
  0
LINE
  5
F4
330
D8
100
AcDbEntity
  8
AM_9
100
AcDbLine
 10
-1.3952
 20
-1.34
 30
0.0
 11
-1.4052
 21
-1.35
 31
0.0
  0
LINE
  5
F5
330
D8
100
AcDbEntity
  8
AM_9
100
AcDbLine
 10
-1.171175909629429
 20
-1.9352
 30
0.0
 11
-1.296175909629429
 21
-1.9352
 31
0.0
  0
LINE
  5
F6
330
D8
100
AcDbEntity
  8
AM_9
100
AcDbLine
 10
-1.265919515381066
 20
-1.34
 30
0.0
 11
-1.27461418315283
 21
-1.349999650346409
 31
0.0
  0
LINE
  5
F7
330
D8
100
AcDbEntity
  8
AM_9
100
AcDbLine
 10
1.4052
 20
-1.35
 30
0.0
 11
1.3952
 21
-1.34
 31
0.0
  0
LINE
  5
F8
330
D8
100
AcDbEntity
  8
AM_9
100
AcDbLine
 10
1.296175909629429
 20
-1.3748
 30
0.0
 11
1.171175909629429
 21
-1.3748
 31
0.0
  0
LINE
  5
F9
330
D8
100
AcDbEntity
  8
AM_9
100
AcDbLine
 10
1.27461418315283
 20
-1.349999650346409
 30
0.0
 11
1.265919515381066
 21
-1.34
 31
0.0
  0
LINE
  5
FA
330
D8
100
AcDbEntity
  8
AM_9
100
AcDbLine
 10
1.296175909629429
 20
-1.9352
 30
0.0
 11
1.171175909629429
 21
-1.9352
 31
0.0
  0
LINE
  5
FB
330
D8
100
AcDbEntity
  8
AM_9
100
AcDbLine
 10
-1.093355029212046
 20
-1.34
 30
0.0
 11
-1.093355029212046
 21
-1.97
 31
0.0
  0
LINE
  5
FC
330
D8
100
AcDbEntity
  8
AM_9
100
AcDbLine
 10
-1.218355029212046
 20
-1.34
 30
0.0
 11
-1.218355029212046
 21
-1.35
 31
0.0
  0
LINE
  5
FD
330
D8
100
AcDbEntity
  8
AM_9
100
AcDbLine
 10
1.3952
 20
-1.34
 30
0.0
 11
-1.3952
 21
-1.34
 31
0.0
  0
LINE
  5
FE
330
D8
100
AcDbEntity
  8
AM_9
100
AcDbLine
 10
1.093355029212046
 20
-1.34
 30
0.0
 11
1.093355029212046
 21
-1.97
 31
0.0
  0
LINE
  5
FF
330
D8
100
AcDbEntity
  8
AM_9
100
AcDbLine
 10
1.218355029212046
 20
-1.34
 30
0.0
 11
1.218355029212046
 21
-1.35
 31
0.0
  0
LINE
  5
100
330
D8
100
AcDbEntity
  8
AM_9
100
AcDbLine
 10
0.8422672156150921
 20
-0.09
 30
0.0
 11
0.8422672156150921
 21
-1.94
 31
0.0
  0
LINE
  5
101
330
D8
100
AcDbEntity
  8
AM_9
100
AcDbLine
 10
-0.84375
 20
-0.0899999999999997
 30
0.0
 11
-0.84375
 21
-1.94
 31
0.0
  0
LINE
  5
102
330
D8
100
AcDbEntity
  8
AM_9
100
AcDbLine
 10
1.065653052035072
 20
-1.6549991998984
 30
0.0
 11
1.065653052035072
 21
-1.182499999999999
 31
0.0
  0
LINE
  5
103
330
D8
100
AcDbEntity
  8
AM_9
100
AcDbLine
 10
-1.066825396825396
 20
-1.182499999999999
 30
0.0
 11
-1.066825396825396
 21
-1.6549991998984
 31
0.0
  0
LINE
  5
104
330
D8
100
AcDbEntity
  8
AM_9
100
AcDbLine
 10
-1.066825396825397
 20
-1.94
 30
0.0
 11
-1.066825396825397
 21
-1.97
 31
0.0
  0
LINE
  5
105
330
D8
100
AcDbEntity
  8
AM_9
100
AcDbLine
 10
1.065653052035072
 20
-1.182499999999999
 30
0.0
 11
1.1038445118875
 21
-0.09
 31
0.0
  0
LINE
  5
106
330
D8
100
AcDbEntity
  8
AM_9
100
AcDbLine
 10
-1.104976337495131
 20
-0.09
 30
0.0
 11
-1.066825396825397
 21
-1.182499999999999
 31
0.0
  0
LINE
  5
107
330
D8
100
AcDbEntity
  8
AM_9
100
AcDbLine
 10
-1.066825396825397
 20
-1.182499999999999
 30
0.0
 11
1.065653052035072
 21
-1.182499999999999
 31
0.0
  0
LINE
  5
108
330
D8
100
AcDbEntity
  8
AM_9
100
AcDbLine
 10
-1.104976337495131
 20
-0.09
 30
0.0
 11
1.1038445118875
 21
-0.09
 31
0.0
  0
LINE
  5
109
330
D8
100
AcDbEntity
  8
AM_9
100
AcDbLine
 10
1.168968253968254
 20
-1.4975
 30
0.0
 11
1.168968253968254
 21
-1.34
 31
0.0
  0
LINE
  5
10A
330
D8
100
AcDbEntity
  8
AM_9
100
AcDbLine
 10
-1.168968253968254
 20
-1.34
 30
0.0
 11
-1.168968253968254
 21
-1.4975
 31
0.0
  0
LINE
  5
10B
330
D8
100
AcDbEntity
  8
AM_9
100
AcDbLine
 10
1.271111111111111
 20
-1.655
 30
0.0
 11
1.271111111111111
 21
-1.4975
 31
0.0
  0
LINE
  5
10C
330
D8
100
AcDbEntity
  8
AM_9
100
AcDbLine
 10
-1.271111111111111
 20
-1.4975
 30
0.0
 11
-1.271111111111111
 21
-1.655
 31
0.0
  0
LINE
  5
10D
330
D8
100
AcDbEntity
  8
AM_9
100
AcDbLine
 10
-1.271111111111111
 20
-1.4975
 30
0.0
 11
1.271111111111111
 21
-1.4975
 31
0.0
  0
LINE
  5
10E
330
D8
100
AcDbEntity
  8
AM_9
100
AcDbLine
 10
-1.271111111111111
 20
-1.655
 30
0.0
 11
1.271111111111111
 21
-1.655
 31
0.0
  0
LINE
  5
10F
330
D8
100
AcDbEntity
  8
AM_9
100
AcDbLine
 10
-1.14961418315283
 20
-1.349999650346409
 30
0.0
 11
-1.140919515381066
 21
-1.34
 31
0.0
  0
LINE
  5
110
330
D8
100
AcDbEntity
  8
AM_9
100
AcDbLine
 10
1.140919515381066
 20
-1.340000000000001
 30
0.0
 11
1.149614183152829
 21
-1.349999650346409
 31
0.0
  0
LINE
  5
113
330
D8
100
AcDbEntity
  8
AM_7
100
AcDbLine
 10
-0.0760724999999999
 20
-1.843750184150368
 30
0.0
 11
0.0760724999999999
 21
-1.843750184150368
 31
0.0
  0
LINE
  5
115
330
D8
100
AcDbEntity
  8
AM_4
100
AcDbLine
 10
-1.43
 20
-1.3748
 30
0.0
 11
-1.43
 21
-1.9352
 31
0.0
  0
LINE
  5
116
330
D8
100
AcDbEntity
  8
AM_4
100
AcDbLine
 10
-1.4052
 20
-1.35
 30
0.0
 11
-1.43
 21
-1.3748
 31
0.0
  0
LINE
  5
117
330
D8
100
AcDbEntity
  8
AM_4
100
AcDbLine
 10
-1.43
 20
-1.3748
 30
0.0
 11
-1.296175909629429
 21
-1.3748
 31
0.0
  0
LINE
  5
118
330
D8
100
AcDbEntity
  8
AM_4
100
AcDbLine
 10
-1.43
 20
-1.9352
 30
0.0
 11
-1.3952
 21
-1.97
 31
0.0
  0
LINE
  5
119
330
D8
100
AcDbEntity
  8
AM_4
100
AcDbLine
 10
-1.43
 20
-1.9352
 30
0.0
 11
-1.296175909629429
 21
-1.9352
 31
0.0
  0
LINE
  5
11A
330
D8
100
AcDbEntity
  8
AM_4
100
AcDbLine
 10
-1.27461418315283
 20
-1.349999650346409
 30
0.0
 11
-1.296175909629429
 21
-1.3748
 31
0.0
  0
LINE
  5
11B
330
D8
100
AcDbEntity
  8
AM_4
100
AcDbLine
 10
-1.296175909629429
 20
-1.3748
 30
0.0
 11
-1.296175909629429
 21
-1.9352
 31
0.0
  0
LINE
  5
11C
330
D8
100
AcDbEntity
  8
AM_4
100
AcDbLine
 10
-1.296175909629429
 20
-1.9352
 30
0.0
 11
-1.265919515381066
 21
-1.97
 31
0.0
  0
LINE
  5
11D
330
D8
100
AcDbEntity
  8
AM_4
100
AcDbLine
 10
1.43
 20
-1.3748
 30
0.0
 11
1.4052
 21
-1.35
 31
0.0
  0
LINE
  5
11E
330
D8
100
AcDbEntity
  8
AM_4
100
AcDbLine
 10
1.296175909629429
 20
-1.3748
 30
0.0
 11
1.43
 21
-1.3748
 31
0.0
  0
LINE
  5
11F
330
D8
100
AcDbEntity
  8
AM_4
100
AcDbLine
 10
1.43
 20
-1.9352
 30
0.0
 11
1.43
 21
-1.3748
 31
0.0
  0
LINE
  5
120
330
D8
100
AcDbEntity
  8
AM_4
100
AcDbLine
 10
1.296175909629429
 20
-1.9352
 30
0.0
 11
1.296175909629429
 21
-1.3748
 31
0.0
  0
LINE
  5
121
330
D8
100
AcDbEntity
  8
AM_4
100
AcDbLine
 10
1.296175909629429
 20
-1.3748
 30
0.0
 11
1.27461418315283
 21
-1.349999650346409
 31
0.0
  0
LINE
  5
122
330
D8
100
AcDbEntity
  8
AM_4
100
AcDbLine
 10
-1.3952
 20
-1.97
 30
0.0
 11
1.3952
 21
-1.97
 31
0.0
  0
LINE
  5
123
330
D8
100
AcDbEntity
  8
AM_4
100
AcDbLine
 10
1.296175909629429
 20
-1.9352
 30
0.0
 11
1.43
 21
-1.9352
 31
0.0
  0
LINE
  5
124
330
D8
100
AcDbEntity
  8
AM_4
100
AcDbLine
 10
1.265919515381066
 20
-1.97
 30
0.0
 11
1.296175909629429
 21
-1.9352
 31
0.0
  0
LINE
  5
125
330
D8
100
AcDbEntity
  8
AM_4
100
AcDbLine
 10
1.3952
 20
-1.97
 30
0.0
 11
1.43
 21
-1.9352
 31
0.0
  0
LINE
  5
126
330
D8
100
AcDbEntity
  8
AM_4
100
AcDbLine
 10
-1.218355029212046
 20
-1.35
 30
0.0
 11
-1.218355029212046
 21
-1.97
 31
0.0
  0
LINE
  5
127
330
D8
100
AcDbEntity
  8
AM_4
100
AcDbLine
 10
1.218355029212046
 20
-1.35
 30
0.0
 11
1.218355029212046
 21
-1.97
 31
0.0
  0
LINE
  5
128
330
D8
100
AcDbEntity
  8
AM_4
100
AcDbLine
 10
-1.171175909629429
 20
-1.3748
 30
0.0
 11
-1.14961418315283
 21
-1.349999650346409
 31
0.0
  0
LINE
  5
129
330
D8
100
AcDbEntity
  8
AM_4
100
AcDbLine
 10
1.149614183152829
 20
-1.349999650346409
 30
0.0
 11
1.171175909629429
 21
-1.3748
 31
0.0
  0
LINE
  5
12A
330
D8
100
AcDbEntity
  8
AM_4
100
AcDbLine
 10
1.171175909629429
 20
-1.3748
 30
0.0
 11
1.171175909629429
 21
-1.9352
 31
0.0
  0
LINE
  5
12B
330
D8
100
AcDbEntity
  8
AM_4
100
AcDbLine
 10
-1.171175909629429
 20
-1.3748
 30
0.0
 11
1.171175909629429
 21
-1.3748
 31
0.0
  0
LINE
  5
12C
330
D8
100
AcDbEntity
  8
AM_4
100
AcDbLine
 10
-1.171175909629429
 20
-1.9352
 30
0.0
 11
-1.171175909629429
 21
-1.3748
 31
0.0
  0
LINE
  5
12D
330
D8
100
AcDbEntity
  8
AM_4
100
AcDbLine
 10
0.0249146015001936
 20
-1.9352
 30
0.0
 11
1.171175909629429
 21
-1.9352
 31
0.0
  0
LINE
  5
12E
330
D8
100
AcDbEntity
  8
AM_4
100
AcDbLine
 10
-1.171175909629429
 20
-1.9352
 30
0.0
 11
-0.0249146015002021
 21
-1.9352
 31
0.0
  0
LINE
  5
12F
330
D8
100
AcDbEntity
  8
AM_4
100
AcDbLine
 10
-1.140919515381066
 20
-1.97
 30
0.0
 11
-1.171175909629429
 21
-1.9352
 31
0.0
  0
LINE
  5
130
330
D8
100
AcDbEntity
  8
AM_4
100
AcDbLine
 10
1.171175909629429
 20
-1.9352
 30
0.0
 11
1.140919515381066
 21
-1.97
 31
0.0
  0
CIRCLE
  5
131
330
D8
100
AcDbEntity
  8
AM_4
100
AcDbCircle
 10
0.0
 20
-1.843750184150368
 30
0.0
 40
0.0724499999999999
  0
LWPOLYLINE
  5
132
330
D8
100
AcDbEntity
  8
AM_4
100
AcDbPolyline
 90
       35
 70
     0
 43
0.0
 10
-0.0249146015002021
 20
-1.9352
 10
-0.0414781576975509
 20
-1.928547622774739
 10
-0.0541017403719485
 20
-1.920591119013064
 10
-0.0655621598725661
 20
-1.910407189314497
 10
-0.0752062170498146
 20
-1.898494448834232
 10
-0.0829902558978189
 20
-1.884804869831576
 10
-0.0884539408076031
 20
-1.869982183090404
 10
-0.0914943164370109
 20
-1.854030033011757
 10
-0.0918604408471678
 20
-1.837900901942373
 10
-0.0894682614701199
 20
-1.82147945652214
 10
-0.0844717744479981
 20
-1.806049982958511
 10
-0.0767064912624573
 20
-1.79126986698665
 10
-0.0669381889636859
 20
-1.778566577858623
 10
-0.0547631537952472
 20
-1.767410222185331
 10
-0.0416087144232641
 20
-1.759020958483979
 10
-0.0267509862537335
 20
-1.752855177033583
 10
-0.0119986155139274
 20
-1.749561695654421
 10
0.0035578072931975
 20
-1.74882125752655
 10
0.0182552965499323
 20
-1.750639403626725
 10
0.0328502814562121
 20
-1.755012927193665
 10
0.046162672260536
 20
-1.761573807765918
 10
0.0585520383388755
 20
-1.770468232276488
 10
0.0692718169964744
 20
-1.781218116755197
 10
0.0783407745475401
 20
-1.79390735836713
 10
0.0852471834368147
 20
-1.807956641406665
 10
0.0898889366214671
 20
-1.82336242732792
 10
0.0919332937940442
 20
-1.839282462178719
 10
0.0912941046409758
 20
-1.855776527206061
 10
0.0879720053893733
 20
-1.871654319917918
 10
0.0818451959248907
 20
-1.887183804662147
 10
0.0754918368823686
 20
-1.898074107098814
 10
0.0676034611953895
 20
-1.908198163595166
 10
0.0577386658654625
 20
-1.917716682187881
 10
0.0463110798781826
 20
-1.925837503556792
 10
0.0249146015001936
 20
-1.9352
  0
LWPOLYLINE
  5
133
330
D8
100
AcDbEntity
  8
AM_4
100
AcDbPolyline
 90
        3
 70
     0
 43
0.0
 10
0.0249146015001936
 20
-1.9352
 10
0.0004481755597017
 20
-1.93697451826856
 10
-0.0249146015002021
 20
-1.9352
  0
ARC
  5
135
330
D8
100
AcDbEntity
  8
AM_5
100
AcDbCircle
 10
0.0000000000000002
 20
-1.843750184150369
 30
0.0
 40
0.0950000000000002
100
AcDbArc
 50
75.00000000000014
 51
15.00000000000019
  0
ENDBLK
  5
DB
330
D8
100
AcDbEntity
  8
0
100
AcDbBlockEnd
  0
BLOCK
  5
138
330
136
100
AcDbEntity
  8
0
100
AcDbBlockBegin
  2
4_129743h_0_in_129761_4
 70
     2
 10
0.0
 20
0.0
 30
0.0
  3
4_129743h_0_in_129761_4
  1

  0
ATTDEF
  5
13A
330
136
100
AcDbEntity
  8
AM_6
100
AcDbText
 10
7.875000000000003
 20
0.0675
 30
0.0
 40
0.5
  1
FC-GT - Inch - Housing
100
AcDbAttributeDefinition
  3

  2
NN
 70
     8
280
     0
  0
ATTDEF
  5
13B
330
136
100
AcDbEntity
  8
AM_6
100
AcDbText
 10
7.875000000000003
 20
-0.4325
 30
0.0
 40
0.5
  1
GT Normal Duty Piloted Flange Bearings
100
AcDbAttributeDefinition
  3

  2
NT
 70
     8
280
     0
  0
ATTDEF
  5
13C
330
136
100
AcDbEntity
  8
AM_6
100
AcDbText
 10
7.875000000000003
 20
-0.9325
 30
0.0
 40
0.5
  1
129743h
100
AcDbAttributeDefinition
  3

  2
NB
 70
     8
280
     0
  0
ATTDEF
  5
13D
330
136
100
AcDbEntity
  8
AM_6
100
AcDbText
 10
7.875000000000003
 20
-1.4325
 30
0.0
 40
0.5
  1
$PN.h
100
AcDbAttributeDefinition
  3

  2
NBSYN
 70
     8
280
     0
  0
ATTDEF
  5
13E
330
136
100
AcDbEntity
  8
AM_6
100
AcDbText
 10
7.875000000000003
 20
-1.9325
 30
0.0
 40
0.5
  1
129743
100
AcDbAttributeDefinition
  3

  2
LINA
 70
     8
280
     0
  0
ATTDEF
  5
13F
330
136
100
AcDbEntity
  8
AM_6
100
AcDbText
 10
7.875000000000003
 20
-2.4325
 30
0.0
 40
0.5
  1
209
100
AcDbAttributeDefinition
  3

  2
SERIES
 70
     8
280
     0
  0
ATTDEF
  5
140
330
136
100
AcDbEntity
  8
AM_6
100
AcDbText
 10
7.875000000000003
 20
-2.9325
 30
0.0
 40
0.5
  1
1-11/16
100
AcDbAttributeDefinition
  3

  2
SS
 70
     8
280
     0
  0
ATTDEF
  5
141
330
136
100
AcDbEntity
  8
AM_6
100
AcDbText
 10
7.875000000000003
 20
-3.4325
 30
0.0
 40
0.5
  1
129743
100
AcDbAttributeDefinition
  3

  2
PN
 70
     8
280
     0
  0
ATTDEF
  5
142
330
136
100
AcDbEntity
  8
AM_6
100
AcDbText
 10
7.875000000000003
 20
-3.9325
 30
0.0
 40
0.5
  1
FC-GT-111
100
AcDbAttributeDefinition
  3

  2
DESCRIPTION
 70
     8
280
     0
  0
ATTDEF
  5
143
330
136
100
AcDbEntity
  8
AM_6
100
AcDbText
 10
7.875000000000003
 20
-4.4325
 30
0.0
 40
0.5
  1
129504
100
AcDbAttributeDefinition
  3

  2
PNSL
 70
     8
280
     0
  0
ATTDEF
  5
144
330
136
100
AcDbEntity
  8
AM_6
100
AcDbText
 10
7.875000000000003
 20
-4.9325
 30
0.0
 40
0.5
  1
FC-GT-09
100
AcDbAttributeDefinition
  3

  2
DESCRIPTIONSL
 70
     8
280
     0
  0
ATTDEF
  5
145
330
136
100
AcDbEntity
  8
AM_6
100
AcDbText
 10
7.875000000000003
 20
-5.4325
 30
0.0
 40
0.5
  1
136532
100
AcDbAttributeDefinition
  3

  2
PNA
 70
     8
280
     0
  0
ATTDEF
  5
146
330
136
100
AcDbEntity
  8
AM_6
100
AcDbText
 10
7.875000000000003
 20
-5.9325
 30
0.0
 40
0.5
  1
AN-GT-09-111-D
100
AcDbAttributeDefinition
  3

  2
DESCRIPTIONA
 70
     8
280
     0
  0
ATTDEF
  5
147
330
136
100
AcDbEntity
  8
AM_6
100
AcDbText
 10
7.875000000000003
 20
-6.4325
 30
0.0
 40
0.5
  1
6.1
100
AcDbAttributeDefinition
  3

  2
W
 70
     8
280
     0
  0
ATTDEF
  5
148
330
136
100
AcDbEntity
  8
AM_6
100
AcDbText
 10
7.875000000000003
 20
-6.9325
 30
0.0
 40
0.5
  1
1.85
100
AcDbAttributeDefinition
  3

  2
A
 70
     8
280
     0
  0
ATTDEF
  5
149
330
136
100
AcDbEntity
  8
AM_6
100
AcDbText
 10
7.875000000000003
 20
-7.4325
 30
0.0
 40
0.5
  1
5.75
100
AcDbAttributeDefinition
  3

  2
B
 70
     8
280
     0
  0
ATTDEF
  5
14A
330
136
100
AcDbEntity
  8
AM_6
100
AcDbText
 10
7.875000000000003
 20
-7.9325
 30
0.0
 40
0.5
  1
1.97
100
AcDbAttributeDefinition
  3

  2
C
 70
     8
280
     0
  0
ATTDEF
  5
14B
330
136
100
AcDbEntity
  8
AM_6
100
AcDbText
 10
7.875000000000003
 20
-8.432500000000001
 30
0.0
 40
0.5
  1
4.75
100
AcDbAttributeDefinition
  3

  2
D
 70
     8
280
     0
  0
ATTDEF
  5
14C
330
136
100
AcDbEntity
  8
AM_6
100
AcDbText
 10
7.875000000000003
 20
-8.932500000000001
 30
0.0
 40
0.5
  1
0.44
100
AcDbAttributeDefinition
  3

  2
E
 70
     8
280
     0
  0
ATTDEF
  5
14D
330
136
100
AcDbEntity
  8
AM_6
100
AcDbText
 10
7.875000000000003
 20
-9.432500000000001
 30
0.0
 40
0.5
  1
1/2
100
AcDbAttributeDefinition
  3

  2
F
 70
     8
280
     0
  0
ATTDEF
  5
14E
330
136
100
AcDbEntity
  8
AM_6
100
AcDbText
 10
7.875000000000003
 20
-9.932500000000001
 30
0.0
 40
0.5
  1
1.53
100
AcDbAttributeDefinition
  3

  2
G
 70
     8
280
     0
  0
ATTDEF
  5
14F
330
136
100
AcDbEntity
  8
AM_6
100
AcDbText
 10
7.875000000000003
 20
-10.4325
 30
0.0
 40
0.5
  1
0.91
100
AcDbAttributeDefinition
  3

  2
H
 70
     8
280
     0
  0
ATTDEF
  5
150
330
136
100
AcDbEntity
  8
AM_6
100
AcDbText
 10
7.875000000000003
 20
-10.9325
 30
0.0
 40
0.5
  1
4.000/3.998
100
AcDbAttributeDefinition
  3

  2
K
 70
     8
280
     0
  0
ATTDEF
  5
151
330
136
100
AcDbEntity
  8
AM_6
100
AcDbText
 10
7.875000000000003
 20
-11.4325
 30
0.0
 40
0.5
  1
2.86
100
AcDbAttributeDefinition
  3

  2
L
 70
     8
280
     0
  0
ATTDEF
  5
152
330
136
100
AcDbEntity
  8
AM_6
100
AcDbText
 10
7.875000000000003
 20
-11.9325
 30
0.0
 40
0.5
  1
1.57
100
AcDbAttributeDefinition
  3

  2
Z
 70
     8
280
     0
  0
ATTDEF
  5
153
330
136
100
AcDbEntity
  8
AM_6
100
AcDbText
 10
7.875000000000003
 20
-12.4325
 30
0.0
 40
0.5
  1
111
100
AcDbAttributeDefinition
  3

  2
SSM
 70
     8
280
     0
  0
ATTDEF
  5
154
330
136
100
AcDbEntity
  8
AM_6
100
AcDbText
 10
7.875000000000003
 20
-12.9325
 30
0.0
 40
0.5
  1
fc_gi_templ.prj
100
AcDbAttributeDefinition
  3

  2
PPATH
 70
     8
280
     0
  0
ATTDEF
  5
155
330
136
100
AcDbEntity
  8
AM_6
100
AcDbText
 10
7.875000000000003
 20
-13.4325
 30
0.0
 40
0.5
  1
Infotex
100
AcDbAttributeDefinition
  3

  2
INFO
 70
     8
280
     0
  0
ATTDEF
  5
156
330
136
100
AcDbEntity
  8
AM_6
100
AcDbText
 10
7.875000000000003
 20
-13.9325
 30
0.0
 40
0.5
  1
4450
100
AcDbAttributeDefinition
  3

  2
CAPS
 70
     8
280
     0
  0
ATTDEF
  5
157
330
136
100
AcDbEntity
  8
AM_6
100
AcDbText
 10
7.875000000000003
 20
-14.4325
 30
0.0
 40
0.5
  1
7891
100
AcDbAttributeDefinition
  3

  2
CAPD
 70
     8
280
     0
  0
ATTDEF
  5
158
330
136
100
AcDbEntity
  8
AM_6
100
AcDbText
 10
7.875000000000003
 20
-14.9325
 30
0.0
 40
0.5
  1
baldor
100
AcDbAttributeDefinition
  3

  2
COMPANY
 70
     8
280
     0
  0
LINE
  5
159
330
136
100
AcDbEntity
  8
AM_9
100
AcDbLine
 10
0.166818
 20
-0.8950000000000001
 30
0.0
 11
0.166818
 21
-0.875315
 31
0.0
  0
LINE
  5
15A
330
136
100
AcDbEntity
  8
AM_9
100
AcDbLine
 10
0.335166
 20
-0.8950000000000001
 30
0.0
 11
0.335166
 21
-0.875315
 31
0.0
  0
LINE
  5
15B
330
136
100
AcDbEntity
  8
AM_9
100
AcDbLine
 10
0.0933567
 20
-0.8950000000000001
 30
0.0
 11
0.0933567
 21
-0.875315
 31
0.0
  0
LINE
  5
15C
330
136
100
AcDbEntity
  8
AM_9
100
AcDbLine
 10
-0.200487509838
 20
-0.8950000000000001
 30
0.0
 11
-0.200487509838
 21
-0.875315
 31
0.0
  0
LINE
  5
15D
330
136
100
AcDbEntity
  8
AM_9
100
AcDbLine
 10
-0.078052404353
 20
-0.8950000000000001
 30
0.0
 11
-0.078052404353
 21
-0.875315
 31
0.0
  0
LINE
  5
15E
330
136
100
AcDbEntity
  8
AM_9
100
AcDbLine
 10
0.0688697
 20
-0.8950000000000001
 30
0.0
 11
0.0688697
 21
-0.875315
 31
0.0
  0
LINE
  5
15F
330
136
100
AcDbEntity
  8
AM_9
100
AcDbLine
 10
-0.224974530935
 20
-0.8950000000000001
 30
0.0
 11
-0.224974530935
 21
-0.875315
 31
0.0
  0
LINE
  5
160
330
136
100
AcDbEntity
  8
AM_9
100
AcDbLine
 10
-0.18212214559
 20
-0.8950000000000001
 30
0.0
 11
-0.18212214559
 21
-0.875315
 31
0.0
  0
LINE
  5
161
330
136
100
AcDbEntity
  8
AM_9
100
AcDbLine
 10
0.111722
 20
-0.8950000000000001
 30
0.0
 11
0.111722
 21
-0.875315
 31
0.0
  0
LINE
  5
162
330
136
100
AcDbEntity
  8
AM_9
100
AcDbLine
 10
-0.243339895183
 20
-0.8950000000000001
 30
0.0
 11
-0.243339895183
 21
-0.875315
 31
0.0
  0
LINE
  5
163
330
136
100
AcDbEntity
  8
AM_9
100
AcDbLine
 10
-0.096417768601
 20
-0.8950000000000001
 30
0.0
 11
-0.096417768601
 21
-0.875315
 31
0.0
  0
LINE
  5
164
330
136
100
AcDbEntity
  8
AM_9
100
AcDbLine
 10
0.212731
 20
-0.8950000000000001
 30
0.0
 11
0.212731
 21
-0.875315
 31
0.0
  0
LINE
  5
165
330
136
100
AcDbEntity
  8
AM_9
100
AcDbLine
 10
0.0505043
 20
-0.8950000000000001
 30
0.0
 11
0.0505043
 21
-0.875315
 31
0.0
  0
LINE
  5
166
330
136
100
AcDbEntity
  8
AM_9
100
AcDbLine
 10
-0.197426878264
 20
-0.8950000000000001
 30
0.0
 11
-0.197426878264
 21
-0.875315
 31
0.0
  0
LINE
  5
167
330
136
100
AcDbEntity
  8
AM_9
100
AcDbLine
 10
0.0964177
 20
-0.8950000000000001
 30
0.0
 11
0.0964177
 21
-0.875315
 31
0.0
  0
LINE
  5
168
330
136
100
AcDbEntity
  8
AM_9
100
AcDbLine
 10
0.0658091
 20
-0.8950000000000001
 30
0.0
 11
0.0658091
 21
-0.875315
 31
0.0
  0
LINE
  5
169
330
136
100
AcDbEntity
  8
AM_9
100
AcDbLine
 10
-0.22803555621
 20
-0.8950000000000001
 30
0.0
 11
-0.22803555621
 21
-0.875315
 31
0.0
  0
LINE
  5
16A
330
136
100
AcDbEntity
  8
AM_9
100
AcDbLine
 10
-0.081113429628
 20
-0.8950000000000001
 30
0.0
 11
-0.081113429628
 21
-0.875315
 31
0.0
  0
LINE
  5
16B
330
136
100
AcDbEntity
  8
AM_9
100
AcDbLine
 10
0.194366
 20
-0.8950000000000001
 30
0.0
 11
0.194366
 21
-0.875315
 31
0.0
  0
LINE
  5
16C
330
136
100
AcDbEntity
  8
AM_9
100
AcDbLine
 10
-0.172939463466
 20
-0.8950000000000001
 30
0.0
 11
-0.172939463466
 21
-0.875315
 31
0.0
  0
LINE
  5
16D
330
136
100
AcDbEntity
  8
AM_9
100
AcDbLine
 10
-0.234157213059
 20
-0.8950000000000001
 30
0.0
 11
-0.234157213059
 21
-0.875315
 31
0.0
  0
LINE
  5
16E
330
136
100
AcDbEntity
  8
AM_9
100
AcDbLine
 10
0.1025390000000002
 20
-0.8950000000000001
 30
0.0
 11
0.102539
 21
-0.875315
 31
0.0
  0
LINE
  5
16F
330
136
100
AcDbEntity
  8
AM_9
100
AcDbLine
 10
-0.1913048277139999
 20
-0.8950000000000001
 30
0.0
 11
-0.191304827714
 21
-0.875315
 31
0.0
  0
LINE
  5
170
330
136
100
AcDbEntity
  8
AM_9
100
AcDbLine
 10
-0.105600450725
 20
-0.8950000000000001
 30
0.0
 11
-0.105600450725
 21
-0.875315
 31
0.0
  0
LINE
  5
171
330
136
100
AcDbEntity
  8
AM_9
100
AcDbLine
 10
0.120905
 20
-0.8950000000000001
 30
0.0
 11
0.120905
 21
-0.875315
 31
0.0
  0
LINE
  5
172
330
136
100
AcDbEntity
  8
AM_9
100
AcDbLine
 10
-0.252522577307
 20
-0.8950000000000001
 30
0.0
 11
-0.252522577307
 21
-0.875315
 31
0.0
  0
LINE
  5
173
330
136
100
AcDbEntity
  8
AM_9
100
AcDbLine
 10
0.0413217
 20
-0.8950000000000001
 30
0.0
 11
0.0413217
 21
-0.875315
 31
0.0
  0
LINE
  5
174
330
136
100
AcDbEntity
  8
AM_9
100
AcDbLine
 10
0.059687
 20
-0.8950000000000001
 30
0.0
 11
0.059687
 21
-0.875315
 31
0.0
  0
LINE
  5
175
330
136
100
AcDbEntity
  8
AM_9
100
AcDbLine
 10
0.191305
 20
-0.8950000000000001
 30
0.0
 11
0.191305
 21
-0.875315
 31
0.0
  0
LINE
  5
176
330
136
100
AcDbEntity
  8
AM_9
100
AcDbLine
 10
0.20967
 20
-0.8950000000000001
 30
0.0
 11
0.20967
 21
-0.875315
 31
0.0
  0
LINE
  5
177
330
136
100
AcDbEntity
  8
AM_9
100
AcDbLine
 10
-0.087235086477
 20
-0.8950000000000001
 30
0.0
 11
-0.087235086477
 21
-0.875315
 31
0.0
  0
LINE
  5
178
330
136
100
AcDbEntity
  8
AM_9
100
AcDbLine
 10
-0.261705259431
 20
-0.8950000000000001
 30
0.0
 11
-0.261705259431
 21
-0.875315
 31
0.0
  0
LINE
  5
179
330
136
100
AcDbEntity
  8
AM_9
100
AcDbLine
 10
0.0321392
 20
-0.8950000000000001
 30
0.0
 11
0.0321392
 21
-0.875315
 31
0.0
  0
LINE
  5
17A
330
136
100
AcDbEntity
  8
AM_9
100
AcDbLine
 10
0.182122
 20
-0.8950000000000001
 30
0.0
 11
0.182122
 21
-0.875315
 31
0.0
  0
LINE
  5
17B
330
136
100
AcDbEntity
  8
AM_9
100
AcDbLine
 10
0.130087
 20
-0.8950000000000001
 30
0.0
 11
0.130087
 21
-0.875315
 31
0.0
  0
LINE
  5
17C
330
136
100
AcDbEntity
  8
AM_9
100
AcDbLine
 10
-0.3290446658729999
 20
-0.8950000000000001
 30
0.0
 11
-0.3290446658729999
 21
-0.875315
 31
0.0
  0
LINE
  5
17D
330
136
100
AcDbEntity
  8
AM_9
100
AcDbLine
 10
-0.163757175043
 20
-0.8950000000000001
 30
0.0
 11
-0.163757175043
 21
-0.875315
 31
0.0
  0
LINE
  5
17E
330
136
100
AcDbEntity
  8
AM_9
100
AcDbLine
 10
0.255583
 20
-0.8950000000000001
 30
0.0
 11
0.255583
 21
-0.875315
 31
0.0
  0
LINE
  5
17F
330
136
100
AcDbEntity
  8
AM_9
100
AcDbLine
 10
-0.114783132849
 20
-0.8950000000000001
 30
0.0
 11
-0.114783132849
 21
-0.875315
 31
0.0
  0
LINE
  5
180
330
136
100
AcDbEntity
  8
AM_9
100
AcDbLine
 10
-0.0352000977482
 20
-0.8950000000000001
 30
0.0
 11
-0.0352000977482
 21
-0.875315
 31
0.0
  0
LINE
  5
181
330
136
100
AcDbEntity
  8
AM_9
100
AcDbLine
 10
0.0474437
 20
-0.8950000000000001
 30
0.0
 11
0.0474437
 21
-0.875315
 31
0.0
  0
LINE
  5
182
330
136
100
AcDbEntity
  8
AM_9
100
AcDbLine
 10
-0.179061514016
 20
-0.8950000000000001
 30
0.0
 11
-0.179061514016
 21
-0.875315
 31
0.0
  0
LINE
  5
183
330
136
100
AcDbEntity
  8
AM_9
100
AcDbLine
 10
-0.246400920458
 20
-0.8950000000000001
 30
0.0
 11
-0.246400920458
 21
-0.875315
 31
0.0
  0
LINE
  5
184
330
136
100
AcDbEntity
  8
AM_9
100
AcDbLine
 10
0.114783
 20
-0.8950000000000001
 30
0.0
 11
0.114783
 21
-0.875315
 31
0.0
  0
LINE
  5
185
330
136
100
AcDbEntity
  8
AM_9
100
AcDbLine
 10
-0.099478400175
 20
-0.8950000000000001
 30
0.0
 11
-0.099478400175
 21
-0.875315
 31
0.0
  0
LINE
  5
186
330
136
100
AcDbEntity
  8
AM_9
100
AcDbLine
 10
0.197427
 20
-0.8950000000000001
 30
0.0
 11
0.197427
 21
-0.875315
 31
0.0
  0
LINE
  5
187
330
136
100
AcDbEntity
  8
AM_9
100
AcDbLine
 10
-0.111722107574
 20
-0.8950000000000001
 30
0.0
 11
-0.111722107574
 21
-0.875315
 31
0.0
  0
LINE
  5
188
330
136
100
AcDbEntity
  8
AM_9
100
AcDbLine
 10
-0.258644234156
 20
-0.8950000000000001
 30
0.0
 11
-0.258644234156
 21
-0.875315
 31
0.0
  0
LINE
  5
189
330
136
100
AcDbEntity
  8
AM_9
100
AcDbLine
 10
0.0352001
 20
-0.8950000000000001
 30
0.0
 11
0.0352001
 21
-0.875315
 31
0.0
  0
LINE
  5
18A
330
136
100
AcDbEntity
  8
AM_9
100
AcDbLine
 10
0.185183
 20
-0.8950000000000001
 30
0.0
 11
0.185183
 21
-0.875315
 31
0.0
  0
LINE
  5
18B
330
136
100
AcDbEntity
  8
AM_9
100
AcDbLine
 10
0.127026
 20
-0.8950000000000001
 30
0.0
 11
0.127026
 21
-0.875315
 31
0.0
  0
LINE
  5
18C
330
136
100
AcDbEntity
  8
AM_9
100
AcDbLine
 10
-0.166817806617
 20
-0.8950000000000001
 30
0.0
 11
-0.166817806617
 21
-0.875315
 31
0.0
  0
LINE
  5
18D
330
136
100
AcDbEntity
  8
AM_9
100
AcDbLine
 10
0.169879
 20
-0.8950000000000001
 30
0.0
 11
0.169879
 21
-0.875315
 31
0.0
  0
LINE
  5
18E
330
136
100
AcDbEntity
  8
AM_9
100
AcDbLine
 10
0.142331
 20
-0.8950000000000001
 30
0.0
 11
0.142331
 21
-0.875315
 31
0.0
  0
LINE
  5
18F
330
136
100
AcDbEntity
  8
AM_9
100
AcDbLine
 10
-0.224974530935
 20
-0.875315
 30
0.0
 11
-0.3474096364199999
 21
-0.875315
 31
0.0
  0
LINE
  5
190
330
136
100
AcDbEntity
  8
AM_9
100
AcDbLine
 10
-0.127026446547
 20
-0.8950000000000001
 30
0.0
 11
-0.127026446547
 21
-0.875315
 31
0.0
  0
LINE
  5
191
330
136
100
AcDbEntity
  8
AM_9
100
AcDbLine
 10
-0.151513467644
 20
-0.8950000000000001
 30
0.0
 11
-0.151513467644
 21
-0.875315
 31
0.0
  0
LINE
  5
192
330
136
100
AcDbEntity
  8
AM_9
100
AcDbLine
 10
0.237218
 20
-0.8950000000000001
 30
0.0
 11
0.237218
 21
-0.875315
 31
0.0
  0
LINE
  5
193
330
136
100
AcDbEntity
  8
AM_9
100
AcDbLine
 10
0.0688697
 20
-0.875315
 30
0.0
 11
-0.053565383256
 21
-0.875315
 31
0.0
  0
LINE
  5
194
330
136
100
AcDbEntity
  8
AM_9
100
AcDbLine
 10
0.0198957
 20
-0.8950000000000001
 30
0.0
 11
0.0198957
 21
-0.875315
 31
0.0
  0
LINE
  5
195
330
136
100
AcDbEntity
  8
AM_9
100
AcDbLine
 10
-0.053565383256
 20
-0.8950000000000001
 30
0.0
 11
-0.053565383256
 21
-0.875315
 31
0.0
  0
LINE
  5
196
330
136
100
AcDbEntity
  8
AM_9
100
AcDbLine
 10
-0.273948573129
 20
-0.8950000000000001
 30
0.0
 11
-0.273948573129
 21
-0.875315
 31
0.0
  0
LINE
  5
197
330
136
100
AcDbEntity
  8
AM_9
100
AcDbLine
 10
-0.078052404353
 20
-0.875315
 30
0.0
 11
-0.200487509838
 21
-0.875315
 31
0.0
  0
LINE
  5
198
330
136
100
AcDbEntity
  8
AM_9
100
AcDbLine
 10
0.347409
 20
-0.875315
 30
0.0
 11
0.237218
 21
-0.875315
 31
0.0
  0
LINE
  5
199
330
136
100
AcDbEntity
  8
AM_9
100
AcDbLine
 10
0.347409
 20
-0.8950000000000001
 30
0.0
 11
0.347409
 21
-0.875315
 31
0.0
  0
LINE
  5
19A
330
136
100
AcDbEntity
  8
AM_9
100
AcDbLine
 10
0.212731
 20
-0.875315
 30
0.0
 11
0.0933567
 21
-0.875315
 31
0.0
  0
LINE
  5
19B
330
136
100
AcDbEntity
  8
AM_9
100
AcDbLine
 10
-0.3474096364199999
 20
-0.8950000000000001
 30
0.0
 11
-0.3474096364199999
 21
-0.875315
 31
0.0
  0
LINE
  5
19C
330
136
100
AcDbEntity
  8
AM_9
100
AcDbLine
 10
-0.6363793320239167
 20
-0.8949999999999999
 30
0.0
 11
0.6363793320239162
 21
-0.8949999999999999
 31
0.0
  0
LINE
  5
19D
330
136
100
AcDbEntity
  8
AM_9
100
AcDbLine
 10
-1.860376129121743
 20
-1.35
 30
0.0
 11
-1.860376129121743
 21
-0.8949999999999999
 31
0.0
  0
LINE
  5
19E
330
136
100
AcDbEntity
  8
AM_9
100
AcDbLine
 10
-2.125
 20
-0.8949999999999999
 30
0.0
 11
-2.125
 21
-1.35
 31
0.0
  0
LINE
  5
19F
330
136
100
AcDbEntity
  8
AM_9
100
AcDbLine
 10
1.860376129121743
 20
-1.35
 30
0.0
 11
1.860376129121743
 21
-0.8949999999999999
 31
0.0
  0
LINE
  5
1A0
330
136
100
AcDbEntity
  8
AM_9
100
AcDbLine
 10
2.125
 20
-1.35
 30
0.0
 11
2.125
 21
-0.8949999999999999
 31
0.0
  0
LINE
  5
1A1
330
136
100
AcDbEntity
  8
AM_9
100
AcDbLine
 10
1.67325
 20
-1.35
 30
0.0
 11
1.67325
 21
-0.088
 31
0.0
  0
LINE
  5
1A2
330
136
100
AcDbEntity
  8
AM_9
100
AcDbLine
 10
-1.67325
 20
-0.088
 30
0.0
 11
-1.67325
 21
-1.35
 31
0.0
  0
LINE
  5
1A3
330
136
100
AcDbEntity
  8
AM_9
100
AcDbLine
 10
1.7569125
 20
-0.0440000000000002
 30
0.0
 11
1.7569125
 21
0.0
 31
0.0
  0
LINE
  5
1A4
330
136
100
AcDbEntity
  8
AM_9
100
AcDbLine
 10
-1.7569125
 20
0.0
 30
0.0
 11
-1.7569125
 21
-0.0440000000000002
 31
0.0
  0
LINE
  5
1A5
330
136
100
AcDbEntity
  8
AM_9
100
AcDbLine
 10
-1.7129125
 20
-0.088
 30
0.0
 11
1.712912499997256
 21
-0.088
 31
0.0
  0
LINE
  5
1A6
330
136
100
AcDbEntity
  8
AM_9
100
AcDbLine
 10
-1.7569125
 20
-0.0440000000000002
 30
0.0
 11
1.7569125
 21
-0.0440000000000002
 31
0.0
  0
ARC
  5
1A7
330
136
100
AcDbEntity
  8
AM_9
100
AcDbCircle
 10
1.7129125
 20
-0.0440000000000001
 30
0.0
 40
0.0439999999999999
100
AcDbArc
 50
270.0
 51
0.0
  0
ARC
  5
1A8
330
136
100
AcDbEntity
  8
AM_9
100
AcDbCircle
 10
-1.7129125
 20
-0.0440000000000001
 30
0.0
 40
0.0439999999999998
100
AcDbArc
 50
180.0
 51
270.0
  0
LINE
  5
1A9
330
136
100
AcDbEntity
  8
AM_9
100
AcDbLine
 10
1.42937860531805
 20
-0.4399999999999999
 30
0.0
 11
1.42937860531805
 21
-1.35
 31
0.0
  0
LINE
  5
1AA
330
136
100
AcDbEntity
  8
AM_9
100
AcDbLine
 10
1.92937860531805
 20
-1.35
 30
0.0
 11
1.92937860531805
 21
-0.4399999999999999
 31
0.0
  0
LINE
  5
1AB
330
136
100
AcDbEntity
  8
AM_9
100
AcDbLine
 10
-1.92937860531805
 20
-0.4399999999999999
 30
0.0
 11
-1.92937860531805
 21
-1.35
 31
0.0
  0
LINE
  5
1AC
330
136
100
AcDbEntity
  8
AM_9
100
AcDbLine
 10
-1.42937860531805
 20
-1.35
 30
0.0
 11
-1.42937860531805
 21
-0.4399999999999999
 31
0.0
  0
LINE
  5
1AD
330
136
100
AcDbEntity
  8
AM_9
100
AcDbLine
 10
2.032931995911325
 20
-1.35
 30
0.0
 11
2.032931995911325
 21
-0.8949999999999998
 31
0.0
  0
LINE
  5
1AE
330
136
100
AcDbEntity
  8
AM_9
100
AcDbLine
 10
-2.032931995911326
 20
-1.35
 30
0.0
 11
-2.032931995911326
 21
-0.8949999999999998
 31
0.0
  0
CIRCLE
  5
1AF
330
136
100
AcDbEntity
  8
AM_9
100
AcDbCircle
 10
0.0
 20
-0.8949999999999998
 30
0.0
 40
0.07874019999993
  0
CIRCLE
  5
1B0
330
136
100
AcDbEntity
  8
AM_9
100
AcDbCircle
 10
0.0
 20
-0.8949999999999998
 30
0.0
 40
0.1003135045832953
  0
LINE
  5
1B1
330
136
100
AcDbEntity
  8
AM_7
100
AcDbLine
 10
-0.165354
 20
-0.8949999999999998
 30
0.0
 11
0.165354
 21
-0.8949999999999998
 31
0.0
  0
LINE
  5
1B2
330
136
100
AcDbEntity
  8
AM_7
100
AcDbLine
 10
0.0
 20
0.0675
 30
0.0
 11
0.0
 21
-2.064
 31
0.0
  0
LINE
  5
1B3
330
136
100
AcDbEntity
  8
AM_7
100
AcDbLine
 10
-1.67937860531805
 20
-1.3955
 30
0.0
 11
-1.67937860531805
 21
-0.3945000000000002
 31
0.0
  0
LINE
  5
1B4
330
136
100
AcDbEntity
  8
AM_7
100
AcDbLine
 10
1.67937860531805
 20
-1.3955
 30
0.0
 11
1.67937860531805
 21
-0.3945000000000002
 31
0.0
  0
LINE
  5
1B5
330
136
100
AcDbEntity
  8
AM_4
100
AcDbLine
 10
2.0
 20
0.0
 30
0.0
 11
-2.0
 21
0.0
 31
0.0
  0
LINE
  5
1B6
330
136
100
AcDbEntity
  8
AM_4
100
AcDbLine
 10
2.0
 20
-0.44
 30
0.0
 11
2.0
 21
0.0
 31
0.0
  0
LINE
  5
1B7
330
136
100
AcDbEntity
  8
AM_4
100
AcDbLine
 10
-2.0
 20
0.0
 30
0.0
 11
-2.0
 21
-0.44
 31
0.0
  0
LINE
  5
1B8
330
136
100
AcDbEntity
  8
AM_4
100
AcDbLine
 10
-1.026949686301135
 20
-1.35
 30
0.0
 11
-1.026949686301135
 21
-0.8949999999999998
 31
0.0
  0
LINE
  5
1B9
330
136
100
AcDbEntity
  8
AM_4
100
AcDbLine
 10
1.026949686301134
 20
-1.35
 30
0.0
 11
1.026949686301134
 21
-0.8949999999999998
 31
0.0
  0
LINE
  5
1BA
330
136
100
AcDbEntity
  8
AM_4
100
AcDbLine
 10
1.325825214724776
 20
-1.35
 30
0.0
 11
1.325825214724776
 21
-0.8949999999999998
 31
0.0
  0
LINE
  5
1BB
330
136
100
AcDbEntity
  8
AM_4
100
AcDbLine
 10
2.17937860531805
 20
-1.35
 30
0.0
 11
2.17937860531805
 21
-0.8949999999999998
 31
0.0
  0
LINE
  5
1BC
330
136
100
AcDbEntity
  8
AM_4
100
AcDbLine
 10
2.17937860531805
 20
-1.35
 30
0.0
 11
-2.17937860531805
 21
-1.35
 31
0.0
  0
LINE
  5
1BD
330
136
100
AcDbEntity
  8
AM_4
100
AcDbLine
 10
-1.325825214724776
 20
-1.35
 30
0.0
 11
-1.325825214724776
 21
-0.8949999999999998
 31
0.0
  0
LINE
  5
1BE
330
136
100
AcDbEntity
  8
AM_4
100
AcDbLine
 10
-2.17937860531805
 20
-0.8949999999999998
 30
0.0
 11
-2.17937860531805
 21
-1.35
 31
0.0
  0
LINE
  5
1BF
330
136
100
AcDbEntity
  8
AM_4
100
AcDbLine
 10
-0.7388967739068907
 20
-1.35
 30
0.0
 11
-0.7388967739068907
 21
-0.8949999999999998
 31
0.0
  0
LINE
  5
1C0
330
136
100
AcDbEntity
  8
AM_4
100
AcDbLine
 10
0.7388967739068901
 20
-1.35
 30
0.0
 11
0.7388967739068901
 21
-0.8949999999999998
 31
0.0
  0
LINE
  5
1C1
330
136
100
AcDbEntity
  8
AM_4
100
AcDbLine
 10
-0.6363793320239167
 20
-1.349999999999999
 30
0.0
 11
-0.6363793320239167
 21
-0.4399999999999999
 31
0.0
  0
LINE
  5
1C2
330
136
100
AcDbEntity
  8
AM_4
100
AcDbLine
 10
0.6363793320239162
 20
-1.349999999999999
 30
0.0
 11
0.6363793320239162
 21
-0.4399999999999999
 31
0.0
  0
LINE
  5
1C3
330
136
100
AcDbEntity
  8
AM_4
100
AcDbLine
 10
0.1574805
 20
-0.8040785909328829
 30
0.0
 11
0.1574805
 21
-0.9859214090671166
 31
0.0
  0
LINE
  5
1C4
330
136
100
AcDbEntity
  8
AM_4
100
AcDbLine
 10
0.0
 20
-0.713157181865766
 30
0.0
 11
0.1574805
 21
-0.8040785909328829
 31
0.0
  0
LINE
  5
1C5
330
136
100
AcDbEntity
  8
AM_4
100
AcDbLine
 10
-0.1574805
 20
-0.8040785909328829
 30
0.0
 11
0.0
 21
-0.713157181865766
 31
0.0
  0
LINE
  5
1C6
330
136
100
AcDbEntity
  8
AM_4
100
AcDbLine
 10
-0.1574805
 20
-0.9859214090671166
 30
0.0
 11
-0.1574805
 21
-0.8040785909328829
 31
0.0
  0
LINE
  5
1C7
330
136
100
AcDbEntity
  8
AM_4
100
AcDbLine
 10
0.0
 20
-1.076842818134233
 30
0.0
 11
-0.1574805
 21
-0.9859214090671166
 31
0.0
  0
LINE
  5
1C8
330
136
100
AcDbEntity
  8
AM_4
100
AcDbLine
 10
0.1574805
 20
-0.9859214090671166
 30
0.0
 11
0.0
 21
-1.076842818134233
 31
0.0
  0
CIRCLE
  5
1C9
330
136
100
AcDbEntity
  8
AM_4
100
AcDbCircle
 10
0.0
 20
-0.8949999999999998
 30
0.0
 40
0.15748
  0
CIRCLE
  5
1CA
330
136
100
AcDbEntity
  8
AM_4
100
AcDbCircle
 10
0.0
 20
-0.8949999999999998
 30
0.0
 40
0.110236
  0
CIRCLE
  5
1CB
330
136
100
AcDbEntity
  8
AM_4
100
AcDbCircle
 10
0.0
 20
-0.8949999999999998
 30
0.0
 40
0.1062853497006247
  0
CIRCLE
  5
1CC
330
136
100
AcDbEntity
  8
AM_4
100
AcDbCircle
 10
0.0
 20
-0.8949999999999998
 30
0.0
 40
0.1048774357720919
  0
CIRCLE
  5
1CD
330
136
100
AcDbEntity
  8
AM_4
100
AcDbCircle
 10
0.0
 20
-0.8949999999999998
 30
0.0
 40
0.0836898482231382
  0
CIRCLE
  5
1CE
330
136
100
AcDbEntity
  8
AM_4
100
AcDbCircle
 10
0.0
 20
-0.8949999999999998
 30
0.0
 40
0.0654127621516715
  0
LINE
  5
1CF
330
136
100
AcDbEntity
  8
AM_4
100
AcDbLine
 10
-0.6363793320239167
 20
-0.8949999999999999
 30
0.0
 11
-2.874999999999998
 21
-0.895
 31
0.0
  0
LINE
  5
1D0
330
136
100
AcDbEntity
  8
AM_4
100
AcDbLine
 10
-0.7441047546697472
 20
-0.8949999999999999
 30
0.0
 11
-0.7441047546697472
 21
-0.4399999999999999
 31
0.0
  0
LINE
  5
1D1
330
136
100
AcDbEntity
  8
AM_4
100
AcDbLine
 10
2.875000000000003
 20
-0.895
 30
0.0
 11
2.875000000000003
 21
-0.44
 31
0.0
  0
LINE
  5
1D2
330
136
100
AcDbEntity
  8
AM_4
100
AcDbLine
 10
-2.874999999999998
 20
-0.44
 30
0.0
 11
-2.874999999999998
 21
-0.895
 31
0.0
  0
LINE
  5
1D3
330
136
100
AcDbEntity
  8
AM_4
100
AcDbLine
 10
2.875000000000003
 20
-0.44
 30
0.0
 11
-2.874999999999998
 21
-0.44
 31
0.0
  0
LINE
  5
1D4
330
136
100
AcDbEntity
  8
AM_4
100
AcDbLine
 10
2.875000000000003
 20
-0.895
 30
0.0
 11
0.6363793320239162
 21
-0.8949999999999999
 31
0.0
  0
LINE
  5
1D5
330
136
100
AcDbEntity
  8
AM_4
100
AcDbLine
 10
0.7441047546697462
 20
-0.8949999999999999
 30
0.0
 11
0.7441047546697462
 21
-0.4399999999999999
 31
0.0
  0
ENDBLK
  5
139
330
136
100
AcDbEntity
  8
0
100
AcDbBlockEnd
  0
ENDSEC
  0
SECTION
  2
ENTITIES
  0
INSERT
  5
6F
330
1F
100
AcDbEntity
  8
0
100
AcDbBlockReference
  2
1_129761_4
 10
0.0
 20
0.0
 30
0.0
  0
POINT
  5
1D7
330
1F
100
AcDbEntity
  8
ConnectionPoints
100
AcDbPoint
 10
0.0
 20
-0.71
 30
0.0000000000000002
  0
POINT
  5
1D8
330
1F
100
AcDbEntity
  8
ConnectionPoints
100
AcDbPoint
 10
0.0
 20
-1.97
 30
0.0000000000000003
  0
POINT
  5
1D9
330
1F
100
AcDbEntity
  8
ConnectionPoints
100
AcDbPoint
 10
0.0
 20
-1.97
 30
0.0000000000000001
  0
POINT
  5
1DA
330
1F
100
AcDbEntity
  8
ConnectionPoints
100
AcDbPoint
 10
0.0
 20
-1.97
 30
0.0000000000000001
  0
ENDSEC
  0
SECTION
  2
OBJECTS
  0
DICTIONARY
  5
C
330
0
100
AcDbDictionary
281
     1
  3
ACAD_DETAILVIEWSTYLE
350
1E2
  3
ACAD_GROUP
350
D
  3
ACAD_LAYOUT
350
1A
  3
ACAD_MATERIAL
350
43
  3
ACAD_MLEADERSTYLE
350
6B
  3
ACAD_MLINESTYLE
350
17
  3
ACAD_PLOTSETTINGS
350
19
  3
ACAD_PLOTSTYLENAME
350
E
  3
ACAD_SCALELIST
350
47
  3
ACAD_SECTIONVIEWSTYLE
350
1E3
  3
ACAD_TABLESTYLE
350
69
  3
ACAD_VISUALSTYLE
350
2A
  3
ACDB_RECOMPOSE_DATA
350
1DF
  3
AcDbVariableDictionary
350
1DB
  0
SUN
  5
6D
330
29
100
AcDbSun
 90
        1
290
     0
 63
     7
421
 16777215
 40
1.0
291
     1
 91
  2455826
 92
 54000000
292
     0
 70
     2
 71
   256
280
     1
  0
DICTIONARY
  5
1E2
102
{ACAD_REACTORS
330
C
102
}
330
C
100
AcDbDictionary
281
     1
  0
DICTIONARY
  5
D
102
{ACAD_REACTORS
330
C
102
}
330
C
100
AcDbDictionary
281
     1
  0
DICTIONARY
  5
1A
102
{ACAD_REACTORS
330
C
102
}
330
C
100
AcDbDictionary
281
     1
  3
Layout1
350
1E
  3
Layout2
350
26
  3
Model
350
22
  0
DICTIONARY
  5
43
102
{ACAD_REACTORS
330
C
102
}
330
C
100
AcDbDictionary
281
     1
  3
ByBlock
350
45
  3
ByLayer
350
44
  3
Global
350
46
  0
DICTIONARY
  5
6B
102
{ACAD_REACTORS
330
C
102
}
330
C
100
AcDbDictionary
281
     1
  3
Standard
350
6C
  0
DICTIONARY
  5
17
102
{ACAD_REACTORS
330
C
102
}
330
C
100
AcDbDictionary
281
     1
  3
Standard
350
18
  0
DICTIONARY
  5
19
102
{ACAD_REACTORS
330
C
102
}
330
C
100
AcDbDictionary
281
     1
  0
ACDBDICTIONARYWDFLT
  5
E
102
{ACAD_REACTORS
330
C
102
}
330
C
100
AcDbDictionary
281
     1
  3
Normal
350
F
100
AcDbDictionaryWithDefault
340
F
  0
DICTIONARY
  5
47
102
{ACAD_REACTORS
330
C
102
}
330
C
100
AcDbDictionary
281
     1
  3
A0
350
48
  3
A1
350
49
  3
A2
350
4A
  3
A3
350
4B
  3
A4
350
4C
  3
A5
350
4D
  3
A6
350
4E
  3
A7
350
4F
  3
A8
350
50
  3
A9
350
51
  3
B0
350
52
  3
B1
350
53
  3
B2
350
54
  3
B3
350
55
  3
B4
350
56
  3
B5
350
57
  3
B6
350
58
  3
B7
350
59
  3
B8
350
5A
  3
B9
350
5B
  3
C0
350
5C
  3
C1
350
5D
  3
C2
350
5E
  3
C3
350
5F
  3
C4
350
60
  3
C5
350
61
  3
C6
350
62
  3
C7
350
63
  3
C8
350
64
  3
C9
350
65
  3
D0
350
66
  3
D1
350
67
  3
D2
350
68
  0
DICTIONARY
  5
1E3
102
{ACAD_REACTORS
330
C
102
}
330
C
100
AcDbDictionary
281
     1
  0
DICTIONARY
  5
69
102
{ACAD_REACTORS
330
C
102
}
330
C
100
AcDbDictionary
281
     1
  3
Standard
350
6A
  0
DICTIONARY
  5
2A
102
{ACAD_REACTORS
330
C
102
}
330
C
100
AcDbDictionary
281
     1
  3
2dWireframe
350
2F
  3
Basic
350
32
  3
Brighten
350
36
  3
ColorChange
350
3A
  3
Conceptual
350
34
  3
Dim
350
35
  3
EdgeColorOff
350
3D
  3
Facepattern
350
39
  3
Flat
350
2B
  3
FlatWithEdges
350
2C
  3
Gouraud
350
2D
  3
GouraudWithEdges
350
2E
  3
Hidden
350
31
  3
JitterOff
350
3B
  3
Linepattern
350
38
  3
OverhangOff
350
3C
  3
Realistic
350
33
  3
Shaded
350
42
  3
Shaded with edges
350
41
  3
Shades of Gray
350
3E
  3
Sketchy
350
3F
  3
Thicken
350
37
  3
Wireframe
350
30
  3
X-Ray
350
40
  0
XRECORD
  5
1DF
102
{ACAD_REACTORS
330
C
102
}
330
C
100
AcDbXrecord
280
     1
 90
        1
330
6A
  0
DICTIONARY
  5
1DB
102
{ACAD_REACTORS
330
C
102
}
330
C
100
AcDbDictionary
281
     1
  3
CANNOSCALE
350
1DC
  3
CMLEADERSTYLE
350
1E1
  3
CTABLESTYLE
350
1E0
  0
LAYOUT
  5
1E
102
{ACAD_REACTORS
330
1A
102
}
330
1A
100
AcDbPlotSettings
  1

  2
none_device
  4

  6

 40
0.0
 41
0.0
 42
0.0
 43
0.0
 44
0.0
 45
0.0
 46
0.0
 47
0.0
 48
0.0
 49
0.0
140
0.0
141
0.0
142
1.0
143
1.0
 70
   688
 72
     0
 73
     0
 74
     5
  7

 75
    16
 76
     0
 77
     2
 78
   300
147
1.0
148
0.0
149
0.0
100
AcDbLayout
  1
Layout1
 70
     1
 71
     1
 10
0.0
 20
0.0
 11
12.0
 21
9.0
 12
0.0
 22
0.0
 32
0.0
 14
1.000000000000000E+20
 24
1.000000000000000E+20
 34
1.000000000000000E+20
 15
-1.000000000000000E+20
 25
-1.000000000000000E+20
 35
-1.000000000000000E+20
146
0.0
 13
0.0
 23
0.0
 33
0.0
 16
1.0
 26
0.0
 36
0.0
 17
0.0
 27
1.0
 37
0.0
 76
     0
330
1B
  0
LAYOUT
  5
26
102
{ACAD_REACTORS
330
1A
102
}
330
1A
100
AcDbPlotSettings
  1

  2
none_device
  4

  6

 40
0.0
 41
0.0
 42
0.0
 43
0.0
 44
0.0
 45
0.0
 46
0.0
 47
0.0
 48
0.0
 49
0.0
140
0.0
141
0.0
142
1.0
143
1.0
 70
   688
 72
     0
 73
     0
 74
     5
  7

 75
    16
 76
     0
 77
     2
 78
   300
147
1.0
148
0.0
149
0.0
100
AcDbLayout
  1
Layout2
 70
     1
 71
     2
 10
0.0
 20
0.0
 11
0.0
 21
0.0
 12
0.0
 22
0.0
 32
0.0
 14
0.0
 24
0.0
 34
0.0
 15
0.0
 25
0.0
 35
0.0
146
0.0
 13
0.0
 23
0.0
 33
0.0
 16
1.0
 26
0.0
 36
0.0
 17
0.0
 27
1.0
 37
0.0
 76
     0
330
23
  0
LAYOUT
  5
22
102
{ACAD_REACTORS
330
1A
102
}
330
1A
100
AcDbPlotSettings
  1

  2
none_device
  4
Letter_(8.50_x_11.00_Inches)
  6

 40
6.35
 41
6.35
 42
6.35000508
 43
6.35000508
 44
215.9
 45
279.4
 46
0.0
 47
0.0
 48
0.0
 49
0.0
140
0.0
141
0.0
142
1.0
143
1.0
 70
  1712
 72
     0
 73
     0
 74
     0
  7

 75
     0
 76
     0
 77
     2
 78
   300
147
1.0
148
0.0
149
0.0
100
AcDbLayout
  1
Model
 70
     1
 71
     0
 10
0.0
 20
0.0
 11
12.0
 21
9.0
 12
0.0
 22
0.0
 32
0.0
 14
1.000000000000000E+20
 24
1.000000000000000E+20
 34
1.000000000000000E+20
 15
-1.000000000000000E+20
 25
-1.000000000000000E+20
 35
-1.000000000000000E+20
146
0.0
 13
0.0
 23
0.0
 33
0.0
 16
1.0
 26
0.0
 36
0.0
 17
0.0
 27
1.0
 37
0.0
 76
     0
330
1F
331
29
  0
MATERIAL
  5
45
102
{ACAD_REACTORS
330
43
102
}
330
43
100
AcDbMaterial
  1
ByBlock
 72
     1
 94
      127
  0
MATERIAL
  5
44
102
{ACAD_REACTORS
330
43
102
}
330
43
100
AcDbMaterial
  1
ByLayer
 72
     1
 94
      127
  0
MATERIAL
  5
46
102
{ACAD_REACTORS
330
43
102
}
330
43
100
AcDbMaterial
  1
Global
 72
     1
 94
      127
  0
MLEADERSTYLE
  5
6C
102
{ACAD_REACTORS
330
6B
102
}
330
6B
100
AcDbMLeaderStyle
179
     2
170
     2
171
     1
172
     0
 90
        2
 40
0.0
 41
0.0
173
     1
 91
-1056964608
340
14
 92
       -2
290
     1
 42
0.09
291
     1
 43
0.36
  3
Standard
341
0
 44
0.18
300

342
11
174
     1
178
     6
175
     1
176
     0
 93
-1056964608
 45
0.18
292
     0
297
     0
 46
0.18
343
0
 94
-1056964608
 47
1.0
 49
1.0
140
1.0
293
     1
141
0.0
294
     1
177
     0
142
1.0
295
     0
296
     0
143
0.125
271
     0
272
     9
273
     9
298
     0
  0
MLINESTYLE
  5
18
102
{ACAD_REACTORS
330
17
102
}
330
17
100
AcDbMlineStyle
  2
Standard
 70
     0
  3

 62
   256
 51
90.0
 52
90.0
 71
     2
 49
0.5
 62
   256
  6
BYLAYER
 49
-0.5
 62
   256
  6
BYLAYER
  0
ACDBPLACEHOLDER
  5
F
102
{ACAD_REACTORS
330
E
102
}
330
E
  0
SCALE
  5
48
102
{ACAD_REACTORS
330
47
102
}
330
47
100
AcDbScale
 70
     0
300
1:1
140
1.0
141
1.0
290
     1
  0
SCALE
  5
49
102
{ACAD_REACTORS
330
47
102
}
330
47
100
AcDbScale
 70
     0
300
1:2
140
1.0
141
2.0
290
     0
  0
SCALE
  5
4A
102
{ACAD_REACTORS
330
47
102
}
330
47
100
AcDbScale
 70
     0
300
1:4
140
1.0
141
4.0
290
     0
  0
SCALE
  5
4B
102
{ACAD_REACTORS
330
47
102
}
330
47
100
AcDbScale
 70
     0
300
1:5
140
1.0
141
5.0
290
     0
  0
SCALE
  5
4C
102
{ACAD_REACTORS
330
47
102
}
330
47
100
AcDbScale
 70
     0
300
1:8
140
1.0
141
8.0
290
     0
  0
SCALE
  5
4D
102
{ACAD_REACTORS
330
47
102
}
330
47
100
AcDbScale
 70
     0
300
1:10
140
1.0
141
10.0
290
     0
  0
SCALE
  5
4E
102
{ACAD_REACTORS
330
47
102
}
330
47
100
AcDbScale
 70
     0
300
1:16
140
1.0
141
16.0
290
     0
  0
SCALE
  5
4F
102
{ACAD_REACTORS
330
47
102
}
330
47
100
AcDbScale
 70
     0
300
1:20
140
1.0
141
20.0
290
     0
  0
SCALE
  5
50
102
{ACAD_REACTORS
330
47
102
}
330
47
100
AcDbScale
 70
     0
300
1:30
140
1.0
141
30.0
290
     0
  0
SCALE
  5
51
102
{ACAD_REACTORS
330
47
102
}
330
47
100
AcDbScale
 70
     0
300
1:40
140
1.0
141
40.0
290
     0
  0
SCALE
  5
52
102
{ACAD_REACTORS
330
47
102
}
330
47
100
AcDbScale
 70
     0
300
1:50
140
1.0
141
50.0
290
     0
  0
SCALE
  5
53
102
{ACAD_REACTORS
330
47
102
}
330
47
100
AcDbScale
 70
     0
300
1:100
140
1.0
141
100.0
290
     0
  0
SCALE
  5
54
102
{ACAD_REACTORS
330
47
102
}
330
47
100
AcDbScale
 70
     0
300
2:1
140
2.0
141
1.0
290
     0
  0
SCALE
  5
55
102
{ACAD_REACTORS
330
47
102
}
330
47
100
AcDbScale
 70
     0
300
4:1
140
4.0
141
1.0
290
     0
  0
SCALE
  5
56
102
{ACAD_REACTORS
330
47
102
}
330
47
100
AcDbScale
 70
     0
300
8:1
140
8.0
141
1.0
290
     0
  0
SCALE
  5
57
102
{ACAD_REACTORS
330
47
102
}
330
47
100
AcDbScale
 70
     0
300
10:1
140
10.0
141
1.0
290
     0
  0
SCALE
  5
58
102
{ACAD_REACTORS
330
47
102
}
330
47
100
AcDbScale
 70
     0
300
100:1
140
100.0
141
1.0
290
     0
  0
SCALE
  5
59
102
{ACAD_REACTORS
330
47
102
}
330
47
100
AcDbScale
 70
     0
300
1/128" = 1'-0"
140
0.0078125
141
12.0
290
     0
  0
SCALE
  5
5A
102
{ACAD_REACTORS
330
47
102
}
330
47
100
AcDbScale
 70
     0
300
1/64" = 1'-0"
140
0.015625
141
12.0
290
     0
  0
SCALE
  5
5B
102
{ACAD_REACTORS
330
47
102
}
330
47
100
AcDbScale
 70
     0
300
1/32" = 1'-0"
140
0.03125
141
12.0
290
     0
  0
SCALE
  5
5C
102
{ACAD_REACTORS
330
47
102
}
330
47
100
AcDbScale
 70
     0
300
1/16" = 1'-0"
140
0.0625
141
12.0
290
     0
  0
SCALE
  5
5D
102
{ACAD_REACTORS
330
47
102
}
330
47
100
AcDbScale
 70
     0
300
3/32" = 1'-0"
140
0.09375
141
12.0
290
     0
  0
SCALE
  5
5E
102
{ACAD_REACTORS
330
47
102
}
330
47
100
AcDbScale
 70
     0
300
1/8" = 1'-0"
140
0.125
141
12.0
290
     0
  0
SCALE
  5
5F
102
{ACAD_REACTORS
330
47
102
}
330
47
100
AcDbScale
 70
     0
300
3/16" = 1'-0"
140
0.1875
141
12.0
290
     0
  0
SCALE
  5
60
102
{ACAD_REACTORS
330
47
102
}
330
47
100
AcDbScale
 70
     0
300
1/4" = 1'-0"
140
0.25
141
12.0
290
     0
  0
SCALE
  5
61
102
{ACAD_REACTORS
330
47
102
}
330
47
100
AcDbScale
 70
     0
300
3/8" = 1'-0"
140
0.375
141
12.0
290
     0
  0
SCALE
  5
62
102
{ACAD_REACTORS
330
47
102
}
330
47
100
AcDbScale
 70
     0
300
1/2" = 1'-0"
140
0.5
141
12.0
290
     0
  0
SCALE
  5
63
102
{ACAD_REACTORS
330
47
102
}
330
47
100
AcDbScale
 70
     0
300
3/4" = 1'-0"
140
0.75
141
12.0
290
     0
  0
SCALE
  5
64
102
{ACAD_REACTORS
330
47
102
}
330
47
100
AcDbScale
 70
     0
300
1" = 1'-0"
140
1.0
141
12.0
290
     0
  0
SCALE
  5
65
102
{ACAD_REACTORS
330
47
102
}
330
47
100
AcDbScale
 70
     0
300
1-1/2" = 1'-0"
140
1.5
141
12.0
290
     0
  0
SCALE
  5
66
102
{ACAD_REACTORS
330
47
102
}
330
47
100
AcDbScale
 70
     0
300
3" = 1'-0"
140
3.0
141
12.0
290
     0
  0
SCALE
  5
67
102
{ACAD_REACTORS
330
47
102
}
330
47
100
AcDbScale
 70
     0
300
6" = 1'-0"
140
6.0
141
12.0
290
     0
  0
SCALE
  5
68
102
{ACAD_REACTORS
330
47
102
}
330
47
100
AcDbScale
 70
     0
300
1'-0" = 1'-0"
140
12.0
141
12.0
290
     0
  0
TABLESTYLE
  5
6A
102
{ACAD_REACTORS
330
69
102
}
102
{ACAD_XDICTIONARY
360
1DD
102
}
330
69
100
AcDbTableStyle
  3
Standard
 70
     0
 71
     0
 40
0.06
 41
0.06
280
     0
281
     0
  7
Standard
140
0.18
170
     2
 62
     0
 63
   257
283
     0
 90
        4
 91
        0
  1

274
    -2
284
     1
 64
     0
275
    -2
285
     1
 65
     0
276
    -2
286
     1
 66
     0
277
    -2
287
     1
 67
     0
278
    -2
288
     1
 68
     0
279
    -2
289
     1
 69
     0
  7
Standard
140
0.25
170
     5
 62
     0
 63
   257
283
     0
 90
        4
 91
        0
  1

274
    -2
284
     1
 64
     0
275
    -2
285
     1
 65
     0
276
    -2
286
     1
 66
     0
277
    -2
287
     1
 67
     0
278
    -2
288
     1
 68
     0
279
    -2
289
     1
 69
     0
  7
Standard
140
0.18
170
     5
 62
     0
 63
   257
283
     0
 90
        4
 91
        0
  1

274
    -2
284
     1
 64
     0
275
    -2
285
     1
 65
     0
276
    -2
286
     1
 66
     0
277
    -2
287
     1
 67
     0
278
    -2
288
     1
 68
     0
279
    -2
289
     1
 69
     0
  0
VISUALSTYLE
  5
2F
102
{ACAD_REACTORS
330
2A
102
}
330
2A
100
AcDbVisualStyle
  2
2dWireframe
 70
     4
177
     3
291
     0
 70
    58
 90
        0
176
     1
 90
        2
176
     1
 90
        0
176
     1
 90
        0
176
     1
 40
0.6
176
     1
 40
30.0
176
     1
 62
     7
420
 16777215
176
     1
 90
        1
176
     1
 90
        4
176
     1
 62
     7
176
     1
 62
   257
176
     1
 90
        1
176
     1
 90
        1
176
     1
 40
1.0
176
     1
 90
        0
176
     1
 62
   257
176
     1
 40
1.0
176
     1
 90
        1
176
     1
 90
        6
176
     1
 90
        2
176
     1
 62
     7
176
     1
 90
        5
176
     1
 90
        0
176
     1
 90
        0
176
     1
290
     0
176
     1
 90
        1
176
     1
 40
0.0
176
     1
 90
        0
176
     1
290
     1
176
     1
290
     1
176
     1
290
     0
176
     1
290
     0
176
     1
290
     0
176
     1
290
     0
176
     1
290
     0
176
     1
290
     0
176
     1
290
     0
176
     1
 90
       50
176
     1
 40
0.0
176
     1
 40
1.0
176
     1
 90
        0
176
     1
 62
    18
420
        0
176
     1
 90
       50
176
     1
 90
        3
176
     1
 62
     5
420
      255
176
     1
290
     0
176
     1
 90
       50
176
     1
 90
       50
176
     1
 90
       50
176
     1
290
     0
176
     1
 90
       50
176
     1
 62
   256
176
     0
 40
1.0
176
     0
 90
        2
176
     1
  1
strokes_ogs.tif
176
     1
290
     0
176
     1
 40
1.0
176
     1
 40
1.0
176
     1
  0
VISUALSTYLE
  5
32
102
{ACAD_REACTORS
330
2A
102
}
330
2A
100
AcDbVisualStyle
  2
Basic
 70
     7
177
     3
291
     1
 70
    58
 90
        1
176
     1
 90
        0
176
     1
 90
        1
176
     1
 90
        0
176
     1
 40
0.6
176
     1
 40
30.0
176
     1
 62
     7
420
 16777215
176
     1
 90
        0
176
     1
 90
        4
176
     1
 62
     7
176
     1
 62
   257
176
     1
 90
        1
176
     1
 90
        1
176
     1
 40
1.0
176
     1
 90
        8
176
     1
 62
     7
176
     1
 40
1.0
176
     1
 90
        1
176
     1
 90
        6
176
     1
 90
        2
176
     1
 62
     7
176
     1
 90
        5
176
     1
 90
        0
176
     1
 90
        0
176
     1
290
     0
176
     1
 90
        1
176
     1
 40
0.0
176
     1
 90
        0
176
     1
290
     0
176
     1
290
     1
176
     1
290
     1
176
     1
290
     0
176
     1
290
     0
176
     1
290
     0
176
     1
290
     0
176
     1
290
     0
176
     1
290
     0
176
     1
 90
       50
176
     1
 40
0.0
176
     1
 40
1.0
176
     1
 90
        0
176
     1
 62
    18
420
        0
176
     1
 90
       50
176
     1
 90
        3
176
     1
 62
     5
420
      255
176
     1
290
     0
176
     1
 90
       50
176
     1
 90
       50
176
     1
 90
       50
176
     1
290
     0
176
     1
 90
       50
176
     1
 62
   256
176
     0
 40
1.0
176
     0
 90
        2
176
     1
  1
strokes_ogs.tif
176
     1
290
     0
176
     1
 40
1.0
176
     1
 40
1.0
176
     1
  0
VISUALSTYLE
  5
36
102
{ACAD_REACTORS
330
2A
102
}
330
2A
100
AcDbVisualStyle
  2
Brighten
 70
    12
177
     3
291
     1
 70
    58
 90
        2
176
     1
 90
        2
176
     1
 90
        0
176
     1
 90
        0
176
     1
 40
0.6
176
     1
 40
30.0
176
     1
 62
     7
420
 16777215
176
     1
 90
        1
176
     1
 90
        4
176
     1
 62
     7
176
     1
 62
   257
176
     1
 90
        1
176
     1
 90
        1
176
     1
 40
1.0
176
     1
 90
        8
176
     1
 62
     7
176
     1
 40
1.0
176
     1
 90
        1
176
     1
 90
        6
176
     1
 90
        2
176
     1
 62
     7
176
     1
 90
        5
176
     1
 90
        0
176
     1
 90
        0
176
     1
290
     0
176
     1
 90
        1
176
     1
 40
50.0
176
     1
 90
        0
176
     1
290
     0
176
     1
290
     1
176
     1
290
     1
176
     1
290
     0
176
     1
290
     0
176
     1
290
     0
176
     1
290
     0
176
     1
290
     0
176
     1
290
     0
176
     1
 90
       50
176
     1
 40
0.0
176
     1
 40
1.0
176
     1
 90
        0
176
     1
 62
    18
420
        0
176
     1
 90
       50
176
     1
 90
        3
176
     1
 62
     5
420
      255
176
     1
290
     0
176
     1
 90
       50
176
     1
 90
       50
176
     1
 90
       50
176
     1
290
     0
176
     1
 90
       50
176
     1
 62
   256
176
     0
 40
1.0
176
     0
 90
        2
176
     1
  1
strokes_ogs.tif
176
     1
290
     0
176
     1
 40
1.0
176
     1
 40
1.0
176
     1
  0
VISUALSTYLE
  5
3A
102
{ACAD_REACTORS
330
2A
102
}
330
2A
100
AcDbVisualStyle
  2
ColorChange
 70
    16
177
     3
291
     1
 70
    58
 90
        2
176
     1
 90
        2
176
     1
 90
        3
176
     1
 90
        0
176
     1
 40
0.6
176
     1
 40
30.0
176
     1
 62
     8
420
  8421504
176
     1
 90
        1
176
     1
 90
        4
176
     1
 62
     7
176
     1
 62
   257
176
     1
 90
        1
176
     1
 90
        1
176
     1
 40
1.0
176
     1
 90
        8
176
     1
 62
     8
420
  8421504
176
     1
 40
1.0
176
     1
 90
        1
176
     1
 90
        6
176
     1
 90
        2
176
     1
 62
     7
176
     1
 90
        5
176
     1
 90
        0
176
     1
 90
        0
176
     1
290
     0
176
     1
 90
        1
176
     1
 40
0.0
176
     1
 90
        0
176
     1
290
     0
176
     1
290
     1
176
     1
290
     1
176
     1
290
     0
176
     1
290
     0
176
     1
290
     0
176
     1
290
     0
176
     1
290
     0
176
     1
290
     0
176
     1
 90
       50
176
     1
 40
0.0
176
     1
 40
1.0
176
     1
 90
        0
176
     1
 62
    18
420
        0
176
     1
 90
       50
176
     1
 90
        3
176
     1
 62
     5
420
      255
176
     1
290
     0
176
     1
 90
       50
176
     1
 90
       50
176
     1
 90
       50
176
     1
290
     0
176
     1
 90
       50
176
     1
 62
   256
176
     0
 40
1.0
176
     0
 90
        2
176
     1
  1
strokes_ogs.tif
176
     1
290
     0
176
     1
 40
1.0
176
     1
 40
1.0
176
     1
  0
VISUALSTYLE
  5
34
102
{ACAD_REACTORS
330
2A
102
}
330
2A
100
AcDbVisualStyle
  2
Conceptual
 70
     9
177
     3
291
     0
 70
    58
 90
        3
176
     1
 90
        2
176
     1
 90
        0
176
     1
 90
        0
176
     1
 40
0.6
176
     1
 40
30.0
176
     1
 62
     7
420
 16777215
176
     1
 90
        2
176
     1
 90
        2
176
     1
 62
     7
176
     1
 62
   257
176
     1
 90
        1
176
     1
 90
        1
176
     1
 40
179.0
176
     1
 90
        8
176
     1
 62
     7
176
     1
 40
1.0
176
     1
 90
        1
176
     1
 90
        6
176
     1
 90
        2
176
     1
 62
     7
176
     1
 90
        3
176
     1
 90
        0
176
     1
 90
        0
176
     1
290
     0
176
     1
 90
        1
176
     1
 40
0.0
176
     1
 90
        0
176
     1
290
     0
176
     1
290
     1
176
     1
290
     1
176
     1
290
     0
176
     1
290
     0
176
     1
290
     0
176
     1
290
     0
176
     1
290
     0
176
     1
290
     0
176
     1
 90
       50
176
     1
 40
0.0
176
     1
 40
1.0
176
     1
 90
        0
176
     1
 62
    18
420
        0
176
     1
 90
       50
176
     1
 90
        3
176
     1
 62
     5
420
      255
176
     1
290
     0
176
     1
 90
       50
176
     1
 90
       50
176
     1
 90
       50
176
     1
290
     0
176
     1
 90
       50
176
     1
 62
   256
176
     0
 40
1.0
176
     0
 90
        2
176
     1
  1
strokes_ogs.tif
176
     1
290
     0
176
     1
 40
1.0
176
     1
 40
1.0
176
     1
  0
VISUALSTYLE
  5
35
102
{ACAD_REACTORS
330
2A
102
}
330
2A
100
AcDbVisualStyle
  2
Dim
 70
    11
177
     3
291
     1
 70
    58
 90
        2
176
     1
 90
        2
176
     1
 90
        0
176
     1
 90
        0
176
     1
 40
0.6
176
     1
 40
30.0
176
     1
 62
     7
420
 16777215
176
     1
 90
        1
176
     1
 90
        4
176
     1
 62
     7
176
     1
 62
   257
176
     1
 90
        1
176
     1
 90
        1
176
     1
 40
1.0
176
     1
 90
        8
176
     1
 62
     7
176
     1
 40
1.0
176
     1
 90
        1
176
     1
 90
        6
176
     1
 90
        2
176
     1
 62
     7
176
     1
 90
        5
176
     1
 90
        0
176
     1
 90
        0
176
     1
290
     0
176
     1
 90
        1
176
     1
 40
-50.0
176
     1
 90
        0
176
     1
290
     0
176
     1
290
     1
176
     1
290
     1
176
     1
290
     0
176
     1
290
     0
176
     1
290
     0
176
     1
290
     0
176
     1
290
     0
176
     1
290
     0
176
     1
 90
       50
176
     1
 40
0.0
176
     1
 40
1.0
176
     1
 90
        0
176
     1
 62
    18
420
        0
176
     1
 90
       50
176
     1
 90
        3
176
     1
 62
     5
420
      255
176
     1
290
     0
176
     1
 90
       50
176
     1
 90
       50
176
     1
 90
       50
176
     1
290
     0
176
     1
 90
       50
176
     1
 62
   256
176
     0
 40
1.0
176
     0
 90
        2
176
     1
  1
strokes_ogs.tif
176
     1
290
     0
176
     1
 40
1.0
176
     1
 40
1.0
176
     1
  0
VISUALSTYLE
  5
3D
102
{ACAD_REACTORS
330
2A
102
}
330
2A
100
AcDbVisualStyle
  2
EdgeColorOff
 70
    22
177
     3
291
     1
 70
    58
 90
        2
176
     0
 90
        2
176
     0
 90
        0
176
     0
 90
        0
176
     0
 40
0.6
176
     0
 40
30.0
176
     0
 62
     7
420
 16777215
176
     0
 90
        1
176
     0
 90
        4
176
     0
 62
     7
176
     0
 62
   257
176
     0
 90
        1
176
     0
 90
        1
176
     0
 40
1.0
176
     0
 90
        8
176
     2
 62
     7
176
     0
 40
1.0
176
     0
 90
        1
176
     0
 90
        6
176
     0
 90
        2
176
     0
 62
     7
176
     0
 90
        5
176
     0
 90
        0
176
     0
 90
        0
176
     0
290
     0
176
     0
 90
        1
176
     0
 40
0.0
176
     0
 90
        0
176
     0
290
     0
176
     0
290
     1
176
     0
290
     1
176
     0
290
     0
176
     0
290
     0
176
     0
290
     0
176
     0
290
     0
176
     0
290
     0
176
     0
290
     0
176
     0
 90
       50
176
     0
 40
0.0
176
     0
 40
1.0
176
     0
 90
        0
176
     0
 62
    18
420
        0
176
     0
 90
       50
176
     0
 90
        3
176
     0
 62
     5
420
      255
176
     0
290
     0
176
     0
 90
       50
176
     0
 90
       50
176
     0
 90
       50
176
     0
290
     0
176
     0
 90
       50
176
     0
 62
   256
176
     0
 40
1.0
176
     0
 90
        2
176
     0
  1
strokes_ogs.tif
176
     0
290
     0
176
     0
 40
1.0
176
     0
 40
1.0
176
     0
  0
VISUALSTYLE
  5
39
102
{ACAD_REACTORS
330
2A
102
}
330
2A
100
AcDbVisualStyle
  2
Facepattern
 70
    15
177
     3
291
     1
 70
    58
 90
        2
176
     1
 90
        2
176
     1
 90
        0
176
     1
 90
        0
176
     1
 40
0.6
176
     1
 40
30.0
176
     1
 62
     7
420
 16777215
176
     1
 90
        1
176
     1
 90
        4
176
     1
 62
     7
176
     1
 62
   257
176
     1
 90
        1
176
     1
 90
        1
176
     1
 40
1.0
176
     1
 90
        8
176
     1
 62
     7
176
     1
 40
1.0
176
     1
 90
        1
176
     1
 90
        6
176
     1
 90
        2
176
     1
 62
     7
176
     1
 90
        5
176
     1
 90
        0
176
     1
 90
        0
176
     1
290
     0
176
     1
 90
        1
176
     1
 40
0.0
176
     1
 90
        0
176
     1
290
     0
176
     1
290
     1
176
     1
290
     1
176
     1
290
     0
176
     1
290
     0
176
     1
290
     0
176
     1
290
     0
176
     1
290
     0
176
     1
290
     0
176
     1
 90
       50
176
     1
 40
0.0
176
     1
 40
1.0
176
     1
 90
        0
176
     1
 62
    18
420
        0
176
     1
 90
       50
176
     1
 90
        3
176
     1
 62
     5
420
      255
176
     1
290
     0
176
     1
 90
       50
176
     1
 90
       50
176
     1
 90
       50
176
     1
290
     0
176
     1
 90
       50
176
     1
 62
   256
176
     0
 40
1.0
176
     0
 90
        2
176
     1
  1
strokes_ogs.tif
176
     1
290
     0
176
     1
 40
1.0
176
     1
 40
1.0
176
     1
  0
VISUALSTYLE
  5
2B
102
{ACAD_REACTORS
330
2A
102
}
330
2A
100
AcDbVisualStyle
  2
Flat
 70
     0
177
     3
291
     1
 70
    58
 90
        2
176
     1
 90
        1
176
     1
 90
        1
176
     1
 90
        2
176
     1
 40
0.6
176
     1
 40
30.0
176
     1
 62
     7
420
 16777215
176
     1
 90
        0
176
     1
 90
        0
176
     1
 62
     7
176
     1
 62
   257
176
     1
 90
        1
176
     1
 90
        1
176
     1
 40
1.0
176
     1
 90
        8
176
     1
 62
     7
176
     1
 40
1.0
176
     1
 90
        1
176
     1
 90
        6
176
     1
 90
        2
176
     1
 62
     7
176
     1
 90
        5
176
     1
 90
        0
176
     1
 90
        0
176
     1
290
     0
176
     1
 90
       13
176
     1
 40
0.0
176
     1
 90
        0
176
     1
290
     0
176
     1
290
     1
176
     1
290
     1
176
     1
290
     0
176
     1
290
     0
176
     1
290
     0
176
     1
290
     0
176
     1
290
     0
176
     1
290
     0
176
     1
 90
       50
176
     1
 40
0.0
176
     1
 40
1.0
176
     1
 90
        0
176
     1
 62
    18
420
        0
176
     1
 90
       50
176
     1
 90
        3
176
     1
 62
     5
420
      255
176
     1
290
     0
176
     1
 90
       50
176
     1
 90
       50
176
     1
 90
       50
176
     1
290
     0
176
     1
 90
       50
176
     1
 62
   256
176
     0
 40
1.0
176
     0
 90
        2
176
     1
  1
strokes_ogs.tif
176
     1
290
     0
176
     1
 40
1.0
176
     1
 40
1.0
176
     1
  0
VISUALSTYLE
  5
2C
102
{ACAD_REACTORS
330
2A
102
}
330
2A
100
AcDbVisualStyle
  2
FlatWithEdges
 70
     1
177
     3
291
     1
 70
    58
 90
        2
176
     1
 90
        1
176
     1
 90
        1
176
     1
 90
        2
176
     1
 40
0.6
176
     1
 40
30.0
176
     1
 62
     7
420
 16777215
176
     1
 90
        1
176
     1
 90
        0
176
     1
 62
     7
176
     1
 62
   257
176
     1
 90
        1
176
     1
 90
        1
176
     1
 40
1.0
176
     1
 90
        0
176
     1
 62
   257
176
     1
 40
1.0
176
     1
 90
        1
176
     1
 90
        6
176
     1
 90
        2
176
     1
 62
     7
176
     1
 90
        5
176
     1
 90
        0
176
     1
 90
        0
176
     1
290
     0
176
     1
 90
       13
176
     1
 40
0.0
176
     1
 90
        0
176
     1
290
     0
176
     1
290
     1
176
     1
290
     1
176
     1
290
     0
176
     1
290
     0
176
     1
290
     0
176
     1
290
     0
176
     1
290
     0
176
     1
290
     0
176
     1
 90
       50
176
     1
 40
0.0
176
     1
 40
1.0
176
     1
 90
        0
176
     1
 62
    18
420
        0
176
     1
 90
       50
176
     1
 90
        3
176
     1
 62
     5
420
      255
176
     1
290
     0
176
     1
 90
       50
176
     1
 90
       50
176
     1
 90
       50
176
     1
290
     0
176
     1
 90
       50
176
     1
 62
   256
176
     0
 40
1.0
176
     0
 90
        2
176
     1
  1
strokes_ogs.tif
176
     1
290
     0
176
     1
 40
1.0
176
     1
 40
1.0
176
     1
  0
VISUALSTYLE
  5
2D
102
{ACAD_REACTORS
330
2A
102
}
330
2A
100
AcDbVisualStyle
  2
Gouraud
 70
     2
177
     3
291
     1
 70
    58
 90
        2
176
     1
 90
        2
176
     1
 90
        1
176
     1
 90
        2
176
     1
 40
0.6
176
     1
 40
30.0
176
     1
 62
     7
420
 16777215
176
     1
 90
        0
176
     1
 90
        0
176
     1
 62
     7
176
     1
 62
   257
176
     1
 90
        1
176
     1
 90
        1
176
     1
 40
1.0
176
     1
 90
        0
176
     1
 62
     7
176
     1
 40
1.0
176
     1
 90
        1
176
     1
 90
        6
176
     1
 90
        2
176
     1
 62
     7
176
     1
 90
        5
176
     1
 90
        0
176
     1
 90
        0
176
     1
290
     0
176
     1
 90
       13
176
     1
 40
0.0
176
     1
 90
        0
176
     1
290
     0
176
     1
290
     1
176
     1
290
     1
176
     1
290
     0
176
     1
290
     0
176
     1
290
     0
176
     1
290
     0
176
     1
290
     0
176
     1
290
     0
176
     1
 90
       50
176
     1
 40
0.0
176
     1
 40
1.0
176
     1
 90
        0
176
     1
 62
    18
420
        0
176
     1
 90
       50
176
     1
 90
        3
176
     1
 62
     5
420
      255
176
     1
290
     0
176
     1
 90
       50
176
     1
 90
       50
176
     1
 90
       50
176
     1
290
     0
176
     1
 90
       50
176
     1
 62
   256
176
     0
 40
1.0
176
     0
 90
        2
176
     1
  1
strokes_ogs.tif
176
     1
290
     0
176
     1
 40
1.0
176
     1
 40
1.0
176
     1
  0
VISUALSTYLE
  5
2E
102
{ACAD_REACTORS
330
2A
102
}
330
2A
100
AcDbVisualStyle
  2
GouraudWithEdges
 70
     3
177
     3
291
     1
 70
    58
 90
        2
176
     1
 90
        2
176
     1
 90
        1
176
     1
 90
        2
176
     1
 40
0.6
176
     1
 40
30.0
176
     1
 62
     7
420
 16777215
176
     1
 90
        1
176
     1
 90
        0
176
     1
 62
     7
176
     1
 62
   257
176
     1
 90
        1
176
     1
 90
        1
176
     1
 40
1.0
176
     1
 90
        0
176
     1
 62
   257
176
     1
 40
1.0
176
     1
 90
        1
176
     1
 90
        6
176
     1
 90
        2
176
     1
 62
     7
176
     1
 90
        5
176
     1
 90
        0
176
     1
 90
        0
176
     1
290
     0
176
     1
 90
       13
176
     1
 40
0.0
176
     1
 90
        0
176
     1
290
     0
176
     1
290
     1
176
     1
290
     1
176
     1
290
     0
176
     1
290
     0
176
     1
290
     0
176
     1
290
     0
176
     1
290
     0
176
     1
290
     0
176
     1
 90
       50
176
     1
 40
0.0
176
     1
 40
1.0
176
     1
 90
        0
176
     1
 62
    18
420
        0
176
     1
 90
       50
176
     1
 90
        3
176
     1
 62
     5
420
      255
176
     1
290
     0
176
     1
 90
       50
176
     1
 90
       50
176
     1
 90
       50
176
     1
290
     0
176
     1
 90
       50
176
     1
 62
   256
176
     0
 40
1.0
176
     0
 90
        2
176
     1
  1
strokes_ogs.tif
176
     1
290
     0
176
     1
 40
1.0
176
     1
 40
1.0
176
     1
  0
VISUALSTYLE
  5
31
102
{ACAD_REACTORS
330
2A
102
}
330
2A
100
AcDbVisualStyle
  2
Hidden
 70
     6
177
     3
291
     0
 70
    58
 90
        1
176
     1
 90
        2
176
     1
 90
        2
176
     1
 90
        0
176
     1
 40
0.6
176
     1
 40
30.0
176
     1
 62
     7
420
 16777215
176
     1
 90
        2
176
     1
 90
        2
176
     1
 62
     7
176
     1
 62
   257
176
     1
 90
        2
176
     1
 90
        1
176
     1
 40
40.0
176
     1
 90
        0
176
     1
 62
   257
176
     1
 40
1.0
176
     1
 90
        1
176
     1
 90
        6
176
     1
 90
        2
176
     1
 62
     7
176
     1
 90
        3
176
     1
 90
        0
176
     1
 90
        0
176
     1
290
     0
176
     1
 90
        1
176
     1
 40
0.0
176
     1
 90
        0
176
     1
290
     0
176
     1
290
     1
176
     1
290
     1
176
     1
290
     0
176
     1
290
     0
176
     1
290
     0
176
     1
290
     0
176
     1
290
     0
176
     1
290
     0
176
     1
 90
       50
176
     1
 40
0.0
176
     1
 40
1.0
176
     1
 90
        0
176
     1
 62
    18
420
        0
176
     1
 90
       50
176
     1
 90
        3
176
     1
 62
     5
420
      255
176
     1
290
     0
176
     1
 90
       50
176
     1
 90
       50
176
     1
 90
       50
176
     1
290
     0
176
     1
 90
       50
176
     1
 62
   256
176
     0
 40
1.0
176
     0
 90
        2
176
     1
  1
strokes_ogs.tif
176
     1
290
     0
176
     1
 40
1.0
176
     1
 40
1.0
176
     1
  0
VISUALSTYLE
  5
3B
102
{ACAD_REACTORS
330
2A
102
}
330
2A
100
AcDbVisualStyle
  2
JitterOff
 70
    20
177
     3
291
     1
 70
    58
 90
        2
176
     0
 90
        2
176
     0
 90
        0
176
     0
 90
        0
176
     0
 40
0.6
176
     0
 40
30.0
176
     0
 62
     7
420
 16777215
176
     0
 90
        1
176
     0
 90
        4
176
     0
 62
     7
176
     0
 62
   257
176
     0
 90
        1
176
     0
 90
        1
176
     0
 40
1.0
176
     0
 90
       10
176
     2
 62
     7
176
     0
 40
1.0
176
     0
 90
        1
176
     0
 90
        6
176
     0
 90
        2
176
     0
 62
     7
176
     0
 90
        5
176
     0
 90
        0
176
     0
 90
        0
176
     0
290
     0
176
     0
 90
        1
176
     0
 40
0.0
176
     0
 90
        0
176
     0
290
     0
176
     0
290
     1
176
     0
290
     1
176
     0
290
     0
176
     0
290
     0
176
     0
290
     0
176
     0
290
     0
176
     0
290
     0
176
     0
290
     0
176
     0
 90
       50
176
     0
 40
0.0
176
     0
 40
1.0
176
     0
 90
        0
176
     0
 62
    18
420
        0
176
     0
 90
       50
176
     0
 90
        3
176
     0
 62
     5
420
      255
176
     0
290
     0
176
     0
 90
       50
176
     0
 90
       50
176
     0
 90
       50
176
     0
290
     0
176
     0
 90
       50
176
     0
 62
   256
176
     0
 40
1.0
176
     0
 90
        2
176
     0
  1
strokes_ogs.tif
176
     0
290
     0
176
     0
 40
1.0
176
     0
 40
1.0
176
     0
  0
VISUALSTYLE
  5
38
102
{ACAD_REACTORS
330
2A
102
}
330
2A
100
AcDbVisualStyle
  2
Linepattern
 70
    14
177
     3
291
     1
 70
    58
 90
        2
176
     1
 90
        2
176
     1
 90
        0
176
     1
 90
        0
176
     1
 40
0.6
176
     1
 40
30.0
176
     1
 62
     7
420
 16777215
176
     1
 90
        1
176
     1
 90
        4
176
     1
 62
     7
176
     1
 62
   257
176
     1
 90
        7
176
     1
 90
        7
176
     1
 40
1.0
176
     1
 90
        8
176
     1
 62
     7
176
     1
 40
1.0
176
     1
 90
        1
176
     1
 90
        6
176
     1
 90
        2
176
     1
 62
     7
176
     1
 90
        5
176
     1
 90
        0
176
     1
 90
        0
176
     1
290
     0
176
     1
 90
        1
176
     1
 40
0.0
176
     1
 90
        0
176
     1
290
     0
176
     1
290
     1
176
     1
290
     1
176
     1
290
     0
176
     1
290
     0
176
     1
290
     0
176
     1
290
     0
176
     1
290
     0
176
     1
290
     0
176
     1
 90
       50
176
     1
 40
0.0
176
     1
 40
1.0
176
     1
 90
        0
176
     1
 62
    18
420
        0
176
     1
 90
       50
176
     1
 90
        3
176
     1
 62
     5
420
      255
176
     1
290
     0
176
     1
 90
       50
176
     1
 90
       50
176
     1
 90
       50
176
     1
290
     0
176
     1
 90
       50
176
     1
 62
   256
176
     0
 40
1.0
176
     0
 90
        2
176
     1
  1
strokes_ogs.tif
176
     1
290
     0
176
     1
 40
1.0
176
     1
 40
1.0
176
     1
  0
VISUALSTYLE
  5
3C
102
{ACAD_REACTORS
330
2A
102
}
330
2A
100
AcDbVisualStyle
  2
OverhangOff
 70
    21
177
     3
291
     1
 70
    58
 90
        2
176
     0
 90
        2
176
     0
 90
        0
176
     0
 90
        0
176
     0
 40
0.6
176
     0
 40
30.0
176
     0
 62
     7
420
 16777215
176
     0
 90
        1
176
     0
 90
        4
176
     0
 62
     7
176
     0
 62
   257
176
     0
 90
        1
176
     0
 90
        1
176
     0
 40
1.0
176
     0
 90
        9
176
     2
 62
     7
176
     0
 40
1.0
176
     0
 90
        1
176
     0
 90
        6
176
     0
 90
        2
176
     0
 62
     7
176
     0
 90
        5
176
     0
 90
        0
176
     0
 90
        0
176
     0
290
     0
176
     0
 90
        1
176
     0
 40
0.0
176
     0
 90
        0
176
     0
290
     0
176
     0
290
     1
176
     0
290
     1
176
     0
290
     0
176
     0
290
     0
176
     0
290
     0
176
     0
290
     0
176
     0
290
     0
176
     0
290
     0
176
     0
 90
       50
176
     0
 40
0.0
176
     0
 40
1.0
176
     0
 90
        0
176
     0
 62
    18
420
        0
176
     0
 90
       50
176
     0
 90
        3
176
     0
 62
     5
420
      255
176
     0
290
     0
176
     0
 90
       50
176
     0
 90
       50
176
     0
 90
       50
176
     0
290
     0
176
     0
 90
       50
176
     0
 62
   256
176
     0
 40
1.0
176
     0
 90
        2
176
     0
  1
strokes_ogs.tif
176
     0
290
     0
176
     0
 40
1.0
176
     0
 40
1.0
176
     0
  0
VISUALSTYLE
  5
33
102
{ACAD_REACTORS
330
2A
102
}
330
2A
100
AcDbVisualStyle
  2
Realistic
 70
     8
177
     3
291
     0
 70
    58
 90
        2
176
     1
 90
        3
176
     1
 90
        0
176
     1
 90
        2
176
     1
 40
0.6
176
     1
 40
30.0
176
     1
 62
     7
420
 16777215
176
     1
 90
        0
176
     1
 90
        0
176
     1
 62
     7
176
     1
 62
   257
176
     1
 90
        1
176
     1
 90
        1
176
     1
 40
1.0
176
     1
 90
        8
176
     1
 62
   257
176
     1
 40
1.0
176
     1
 90
        1
176
     1
 90
        6
176
     1
 90
        2
176
     1
 62
     7
176
     1
 90
        3
176
     1
 90
        0
176
     1
 90
        0
176
     1
290
     0
176
     1
 90
       13
176
     1
 40
0.0
176
     1
 90
        0
176
     1
290
     0
176
     1
290
     1
176
     1
290
     1
176
     1
290
     0
176
     1
290
     0
176
     1
290
     0
176
     1
290
     0
176
     1
290
     0
176
     1
290
     0
176
     1
 90
       50
176
     1
 40
0.0
176
     1
 40
1.0
176
     1
 90
        0
176
     1
 62
    18
420
        0
176
     1
 90
       50
176
     1
 90
        3
176
     1
 62
     5
420
      255
176
     1
290
     0
176
     1
 90
       50
176
     1
 90
       50
176
     1
 90
       50
176
     1
290
     0
176
     1
 90
       50
176
     1
 62
   256
176
     0
 40
1.0
176
     0
 90
        2
176
     1
  1
strokes_ogs.tif
176
     1
290
     0
176
     1
 40
1.0
176
     1
 40
1.0
176
     1
  0
VISUALSTYLE
  5
42
102
{ACAD_REACTORS
330
2A
102
}
330
2A
100
AcDbVisualStyle
  2
Shaded
 70
    27
177
     3
291
     0
 70
    58
 90
        2
176
     1
 90
        2
176
     1
 90
        1
176
     1
 90
        2
176
     1
 40
0.6
176
     1
 40
30.0
176
     1
 62
     7
420
 16777215
176
     1
 90
        0
176
     1
 90
        4
176
     1
 62
     7
176
     1
 62
   257
176
     1
 90
        1
176
     1
 90
        1
176
     1
 40
1.0
176
     1
 90
        8
176
     1
 62
   257
176
     1
 40
1.0
176
     1
 90
        1
176
     1
 90
        6
176
     1
 90
        2
176
     1
 62
     8
420
  7895160
176
     1
 90
        3
176
     1
 90
        0
176
     1
 90
        0
176
     1
290
     0
176
     1
 90
        5
176
     1
 40
0.0
176
     1
 90
        0
176
     1
290
     0
176
     1
290
     1
176
     1
290
     1
176
     1
290
     0
176
     1
290
     0
176
     1
290
     0
176
     1
290
     0
176
     1
290
     0
176
     1
290
     0
176
     1
 90
       50
176
     1
 40
0.0
176
     1
 40
1.0
176
     1
 90
        0
176
     1
 62
    18
420
        0
176
     1
 90
       50
176
     1
 90
        3
176
     1
 62
     5
420
      255
176
     1
290
     0
176
     1
 90
       50
176
     1
 90
       50
176
     1
 90
       50
176
     1
290
     0
176
     1
 90
       50
176
     1
 62
   256
176
     0
 40
1.0
176
     0
 90
        2
176
     1
  1
strokes_ogs.tif
176
     1
290
     0
176
     1
 40
1.0
176
     1
 40
1.0
176
     1
  0
VISUALSTYLE
  5
41
102
{ACAD_REACTORS
330
2A
102
}
330
2A
100
AcDbVisualStyle
  2
Shaded with edges
 70
    26
177
     3
291
     0
 70
    58
 90
        2
176
     1
 90
        2
176
     1
 90
        1
176
     1
 90
        2
176
     1
 40
0.6
176
     1
 40
30.0
176
     1
 62
     7
420
 16777215
176
     1
 90
        1
176
     1
 90
       10
176
     1
 62
     7
176
     1
 62
   257
176
     1
 90
        2
176
     1
 90
        1
176
     1
 40
1.0
176
     1
 90
        8
176
     1
 62
   257
176
     1
 40
1.0
176
     1
 90
        1
176
     1
 90
        6
176
     1
 90
        2
176
     1
 62
     7
176
     1
 90
        3
176
     1
 90
        0
176
     1
 90
        0
176
     1
290
     0
176
     1
 90
        5
176
     1
 40
0.0
176
     1
 90
        0
176
     1
290
     0
176
     1
290
     1
176
     1
290
     1
176
     1
290
     0
176
     1
290
     0
176
     1
290
     0
176
     1
290
     0
176
     1
290
     0
176
     1
290
     0
176
     1
 90
       50
176
     1
 40
0.0
176
     1
 40
1.0
176
     1
 90
        0
176
     1
 62
    18
420
        0
176
     1
 90
       50
176
     1
 90
        3
176
     1
 62
     5
420
      255
176
     1
290
     0
176
     1
 90
       50
176
     1
 90
       50
176
     1
 90
       50
176
     1
290
     0
176
     1
 90
       50
176
     1
 62
   256
176
     0
 40
1.0
176
     0
 90
        2
176
     1
  1
strokes_ogs.tif
176
     1
290
     0
176
     1
 40
1.0
176
     1
 40
1.0
176
     1
  0
VISUALSTYLE
  5
3E
102
{ACAD_REACTORS
330
2A
102
}
330
2A
100
AcDbVisualStyle
  2
Shades of Gray
 70
    23
177
     3
291
     0
 70
    58
 90
        2
176
     1
 90
        2
176
     1
 90
        3
176
     1
 90
        0
176
     1
 40
0.6
176
     1
 40
30.0
176
     1
 62
     7
420
 16777215
176
     1
 90
        2
176
     1
 90
        2
176
     1
 62
     7
176
     1
 62
     7
176
     1
 90
        1
176
     1
 90
        1
176
     1
 40
40.0
176
     1
 90
        8
176
     1
 62
     7
176
     1
 40
1.0
176
     1
 90
        1
176
     1
 90
        6
176
     1
 90
        2
176
     1
 62
     7
176
     1
 90
        3
176
     1
 90
        0
176
     1
 90
        0
176
     1
290
     0
176
     1
 90
        1
176
     1
 40
0.0
176
     1
 90
        0
176
     1
290
     0
176
     1
290
     1
176
     1
290
     1
176
     1
290
     0
176
     1
290
     0
176
     1
290
     0
176
     1
290
     0
176
     1
290
     0
176
     1
290
     0
176
     1
 90
       50
176
     1
 40
0.0
176
     1
 40
1.0
176
     1
 90
        0
176
     1
 62
    18
420
        0
176
     1
 90
       50
176
     1
 90
        3
176
     1
 62
     5
420
      255
176
     1
290
     0
176
     1
 90
       50
176
     1
 90
       50
176
     1
 90
       50
176
     1
290
     0
176
     1
 90
       50
176
     1
 62
   256
176
     0
 40
1.0
176
     0
 90
        2
176
     1
  1
strokes_ogs.tif
176
     1
290
     0
176
     1
 40
1.0
176
     1
 40
1.0
176
     1
  0
VISUALSTYLE
  5
3F
102
{ACAD_REACTORS
330
2A
102
}
330
2A
100
AcDbVisualStyle
  2
Sketchy
 70
    24
177
     3
291
     0
 70
    58
 90
        1
176
     1
 90
        2
176
     1
 90
        2
176
     1
 90
        0
176
     1
 40
0.6
176
     1
 40
30.0
176
     1
 62
     7
420
 16777215
176
     1
 90
        2
176
     1
 90
        2
176
     1
 62
     7
176
     1
 62
     7
176
     1
 90
        1
176
     1
 90
        1
176
     1
 40
40.0
176
     1
 90
       11
176
     1
 62
     7
176
     1
 40
1.0
176
     1
 90
        1
176
     1
 90
        6
176
     1
 90
        2
176
     1
 62
     7
176
     1
 90
        6
176
     1
 90
        0
176
     1
 90
        0
176
     1
290
     0
176
     1
 90
        1
176
     1
 40
0.0
176
     1
 90
        0
176
     1
290
     0
176
     1
290
     1
176
     1
290
     1
176
     1
290
     0
176
     1
290
     0
176
     1
290
     0
176
     1
290
     0
176
     1
290
     0
176
     1
290
     0
176
     1
 90
       50
176
     1
 40
0.0
176
     1
 40
1.0
176
     1
 90
        0
176
     1
 62
    18
420
        0
176
     1
 90
       50
176
     1
 90
        3
176
     1
 62
     5
420
      255
176
     1
290
     0
176
     1
 90
       50
176
     1
 90
       50
176
     1
 90
       50
176
     1
290
     0
176
     1
 90
       50
176
     1
 62
   256
176
     0
 40
1.0
176
     0
 90
        2
176
     1
  1
strokes_ogs.tif
176
     1
290
     0
176
     1
 40
1.0
176
     1
 40
1.0
176
     1
  0
VISUALSTYLE
  5
37
102
{ACAD_REACTORS
330
2A
102
}
330
2A
100
AcDbVisualStyle
  2
Thicken
 70
    13
177
     3
291
     1
 70
    58
 90
        2
176
     1
 90
        2
176
     1
 90
        0
176
     1
 90
        0
176
     1
 40
0.6
176
     1
 40
30.0
176
     1
 62
     7
420
 16777215
176
     1
 90
        1
176
     1
 90
        4
176
     1
 62
     7
176
     1
 62
   257
176
     1
 90
        1
176
     1
 90
        1
176
     1
 40
1.0
176
     1
 90
       12
176
     1
 62
     7
176
     1
 40
1.0
176
     1
 90
        1
176
     1
 90
        6
176
     1
 90
        2
176
     1
 62
     7
176
     1
 90
        5
176
     1
 90
        0
176
     1
 90
        0
176
     1
290
     0
176
     1
 90
        1
176
     1
 40
0.0
176
     1
 90
        0
176
     1
290
     0
176
     1
290
     1
176
     1
290
     1
176
     1
290
     0
176
     1
290
     0
176
     1
290
     0
176
     1
290
     0
176
     1
290
     0
176
     1
290
     0
176
     1
 90
       50
176
     1
 40
0.0
176
     1
 40
1.0
176
     1
 90
        0
176
     1
 62
    18
420
        0
176
     1
 90
       50
176
     1
 90
        3
176
     1
 62
     5
420
      255
176
     1
290
     0
176
     1
 90
       50
176
     1
 90
       50
176
     1
 90
       50
176
     1
290
     0
176
     1
 90
       50
176
     1
 62
   256
176
     0
 40
1.0
176
     0
 90
        2
176
     1
  1
strokes_ogs.tif
176
     1
290
     0
176
     1
 40
1.0
176
     1
 40
1.0
176
     1
  0
VISUALSTYLE
  5
30
102
{ACAD_REACTORS
330
2A
102
}
330
2A
100
AcDbVisualStyle
  2
Wireframe
 70
     5
177
     3
291
     0
 70
    58
 90
        0
176
     1
 90
        2
176
     1
 90
        0
176
     1
 90
        0
176
     1
 40
0.6
176
     1
 40
30.0
176
     1
 62
     7
420
 16777215
176
     1
 90
        1
176
     1
 90
        4
176
     1
 62
     7
176
     1
 62
   257
176
     1
 90
        1
176
     1
 90
        1
176
     1
 40
1.0
176
     1
 90
        0
176
     1
 62
   257
176
     1
 40
1.0
176
     1
 90
        1
176
     1
 90
        6
176
     1
 90
        2
176
     1
 62
     7
176
     1
 90
        3
176
     1
 90
        0
176
     1
 90
        0
176
     1
290
     0
176
     1
 90
        1
176
     1
 40
0.0
176
     1
 90
        0
176
     1
290
     0
176
     1
290
     1
176
     1
290
     1
176
     1
290
     0
176
     1
290
     0
176
     1
290
     0
176
     1
290
     0
176
     1
290
     0
176
     1
290
     0
176
     1
 90
       50
176
     1
 40
0.0
176
     1
 40
1.0
176
     1
 90
        0
176
     1
 62
    18
420
        0
176
     1
 90
       50
176
     1
 90
        3
176
     1
 62
     5
420
      255
176
     1
290
     0
176
     1
 90
       50
176
     1
 90
       50
176
     1
 90
       50
176
     1
290
     0
176
     1
 90
       50
176
     1
 62
   256
176
     0
 40
1.0
176
     0
 90
        2
176
     1
  1
strokes_ogs.tif
176
     1
290
     0
176
     1
 40
1.0
176
     1
 40
1.0
176
     1
  0
VISUALSTYLE
  5
40
102
{ACAD_REACTORS
330
2A
102
}
330
2A
100
AcDbVisualStyle
  2
X-Ray
 70
    25
177
     3
291
     0
 70
    58
 90
        2
176
     1
 90
        2
176
     1
 90
        1
176
     1
 90
        1
176
     1
 40
0.5
176
     1
 40
30.0
176
     1
 62
     7
420
 16777215
176
     1
 90
        1
176
     1
 90
        0
176
     1
 62
     7
176
     1
 62
   257
176
     1
 90
        1
176
     1
 90
        1
176
     1
 40
1.0
176
     1
 90
        8
176
     1
 62
     7
176
     1
 40
1.0
176
     1
 90
        1
176
     1
 90
        6
176
     1
 90
        2
176
     1
 62
     7
176
     1
 90
        3
176
     1
 90
        0
176
     1
 90
        0
176
     1
290
     0
176
     1
 90
       13
176
     1
 40
0.0
176
     1
 90
        0
176
     1
290
     0
176
     1
290
     1
176
     1
290
     1
176
     1
290
     0
176
     1
290
     0
176
     1
290
     0
176
     1
290
     0
176
     1
290
     0
176
     1
290
     0
176
     1
 90
       50
176
     1
 40
0.0
176
     1
 40
1.0
176
     1
 90
        0
176
     1
 62
    18
420
        0
176
     1
 90
       50
176
     1
 90
        3
176
     1
 62
     5
420
      255
176
     1
290
     0
176
     1
 90
       50
176
     1
 90
       50
176
     1
 90
       50
176
     1
290
     0
176
     1
 90
       50
176
     1
 62
   256
176
     0
 40
1.0
176
     0
 90
        2
176
     1
  1
strokes_ogs.tif
176
     1
290
     0
176
     1
 40
1.0
176
     1
 40
1.0
176
     1
  0
DICTIONARYVAR
  5
1DC
102
{ACAD_REACTORS
330
1DB
102
}
330
1DB
100
DictionaryVariables
280
     0
  1
1:1
  0
DICTIONARYVAR
  5
1E1
102
{ACAD_REACTORS
330
1DB
102
}
330
1DB
100
DictionaryVariables
280
     0
  1
Standard
  0
DICTIONARYVAR
  5
1E0
102
{ACAD_REACTORS
330
1DB
102
}
330
1DB
100
DictionaryVariables
280
     0
  1
Standard
  0
DICTIONARY
  5
1DD
330
6A
100
AcDbDictionary
280
     1
281
     1
  3
ACAD_ROUNDTRIP_2008_TABLESTYLE_CELLSTYLEMAP
360
1DE
  0
CELLSTYLEMAP
  5
1DE
102
{ACAD_REACTORS
330
1DD
102
}
330
1DD
100
AcDbCellStyleMap
 90
        3
300
CELLSTYLE
  1
TABLEFORMAT_BEGIN
 90
        5
170
     1
 91
        0
 92
    32768
 62
   257
 93
        1
300
CONTENTFORMAT
  1
CONTENTFORMAT_BEGIN
 90
        0
 91
        0
 92
        4
 93
        0
300

 40
0.0
140
1.0
 94
        5
 62
     0
340
11
144
0.25
309
CONTENTFORMAT_END
171
     1
301
MARGIN
  1
CELLMARGIN_BEGIN
 40
0.06
 40
0.06
 40
0.06
 40
0.06
 40
0.06
 40
0.06
309
CELLMARGIN_END
 94
        6
 95
        1
302
GRIDFORMAT
  1
GRIDFORMAT_BEGIN
 90
        0
 91
        1
 62
     0
 92
       -2
340
14
 93
        0
 40
0.045
309
GRIDFORMAT_END
 95
        2
302
GRIDFORMAT
  1
GRIDFORMAT_BEGIN
 90
        0
 91
        1
 62
     0
 92
       -2
340
14
 93
        0
 40
0.045
309
GRIDFORMAT_END
 95
        4
302
GRIDFORMAT
  1
GRIDFORMAT_BEGIN
 90
        0
 91
        1
 62
     0
 92
       -2
340
14
 93
        0
 40
0.045
309
GRIDFORMAT_END
 95
        8
302
GRIDFORMAT
  1
GRIDFORMAT_BEGIN
 90
        0
 91
        1
 62
     0
 92
       -2
340
14
 93
        0
 40
0.045
309
GRIDFORMAT_END
 95
       16
302
GRIDFORMAT
  1
GRIDFORMAT_BEGIN
 90
        0
 91
        1
 62
     0
 92
       -2
340
14
 93
        0
 40
0.045
309
GRIDFORMAT_END
 95
       32
302
GRIDFORMAT
  1
GRIDFORMAT_BEGIN
 90
        0
 91
        1
 62
     0
 92
       -2
340
14
 93
        0
 40
0.045
309
GRIDFORMAT_END
309
TABLEFORMAT_END
  1
CELLSTYLE_BEGIN
 90
        1
 91
        1
300
_TITLE
309
CELLSTYLE_END
300
CELLSTYLE
  1
TABLEFORMAT_BEGIN
 90
        5
170
     1
 91
        0
 92
        0
 62
   257
 93
        1
300
CONTENTFORMAT
  1
CONTENTFORMAT_BEGIN
 90
        0
 91
        0
 92
        4
 93
        0
300

 40
0.0
140
1.0
 94
        5
 62
     0
340
11
144
0.18
309
CONTENTFORMAT_END
171
     1
301
MARGIN
  1
CELLMARGIN_BEGIN
 40
0.06
 40
0.06
 40
0.06
 40
0.06
 40
0.06
 40
0.06
309
CELLMARGIN_END
 94
        6
 95
        1
302
GRIDFORMAT
  1
GRIDFORMAT_BEGIN
 90
        0
 91
        1
 62
     0
 92
       -2
340
14
 93
        0
 40
0.045
309
GRIDFORMAT_END
 95
        2
302
GRIDFORMAT
  1
GRIDFORMAT_BEGIN
 90
        0
 91
        1
 62
     0
 92
       -2
340
14
 93
        0
 40
0.045
309
GRIDFORMAT_END
 95
        4
302
GRIDFORMAT
  1
GRIDFORMAT_BEGIN
 90
        0
 91
        1
 62
     0
 92
       -2
340
14
 93
        0
 40
0.045
309
GRIDFORMAT_END
 95
        8
302
GRIDFORMAT
  1
GRIDFORMAT_BEGIN
 90
        0
 91
        1
 62
     0
 92
       -2
340
14
 93
        0
 40
0.045
309
GRIDFORMAT_END
 95
       16
302
GRIDFORMAT
  1
GRIDFORMAT_BEGIN
 90
        0
 91
        1
 62
     0
 92
       -2
340
14
 93
        0
 40
0.045
309
GRIDFORMAT_END
 95
       32
302
GRIDFORMAT
  1
GRIDFORMAT_BEGIN
 90
        0
 91
        1
 62
     0
 92
       -2
340
14
 93
        0
 40
0.045
309
GRIDFORMAT_END
309
TABLEFORMAT_END
  1
CELLSTYLE_BEGIN
 90
        2
 91
        1
300
_HEADER
309
CELLSTYLE_END
300
CELLSTYLE
  1
TABLEFORMAT_BEGIN
 90
        5
170
     1
 91
        0
 92
        0
 62
   257
 93
        1
300
CONTENTFORMAT
  1
CONTENTFORMAT_BEGIN
 90
        0
 91
        0
 92
        4
 93
        0
300

 40
0.0
140
1.0
 94
        2
 62
     0
340
11
144
0.18
309
CONTENTFORMAT_END
171
     1
301
MARGIN
  1
CELLMARGIN_BEGIN
 40
0.06
 40
0.06
 40
0.06
 40
0.06
 40
0.06
 40
0.06
309
CELLMARGIN_END
 94
        6
 95
        1
302
GRIDFORMAT
  1
GRIDFORMAT_BEGIN
 90
        0
 91
        1
 62
     0
 92
       -2
340
14
 93
        0
 40
0.045
309
GRIDFORMAT_END
 95
        2
302
GRIDFORMAT
  1
GRIDFORMAT_BEGIN
 90
        0
 91
        1
 62
     0
 92
       -2
340
14
 93
        0
 40
0.045
309
GRIDFORMAT_END
 95
        4
302
GRIDFORMAT
  1
GRIDFORMAT_BEGIN
 90
        0
 91
        1
 62
     0
 92
       -2
340
14
 93
        0
 40
0.045
309
GRIDFORMAT_END
 95
        8
302
GRIDFORMAT
  1
GRIDFORMAT_BEGIN
 90
        0
 91
        1
 62
     0
 92
       -2
340
14
 93
        0
 40
0.045
309
GRIDFORMAT_END
 95
       16
302
GRIDFORMAT
  1
GRIDFORMAT_BEGIN
 90
        0
 91
        1
 62
     0
 92
       -2
340
14
 93
        0
 40
0.045
309
GRIDFORMAT_END
 95
       32
302
GRIDFORMAT
  1
GRIDFORMAT_BEGIN
 90
        0
 91
        1
 62
     0
 92
       -2
340
14
 93
        0
 40
0.045
309
GRIDFORMAT_END
309
TABLEFORMAT_END
  1
CELLSTYLE_BEGIN
 90
        3
 91
        2
300
_DATA
309
CELLSTYLE_END
  0
ENDSEC
  0
EOF