0
SECTION
  2
HEADER
  9
$ACADVER
  1
AC1027
  9
$ACADMAINTVER
 70
     8
  9
$DWGCODEPAGE
  3
ANSI_1252
  9
$REQUIREDVERSIONS
160
                 0
  9
$COMMENTS
  1
File was created by Cadenas
  9
$CUSTOMPROPERTYTAG
  1
NN
  9
$CUSTOMPROPERTY
  1
Grip Tight Medium Duty Flange Cartridge Inch Bore
  9
$CUSTOMPROPERTYTAG
  1
NT
  9
$CUSTOMPROPERTY
  1
GTM Medium Duty Piloted Flange Bearings
  9
$CUSTOMPROPERTYTAG
  1
NB
  9
$CUSTOMPROPERTY
  1
129761
  9
$CUSTOMPROPERTYTAG
  1
NBSYN
  9
$CUSTOMPROPERTY
  1
$PN.
  9
$CUSTOMPROPERTYTAG
  1
LINA
  9
$CUSTOMPROPERTY
  1
129761
  9
$CUSTOMPROPERTYTAG
  1
SERIES
  9
$CUSTOMPROPERTY
  1
209
  9
$CUSTOMPROPERTYTAG
  1
SS
  9
$CUSTOMPROPERTY
  1
1-1/2
  9
$CUSTOMPROPERTYTAG
  1
PN
  9
$CUSTOMPROPERTY
  1
129761
  9
$CUSTOMPROPERTYTAG
  1
DESCRIPTION
  9
$CUSTOMPROPERTY
  1
FC-GTM-108L
  9
$CUSTOMPROPERTYTAG
  1
PNSL
  9
$CUSTOMPROPERTY
  1
129504
  9
$CUSTOMPROPERTYTAG
  1
DESCRIPTIONSL
  9
$CUSTOMPROPERTY
  1
FC-GT-09
  9
$CUSTOMPROPERTYTAG
  1
PNA
  9
$CUSTOMPROPERTY
  1
136598
  9
$CUSTOMPROPERTYTAG
  1
DESCRIPTIONA
  9
$CUSTOMPROPERTY
  1
AN-GTM-09-108-D
  9
$CUSTOMPROPERTYTAG
  1
W
  9
$CUSTOMPROPERTY
  1
6.1
  9
$CUSTOMPROPERTYTAG
  1
A
  9
$CUSTOMPROPERTY
  1
1.85
  9
$CUSTOMPROPERTYTAG
  1
B
  9
$CUSTOMPROPERTY
  1
5.75
  9
$CUSTOMPROPERTYTAG
  1
C
  9
$CUSTOMPROPERTY
  1
1.97
  9
$CUSTOMPROPERTYTAG
  1
D
  9
$CUSTOMPROPERTY
  1
4.75
  9
$CUSTOMPROPERTYTAG
  1
E
  9
$CUSTOMPROPERTY
  1
0.44
  9
$CUSTOMPROPERTYTAG
  1
F
  9
$CUSTOMPROPERTY
  1
1/2
  9
$CUSTOMPROPERTYTAG
  1
G
  9
$CUSTOMPROPERTY
  1
1.53
  9
$CUSTOMPROPERTYTAG
  1
H
  9
$CUSTOMPROPERTY
  1
0.91
  9
$CUSTOMPROPERTYTAG
  1
K
  9
$CUSTOMPROPERTY
  1
4.000/3.998
  9
$CUSTOMPROPERTYTAG
  1
L
  9
$CUSTOMPROPERTY
  1
2.86
  9
$CUSTOMPROPERTYTAG
  1
Z
  9
$CUSTOMPROPERTY
  1
1.57
  9
$CUSTOMPROPERTYTAG
  1
CAPS
  9
$CUSTOMPROPERTY
  1
4450
  9
$CUSTOMPROPERTYTAG
  1
CAPD
  9
$CUSTOMPROPERTY
  1
7891
  9
$CUSTOMPROPERTYTAG
  1
COMPANY
  9
$CUSTOMPROPERTY
  1
baldor
  9
$INSBASE
 10
0.0
 20
0.0
 30
0.0
  9
$EXTMIN
 10
1.000000000000000E+20
 20
1.000000000000000E+20
 30
1.000000000000000E+20
  9
$EXTMAX
 10
-1.000000000000000E+20
 20
-1.000000000000000E+20
 30
-1.000000000000000E+20
  9
$LIMMIN
 10
0.0
 20
0.0
  9
$LIMMAX
 10
12.0
 20
9.0
  9
$ORTHOMODE
 70
     0
  9
$REGENMODE
 70
     1
  9
$FILLMODE
 70
     1
  9
$QTEXTMODE
 70
     0
  9
$MIRRTEXT
 70
     1
  9
$LTSCALE
 40
1.0
  9
$ATTMODE
 70
     1
  9
$TEXTSIZE
 40
0.2
  9
$TRACEWID
 40
0.05
  9
$TEXTSTYLE
  7
Standard
  9
$CLAYER
  8
0
  9
$CELTYPE
  6
ByLayer
  9
$CECOLOR
 62
   256
  9
$CELTSCALE
 40
1.0
  9
$DISPSILH
 70
     0
  9
$DIMSCALE
 40
1.0
  9
$DIMASZ
 40
0.18
  9
$DIMEXO
 40
0.0625
  9
$DIMDLI
 40
0.38
  9
$DIMRND
 40
0.0
  9
$DIMDLE
 40
0.0
  9
$DIMEXE
 40
0.18
  9
$DIMTP
 40
0.0
  9
$DIMTM
 40
0.0
  9
$DIMTXT
 40
0.18
  9
$DIMCEN
 40
0.09
  9
$DIMTSZ
 40
0.0
  9
$DIMTOL
 70
     0
  9
$DIMLIM
 70
     0
  9
$DIMTIH
 70
     1
  9
$DIMTOH
 70
     1
  9
$DIMSE1
 70
     0
  9
$DIMSE2
 70
     0
  9
$DIMTAD
 70
     0
  9
$DIMZIN
 70
     0
  9
$DIMBLK
  1

  9
$DIMASO
 70
     1
  9
$DIMSHO
 70
     1
  9
$DIMPOST
  1

  9
$DIMAPOST
  1

  9
$DIMALT
 70
     0
  9
$DIMALTD
 70
     2
  9
$DIMALTF
 40
25.4
  9
$DIMLFAC
 40
1.0
  9
$DIMTOFL
 70
     0
  9
$DIMTVP
 40
0.0
  9
$DIMTIX
 70
     0
  9
$DIMSOXD
 70
     0
  9
$DIMSAH
 70
     0
  9
$DIMBLK1
  1

  9
$DIMBLK2
  1

  9
$DIMSTYLE
  2
Standard
  9
$DIMCLRD
 70
     0
  9
$DIMCLRE
 70
     0
  9
$DIMCLRT
 70
     0
  9
$DIMTFAC
 40
1.0
  9
$DIMGAP
 40
0.09
  9
$DIMJUST
 70
     0
  9
$DIMSD1
 70
     0
  9
$DIMSD2
 70
     0
  9
$DIMTOLJ
 70
     1
  9
$DIMTZIN
 70
     0
  9
$DIMALTZ
 70
     0
  9
$DIMALTTZ
 70
     0
  9
$DIMUPT
 70
     0
  9
$DIMDEC
 70
     4
  9
$DIMTDEC
 70
     4
  9
$DIMALTU
 70
     2
  9
$DIMALTTD
 70
     2
  9
$DIMTXSTY
  7
Standard
  9
$DIMAUNIT
 70
     0
  9
$DIMADEC
 70
     0
  9
$DIMALTRND
 40
0.0
  9
$DIMAZIN
 70
     0
  9
$DIMDSEP
 70
    46
  9
$DIMATFIT
 70
     3
  9
$DIMFRAC
 70
     0
  9
$DIMLDRBLK
  1

  9
$DIMLUNIT
 70
     2
  9
$DIMLWD
 70
    -2
  9
$DIMLWE
 70
    -2
  9
$DIMTMOVE
 70
     0
  9
$DIMFXL
 40
1.0
  9
$DIMFXLON
 70
     0
  9
$DIMJOGANG
 40
0.7853981633974483
  9
$DIMTFILL
 70
     0
  9
$DIMTFILLCLR
 70
     0
  9
$DIMARCSYM
 70
     0
  9
$DIMLTYPE
  6

  9
$DIMLTEX1
  6

  9
$DIMLTEX2
  6

  9
$DIMTXTDIRECTION
 70
     0
  9
$LUNITS
 70
     2
  9
$LUPREC
 70
     4
  9
$SKETCHINC
 40
0.1
  9
$FILLETRAD
 40
0.5
  9
$AUNITS
 70
     0
  9
$AUPREC
 70
     0
  9
$MENU
  1
.
  9
$ELEVATION
 40
0.0
  9
$PELEVATION
 40
0.0
  9
$THICKNESS
 40
0.0
  9
$LIMCHECK
 70
     0
  9
$CHAMFERA
 40
0.0
  9
$CHAMFERB
 40
0.0
  9
$CHAMFERC
 40
0.0
  9
$CHAMFERD
 40
0.0
  9
$SKPOLY
 70
     0
  9
$TDCREATE
 40
2458168.993796099
  9
$TDUCREATE
 40
2458168.952129433
  9
$TDUPDATE
 40
2458168.993796285
  9
$TDUUPDATE
 40
2458168.952129618
  9
$TDINDWG
 40
0.0000000116
  9
$TDUSRTIMER
 40
0.0000000116
  9
$USRTIMER
 70
     1
  9
$ANGBASE
 50
0.0
  9
$ANGDIR
 70
     0
  9
$PDMODE
 70
     0
  9
$PDSIZE
 40
0.0
  9
$PLINEWID
 40
0.0
  9
$SPLFRAME
 70
     0
  9
$SPLINETYPE
 70
     6
  9
$SPLINESEGS
 70
     8
  9
$HANDSEED
  5
1FE
  9
$SURFTAB1
 70
     6
  9
$SURFTAB2
 70
     6
  9
$SURFTYPE
 70
     6
  9
$SURFU
 70
     6
  9
$SURFV
 70
     6
  9
$UCSBASE
  2

  9
$UCSNAME
  2

  9
$UCSORG
 10
0.0
 20
0.0
 30
0.0
  9
$UCSXDIR
 10
1.0
 20
0.0
 30
0.0
  9
$UCSYDIR
 10
0.0
 20
1.0
 30
0.0
  9
$UCSORTHOREF
  2

  9
$UCSORTHOVIEW
 70
     0
  9
$UCSORGTOP
 10
0.0
 20
0.0
 30
0.0
  9
$UCSORGBOTTOM
 10
0.0
 20
0.0
 30
0.0
  9
$UCSORGLEFT
 10
0.0
 20
0.0
 30
0.0
  9
$UCSORGRIGHT
 10
0.0
 20
0.0
 30
0.0
  9
$UCSORGFRONT
 10
0.0
 20
0.0
 30
0.0
  9
$UCSORGBACK
 10
0.0
 20
0.0
 30
0.0
  9
$PUCSBASE
  2

  9
$PUCSNAME
  2

  9
$PUCSORG
 10
0.0
 20
0.0
 30
0.0
  9
$PUCSXDIR
 10
1.0
 20
0.0
 30
0.0
  9
$PUCSYDIR
 10
0.0
 20
1.0
 30
0.0
  9
$PUCSORTHOREF
  2

  9
$PUCSORTHOVIEW
 70
     0
  9
$PUCSORGTOP
 10
0.0
 20
0.0
 30
0.0
  9
$PUCSORGBOTTOM
 10
0.0
 20
0.0
 30
0.0
  9
$PUCSORGLEFT
 10
0.0
 20
0.0
 30
0.0
  9
$PUCSORGRIGHT
 10
0.0
 20
0.0
 30
0.0
  9
$PUCSORGFRONT
 10
0.0
 20
0.0
 30
0.0
  9
$PUCSORGBACK
 10
0.0
 20
0.0
 30
0.0
  9
$USERI1
 70
     0
  9
$USERI2
 70
     0
  9
$USERI3
 70
     0
  9
$USERI4
 70
     0
  9
$USERI5
 70
     0
  9
$USERR1
 40
0.0
  9
$USERR2
 40
0.0
  9
$USERR3
 40
0.0
  9
$USERR4
 40
0.0
  9
$USERR5
 40
0.0
  9
$WORLDVIEW
 70
     1
  9
$SHADEDGE
 70
     3
  9
$SHADEDIF
 70
    70
  9
$TILEMODE
 70
     1
  9
$MAXACTVP
 70
    64
  9
$PINSBASE
 10
0.0
 20
0.0
 30
0.0
  9
$PLIMCHECK
 70
     0
  9
$PEXTMIN
 10
1.000000000000000E+20
 20
1.000000000000000E+20
 30
1.000000000000000E+20
  9
$PEXTMAX
 10
-1.000000000000000E+20
 20
-1.000000000000000E+20
 30
-1.000000000000000E+20
  9
$PLIMMIN
 10
0.0
 20
0.0
  9
$PLIMMAX
 10
12.0
 20
9.0
  9
$UNITMODE
 70
     0
  9
$VISRETAIN
 70
     1
  9
$PLINEGEN
 70
     0
  9
$PSLTSCALE
 70
     1
  9
$TREEDEPTH
 70
  3020
  9
$CMLSTYLE
  2
Standard
  9
$CMLJUST
 70
     0
  9
$CMLSCALE
 40
1.0
  9
$PROXYGRAPHICS
 70
     1
  9
$MEASUREMENT
 70
     0
  9
$CELWEIGHT
370
    -1
  9
$ENDCAPS
280
     0
  9
$JOINSTYLE
280
     0
  9
$LWDISPLAY
290
     0
  9
$INSUNITS
 70
     1
  9
$HYPERLINKBASE
  1

  9
$STYLESHEET
  1

  9
$XEDIT
290
     1
  9
$CEPSNTYPE
380
     0
  9
$PSTYLEMODE
290
     1
  9
$FINGERPRINTGUID
  2
{02FA656C-F2FF-47B2-9456-9CC4BB2218C3}
  9
$VERSIONGUID
  2
{FAEB1C32-E019-11D5-929B-00C0DF256EC4}
  9
$EXTNAMES
290
     1
  9
$PSVPSCALE
 40
0.0
  9
$OLESTARTUP
290
     0
  9
$SORTENTS
280
   127
  9
$INDEXCTL
280
     0
  9
$HIDETEXT
280
     1
  9
$XCLIPFRAME
280
     2
  9
$HALOGAP
280
     0
  9
$OBSCOLOR
 70
   257
  9
$OBSLTYPE
280
     0
  9
$INTERSECTIONDISPLAY
280
     0
  9
$INTERSECTIONCOLOR
 70
   257
  9
$DIMASSOC
280
     2
  9
$PROJECTNAME
  1

  9
$CAMERADISPLAY
290
     0
  9
$LENSLENGTH
 40
50.0
  9
$CAMERAHEIGHT
 40
0.0
  9
$STEPSPERSEC
 40
2.0
  9
$STEPSIZE
 40
6.0
  9
$3DDWFPREC
 40
2.0
  9
$PSOLWIDTH
 40
0.25
  9
$PSOLHEIGHT
 40
4.0
  9
$LOFTANG1
 40
1.570796326794897
  9
$LOFTANG2
 40
1.570796326794897
  9
$LOFTMAG1
 40
0.0
  9
$LOFTMAG2
 40
0.0
  9
$LOFTPARAM
 70
     7
  9
$LOFTNORMALS
280
     1
  9
$LATITUDE
 40
37.795
  9
$LONGITUDE
 40
-122.394
  9
$NORTHDIRECTION
 40
0.0
  9
$TIMEZONE
 70
 -8000
  9
$LIGHTGLYPHDISPLAY
280
     1
  9
$TILEMODELIGHTSYNCH
280
     1
  9
$CMATERIAL
347
44
  9
$SOLIDHIST
280
     0
  9
$SHOWHIST
280
     1
  9
$DWFFRAME
280
     2
  9
$DGNFRAME
280
     2
  9
$REALWORLDSCALE
290
     1
  9
$INTERFERECOLOR
 62
   256
  9
$CSHADOW
280
     0
  9
$SHADOWPLANELOCATION
 40
0.0
  0
ENDSEC
  0
SECTION
  2
CLASSES
  0
CLASS
  1
ACDBDICTIONARYWDFLT
  2
AcDbDictionaryWithDefault
  3
ObjectDBX Classes
 90
        0
 91
        4
280
     0
281
     0
  0
CLASS
  1
VISUALSTYLE
  2
AcDbVisualStyle
  3
ObjectDBX Classes
 90
     4095
 91
        4
280
     0
281
     0
  0
CLASS
  1
MATERIAL
  2
AcDbMaterial
  3
ObjectDBX Classes
 90
     1153
 91
        4
280
     0
281
     0
  0
CLASS
  1
SCALE
  2
AcDbScale
  3
ObjectDBX Classes
 90
     1153
 91
        4
280
     0
281
     0
  0
CLASS
  1
TABLESTYLE
  2
AcDbTableStyle
  3
ObjectDBX Classes
 90
     4095
 91
        4
280
     0
281
     0
  0
CLASS
  1
MLEADERSTYLE
  2
AcDbMLeaderStyle
  3
ACDB_MLEADERSTYLE_CLASS
 90
     4095
 91
        4
280
     0
281
     0
  0
CLASS
  1
SUN
  2
AcDbSun
  3
SCENEOE
 90
     1153
 91
        4
280
     0
281
     0
  0
CLASS
  1
DICTIONARYVAR
  2
AcDbDictionaryVar
  3
ObjectDBX Classes
 90
        0
 91
        4
280
     0
281
     0
  0
CLASS
  1
CELLSTYLEMAP
  2
AcDbCellStyleMap
  3
ObjectDBX Classes
 90
     1152
 91
        4
280
     0
281
     0
  0
ENDSEC
  0
SECTION
  2
TABLES
  0
TABLE
  2
VPORT
  5
8
330
0
100
AcDbSymbolTable
 70
     1
  0
VPORT
  5
29
330
8
100
AcDbSymbolTableRecord
100
AcDbViewportTableRecord
  2
*Active
 70
     0
 10
0.0
 20
0.0
 11
1.0
 21
1.0
 12
0.0
 22
0.0
 13
0.0
 23
0.0
 14
0.5
 24
0.5
 15
0.5
 25
0.5
 16
0.0
 26
0.0
 36
1.0
 17
0.0000000000000036
 27
0.0
 37
0.0
 40
6.158250000000005
 41
1.0
 42
50.0
 43
0.0
 44
0.0
 50
0.0
 51
0.0
 71
     0
 72
   100
 73
     1
 74
     3
 75
     0
 76
     0
 77
     0
 78
     0
281
     0
 65
     1
110
0.0
120
0.0
130
0.0
111
1.0
121
0.0
131
0.0
112
0.0
122
1.0
132
0.0
 79
     0
146
0.0
348
2F
 60
     3
 61
     5
292
     1
282
     1
141
0.0
142
0.0
 63
   250
361
6D
  0
ENDTAB
  0
TABLE
  2
LTYPE
  5
5
330
0
100
AcDbSymbolTable
 70
     3
  0
LTYPE
  5
14
330
5
100
AcDbSymbolTableRecord
100
AcDbLinetypeTableRecord
  2
ByBlock
 70
     0
  3

 72
    65
 73
     0
 40
0.0
  0
LTYPE
  5
15
330
5
100
AcDbSymbolTableRecord
100
AcDbLinetypeTableRecord
  2
ByLayer
 70
     0
  3

 72
    65
 73
     0
 40
0.0
  0
LTYPE
  5
16
330
5
100
AcDbSymbolTableRecord
100
AcDbLinetypeTableRecord
  2
Continuous
 70
     0
  3
Solid line
 72
    65
 73
     0
 40
0.0
  0
LTYPE
  5
A5
330
5
100
AcDbSymbolTableRecord
100
AcDbLinetypeTableRecord
  2
Dashed
 70
     0
  3

 72
    65
 73
     2
 40
2.0
 49
1.0
 74
     0
 49
-1.0
 74
     0
  0
LTYPE
  5
117
330
5
100
AcDbSymbolTableRecord
100
AcDbLinetypeTableRecord
  2
Center
 70
     0
  3

 72
    65
 73
     4
 40
1.5
 49
0.45
 74
     0
 49
-0.5
 74
     0
 49
0.05
 74
     0
 49
-0.5
 74
     0
  0
ENDTAB
  0
TABLE
  2
LAYER
  5
2
330
0
100
AcDbSymbolTable
 70
     7
  0
LAYER
  5
10
330
2
100
AcDbSymbolTableRecord
100
AcDbLayerTableRecord
  2
0
 70
     0
 62
     7
  6
Continuous
370
    -3
390
F
347
46
348
0
  0
LAYER
  5
72
330
2
100
AcDbSymbolTableRecord
100
AcDbLayerTableRecord
  2
AM_6
 70
     0
 62
    -2
  6
Continuous
370
    35
390
F
347
46
348
0
  0
LAYER
  5
A6
330
2
100
AcDbSymbolTableRecord
100
AcDbLayerTableRecord
  2
AM_9
 70
     0
 62
     6
  6
Dashed
370
    25
390
F
347
46
348
0
  0
LAYER
  5
AB
330
2
100
AcDbSymbolTableRecord
100
AcDbLayerTableRecord
  2
AM_4
 70
     0
 62
     3
  6
Continuous
370
    25
390
F
347
46
348
0
  0
LAYER
  5
D9
330
2
100
AcDbSymbolTableRecord
100
AcDbLayerTableRecord
  2
AM_5
 70
     0
 62
     3
  6
Continuous
370
    25
390
F
347
46
348
0
  0
LAYER
  5
118
330
2
100
AcDbSymbolTableRecord
100
AcDbLayerTableRecord
  2
AM_7
 70
     0
 62
     7
  6
Center
370
    25
390
F
347
46
348
0
  0
LAYER
  5
1F0
330
2
100
AcDbSymbolTableRecord
100
AcDbLayerTableRecord
  2
ConnectionPoints
 70
     0
 62
     7
  6
Continuous
370
    50
390
F
347
46
348
0
  0
ENDTAB
  0
TABLE
  2
STYLE
  5
3
330
0
100
AcDbSymbolTable
 70
     1
  0
STYLE
  5
11
330
3
100
AcDbSymbolTableRecord
100
AcDbTextStyleTableRecord
  2
Standard
 70
     0
 40
0.0
 41
1.0
 50
0.0
 71
     0
 42
0.2
  3
txt
  4

  0
ENDTAB
  0
TABLE
  2
VIEW
  5
6
330
0
100
AcDbSymbolTable
 70
     0
  0
ENDTAB
  0
TABLE
  2
UCS
  5
7
330
0
100
AcDbSymbolTable
 70
     0
  0
ENDTAB
  0
TABLE
  2
APPID
  5
9
330
0
100
AcDbSymbolTable
 70
     1
  0
APPID
  5
12
330
9
100
AcDbSymbolTableRecord
100
AcDbRegAppTableRecord
  2
ACAD
 70
     0
  0
ENDTAB
  0
TABLE
  2
DIMSTYLE
  5
A
330
0
100
AcDbSymbolTable
 70
     1
100
AcDbDimStyleTable
  0
DIMSTYLE
105
27
330
A
100
AcDbSymbolTableRecord
100
AcDbDimStyleTableRecord
  2
Standard
 70
     0
178
     0
340
11
  0
ENDTAB
  0
TABLE
  2
BLOCK_RECORD
  5
1
330
0
100
AcDbSymbolTable
 70
     5
  0
BLOCK_RECORD
  5
1F
330
1
100
AcDbSymbolTableRecord
100
AcDbBlockTableRecord
  2
*Model_Space
340
22
 70
     0
280
     1
281
     0
  0
BLOCK_RECORD
  5
1B
330
1
100
AcDbSymbolTableRecord
100
AcDbBlockTableRecord
  2
*Paper_Space
340
1E
 70
     0
280
     1
281
     0
  0
BLOCK_RECORD
  5
23
330
1
100
AcDbSymbolTableRecord
100
AcDbBlockTableRecord
  2
*Paper_Space0
340
26
 70
     0
280
     1
281
     0
  0
BLOCK_RECORD
  5
6E
330
1
100
AcDbSymbolTableRecord
100
AcDbBlockTableRecord
  2
1_129761_0
340
0
102
{BLKREFS
331
6F
102
}
 70
     0
280
     1
281
     0
  0
BLOCK_RECORD
  5
8F
330
1
100
AcDbSymbolTableRecord
100
AcDbBlockTableRecord
  2
2_129522I_0_in_129761_0
340
0
102
{BLKREFS
331
90
102
}
 70
     0
280
     1
281
     0
  0
BLOCK_RECORD
  5
B1
330
1
100
AcDbSymbolTableRecord
100
AcDbBlockTableRecord
  2
3_136532_0_in_129761_0
340
0
102
{BLKREFS
331
B2
102
}
 70
     0
280
     1
281
     0
  0
BLOCK_RECORD
  5
F1
330
1
100
AcDbSymbolTableRecord
100
AcDbBlockTableRecord
  2
4_129743h_0_in_129761_0
340
0
102
{BLKREFS
331
F2
102
}
 70
     0
280
     1
281
     0
  0
ENDTAB
  0
ENDSEC
  0
SECTION
  2
BLOCKS
  0
BLOCK
  5
20
330
1F
100
AcDbEntity
  8
0
100
AcDbBlockBegin
  2
*Model_Space
 70
     0
 10
0.0
 20
0.0
 30
0.0
  3
*Model_Space
  1

  0
ENDBLK
  5
21
330
1F
100
AcDbEntity
  8
0
100
AcDbBlockEnd
  0
BLOCK
  5
1C
330
1B
100
AcDbEntity
 67
     1
  8
0
100
AcDbBlockBegin
  2
*Paper_Space
 70
     0
 10
0.0
 20
0.0
 30
0.0
  3
*Paper_Space
  1

  0
ENDBLK
  5
1D
330
1B
100
AcDbEntity
 67
     1
  8
0
100
AcDbBlockEnd
  0
BLOCK
  5
24
330
23
100
AcDbEntity
  8
0
100
AcDbBlockBegin
  2
*Paper_Space0
 70
     0
 10
0.0
 20
0.0
 30
0.0
  3
*Paper_Space0
  1

  0
ENDBLK
  5
25
330
23
100
AcDbEntity
  8
0
100
AcDbBlockEnd
  0
BLOCK
  5
70
330
6E
100
AcDbEntity
  8
0
100
AcDbBlockBegin
  2
1_129761_0
 70
     2
 10
0.0
 20
0.0
 30
0.0
  3
1_129761_0
  1

  0
ATTDEF
  5
73
330
6E
100
AcDbEntity
  8
AM_6
100
AcDbText
 10
8.018750000000006
 20
3.018750000000002
 30
0.0
 40
0.5
  1
Grip Tight Medium Duty Flange Cartridge Inch Bore
100
AcDbAttributeDefinition
  3

  2
NN
 70
     8
280
     0
  0
ATTDEF
  5
74
330
6E
100
AcDbEntity
  8
AM_6
100
AcDbText
 10
8.018750000000006
 20
2.518750000000002
 30
0.0
 40
0.5
  1
GTM Medium Duty Piloted Flange Bearings
100
AcDbAttributeDefinition
  3

  2
NT
 70
     8
280
     0
  0
ATTDEF
  5
75
330
6E
100
AcDbEntity
  8
AM_6
100
AcDbText
 10
8.018750000000006
 20
2.018750000000002
 30
0.0
 40
0.5
  1
129761
100
AcDbAttributeDefinition
  3

  2
NB
 70
     8
280
     0
  0
ATTDEF
  5
76
330
6E
100
AcDbEntity
  8
AM_6
100
AcDbText
 10
8.018750000000006
 20
1.518750000000002
 30
0.0
 40
0.5
  1
$PN.
100
AcDbAttributeDefinition
  3

  2
NBSYN
 70
     8
280
     0
  0
ATTDEF
  5
77
330
6E
100
AcDbEntity
  8
AM_6
100
AcDbText
 10
8.018750000000006
 20
1.018750000000002
 30
0.0
 40
0.5
  1
129761
100
AcDbAttributeDefinition
  3

  2
LINA
 70
     8
280
     0
  0
ATTDEF
  5
78
330
6E
100
AcDbEntity
  8
AM_6
100
AcDbText
 10
8.018750000000006
 20
0.5187500000000016
 30
0.0
 40
0.5
  1
209
100
AcDbAttributeDefinition
  3

  2
SERIES
 70
     8
280
     0
  0
ATTDEF
  5
79
330
6E
100
AcDbEntity
  8
AM_6
100
AcDbText
 10
8.018750000000006
 20
0.0187500000000016
 30
0.0
 40
0.5
  1
1-1/2
100
AcDbAttributeDefinition
  3

  2
SS
 70
     8
280
     0
  0
ATTDEF
  5
7A
330
6E
100
AcDbEntity
  8
AM_6
100
AcDbText
 10
8.018750000000006
 20
-0.4812499999999984
 30
0.0
 40
0.5
  1
129761
100
AcDbAttributeDefinition
  3

  2
PN
 70
     8
280
     0
  0
ATTDEF
  5
7B
330
6E
100
AcDbEntity
  8
AM_6
100
AcDbText
 10
8.018750000000006
 20
-0.9812499999999984
 30
0.0
 40
0.5
  1
FC-GTM-108L
100
AcDbAttributeDefinition
  3

  2
DESCRIPTION
 70
     8
280
     0
  0
ATTDEF
  5
7C
330
6E
100
AcDbEntity
  8
AM_6
100
AcDbText
 10
8.018750000000006
 20
-1.481249999999998
 30
0.0
 40
0.5
  1
129504
100
AcDbAttributeDefinition
  3

  2
PNSL
 70
     8
280
     0
  0
ATTDEF
  5
7D
330
6E
100
AcDbEntity
  8
AM_6
100
AcDbText
 10
8.018750000000006
 20
-1.981249999999998
 30
0.0
 40
0.5
  1
FC-GT-09
100
AcDbAttributeDefinition
  3

  2
DESCRIPTIONSL
 70
     8
280
     0
  0
ATTDEF
  5
7E
330
6E
100
AcDbEntity
  8
AM_6
100
AcDbText
 10
8.018750000000006
 20
-2.481249999999998
 30
0.0
 40
0.5
  1
136598
100
AcDbAttributeDefinition
  3

  2
PNA
 70
     8
280
     0
  0
ATTDEF
  5
7F
330
6E
100
AcDbEntity
  8
AM_6
100
AcDbText
 10
8.018750000000006
 20
-2.981249999999998
 30
0.0
 40
0.5
  1
AN-GTM-09-108-D
100
AcDbAttributeDefinition
  3

  2
DESCRIPTIONA
 70
     8
280
     0
  0
ATTDEF
  5
80
330
6E
100
AcDbEntity
  8
AM_6
100
AcDbText
 10
8.018750000000006
 20
-3.481249999999998
 30
0.0
 40
0.5
  1
6.1
100
AcDbAttributeDefinition
  3

  2
W
 70
     8
280
     0
  0
ATTDEF
  5
81
330
6E
100
AcDbEntity
  8
AM_6
100
AcDbText
 10
8.018750000000006
 20
-3.981249999999998
 30
0.0
 40
0.5
  1
1.85
100
AcDbAttributeDefinition
  3

  2
A
 70
     8
280
     0
  0
ATTDEF
  5
82
330
6E
100
AcDbEntity
  8
AM_6
100
AcDbText
 10
8.018750000000006
 20
-4.481249999999998
 30
0.0
 40
0.5
  1
5.75
100
AcDbAttributeDefinition
  3

  2
B
 70
     8
280
     0
  0
ATTDEF
  5
83
330
6E
100
AcDbEntity
  8
AM_6
100
AcDbText
 10
8.018750000000006
 20
-4.981249999999998
 30
0.0
 40
0.5
  1
1.97
100
AcDbAttributeDefinition
  3

  2
C
 70
     8
280
     0
  0
ATTDEF
  5
84
330
6E
100
AcDbEntity
  8
AM_6
100
AcDbText
 10
8.018750000000006
 20
-5.481249999999998
 30
0.0
 40
0.5
  1
4.75
100
AcDbAttributeDefinition
  3

  2
D
 70
     8
280
     0
  0
ATTDEF
  5
85
330
6E
100
AcDbEntity
  8
AM_6
100
AcDbText
 10
8.018750000000006
 20
-5.981249999999998
 30
0.0
 40
0.5
  1
0.44
100
AcDbAttributeDefinition
  3

  2
E
 70
     8
280
     0
  0
ATTDEF
  5
86
330
6E
100
AcDbEntity
  8
AM_6
100
AcDbText
 10
8.018750000000006
 20
-6.481249999999998
 30
0.0
 40
0.5
  1
1/2
100
AcDbAttributeDefinition
  3

  2
F
 70
     8
280
     0
  0
ATTDEF
  5
87
330
6E
100
AcDbEntity
  8
AM_6
100
AcDbText
 10
8.018750000000006
 20
-6.981249999999998
 30
0.0
 40
0.5
  1
1.53
100
AcDbAttributeDefinition
  3

  2
G
 70
     8
280
     0
  0
ATTDEF
  5
88
330
6E
100
AcDbEntity
  8
AM_6
100
AcDbText
 10
8.018750000000006
 20
-7.481249999999998
 30
0.0
 40
0.5
  1
0.91
100
AcDbAttributeDefinition
  3

  2
H
 70
     8
280
     0
  0
ATTDEF
  5
89
330
6E
100
AcDbEntity
  8
AM_6
100
AcDbText
 10
8.018750000000006
 20
-7.981249999999998
 30
0.0
 40
0.5
  1
4.000/3.998
100
AcDbAttributeDefinition
  3

  2
K
 70
     8
280
     0
  0
ATTDEF
  5
8A
330
6E
100
AcDbEntity
  8
AM_6
100
AcDbText
 10
8.018750000000006
 20
-8.48125
 30
0.0
 40
0.5
  1
2.86
100
AcDbAttributeDefinition
  3

  2
L
 70
     8
280
     0
  0
ATTDEF
  5
8B
330
6E
100
AcDbEntity
  8
AM_6
100
AcDbText
 10
8.018750000000006
 20
-8.98125
 30
0.0
 40
0.5
  1
1.57
100
AcDbAttributeDefinition
  3

  2
Z
 70
     8
280
     0
  0
ATTDEF
  5
8C
330
6E
100
AcDbEntity
  8
AM_6
100
AcDbText
 10
8.018750000000006
 20
-9.48125
 30
0.0
 40
0.5
  1
4450
100
AcDbAttributeDefinition
  3

  2
CAPS
 70
     8
280
     0
  0
ATTDEF
  5
8D
330
6E
100
AcDbEntity
  8
AM_6
100
AcDbText
 10
8.018750000000006
 20
-9.98125
 30
0.0
 40
0.5
  1
7891
100
AcDbAttributeDefinition
  3

  2
CAPD
 70
     8
280
     0
  0
ATTDEF
  5
8E
330
6E
100
AcDbEntity
  8
AM_6
100
AcDbText
 10
8.018750000000006
 20
-10.48125
 30
0.0
 40
0.5
  1
baldor
100
AcDbAttributeDefinition
  3

  2
COMPANY
 70
     8
280
     0
  0
INSERT
  5
90
330
6E
100
AcDbEntity
  8
0
100
AcDbBlockReference
  2
2_129522I_0_in_129761_0
 10
0.0
 20
0.0
 30
0.0
  0
INSERT
  5
B2
330
6E
100
AcDbEntity
  8
0
100
AcDbBlockReference
  2
3_136532_0_in_129761_0
 10
0.0
 20
0.0
 30
0.0
  0
INSERT
  5
F2
330
6E
100
AcDbEntity
  8
0
100
AcDbBlockReference
  2
4_129743h_0_in_129761_0
 10
0.0
 20
0.0
 30
0.0
  0
ENDBLK
  5
71
330
6E
100
AcDbEntity
  8
0
100
AcDbBlockEnd
  0
BLOCK
  5
91
330
8F
100
AcDbEntity
  8
0
100
AcDbBlockBegin
  2
2_129522I_0_in_129761_0
 70
     2
 10
0.0
 20
0.0
 30
0.0
  3
2_129522I_0_in_129761_0
  1

  0
ATTDEF
  5
93
330
8F
100
AcDbEntity
  8
AM_6
100
AcDbText
 10
6.65669862413356
 20
1.656698624133559
 30
0.0
 40
0.5
  1
INS-GT B
100
AcDbAttributeDefinition
  3

  2
NN
 70
     8
280
     0
  0
ATTDEF
  5
94
330
8F
100
AcDbEntity
  8
AM_6
100
AcDbText
 10
6.65669862413356
 20
1.156698624133559
 30
0.0
 40
0.5
  1
GT Normal Duty Bearing Inserts
100
AcDbAttributeDefinition
  3

  2
NT
 70
     8
280
     0
  0
ATTDEF
  5
95
330
8F
100
AcDbEntity
  8
AM_6
100
AcDbText
 10
6.65669862413356
 20
0.6566986241335593
 30
0.0
 40
0.5
  1
129522I
100
AcDbAttributeDefinition
  3

  2
NB
 70
     8
280
     0
  0
ATTDEF
  5
96
330
8F
100
AcDbEntity
  8
AM_6
100
AcDbText
 10
6.65669862413356
 20
0.1566986241335593
 30
0.0
 40
0.5
  1
$PN.I
100
AcDbAttributeDefinition
  3

  2
NBSYN
 70
     8
280
     0
  0
ATTDEF
  5
97
330
8F
100
AcDbEntity
  8
AM_6
100
AcDbText
 10
6.65669862413356
 20
-0.3433013758664407
 30
0.0
 40
0.5
  1
129522
100
AcDbAttributeDefinition
  3

  2
LINA
 70
     8
280
     0
  0
ATTDEF
  5
98
330
8F
100
AcDbEntity
  8
AM_6
100
AcDbText
 10
6.65669862413356
 20
-0.8433013758664407
 30
0.0
 40
0.5
  1
209
100
AcDbAttributeDefinition
  3

  2
SERIES
 70
     8
280
     0
  0
ATTDEF
  5
99
330
8F
100
AcDbEntity
  8
AM_6
100
AcDbText
 10
6.65669862413356
 20
-1.343301375866441
 30
0.0
 40
0.5
  1
129522
100
AcDbAttributeDefinition
  3

  2
PN
 70
     8
280
     0
  0
ATTDEF
  5
9A
330
8F
100
AcDbEntity
  8
AM_6
100
AcDbText
 10
6.65669862413356
 20
-1.843301375866441
 30
0.0
 40
0.5
  1
INS-GT-09
100
AcDbAttributeDefinition
  3

  2
DESCRIPTION
 70
     8
280
     0
  0
ATTDEF
  5
9B
330
8F
100
AcDbEntity
  8
AM_6
100
AcDbText
 10
6.65669862413356
 20
-2.34330137586644
 30
0.0
 40
0.5
  1
1.85
100
AcDbAttributeDefinition
  3

  2
A
 70
     8
280
     0
  0
ATTDEF
  5
9C
330
8F
100
AcDbEntity
  8
AM_6
100
AcDbText
 10
6.65669862413356
 20
-2.84330137586644
 30
0.0
 40
0.5
  1
0.87
100
AcDbAttributeDefinition
  3

  2
C
 70
     8
280
     0
  0
ATTDEF
  5
9D
330
8F
100
AcDbEntity
  8
AM_6
100
AcDbText
 10
6.65669862413356
 20
-3.34330137586644
 30
0.0
 40
0.5
  1
3.3465
100
AcDbAttributeDefinition
  3

  2
D
 70
     8
280
     0
  0
ATTDEF
  5
9E
330
8F
100
AcDbEntity
  8
AM_6
100
AcDbText
 10
6.65669862413356
 20
-3.84330137586644
 30
0.0
 40
0.5
  1
0.25
100
AcDbAttributeDefinition
  3

  2
J
 70
     8
280
     0
  0
ATTDEF
  5
9F
330
8F
100
AcDbEntity
  8
AM_6
100
AcDbText
 10
6.65669862413356
 20
-4.34330137586644
 30
0.0
 40
0.5
  1
2.86
100
AcDbAttributeDefinition
  3

  2
L
 70
     8
280
     0
  0
ATTDEF
  5
A0
330
8F
100
AcDbEntity
  8
AM_6
100
AcDbText
 10
6.65669862413356
 20
-4.84330137586644
 30
0.0
 40
0.5
  1
#10 - 32 x 1/4
100
AcDbAttributeDefinition
  3

  2
N
 70
     8
280
     0
  0
ATTDEF
  5
A1
330
8F
100
AcDbEntity
  8
AM_6
100
AcDbText
 10
6.65669862413356
 20
-5.34330137586644
 30
0.0
 40
0.5
  1
0.62000
100
AcDbAttributeDefinition
  3

  2
W
 70
     8
280
     0
  0
ATTDEF
  5
A2
330
8F
100
AcDbEntity
  8
AM_6
100
AcDbText
 10
6.65669862413356
 20
-5.84330137586644
 30
0.0
 40
0.5
  1
1.26
100
AcDbAttributeDefinition
  3

  2
X
 70
     8
280
     0
  0
ATTDEF
  5
A3
330
8F
100
AcDbEntity
  8
AM_6
100
AcDbText
 10
6.65669862413356
 20
-6.34330137586644
 30
0.0
 40
0.5
  1
1.23
100
AcDbAttributeDefinition
  3

  2
Y
 70
     8
280
     0
  0
ATTDEF
  5
A4
330
8F
100
AcDbEntity
  8
AM_6
100
AcDbText
 10
6.65669862413356
 20
-6.84330137586644
 30
0.0
 40
0.5
  1
baldor
100
AcDbAttributeDefinition
  3

  2
COMPANY
 70
     8
280
     0
  0
CIRCLE
  5
A7
330
8F
100
AcDbEntity
  8
AM_9
100
AcDbCircle
 10
0.0
 20
0.0000000000000002
 30
0.0
 40
1.102811140132194
  0
CIRCLE
  5
A8
330
8F
100
AcDbEntity
  8
AM_9
100
AcDbCircle
 10
0.0
 20
0.0000000000000002
 30
0.0
 40
1.58625
  0
CIRCLE
  5
A9
330
8F
100
AcDbEntity
  8
AM_9
100
AcDbCircle
 10
0.0
 20
0.0000000000000002
 30
0.0
 40
1.621259545833585
  0
CIRCLE
  5
AA
330
8F
100
AcDbEntity
  8
AM_9
100
AcDbCircle
 10
0.0
 20
0.0000000000000002
 30
0.0
 40
1.236311111111111
  0
CIRCLE
  5
AC
330
8F
100
AcDbEntity
  8
AM_4
100
AcDbCircle
 10
0.0
 20
0.0000000000000002
 30
0.0
 40
1.648125942409455
  0
CIRCLE
  5
AD
330
8F
100
AcDbEntity
  8
AM_4
100
AcDbCircle
 10
0.0
 20
0.0000000000000002
 30
0.0
 40
1.656698624133559
  0
CIRCLE
  5
AE
330
8F
100
AcDbEntity
  8
AM_4
100
AcDbCircle
 10
0.0
 20
0.0000000000000002
 30
0.0
 40
1.629623961347176
  0
CIRCLE
  5
AF
330
8F
100
AcDbEntity
  8
AM_4
100
AcDbCircle
 10
0.0
 20
0.0000000000000002
 30
0.0
 40
1.595184308300556
  0
CIRCLE
  5
B0
330
8F
100
AcDbEntity
  8
AM_4
100
AcDbCircle
 10
0.0
 20
0.0000000000000002
 30
0.0
 40
1.562786330102177
  0
ENDBLK
  5
92
330
8F
100
AcDbEntity
  8
0
100
AcDbBlockEnd
  0
BLOCK
  5
B3
330
B1
100
AcDbEntity
  8
0
100
AcDbBlockBegin
  2
3_136532_0_in_129761_0
 70
     2
 10
0.0
 20
0.0
 30
0.0
  3
3_136532_0_in_129761_0
  1

  0
ATTDEF
  5
B5
330
B1
100
AcDbEntity
  8
AM_6
100
AcDbText
 10
6.429999985858821
 20
1.429782942488855
 30
0.0
 40
0.5
  1
Grip Tight Normal Duty Adapter and Nut Inch Bore D
100
AcDbAttributeDefinition
  3

  2
NN
 70
     8
280
     0
  0
ATTDEF
  5
B6
330
B1
100
AcDbEntity
  8
AM_6
100
AcDbText
 10
6.429999985858821
 20
0.9297829424888551
 30
0.0
 40
0.5
  1
GT and GTM Adapter & Lock Nut Assemblies
100
AcDbAttributeDefinition
  3

  2
NT
 70
     8
280
     0
  0
ATTDEF
  5
B7
330
B1
100
AcDbEntity
  8
AM_6
100
AcDbText
 10
6.429999985858821
 20
0.4297829424888551
 30
0.0
 40
0.5
  1
136532
100
AcDbAttributeDefinition
  3

  2
NB
 70
     8
280
     0
  0
ATTDEF
  5
B8
330
B1
100
AcDbEntity
  8
AM_6
100
AcDbText
 10
6.429999985858821
 20
-0.0702170575111449
 30
0.0
 40
0.5
  1
$PN.
100
AcDbAttributeDefinition
  3

  2
NBSYN
 70
     8
280
     0
  0
ATTDEF
  5
B9
330
B1
100
AcDbEntity
  8
AM_6
100
AcDbText
 10
6.429999985858821
 20
-0.5702170575111449
 30
0.0
 40
0.5
  1
136532
100
AcDbAttributeDefinition
  3

  2
LINA
 70
     8
280
     0
  0
ATTDEF
  5
BA
330
B1
100
AcDbEntity
  8
AM_6
100
AcDbText
 10
6.429999985858821
 20
-1.070217057511145
 30
0.0
 40
0.5
  1
209
100
AcDbAttributeDefinition
  3

  2
SERIES
 70
     8
280
     0
  0
ATTDEF
  5
BB
330
B1
100
AcDbEntity
  8
AM_6
100
AcDbText
 10
6.429999985858821
 20
-1.570217057511145
 30
0.0
 40
0.5
  1
1-11/16
100
AcDbAttributeDefinition
  3

  2
SS
 70
     8
280
     0
  0
ATTDEF
  5
BC
330
B1
100
AcDbEntity
  8
AM_6
100
AcDbText
 10
6.429999985858821
 20
-2.070217057511145
 30
0.0
 40
0.5
  1
136532
100
AcDbAttributeDefinition
  3

  2
PN
 70
     8
280
     0
  0
ATTDEF
  5
BD
330
B1
100
AcDbEntity
  8
AM_6
100
AcDbText
 10
6.429999985858821
 20
-2.570217057511145
 30
0.0
 40
0.5
  1
AN-GT-09-111-D
100
AcDbAttributeDefinition
  3

  2
DESCRIPTION
 70
     8
280
     0
  0
ATTDEF
  5
BE
330
B1
100
AcDbEntity
  8
AM_6
100
AcDbText
 10
6.429999985858821
 20
-3.070217057511145
 30
0.0
 40
0.5
  1
1.85
100
AcDbAttributeDefinition
  3

  2
A
 70
     8
280
     0
  0
ATTDEF
  5
BF
330
B1
100
AcDbEntity
  8
AM_6
100
AcDbText
 10
6.429999985858821
 20
-3.570217057511145
 30
0.0
 40
0.5
  1
0.87
100
AcDbAttributeDefinition
  3

  2
C
 70
     8
280
     0
  0
ATTDEF
  5
C0
330
B1
100
AcDbEntity
  8
AM_6
100
AcDbText
 10
6.429999985858821
 20
-4.070217057511145
 30
0.0
 40
0.5
  1
3.3465
100
AcDbAttributeDefinition
  3

  2
D
 70
     8
280
     0
  0
ATTDEF
  5
C1
330
B1
100
AcDbEntity
  8
AM_6
100
AcDbText
 10
6.429999985858821
 20
-4.570217057511145
 30
0.0
 40
0.5
  1
0.25
100
AcDbAttributeDefinition
  3

  2
J
 70
     8
280
     0
  0
ATTDEF
  5
C2
330
B1
100
AcDbEntity
  8
AM_6
100
AcDbText
 10
6.429999985858821
 20
-5.070217057511145
 30
0.0
 40
0.5
  1
2.86
100
AcDbAttributeDefinition
  3

  2
L
 70
     8
280
     0
  0
ATTDEF
  5
C3
330
B1
100
AcDbEntity
  8
AM_6
100
AcDbText
 10
6.429999985858821
 20
-5.570217057511145
 30
0.0
 40
0.5
  1
10 - 32 x 1/4
100
AcDbAttributeDefinition
  3

  2
N
 70
     8
280
     0
  0
ATTDEF
  5
C4
330
B1
100
AcDbEntity
  8
AM_6
100
AcDbText
 10
6.429999985858821
 20
-6.070217057511145
 30
0.0
 40
0.5
  1
0.62
100
AcDbAttributeDefinition
  3

  2
W
 70
     8
280
     0
  0
ATTDEF
  5
C5
330
B1
100
AcDbEntity
  8
AM_6
100
AcDbText
 10
6.429999985858821
 20
-6.570217057511145
 30
0.0
 40
0.5
  1
1.26
100
AcDbAttributeDefinition
  3

  2
X
 70
     8
280
     0
  0
ATTDEF
  5
C6
330
B1
100
AcDbEntity
  8
AM_6
100
AcDbText
 10
6.429999985858821
 20
-7.070217057511145
 30
0.0
 40
0.5
  1
1.23
100
AcDbAttributeDefinition
  3

  2
Y
 70
     8
280
     0
  0
ATTDEF
  5
C7
330
B1
100
AcDbEntity
  8
AM_6
100
AcDbText
 10
6.429999985858821
 20
-7.570217057511145
 30
0.0
 40
0.5
  1
baldor
100
AcDbAttributeDefinition
  3

  2
COMPANY
 70
     8
280
     0
  0
LINE
  5
C8
330
B1
100
AcDbEntity
  8
AM_9
100
AcDbLine
 10
1.065653052035073
 20
-0.0499999999999999
 30
0.0
 11
1.1038445118875
 21
-0.0499999999999999
 31
0.0
  0
LINE
  5
C9
330
B1
100
AcDbEntity
  8
AM_9
100
AcDbLine
 10
1.065653052035073
 20
0.0500000000000002
 30
0.0
 11
1.1038445118875
 21
0.0500000000000002
 31
0.0
  0
ARC
  5
CA
330
B1
100
AcDbEntity
  8
AM_9
100
AcDbCircle
 10
0.0
 20
0.0000000000000002
 30
0.0
 40
1.104976337495131
100
AcDbArc
 50
2.593510297338617
 51
357.4064897026614
  0
CIRCLE
  5
CB
330
B1
100
AcDbEntity
  8
AM_9
100
AcDbCircle
 10
0.0
 20
0.0000000000000002
 30
0.0
 40
1.168968253968254
  0
CIRCLE
  5
CC
330
B1
100
AcDbEntity
  8
AM_9
100
AcDbCircle
 10
0.0
 20
0.0000000000000002
 30
0.0
 40
1.271111111111111
  0
LINE
  5
CD
330
B1
100
AcDbEntity
  8
AM_9
100
AcDbLine
 10
-0.0724499999999999
 20
1.40745
 30
0.0
 11
-0.0724499999999999
 21
1.09505
 31
0.0
  0
LINE
  5
CE
330
B1
100
AcDbEntity
  8
AM_9
100
AcDbLine
 10
0.0724499999999999
 20
1.09505
 30
0.0
 11
0.0724499999999999
 21
1.40745
 31
0.0
  0
LINE
  5
CF
330
B1
100
AcDbEntity
  8
AM_9
100
AcDbLine
 10
-0.0724499999999999
 20
1.09505
 30
0.0
 11
-0.0949999999999999
 21
1.0725
 31
0.0
  0
LINE
  5
D0
330
B1
100
AcDbEntity
  8
AM_9
100
AcDbLine
 10
0.0949999999999999
 20
1.0725
 30
0.0
 11
0.0724499999999999
 21
1.09505
 31
0.0
  0
LINE
  5
D1
330
B1
100
AcDbEntity
  8
AM_9
100
AcDbLine
 10
0.0949999999999999
 20
1.0725
 30
0.0
 11
-0.0949999999999999
 21
1.0725
 31
0.0
  0
LINE
  5
D2
330
B1
100
AcDbEntity
  8
AM_9
100
AcDbLine
 10
0.0724499999999999
 20
1.09505
 30
0.0
 11
-0.0724499999999999
 21
1.09505
 31
0.0
  0
LINE
  5
D3
330
B1
100
AcDbEntity
  8
AM_9
100
AcDbLine
 10
1.066825396825397
 20
-0.0499999999999999
 30
0.0
 11
1.066825396825397
 21
0.0500000000000002
 31
0.0
  0
LINE
  5
D4
330
B1
100
AcDbEntity
  8
AM_9
100
AcDbLine
 10
0.0724499999999999
 20
1.40745
 30
0.0
 11
0.0914449651630766
 21
1.426444965163077
 31
0.0
  0
LINE
  5
D5
330
B1
100
AcDbEntity
  8
AM_9
100
AcDbLine
 10
-0.0914837259010832
 20
1.426483725901084
 30
0.0
 11
-0.0724499999999999
 21
1.40745
 31
0.0
  0
LINE
  5
D6
330
B1
100
AcDbEntity
  8
AM_9
100
AcDbLine
 10
0.0724499999999999
 20
1.40745
 30
0.0
 11
-0.0724499999999999
 21
1.40745
 31
0.0
  0
LWPOLYLINE
  5
D7
330
B1
100
AcDbEntity
  8
AM_9
100
AcDbPolyline
 90
        6
 70
     0
 43
0.0
 10
0.0261529249508219
 20
1.429760827731868
 10
0.0328502814562121
 20
1.429622628181384
 10
0.0585520383388755
 20
1.428800776457783
 10
0.0783407745475401
 20
1.427852486443642
 10
0.0898889366214671
 20
1.427172021542274
 10
0.0920352147125856
 20
1.427035220046376
  0
LINE
  5
D8
330
B1
100
AcDbEntity
  8
AM_9
100
AcDbLine
 10
-0.0920352107262862
 20
1.427035220303468
 30
0.0
 11
-0.0861183765017345
 21
1.427404506518284
 31
0.0
  0
LINE
  5
DA
330
B1
100
AcDbEntity
  8
AM_5
100
AcDbLine
 10
0.0949999999999999
 20
1.42684091615008
 30
0.0
 11
0.0949999999999999
 21
1.0725
 31
0.0
  0
LINE
  5
DB
330
B1
100
AcDbEntity
  8
AM_5
100
AcDbLine
 10
-0.0949999999999999
 20
1.42684091615008
 30
0.0
 11
-0.0949999999999999
 21
1.0725
 31
0.0
  0
LINE
  5
DC
330
B1
100
AcDbEntity
  8
AM_4
100
AcDbLine
 10
1.065653052035073
 20
-0.0499999999999999
 30
0.0
 11
0.8422672156150921
 21
-0.0499999999999999
 31
0.0
  0
ARC
  5
DD
330
B1
100
AcDbEntity
  8
AM_4
100
AcDbCircle
 10
0.0
 20
0.0000000000000001
 30
0.0
 40
0.84375
100
AcDbArc
 50
3.397295792411275
 51
356.6027042075887
  0
LINE
  5
DE
330
B1
100
AcDbEntity
  8
AM_4
100
AcDbLine
 10
1.065653052035073
 20
0.0500000000000002
 30
0.0
 11
0.8422672156150921
 21
0.0500000000000002
 31
0.0
  0
LINE
  5
DF
330
B1
100
AcDbEntity
  8
AM_4
100
AcDbLine
 10
-1.093355029212046
 20
0.7755863877328123
 30
0.0
 11
-1.171175909629429
 21
0.8205162939903621
 31
0.0
  0
LINE
  5
E0
330
B1
100
AcDbEntity
  8
AM_4
100
AcDbLine
 10
1.171175909629429
 20
0.8205162939903627
 30
0.0
 11
1.093355029212046
 21
0.7755863877328131
 31
0.0
  0
ARC
  5
E1
330
B1
100
AcDbEntity
  8
AM_4
100
AcDbCircle
 10
0.0
 20
0.0000000000000024
 30
0.0
 40
1.429999999999998
100
AcDbArc
 50
35.01477249523644
 51
89.00169668203716
  0
LWPOLYLINE
  5
E2
330
B1
100
AcDbEntity
  8
AM_4
100
AcDbPolyline
 90
        3
 70
     0
 43
0.0
 10
0.0249146015001936
 20
1.429782942488855
 10
0.0004481755597017
 20
1.428225411412944
 10
-0.0249146015002021
 20
1.429782942488854
  0
ARC
  5
E3
330
B1
100
AcDbEntity
  8
AM_4
100
AcDbCircle
 10
-0.0000000000000015
 20
0.0000000000000033
 30
0.0
 40
1.429999999999997
100
AcDbArc
 50
90.99830331796313
 51
144.9852275047636
  0
LINE
  5
E4
330
B1
100
AcDbEntity
  8
AM_4
100
AcDbLine
 10
-1.218355029212046
 20
0.5590800367867026
 30
0.0
 11
-1.093355029212046
 21
0.7755863877328123
 31
0.0
  0
LINE
  5
E5
330
B1
100
AcDbEntity
  8
AM_4
100
AcDbLine
 10
-1.296175909629429
 20
0.6040099430442523
 30
0.0
 11
-1.218355029212046
 21
0.5590800367867026
 31
0.0
  0
LINE
  5
E6
330
B1
100
AcDbEntity
  8
AM_4
100
AcDbLine
 10
1.218355029212046
 20
0.5590800367867034
 30
0.0
 11
1.296175909629429
 21
0.6040099430442533
 31
0.0
  0
LINE
  5
E7
330
B1
100
AcDbEntity
  8
AM_4
100
AcDbLine
 10
1.093355029212046
 20
0.7755863877328131
 30
0.0
 11
1.218355029212046
 21
0.5590800367867034
 31
0.0
  0
CIRCLE
  5
E8
330
B1
100
AcDbEntity
  8
AM_4
100
AcDbCircle
 10
0.0
 20
0.0000000000000002
 30
0.0
 40
1.066825396825397
  0
LINE
  5
E9
330
B1
100
AcDbEntity
  8
AM_4
100
AcDbLine
 10
-0.125
 20
-1.334666424519515
 30
0.0
 11
-0.125
 21
-1.424526237034614
 31
0.0
  0
LINE
  5
EA
330
B1
100
AcDbEntity
  8
AM_4
100
AcDbLine
 10
0.125
 20
-1.334666424519515
 30
0.0
 11
-0.125
 21
-1.334666424519515
 31
0.0
  0
LINE
  5
EB
330
B1
100
AcDbEntity
  8
AM_4
100
AcDbLine
 10
0.125
 20
-1.424526237034614
 30
0.0
 11
0.125
 21
-1.334666424519515
 31
0.0
  0
ARC
  5
EC
330
B1
100
AcDbEntity
  8
AM_4
100
AcDbCircle
 10
0.0000000000000002
 20
0.0000000000000002
 30
0.0
 40
1.3952
100
AcDbArc
 50
35.1401867858492
 51
144.8598132141509
  0
ARC
  5
ED
330
B1
100
AcDbEntity
  8
AM_4
100
AcDbCircle
 10
-0.0000000000000011
 20
-0.0000000000000004
 30
0.0
 40
1.429999999999999
100
AcDbArc
 50
155.0147724952365
 51
264.9852275047635
  0
ARC
  5
EE
330
B1
100
AcDbEntity
  8
AM_4
100
AcDbCircle
 10
0.0000000000000002
 20
0.0
 30
0.0
 40
1.3952
100
AcDbArc
 50
155.1401867858492
 51
264.8598132141508
  0
ARC
  5
EF
330
B1
100
AcDbEntity
  8
AM_4
100
AcDbCircle
 10
0.000000000000001
 20
-0.0000000000000004
 30
0.0
 40
1.429999999999999
100
AcDbArc
 50
275.0147724952364
 51
24.9852275047636
  0
ARC
  5
F0
330
B1
100
AcDbEntity
  8
AM_4
100
AcDbCircle
 10
0.0
 20
0.0000000000000002
 30
0.0
 40
1.3952
100
AcDbArc
 50
275.1401867858492
 51
24.85981321415086
  0
ENDBLK
  5
B4
330
B1
100
AcDbEntity
  8
0
100
AcDbBlockEnd
  0
BLOCK
  5
F3
330
F1
100
AcDbEntity
  8
0
100
AcDbBlockBegin
  2
4_129743h_0_in_129761_0
 70
     2
 10
0.0
 20
0.0
 30
0.0
  3
4_129743h_0_in_129761_0
  1

  0
ATTDEF
  5
F5
330
F1
100
AcDbEntity
  8
AM_6
100
AcDbText
 10
8.018750000000006
 20
3.018750000000002
 30
0.0
 40
0.5
  1
FC-GT - Inch - Housing
100
AcDbAttributeDefinition
  3

  2
NN
 70
     8
280
     0
  0
ATTDEF
  5
F6
330
F1
100
AcDbEntity
  8
AM_6
100
AcDbText
 10
8.018750000000006
 20
2.518750000000002
 30
0.0
 40
0.5
  1
GT Normal Duty Piloted Flange Bearings
100
AcDbAttributeDefinition
  3

  2
NT
 70
     8
280
     0
  0
ATTDEF
  5
F7
330
F1
100
AcDbEntity
  8
AM_6
100
AcDbText
 10
8.018750000000006
 20
2.018750000000002
 30
0.0
 40
0.5
  1
129743h
100
AcDbAttributeDefinition
  3

  2
NB
 70
     8
280
     0
  0
ATTDEF
  5
F8
330
F1
100
AcDbEntity
  8
AM_6
100
AcDbText
 10
8.018750000000006
 20
1.518750000000002
 30
0.0
 40
0.5
  1
$PN.h
100
AcDbAttributeDefinition
  3

  2
NBSYN
 70
     8
280
     0
  0
ATTDEF
  5
F9
330
F1
100
AcDbEntity
  8
AM_6
100
AcDbText
 10
8.018750000000006
 20
1.018750000000002
 30
0.0
 40
0.5
  1
129743
100
AcDbAttributeDefinition
  3

  2
LINA
 70
     8
280
     0
  0
ATTDEF
  5
FA
330
F1
100
AcDbEntity
  8
AM_6
100
AcDbText
 10
8.018750000000006
 20
0.5187500000000016
 30
0.0
 40
0.5
  1
209
100
AcDbAttributeDefinition
  3

  2
SERIES
 70
     8
280
     0
  0
ATTDEF
  5
FB
330
F1
100
AcDbEntity
  8
AM_6
100
AcDbText
 10
8.018750000000006
 20
0.0187500000000016
 30
0.0
 40
0.5
  1
1-11/16
100
AcDbAttributeDefinition
  3

  2
SS
 70
     8
280
     0
  0
ATTDEF
  5
FC
330
F1
100
AcDbEntity
  8
AM_6
100
AcDbText
 10
8.018750000000006
 20
-0.4812499999999984
 30
0.0
 40
0.5
  1
129743
100
AcDbAttributeDefinition
  3

  2
PN
 70
     8
280
     0
  0
ATTDEF
  5
FD
330
F1
100
AcDbEntity
  8
AM_6
100
AcDbText
 10
8.018750000000006
 20
-0.9812499999999984
 30
0.0
 40
0.5
  1
FC-GT-111
100
AcDbAttributeDefinition
  3

  2
DESCRIPTION
 70
     8
280
     0
  0
ATTDEF
  5
FE
330
F1
100
AcDbEntity
  8
AM_6
100
AcDbText
 10
8.018750000000006
 20
-1.481249999999998
 30
0.0
 40
0.5
  1
129504
100
AcDbAttributeDefinition
  3

  2
PNSL
 70
     8
280
     0
  0
ATTDEF
  5
FF
330
F1
100
AcDbEntity
  8
AM_6
100
AcDbText
 10
8.018750000000006
 20
-1.981249999999998
 30
0.0
 40
0.5
  1
FC-GT-09
100
AcDbAttributeDefinition
  3

  2
DESCRIPTIONSL
 70
     8
280
     0
  0
ATTDEF
  5
100
330
F1
100
AcDbEntity
  8
AM_6
100
AcDbText
 10
8.018750000000006
 20
-2.481249999999998
 30
0.0
 40
0.5
  1
136532
100
AcDbAttributeDefinition
  3

  2
PNA
 70
     8
280
     0
  0
ATTDEF
  5
101
330
F1
100
AcDbEntity
  8
AM_6
100
AcDbText
 10
8.018750000000006
 20
-2.981249999999998
 30
0.0
 40
0.5
  1
AN-GT-09-111-D
100
AcDbAttributeDefinition
  3

  2
DESCRIPTIONA
 70
     8
280
     0
  0
ATTDEF
  5
102
330
F1
100
AcDbEntity
  8
AM_6
100
AcDbText
 10
8.018750000000006
 20
-3.481249999999998
 30
0.0
 40
0.5
  1
6.1
100
AcDbAttributeDefinition
  3

  2
W
 70
     8
280
     0
  0
ATTDEF
  5
103
330
F1
100
AcDbEntity
  8
AM_6
100
AcDbText
 10
8.018750000000006
 20
-3.981249999999998
 30
0.0
 40
0.5
  1
1.85
100
AcDbAttributeDefinition
  3

  2
A
 70
     8
280
     0
  0
ATTDEF
  5
104
330
F1
100
AcDbEntity
  8
AM_6
100
AcDbText
 10
8.018750000000006
 20
-4.481249999999998
 30
0.0
 40
0.5
  1
5.75
100
AcDbAttributeDefinition
  3

  2
B
 70
     8
280
     0
  0
ATTDEF
  5
105
330
F1
100
AcDbEntity
  8
AM_6
100
AcDbText
 10
8.018750000000006
 20
-4.981249999999998
 30
0.0
 40
0.5
  1
1.97
100
AcDbAttributeDefinition
  3

  2
C
 70
     8
280
     0
  0
ATTDEF
  5
106
330
F1
100
AcDbEntity
  8
AM_6
100
AcDbText
 10
8.018750000000006
 20
-5.481249999999998
 30
0.0
 40
0.5
  1
4.75
100
AcDbAttributeDefinition
  3

  2
D
 70
     8
280
     0
  0
ATTDEF
  5
107
330
F1
100
AcDbEntity
  8
AM_6
100
AcDbText
 10
8.018750000000006
 20
-5.981249999999998
 30
0.0
 40
0.5
  1
0.44
100
AcDbAttributeDefinition
  3

  2
E
 70
     8
280
     0
  0
ATTDEF
  5
108
330
F1
100
AcDbEntity
  8
AM_6
100
AcDbText
 10
8.018750000000006
 20
-6.481249999999998
 30
0.0
 40
0.5
  1
1/2
100
AcDbAttributeDefinition
  3

  2
F
 70
     8
280
     0
  0
ATTDEF
  5
109
330
F1
100
AcDbEntity
  8
AM_6
100
AcDbText
 10
8.018750000000006
 20
-6.981249999999998
 30
0.0
 40
0.5
  1
1.53
100
AcDbAttributeDefinition
  3

  2
G
 70
     8
280
     0
  0
ATTDEF
  5
10A
330
F1
100
AcDbEntity
  8
AM_6
100
AcDbText
 10
8.018750000000006
 20
-7.481249999999998
 30
0.0
 40
0.5
  1
0.91
100
AcDbAttributeDefinition
  3

  2
H
 70
     8
280
     0
  0
ATTDEF
  5
10B
330
F1
100
AcDbEntity
  8
AM_6
100
AcDbText
 10
8.018750000000006
 20
-7.981249999999998
 30
0.0
 40
0.5
  1
4.000/3.998
100
AcDbAttributeDefinition
  3

  2
K
 70
     8
280
     0
  0
ATTDEF
  5
10C
330
F1
100
AcDbEntity
  8
AM_6
100
AcDbText
 10
8.018750000000006
 20
-8.48125
 30
0.0
 40
0.5
  1
2.86
100
AcDbAttributeDefinition
  3

  2
L
 70
     8
280
     0
  0
ATTDEF
  5
10D
330
F1
100
AcDbEntity
  8
AM_6
100
AcDbText
 10
8.018750000000006
 20
-8.98125
 30
0.0
 40
0.5
  1
1.57
100
AcDbAttributeDefinition
  3

  2
Z
 70
     8
280
     0
  0
ATTDEF
  5
10E
330
F1
100
AcDbEntity
  8
AM_6
100
AcDbText
 10
8.018750000000006
 20
-9.48125
 30
0.0
 40
0.5
  1
111
100
AcDbAttributeDefinition
  3

  2
SSM
 70
     8
280
     0
  0
ATTDEF
  5
10F
330
F1
100
AcDbEntity
  8
AM_6
100
AcDbText
 10
8.018750000000006
 20
-9.98125
 30
0.0
 40
0.5
  1
fc_gi_templ.prj
100
AcDbAttributeDefinition
  3

  2
PPATH
 70
     8
280
     0
  0
ATTDEF
  5
110
330
F1
100
AcDbEntity
  8
AM_6
100
AcDbText
 10
8.018750000000006
 20
-10.48125
 30
0.0
 40
0.5
  1
Infotex
100
AcDbAttributeDefinition
  3

  2
INFO
 70
     8
280
     0
  0
ATTDEF
  5
111
330
F1
100
AcDbEntity
  8
AM_6
100
AcDbText
 10
8.018750000000006
 20
-10.98125
 30
0.0
 40
0.5
  1
4450
100
AcDbAttributeDefinition
  3

  2
CAPS
 70
     8
280
     0
  0
ATTDEF
  5
112
330
F1
100
AcDbEntity
  8
AM_6
100
AcDbText
 10
8.018750000000006
 20
-11.48125
 30
0.0
 40
0.5
  1
7891
100
AcDbAttributeDefinition
  3

  2
CAPD
 70
     8
280
     0
  0
ATTDEF
  5
113
330
F1
100
AcDbEntity
  8
AM_6
100
AcDbText
 10
8.018750000000006
 20
-11.98125
 30
0.0
 40
0.5
  1
baldor
100
AcDbAttributeDefinition
  3

  2
COMPANY
 70
     8
280
     0
  0
CIRCLE
  5
114
330
F1
100
AcDbEntity
  8
AM_9
100
AcDbCircle
 10
0.0
 20
0.0
 30
0.0
 40
1.7129125
  0
CIRCLE
  5
115
330
F1
100
AcDbEntity
  8
AM_9
100
AcDbCircle
 10
0.0
 20
0.0
 30
0.0
 40
2.0
  0
CIRCLE
  5
116
330
F1
100
AcDbEntity
  8
AM_9
100
AcDbCircle
 10
0.0
 20
0.0
 30
0.0
 40
1.7569125
  0
LINE
  5
119
330
F1
100
AcDbEntity
  8
AM_7
100
AcDbLine
 10
-3.018749999999998
 20
-0.0000000000000002
 30
0.0
 11
3.018750000000006
 21
-0.0000000000000002
 31
0.0
  0
LINE
  5
11A
330
F1
100
AcDbEntity
  8
AM_7
100
AcDbLine
 10
0.0000000000000036
 20
-3.018750000000002
 30
0.0
 11
0.0000000000000036
 21
3.018750000000002
 31
0.0
  0
LINE
  5
11B
330
F1
100
AcDbEntity
  8
AM_7
100
AcDbLine
 10
1.15437860531805
 20
-1.67937860531805
 30
0.0
 11
2.204378605318051
 21
-1.67937860531805
 31
0.0
  0
LINE
  5
11C
330
F1
100
AcDbEntity
  8
AM_7
100
AcDbLine
 10
1.679378605318051
 20
-2.204378605318051
 30
0.0
 11
1.679378605318051
 21
-1.15437860531805
 31
0.0
  0
LINE
  5
11D
330
F1
100
AcDbEntity
  8
AM_7
100
AcDbLine
 10
-2.20437860531805
 20
1.67937860531805
 30
0.0
 11
-1.15437860531805
 21
1.67937860531805
 31
0.0
  0
LINE
  5
11E
330
F1
100
AcDbEntity
  8
AM_7
100
AcDbLine
 10
-1.67937860531805
 20
1.15437860531805
 30
0.0
 11
-1.67937860531805
 21
2.20437860531805
 31
0.0
  0
LINE
  5
11F
330
F1
100
AcDbEntity
  8
AM_7
100
AcDbLine
 10
-2.20437860531805
 20
-1.67937860531805
 30
0.0
 11
-1.15437860531805
 21
-1.67937860531805
 31
0.0
  0
LINE
  5
120
330
F1
100
AcDbEntity
  8
AM_7
100
AcDbLine
 10
-1.67937860531805
 20
-2.20437860531805
 30
0.0
 11
-1.67937860531805
 21
-1.15437860531805
 31
0.0
  0
LINE
  5
121
330
F1
100
AcDbEntity
  8
AM_7
100
AcDbLine
 10
1.15437860531805
 20
1.67937860531805
 30
0.0
 11
2.20437860531805
 21
1.67937860531805
 31
0.0
  0
LINE
  5
122
330
F1
100
AcDbEntity
  8
AM_7
100
AcDbLine
 10
1.67937860531805
 20
1.15437860531805
 30
0.0
 11
1.67937860531805
 21
2.20437860531805
 31
0.0
  0
LINE
  5
123
330
F1
100
AcDbEntity
  8
AM_4
100
AcDbLine
 10
0.0198957
 20
-2.5090538
 30
0.0
 11
0.0321392
 21
-2.5119672
 31
0.0
  0
LINE
  5
124
330
F1
100
AcDbEntity
  8
AM_4
100
AcDbLine
 10
0.0321392
 20
-2.5119672
 30
0.0
 11
0.0413217
 21
-2.5177943
 31
0.0
  0
LINE
  5
125
330
F1
100
AcDbEntity
  8
AM_4
100
AcDbLine
 10
0.0413217
 20
-2.5177943
 30
0.0
 11
0.0474437
 21
-2.5265345
 31
0.0
  0
LINE
  5
126
330
F1
100
AcDbEntity
  8
AM_4
100
AcDbLine
 10
0.0474437
 20
-2.5265345
 30
0.0
 11
0.0505043
 21
-2.5381883
 31
0.0
  0
LINE
  5
127
330
F1
100
AcDbEntity
  8
AM_4
100
AcDbLine
 10
0.0413217
 20
-2.602284104702
 30
0.0
 11
0.0321392
 21
-2.608111273203
 31
0.0
  0
LINE
  5
128
330
F1
100
AcDbEntity
  8
AM_4
100
AcDbLine
 10
0.0321392
 20
-2.608111273203
 30
0.0
 11
0.0198957
 21
-2.611024660603
 31
0.0
  0
LINE
  5
129
330
F1
100
AcDbEntity
  8
AM_4
100
AcDbLine
 10
0.0198957
 20
-2.611024660603
 30
0.0
 11
-0.0352000977482
 21
-2.611024660603
 31
0.0
  0
LINE
  5
12A
330
F1
100
AcDbEntity
  8
AM_4
100
AcDbLine
 10
-0.0352000977482
 20
-2.5090538
 30
0.0
 11
0.0198957
 21
-2.5090538
 31
0.0
  0
LINE
  5
12B
330
F1
100
AcDbEntity
  8
AM_4
100
AcDbLine
 10
-0.0352000977482
 20
-2.611024660603
 30
0.0
 11
-0.0352000977482
 21
-2.5090538
 31
0.0
  0
LINE
  5
12C
330
F1
100
AcDbEntity
  8
AM_4
100
AcDbLine
 10
0.0505043
 20
-2.5818900779412
 30
0.0
 11
0.0474437
 21
-2.5935439031319
 31
0.0
  0
LINE
  5
12D
330
F1
100
AcDbEntity
  8
AM_4
100
AcDbLine
 10
0.0474437
 20
-2.5935439031319
 30
0.0
 11
0.0413217
 21
-2.602284104702
 31
0.0
  0
LINE
  5
12E
330
F1
100
AcDbEntity
  8
AM_4
100
AcDbLine
 10
0.0505043
 20
-2.5381883
 30
0.0
 11
0.0505043
 21
-2.5818900779412
 31
0.0
  0
LINE
  5
12F
330
F1
100
AcDbEntity
  8
AM_4
100
AcDbLine
 10
0.102539
 20
-2.608111273203
 30
0.0
 11
0.0964177
 21
-2.596457329902
 31
0.0
  0
LINE
  5
130
330
F1
100
AcDbEntity
  8
AM_4
100
AcDbLine
 10
-0.1913048277139999
 20
-2.5119672
 30
0.0
 11
-0.179061514016
 21
-2.5003136
 31
0.0
  0
LINE
  5
131
330
F1
100
AcDbEntity
  8
AM_4
100
AcDbLine
 10
0.114783
 20
-2.619764822803
 30
0.0
 11
0.102539
 21
-2.608111273203
 31
0.0
  0
LINE
  5
132
330
F1
100
AcDbEntity
  8
AM_4
100
AcDbLine
 10
-0.258644234156
 20
-2.494486400000001
 30
0.0
 11
-0.246400920458
 21
-2.5003136
 31
0.0
  0
LINE
  5
133
330
F1
100
AcDbEntity
  8
AM_4
100
AcDbLine
 10
0.0933567
 20
-2.5381883
 30
0.0
 11
0.0964177
 21
-2.5236211
 31
0.0
  0
LINE
  5
134
330
F1
100
AcDbEntity
  8
AM_4
100
AcDbLine
 10
0.127026
 20
-2.625591991304
 30
0.0
 11
0.114783
 21
-2.619764822803
 31
0.0
  0
LINE
  5
135
330
F1
100
AcDbEntity
  8
AM_4
100
AcDbLine
 10
-0.273948573129
 20
-2.628505378704
 30
0.0
 11
-0.3474096364199999
 21
-2.628505378704
 31
0.0
  0
LINE
  5
136
330
F1
100
AcDbEntity
  8
AM_4
100
AcDbLine
 10
-0.258644234156
 20
-2.625591991304
 30
0.0
 11
-0.273948573129
 21
-2.628505378704
 31
0.0
  0
LINE
  5
137
330
F1
100
AcDbEntity
  8
AM_4
100
AcDbLine
 10
-0.246400920458
 20
-2.619764822803
 30
0.0
 11
-0.258644234156
 21
-2.625591991304
 31
0.0
  0
LINE
  5
138
330
F1
100
AcDbEntity
  8
AM_4
100
AcDbLine
 10
-0.234157213059
 20
-2.608111273203
 30
0.0
 11
-0.246400920458
 21
-2.619764822803
 31
0.0
  0
LINE
  5
139
330
F1
100
AcDbEntity
  8
AM_4
100
AcDbLine
 10
0.20967
 20
-2.608111273203
 30
0.0
 11
0.197427
 21
-2.619764822803
 31
0.0
  0
LINE
  5
13A
330
F1
100
AcDbEntity
  8
AM_4
100
AcDbLine
 10
0.212731
 20
-2.596457329902
 30
0.0
 11
0.20967
 21
-2.608111273203
 31
0.0
  0
LINE
  5
13B
330
F1
100
AcDbEntity
  8
AM_4
100
AcDbLine
 10
-0.3474096364199999
 20
-2.4915731
 30
0.0
 11
-0.273948573129
 21
-2.4915731
 31
0.0
  0
LINE
  5
13C
330
F1
100
AcDbEntity
  8
AM_4
100
AcDbLine
 10
-0.3474096364199999
 20
-2.628505378704
 30
0.0
 11
-0.3474096364199999
 21
-2.4915731
 31
0.0
  0
LINE
  5
13D
330
F1
100
AcDbEntity
  8
AM_4
100
AcDbLine
 10
-0.246400920458
 20
-2.5003136
 30
0.0
 11
-0.234157213059
 21
-2.5119672
 31
0.0
  0
LINE
  5
13E
330
F1
100
AcDbEntity
  8
AM_4
100
AcDbLine
 10
0.0688697
 20
-2.5381883
 30
0.0
 11
0.0688697
 21
-2.5818900779412
 31
0.0
  0
LINE
  5
13F
330
F1
100
AcDbEntity
  8
AM_4
100
AcDbLine
 10
0.0658091
 20
-2.5236211
 30
0.0
 11
0.0688697
 21
-2.5381883
 31
0.0
  0
LINE
  5
140
330
F1
100
AcDbEntity
  8
AM_4
100
AcDbLine
 10
0.059687
 20
-2.5119672
 30
0.0
 11
0.0658091
 21
-2.5236211
 31
0.0
  0
LINE
  5
141
330
F1
100
AcDbEntity
  8
AM_4
100
AcDbLine
 10
0.0474437
 20
-2.5003136
 30
0.0
 11
0.059687
 21
-2.5119672
 31
0.0
  0
LINE
  5
142
330
F1
100
AcDbEntity
  8
AM_4
100
AcDbLine
 10
0.0352001
 20
-2.4944864
 30
0.0
 11
0.0474437
 21
-2.5003136
 31
0.0
  0
LINE
  5
143
330
F1
100
AcDbEntity
  8
AM_4
100
AcDbLine
 10
-0.22803555621
 20
-2.596457329902
 30
0.0
 11
-0.234157213059
 21
-2.608111273203
 31
0.0
  0
LINE
  5
144
330
F1
100
AcDbEntity
  8
AM_4
100
AcDbLine
 10
-0.224974530935
 20
-2.5818900779412
 30
0.0
 11
-0.22803555621
 21
-2.596457329902
 31
0.0
  0
LINE
  5
145
330
F1
100
AcDbEntity
  8
AM_4
100
AcDbLine
 10
-0.224974530935
 20
-2.5381883
 30
0.0
 11
-0.224974530935
 21
-2.5818900779412
 31
0.0
  0
LINE
  5
146
330
F1
100
AcDbEntity
  8
AM_4
100
AcDbLine
 10
-0.22803555621
 20
-2.5236211
 30
0.0
 11
-0.224974530935
 21
-2.5381883
 31
0.0
  0
LINE
  5
147
330
F1
100
AcDbEntity
  8
AM_4
100
AcDbLine
 10
-0.234157213059
 20
-2.5119672
 30
0.0
 11
-0.22803555621
 21
-2.5236211
 31
0.0
  0
LINE
  5
148
330
F1
100
AcDbEntity
  8
AM_4
100
AcDbLine
 10
-0.200487509838
 20
-2.5381883
 30
0.0
 11
-0.197426878264
 21
-2.5236211
 31
0.0
  0
LINE
  5
149
330
F1
100
AcDbEntity
  8
AM_4
100
AcDbLine
 10
-0.200487509838
 20
-2.5818900779412
 30
0.0
 11
-0.200487509838
 21
-2.5381883
 31
0.0
  0
LINE
  5
14A
330
F1
100
AcDbEntity
  8
AM_4
100
AcDbLine
 10
-0.197426878264
 20
-2.596457329902
 30
0.0
 11
-0.200487509838
 21
-2.5818900779412
 31
0.0
  0
LINE
  5
14B
330
F1
100
AcDbEntity
  8
AM_4
100
AcDbLine
 10
-0.191304827714
 20
-2.608111273203
 30
0.0
 11
-0.197426878264
 21
-2.596457329902
 31
0.0
  0
LINE
  5
14C
330
F1
100
AcDbEntity
  8
AM_4
100
AcDbLine
 10
-0.179061514016
 20
-2.619764822803
 30
0.0
 11
-0.191304827714
 21
-2.608111273203
 31
0.0
  0
LINE
  5
14D
330
F1
100
AcDbEntity
  8
AM_4
100
AcDbLine
 10
0.0933567
 20
-2.5818900779412
 30
0.0
 11
0.0933567
 21
-2.5381883
 31
0.0
  0
LINE
  5
14E
330
F1
100
AcDbEntity
  8
AM_4
100
AcDbLine
 10
0.0964177
 20
-2.596457329902
 30
0.0
 11
0.0933567
 21
-2.5818900779412
 31
0.0
  0
LINE
  5
14F
330
F1
100
AcDbEntity
  8
AM_4
100
AcDbLine
 10
-0.127026446547
 20
-2.628505378704
 30
0.0
 11
-0.151513467644
 21
-2.628505378704
 31
0.0
  0
LINE
  5
150
330
F1
100
AcDbEntity
  8
AM_4
100
AcDbLine
 10
-0.111722107574
 20
-2.625591991304
 30
0.0
 11
-0.127026446547
 21
-2.628505378704
 31
0.0
  0
LINE
  5
151
330
F1
100
AcDbEntity
  8
AM_4
100
AcDbLine
 10
-0.099478400175
 20
-2.619764822803
 30
0.0
 11
-0.111722107574
 21
-2.625591991304
 31
0.0
  0
LINE
  5
152
330
F1
100
AcDbEntity
  8
AM_4
100
AcDbLine
 10
0.142331
 20
-2.628505378704
 30
0.0
 11
0.127026
 21
-2.625591991304
 31
0.0
  0
LINE
  5
153
330
F1
100
AcDbEntity
  8
AM_4
100
AcDbLine
 10
0.169879
 20
-2.628505378704
 30
0.0
 11
0.142331
 21
-2.628505378704
 31
0.0
  0
LINE
  5
154
330
F1
100
AcDbEntity
  8
AM_4
100
AcDbLine
 10
0.185183
 20
-2.625591991304
 30
0.0
 11
0.169879
 21
-2.628505378704
 31
0.0
  0
LINE
  5
155
330
F1
100
AcDbEntity
  8
AM_4
100
AcDbLine
 10
0.197427
 20
-2.619764822803
 30
0.0
 11
0.185183
 21
-2.625591991304
 31
0.0
  0
LINE
  5
156
330
F1
100
AcDbEntity
  8
AM_4
100
AcDbLine
 10
-0.081113429628
 20
-2.5236211
 30
0.0
 11
-0.078052404353
 21
-2.5381883
 31
0.0
  0
LINE
  5
157
330
F1
100
AcDbEntity
  8
AM_4
100
AcDbLine
 10
-0.087235086477
 20
-2.5119672
 30
0.0
 11
-0.081113429628
 21
-2.5236211
 31
0.0
  0
LINE
  5
158
330
F1
100
AcDbEntity
  8
AM_4
100
AcDbLine
 10
0.212731
 20
-2.55275558
 30
0.0
 11
0.212731
 21
-2.596457329902
 31
0.0
  0
LINE
  5
159
330
F1
100
AcDbEntity
  8
AM_4
100
AcDbLine
 10
0.166818
 20
-2.55275558
 30
0.0
 11
0.212731
 21
-2.55275558
 31
0.0
  0
LINE
  5
15A
330
F1
100
AcDbEntity
  8
AM_4
100
AcDbLine
 10
0.166818
 20
-2.5702362921206
 30
0.0
 11
0.166818
 21
-2.55275558
 31
0.0
  0
LINE
  5
15B
330
F1
100
AcDbEntity
  8
AM_4
100
AcDbLine
 10
0.194366
 20
-2.5702362921206
 30
0.0
 11
0.166818
 21
-2.5702362921206
 31
0.0
  0
LINE
  5
15C
330
F1
100
AcDbEntity
  8
AM_4
100
AcDbLine
 10
0.194366
 20
-2.5935439031319
 30
0.0
 11
0.194366
 21
-2.5702362921206
 31
0.0
  0
LINE
  5
15D
330
F1
100
AcDbEntity
  8
AM_4
100
AcDbLine
 10
0.191305
 20
-2.602284104702
 30
0.0
 11
0.194366
 21
-2.5935439031319
 31
0.0
  0
LINE
  5
15E
330
F1
100
AcDbEntity
  8
AM_4
100
AcDbLine
 10
0.182122
 20
-2.608111273203
 30
0.0
 11
0.191305
 21
-2.602284104702
 31
0.0
  0
LINE
  5
15F
330
F1
100
AcDbEntity
  8
AM_4
100
AcDbLine
 10
0.169879
 20
-2.611024660603
 30
0.0
 11
0.182122
 21
-2.608111273203
 31
0.0
  0
LINE
  5
160
330
F1
100
AcDbEntity
  8
AM_4
100
AcDbLine
 10
0.142331
 20
-2.611024660603
 30
0.0
 11
0.169879
 21
-2.611024660603
 31
0.0
  0
LINE
  5
161
330
F1
100
AcDbEntity
  8
AM_4
100
AcDbLine
 10
0.130087
 20
-2.608111273203
 30
0.0
 11
0.142331
 21
-2.611024660603
 31
0.0
  0
LINE
  5
162
330
F1
100
AcDbEntity
  8
AM_4
100
AcDbLine
 10
0.120905
 20
-2.602284104702
 30
0.0
 11
0.130087
 21
-2.608111273203
 31
0.0
  0
LINE
  5
163
330
F1
100
AcDbEntity
  8
AM_4
100
AcDbLine
 10
0.114783
 20
-2.5935439031319
 30
0.0
 11
0.120905
 21
-2.602284104702
 31
0.0
  0
LINE
  5
164
330
F1
100
AcDbEntity
  8
AM_4
100
AcDbLine
 10
0.111722
 20
-2.5818900779412
 30
0.0
 11
0.114783
 21
-2.5935439031319
 31
0.0
  0
LINE
  5
165
330
F1
100
AcDbEntity
  8
AM_4
100
AcDbLine
 10
0.111722
 20
-2.5381883
 30
0.0
 11
0.111722
 21
-2.5818900779412
 31
0.0
  0
LINE
  5
166
330
F1
100
AcDbEntity
  8
AM_4
100
AcDbLine
 10
0.114783
 20
-2.5265345
 30
0.0
 11
0.111722
 21
-2.5381883
 31
0.0
  0
LINE
  5
167
330
F1
100
AcDbEntity
  8
AM_4
100
AcDbLine
 10
0.120905
 20
-2.5177943
 30
0.0
 11
0.114783
 21
-2.5265345
 31
0.0
  0
LINE
  5
168
330
F1
100
AcDbEntity
  8
AM_4
100
AcDbLine
 10
0.130087
 20
-2.5119672
 30
0.0
 11
0.120905
 21
-2.5177943
 31
0.0
  0
LINE
  5
169
330
F1
100
AcDbEntity
  8
AM_4
100
AcDbLine
 10
0.142331
 20
-2.5090538
 30
0.0
 11
0.130087
 21
-2.5119672
 31
0.0
  0
LINE
  5
16A
330
F1
100
AcDbEntity
  8
AM_4
100
AcDbLine
 10
0.169879
 20
-2.5090538
 30
0.0
 11
0.142331
 21
-2.5090538
 31
0.0
  0
LINE
  5
16B
330
F1
100
AcDbEntity
  8
AM_4
100
AcDbLine
 10
0.182122
 20
-2.5119672
 30
0.0
 11
0.169879
 21
-2.5090538
 31
0.0
  0
LINE
  5
16C
330
F1
100
AcDbEntity
  8
AM_4
100
AcDbLine
 10
0.191305
 20
-2.5177943
 30
0.0
 11
0.182122
 21
-2.5119672
 31
0.0
  0
LINE
  5
16D
330
F1
100
AcDbEntity
  8
AM_4
100
AcDbLine
 10
0.194366
 20
-2.5265345
 30
0.0
 11
0.191305
 21
-2.5177943
 31
0.0
  0
LINE
  5
16E
330
F1
100
AcDbEntity
  8
AM_4
100
AcDbLine
 10
0.212731
 20
-2.5265345
 30
0.0
 11
0.194366
 21
-2.5265345
 31
0.0
  0
LINE
  5
16F
330
F1
100
AcDbEntity
  8
AM_4
100
AcDbLine
 10
0.20967
 20
-2.5119672
 30
0.0
 11
0.212731
 21
-2.5265345
 31
0.0
  0
LINE
  5
170
330
F1
100
AcDbEntity
  8
AM_4
100
AcDbLine
 10
0.197427
 20
-2.5003136
 30
0.0
 11
0.20967
 21
-2.5119672
 31
0.0
  0
LINE
  5
171
330
F1
100
AcDbEntity
  8
AM_4
100
AcDbLine
 10
0.185183
 20
-2.4944864
 30
0.0
 11
0.197427
 21
-2.5003136
 31
0.0
  0
LINE
  5
172
330
F1
100
AcDbEntity
  8
AM_4
100
AcDbLine
 10
0.169879
 20
-2.4915731
 30
0.0
 11
0.185183
 21
-2.4944864
 31
0.0
  0
LINE
  5
173
330
F1
100
AcDbEntity
  8
AM_4
100
AcDbLine
 10
0.142331
 20
-2.4915731
 30
0.0
 11
0.169879
 21
-2.4915731
 31
0.0
  0
LINE
  5
174
330
F1
100
AcDbEntity
  8
AM_4
100
AcDbLine
 10
0.127026
 20
-2.4944864
 30
0.0
 11
0.142331
 21
-2.4915731
 31
0.0
  0
LINE
  5
175
330
F1
100
AcDbEntity
  8
AM_4
100
AcDbLine
 10
0.114783
 20
-2.5003136
 30
0.0
 11
0.127026
 21
-2.4944864
 31
0.0
  0
LINE
  5
176
330
F1
100
AcDbEntity
  8
AM_4
100
AcDbLine
 10
0.1025390000000002
 20
-2.5119672
 30
0.0
 11
0.114783
 21
-2.5003136
 31
0.0
  0
LINE
  5
177
330
F1
100
AcDbEntity
  8
AM_4
100
AcDbLine
 10
0.0964177
 20
-2.5236211
 30
0.0
 11
0.1025390000000002
 21
-2.5119672
 31
0.0
  0
LINE
  5
178
330
F1
100
AcDbEntity
  8
AM_4
100
AcDbLine
 10
0.0352001
 20
-2.625591991304
 30
0.0
 11
0.0198957
 21
-2.628505378704
 31
0.0
  0
LINE
  5
179
330
F1
100
AcDbEntity
  8
AM_4
100
AcDbLine
 10
0.237218
 20
-2.628505378704
 30
0.0
 11
0.237218
 21
-2.4915731
 31
0.0
  0
LINE
  5
17A
330
F1
100
AcDbEntity
  8
AM_4
100
AcDbLine
 10
0.347409
 20
-2.628505378704
 30
0.0
 11
0.237218
 21
-2.628505378704
 31
0.0
  0
LINE
  5
17B
330
F1
100
AcDbEntity
  8
AM_4
100
AcDbLine
 10
0.347409
 20
-2.611024660603
 30
0.0
 11
0.347409
 21
-2.628505378704
 31
0.0
  0
LINE
  5
17C
330
F1
100
AcDbEntity
  8
AM_4
100
AcDbLine
 10
0.255583
 20
-2.611024660603
 30
0.0
 11
0.347409
 21
-2.611024660603
 31
0.0
  0
LINE
  5
17D
330
F1
100
AcDbEntity
  8
AM_4
100
AcDbLine
 10
0.255583
 20
-2.5644093598402
 30
0.0
 11
0.255583
 21
-2.611024660603
 31
0.0
  0
LINE
  5
17E
330
F1
100
AcDbEntity
  8
AM_4
100
AcDbLine
 10
0.335166
 20
-2.5644093598402
 30
0.0
 11
0.255583
 21
-2.5644093598402
 31
0.0
  0
LINE
  5
17F
330
F1
100
AcDbEntity
  8
AM_4
100
AcDbLine
 10
0.335166
 20
-2.5469287
 30
0.0
 11
0.335166
 21
-2.5644093598402
 31
0.0
  0
LINE
  5
180
330
F1
100
AcDbEntity
  8
AM_4
100
AcDbLine
 10
0.255583
 20
-2.5469287
 30
0.0
 11
0.335166
 21
-2.5469287
 31
0.0
  0
LINE
  5
181
330
F1
100
AcDbEntity
  8
AM_4
100
AcDbLine
 10
0.255583
 20
-2.5090538
 30
0.0
 11
0.255583
 21
-2.5469287
 31
0.0
  0
LINE
  5
182
330
F1
100
AcDbEntity
  8
AM_4
100
AcDbLine
 10
0.347409
 20
-2.5090538
 30
0.0
 11
0.255583
 21
-2.5090538
 31
0.0
  0
LINE
  5
183
330
F1
100
AcDbEntity
  8
AM_4
100
AcDbLine
 10
0.347409
 20
-2.4915731
 30
0.0
 11
0.347409
 21
-2.5090538
 31
0.0
  0
LINE
  5
184
330
F1
100
AcDbEntity
  8
AM_4
100
AcDbLine
 10
0.237218
 20
-2.4915731
 30
0.0
 11
0.347409
 21
-2.4915731
 31
0.0
  0
LINE
  5
185
330
F1
100
AcDbEntity
  8
AM_4
100
AcDbLine
 10
-0.273948573129
 20
-2.4915731
 30
0.0
 11
-0.258644234156
 21
-2.494486400000001
 31
0.0
  0
LINE
  5
186
330
F1
100
AcDbEntity
  8
AM_4
100
AcDbLine
 10
-0.053565383256
 20
-2.4915731
 30
0.0
 11
0.0198957
 21
-2.4915731
 31
0.0
  0
LINE
  5
187
330
F1
100
AcDbEntity
  8
AM_4
100
AcDbLine
 10
-0.166817806617
 20
-2.625591991304
 30
0.0
 11
-0.179061514016
 21
-2.619764822803
 31
0.0
  0
LINE
  5
188
330
F1
100
AcDbEntity
  8
AM_4
100
AcDbLine
 10
-0.151513467644
 20
-2.628505378704
 30
0.0
 11
-0.166817806617
 21
-2.625591991304
 31
0.0
  0
LINE
  5
189
330
F1
100
AcDbEntity
  8
AM_4
100
AcDbLine
 10
-0.197426878264
 20
-2.5236211
 30
0.0
 11
-0.1913048277139999
 21
-2.5119672
 31
0.0
  0
LINE
  5
18A
330
F1
100
AcDbEntity
  8
AM_4
100
AcDbLine
 10
-0.087235086477
 20
-2.608111273203
 30
0.0
 11
-0.099478400175
 21
-2.619764822803
 31
0.0
  0
LINE
  5
18B
330
F1
100
AcDbEntity
  8
AM_4
100
AcDbLine
 10
-0.081113429628
 20
-2.596457329902
 30
0.0
 11
-0.087235086477
 21
-2.608111273203
 31
0.0
  0
LINE
  5
18C
330
F1
100
AcDbEntity
  8
AM_4
100
AcDbLine
 10
-0.078052404353
 20
-2.5818900779412
 30
0.0
 11
-0.081113429628
 21
-2.596457329902
 31
0.0
  0
LINE
  5
18D
330
F1
100
AcDbEntity
  8
AM_4
100
AcDbLine
 10
-0.078052404353
 20
-2.5381883
 30
0.0
 11
-0.078052404353
 21
-2.5818900779412
 31
0.0
  0
LINE
  5
18E
330
F1
100
AcDbEntity
  8
AM_4
100
AcDbLine
 10
0.0474437
 20
-2.619764822803
 30
0.0
 11
0.0352001
 21
-2.625591991304
 31
0.0
  0
LINE
  5
18F
330
F1
100
AcDbEntity
  8
AM_4
100
AcDbLine
 10
0.059687
 20
-2.608111273203
 30
0.0
 11
0.0474437
 21
-2.619764822803
 31
0.0
  0
LINE
  5
190
330
F1
100
AcDbEntity
  8
AM_4
100
AcDbLine
 10
-0.099478400175
 20
-2.5003136
 30
0.0
 11
-0.087235086477
 21
-2.5119672
 31
0.0
  0
LINE
  5
191
330
F1
100
AcDbEntity
  8
AM_4
100
AcDbLine
 10
-0.111722107574
 20
-2.4944864
 30
0.0
 11
-0.099478400175
 21
-2.5003136
 31
0.0
  0
LINE
  5
192
330
F1
100
AcDbEntity
  8
AM_4
100
AcDbLine
 10
-0.127026446547
 20
-2.4915731
 30
0.0
 11
-0.111722107574
 21
-2.4944864
 31
0.0
  0
LINE
  5
193
330
F1
100
AcDbEntity
  8
AM_4
100
AcDbLine
 10
-0.151513467644
 20
-2.4915731
 30
0.0
 11
-0.127026446547
 21
-2.4915731
 31
0.0
  0
LINE
  5
194
330
F1
100
AcDbEntity
  8
AM_4
100
AcDbLine
 10
-0.166817806617
 20
-2.4944864
 30
0.0
 11
-0.151513467644
 21
-2.4915731
 31
0.0
  0
LINE
  5
195
330
F1
100
AcDbEntity
  8
AM_4
100
AcDbLine
 10
-0.179061514016
 20
-2.5003136
 30
0.0
 11
-0.166817806617
 21
-2.4944864
 31
0.0
  0
LINE
  5
196
330
F1
100
AcDbEntity
  8
AM_4
100
AcDbLine
 10
-0.053565383256
 20
-2.628505378704
 30
0.0
 11
-0.053565383256
 21
-2.4915731
 31
0.0
  0
LINE
  5
197
330
F1
100
AcDbEntity
  8
AM_4
100
AcDbLine
 10
0.0198957
 20
-2.628505378704
 30
0.0
 11
-0.053565383256
 21
-2.628505378704
 31
0.0
  0
LINE
  5
198
330
F1
100
AcDbEntity
  8
AM_4
100
AcDbLine
 10
0.0658091
 20
-2.596457329902
 30
0.0
 11
0.059687
 21
-2.608111273203
 31
0.0
  0
LINE
  5
199
330
F1
100
AcDbEntity
  8
AM_4
100
AcDbLine
 10
0.0688697
 20
-2.5818900779412
 30
0.0
 11
0.0658091
 21
-2.596457329902
 31
0.0
  0
LINE
  5
19A
330
F1
100
AcDbEntity
  8
AM_4
100
AcDbLine
 10
0.0198957
 20
-2.4915731
 30
0.0
 11
0.0352001
 21
-2.4944864
 31
0.0
  0
LINE
  5
19B
330
F1
100
AcDbEntity
  8
AM_4
100
AcDbLine
 10
-0.273948573129
 20
-2.5090538
 30
0.0
 11
-0.261705259431
 21
-2.5119672
 31
0.0
  0
LINE
  5
19C
330
F1
100
AcDbEntity
  8
AM_4
100
AcDbLine
 10
-0.3290446658729999
 20
-2.611024660603
 30
0.0
 11
-0.3290446658729999
 21
-2.5090538
 31
0.0
  0
LINE
  5
19D
330
F1
100
AcDbEntity
  8
AM_4
100
AcDbLine
 10
-0.3290446658729999
 20
-2.5090538
 30
0.0
 11
-0.273948573129
 21
-2.5090538
 31
0.0
  0
LINE
  5
19E
330
F1
100
AcDbEntity
  8
AM_4
100
AcDbLine
 10
-0.261705259431
 20
-2.5119672
 30
0.0
 11
-0.252522577307
 21
-2.5177943
 31
0.0
  0
LINE
  5
19F
330
F1
100
AcDbEntity
  8
AM_4
100
AcDbLine
 10
-0.252522577307
 20
-2.5177943
 30
0.0
 11
-0.246400920458
 21
-2.5265345
 31
0.0
  0
LINE
  5
1A0
330
F1
100
AcDbEntity
  8
AM_4
100
AcDbLine
 10
-0.246400920458
 20
-2.5265345
 30
0.0
 11
-0.243339895183
 21
-2.5381883
 31
0.0
  0
LINE
  5
1A1
330
F1
100
AcDbEntity
  8
AM_4
100
AcDbLine
 10
-0.243339895183
 20
-2.5381883
 30
0.0
 11
-0.243339895183
 21
-2.5818900779412
 31
0.0
  0
LINE
  5
1A2
330
F1
100
AcDbEntity
  8
AM_4
100
AcDbLine
 10
-0.243339895183
 20
-2.5818900779412
 30
0.0
 11
-0.246400920458
 21
-2.5935439031319
 31
0.0
  0
LINE
  5
1A3
330
F1
100
AcDbEntity
  8
AM_4
100
AcDbLine
 10
-0.246400920458
 20
-2.5935439031319
 30
0.0
 11
-0.252522577307
 21
-2.602284104702
 31
0.0
  0
LINE
  5
1A4
330
F1
100
AcDbEntity
  8
AM_4
100
AcDbLine
 10
-0.252522577307
 20
-2.602284104702
 30
0.0
 11
-0.261705259431
 21
-2.608111273203
 31
0.0
  0
LINE
  5
1A5
330
F1
100
AcDbEntity
  8
AM_4
100
AcDbLine
 10
-0.261705259431
 20
-2.608111273203
 30
0.0
 11
-0.273948573129
 21
-2.611024660603
 31
0.0
  0
LINE
  5
1A6
330
F1
100
AcDbEntity
  8
AM_4
100
AcDbLine
 10
-0.273948573129
 20
-2.611024660603
 30
0.0
 11
-0.3290446658729999
 21
-2.611024660603
 31
0.0
  0
ARC
  5
1A7
330
F1
100
AcDbEntity
  8
AM_4
100
AcDbCircle
 10
0.0000000000000028
 20
0.0000000000000011
 30
0.0
 40
2.875
100
AcDbArc
 50
105.0000000000001
 51
75.0000000000001
  0
LINE
  5
1A8
330
F1
100
AcDbEntity
  8
AM_4
100
AcDbLine
 10
-0.127026446547
 20
-2.611024660603
 30
0.0
 11
-0.151513467644
 21
-2.611024660603
 31
0.0
  0
LINE
  5
1A9
330
F1
100
AcDbEntity
  8
AM_4
100
AcDbLine
 10
-0.151513467644
 20
-2.611024660603
 30
0.0
 11
-0.163757175043
 21
-2.608111273203
 31
0.0
  0
LINE
  5
1AA
330
F1
100
AcDbEntity
  8
AM_4
100
AcDbLine
 10
-0.163757175043
 20
-2.608111273203
 30
0.0
 11
-0.172939463466
 21
-2.602284104702
 31
0.0
  0
LINE
  5
1AB
330
F1
100
AcDbEntity
  8
AM_4
100
AcDbLine
 10
-0.18212214559
 20
-2.5818900779412
 30
0.0
 11
-0.18212214559
 21
-2.5381883
 31
0.0
  0
LINE
  5
1AC
330
F1
100
AcDbEntity
  8
AM_4
100
AcDbLine
 10
-0.163757175043
 20
-2.5119672
 30
0.0
 11
-0.151513467644
 21
-2.5090538
 31
0.0
  0
LINE
  5
1AD
330
F1
100
AcDbEntity
  8
AM_4
100
AcDbLine
 10
-0.105600450725
 20
-2.5177943
 30
0.0
 11
-0.099478400175
 21
-2.5265345
 31
0.0
  0
LINE
  5
1AE
330
F1
100
AcDbEntity
  8
AM_4
100
AcDbLine
 10
-0.18212214559
 20
-2.5381883
 30
0.0
 11
-0.179061514016
 21
-2.5265345
 31
0.0
  0
LINE
  5
1AF
330
F1
100
AcDbEntity
  8
AM_4
100
AcDbLine
 10
-0.179061514016
 20
-2.5265345
 30
0.0
 11
-0.172939463466
 21
-2.5177943
 31
0.0
  0
LINE
  5
1B0
330
F1
100
AcDbEntity
  8
AM_4
100
AcDbLine
 10
-0.172939463466
 20
-2.5177943
 30
0.0
 11
-0.163757175043
 21
-2.5119672
 31
0.0
  0
LINE
  5
1B1
330
F1
100
AcDbEntity
  8
AM_4
100
AcDbLine
 10
-0.151513467644
 20
-2.5090538
 30
0.0
 11
-0.127026446547
 21
-2.5090538
 31
0.0
  0
LINE
  5
1B2
330
F1
100
AcDbEntity
  8
AM_4
100
AcDbLine
 10
-0.127026446547
 20
-2.5090538
 30
0.0
 11
-0.114783132849
 21
-2.5119672
 31
0.0
  0
LINE
  5
1B3
330
F1
100
AcDbEntity
  8
AM_4
100
AcDbLine
 10
-0.114783132849
 20
-2.5119672
 30
0.0
 11
-0.105600450725
 21
-2.5177943
 31
0.0
  0
LINE
  5
1B4
330
F1
100
AcDbEntity
  8
AM_4
100
AcDbLine
 10
-0.099478400175
 20
-2.5265345
 30
0.0
 11
-0.096417768601
 21
-2.5381883
 31
0.0
  0
LINE
  5
1B5
330
F1
100
AcDbEntity
  8
AM_4
100
AcDbLine
 10
-0.096417768601
 20
-2.5381883
 30
0.0
 11
-0.096417768601
 21
-2.5818900779412
 31
0.0
  0
LINE
  5
1B6
330
F1
100
AcDbEntity
  8
AM_4
100
AcDbLine
 10
-0.096417768601
 20
-2.5818900779412
 30
0.0
 11
-0.099478400175
 21
-2.5935439031319
 31
0.0
  0
LINE
  5
1B7
330
F1
100
AcDbEntity
  8
AM_4
100
AcDbLine
 10
-0.099478400175
 20
-2.5935439031319
 30
0.0
 11
-0.105600450725
 21
-2.602284104702
 31
0.0
  0
LINE
  5
1B8
330
F1
100
AcDbEntity
  8
AM_4
100
AcDbLine
 10
-0.105600450725
 20
-2.602284104702
 30
0.0
 11
-0.114783132849
 21
-2.608111273203
 31
0.0
  0
LINE
  5
1B9
330
F1
100
AcDbEntity
  8
AM_4
100
AcDbLine
 10
-0.114783132849
 20
-2.608111273203
 30
0.0
 11
-0.127026446547
 21
-2.611024660603
 31
0.0
  0
LINE
  5
1BA
330
F1
100
AcDbEntity
  8
AM_4
100
AcDbLine
 10
-0.179061514016
 20
-2.5935439031319
 30
0.0
 11
-0.18212214559
 21
-2.5818900779412
 31
0.0
  0
LINE
  5
1BB
330
F1
100
AcDbEntity
  8
AM_4
100
AcDbLine
 10
-0.172939463466
 20
-2.602284104702
 30
0.0
 11
-0.179061514016
 21
-2.5935439031319
 31
0.0
  0
LINE
  5
1BC
330
F1
100
AcDbEntity
  8
AM_4
100
AcDbLine
 10
-0.6363793320239167
 20
2.375
 30
0.0
 11
-0.7441047546697472
 21
2.777036750581071
 31
0.0
  0
LINE
  5
1BD
330
F1
100
AcDbEntity
  8
AM_4
100
AcDbLine
 10
0.7441047546697462
 20
2.777036750581072
 30
0.0
 11
0.6363793320239162
 21
2.375
 31
0.0
  0
LINE
  5
1BE
330
F1
100
AcDbEntity
  8
AM_4
100
AcDbLine
 10
-0.0654127621516715
 20
2.729331
 30
0.0
 11
0.0654127621516715
 21
2.729331
 31
0.0
  0
ARC
  5
1BF
330
F1
100
AcDbEntity
  8
AM_4
100
AcDbCircle
 10
0.0654127621516713
 20
2.709646000000001
 30
0.0
 40
0.0196849999999994
100
AcDbArc
 50
21.80123384503025
 51
90.0
  0
ARC
  5
1C0
330
F1
100
AcDbEntity
  8
AM_4
100
AcDbCircle
 10
-0.0654127621516713
 20
2.709646000000001
 30
0.0
 40
0.0196849999999995
100
AcDbArc
 50
90.0
 51
158.1987661549698
  0
LINE
  5
1C1
330
F1
100
AcDbEntity
  8
AM_4
100
AcDbLine
 10
-0.0836898482231382
 20
2.716956769435304
 30
0.0
 11
0.0836898482231382
 21
2.716956769435304
 31
0.0
  0
LINE
  5
1C2
330
F1
100
AcDbEntity
  8
AM_4
100
AcDbLine
 10
-0.0836898482231382
 20
2.716956769435304
 30
0.0
 11
-0.1048774357720919
 21
2.663987329664853
 31
0.0
  0
LINE
  5
1C3
330
F1
100
AcDbEntity
  8
AM_4
100
AcDbLine
 10
0.1048774357720919
 20
2.663987329664853
 30
0.0
 11
0.0836898482231382
 21
2.716956769435304
 31
0.0
  0
LINE
  5
1C4
330
F1
100
AcDbEntity
  8
AM_4
100
AcDbLine
 10
-0.1048774357720919
 20
2.663987329664853
 30
0.0
 11
0.1048774357720919
 21
2.663987329664853
 31
0.0
  0
ARC
  5
1C5
330
F1
100
AcDbEntity
  8
AM_4
100
AcDbCircle
 10
0.0866003497006251
 20
2.656676560229549
 30
0.0
 40
0.0196849999999995
100
AcDbArc
 50
314.1572228239334
 51
21.8012338450328
  0
ARC
  5
1C6
330
F1
100
AcDbEntity
  8
AM_4
100
AcDbCircle
 10
-0.0866003497006251
 20
2.656676560229549
 30
0.0
 40
0.0196849999999996
100
AcDbArc
 50
158.1987661549672
 51
225.8427771760665
  0
LINE
  5
1C7
330
F1
100
AcDbEntity
  8
AM_4
100
AcDbLine
 10
-0.1003135045832952
 20
2.642553932706178
 30
0.0
 11
0.1003135045832952
 21
2.642553932706178
 31
0.0
  0
ARC
  5
1C8
330
F1
100
AcDbEntity
  8
AM_4
100
AcDbCircle
 10
0.1498523265635425
 20
2.5915359
 30
0.0
 40
0.0711121265636126
100
AcDbArc
 50
134.157228818757
 51
236.1447523006501
  0
ARC
  5
1C9
330
F1
100
AcDbEntity
  8
AM_4
100
AcDbCircle
 10
-0.1498523265635425
 20
2.5915359
 30
0.0
 40
0.0711121265636125
100
AcDbArc
 50
303.8552476993501
 51
45.84277118124299
  0
LINE
  5
1CA
330
F1
100
AcDbEntity
  8
AM_4
100
AcDbLine
 10
-0.110236
 20
2.532481
 30
0.0
 11
0.110236
 21
2.532481
 31
0.0
  0
LINE
  5
1CB
330
F1
100
AcDbEntity
  8
AM_4
100
AcDbLine
 10
0.110236
 20
2.512796
 30
0.0
 11
0.110236
 21
2.532481
 31
0.0
  0
LINE
  5
1CC
330
F1
100
AcDbEntity
  8
AM_4
100
AcDbLine
 10
-0.110236
 20
2.532481
 30
0.0
 11
-0.110236
 21
2.512796
 31
0.0
  0
LINE
  5
1CD
330
F1
100
AcDbEntity
  8
AM_4
100
AcDbLine
 10
0.110236
 20
2.375
 30
0.0
 11
0.110236
 21
2.394685
 31
0.0
  0
LINE
  5
1CE
330
F1
100
AcDbEntity
  8
AM_4
100
AcDbLine
 10
-0.110236
 20
2.394685
 30
0.0
 11
-0.110236
 21
2.375
 31
0.0
  0
LWPOLYLINE
  5
1CF
330
F1
100
AcDbEntity
  8
AM_4
100
AcDbPolyline
 90
        5
 70
     0
 43
0.0
 10
0.0
 20
2.401212997444414
 10
0.0778664735408017
 20
2.394686
 10
0.0796140264591983
 20
2.394686
 10
0.1273207991350541
 20
2.397282276099683
 10
0.1574805
 20
2.401212997444414
  0
LINE
  5
1D0
330
F1
100
AcDbEntity
  8
AM_4
100
AcDbLine
 10
-0.15748
 20
2.394685
 30
0.0
 11
0.0
 21
2.394685
 31
0.0
  0
LINE
  5
1D1
330
F1
100
AcDbEntity
  8
AM_4
100
AcDbLine
 10
-0.1574805
 20
2.394686
 30
0.0
 11
-0.1574805
 21
2.512795865227378
 31
0.0
  0
LWPOLYLINE
  5
1D2
330
F1
100
AcDbEntity
  8
AM_4
100
AcDbPolyline
 90
        3
 70
     0
 43
0.0
 10
0.1574805
 20
2.506268002555586
 10
0.0794975725125036
 20
2.512795215457258
 10
0.0
 20
2.506268002555586
  0
LINE
  5
1D3
330
F1
100
AcDbEntity
  8
AM_4
100
AcDbLine
 10
0.1574805
 20
2.512795865359485
 30
0.0
 11
0.1574805
 21
2.394686
 31
0.0
  0
LWPOLYLINE
  5
1D4
330
F1
100
AcDbEntity
  8
AM_4
100
AcDbPolyline
 90
        5
 70
     0
 43
0.0
 10
-0.1574805
 20
2.401212997444414
 10
-0.0796140264591982
 20
2.394686
 10
-0.0778664735408017
 20
2.394686
 10
-0.0301597008649459
 20
2.397282276099683
 10
0.0
 20
2.401212997444414
  0
LINE
  5
1D5
330
F1
100
AcDbEntity
  8
AM_4
100
AcDbLine
 10
0.0
 20
2.401212997444414
 30
0.0
 11
0.0
 21
2.506268002555586
 31
0.0
  0
LWPOLYLINE
  5
1D6
330
F1
100
AcDbEntity
  8
AM_4
100
AcDbPolyline
 90
        3
 70
     0
 43
0.0
 10
0.0
 20
2.506268002555586
 10
-0.0779829274874964
 20
2.512795215457258
 10
-0.1574805
 20
2.506268002555586
  0
CIRCLE
  5
1D7
330
F1
100
AcDbEntity
  8
AM_4
100
AcDbCircle
 10
-1.67937860531805
 20
1.67937860531805
 30
0.0
 40
0.25
  0
CIRCLE
  5
1D8
330
F1
100
AcDbEntity
  8
AM_4
100
AcDbCircle
 10
-1.67937860531805
 20
-1.67937860531805
 30
0.0
 40
0.25
  0
CIRCLE
  5
1D9
330
F1
100
AcDbEntity
  8
AM_4
100
AcDbCircle
 10
0.0
 20
0.0
 30
0.0
 40
1.67325
  0
CIRCLE
  5
1DA
330
F1
100
AcDbEntity
  8
AM_4
100
AcDbCircle
 10
1.67937860531805
 20
1.67937860531805
 30
0.0
 40
0.25
  0
CIRCLE
  5
1DB
330
F1
100
AcDbEntity
  8
AM_4
100
AcDbCircle
 10
1.67937860531805
 20
-1.67937860531805
 30
0.0
 40
0.25
  0
ARC
  5
1DC
330
F1
100
AcDbEntity
  8
AM_4
100
AcDbCircle
 10
0.0000000000000002
 20
-0.0000000000000007
 30
0.0
 40
2.124999999999999
100
AcDbArc
 50
241.1007815969987
 51
298.8992184030013
  0
LINE
  5
1DD
330
F1
100
AcDbEntity
  8
AM_4
100
AcDbLine
 10
1.026949686301134
 20
-1.860376129121744
 30
0.0
 11
1.325825214724776
 21
-2.032931995911324
 31
0.0
  0
ARC
  5
1DE
330
F1
100
AcDbEntity
  8
AM_4
100
AcDbCircle
 10
1.679378605318051
 20
-1.67937860531805
 30
0.0
 40
0.5000000000000002
100
AcDbArc
 50
224.9999999999999
 51
44.99999999999984
  0
LINE
  5
1DF
330
F1
100
AcDbEntity
  8
AM_4
100
AcDbLine
 10
2.032931995911325
 20
-1.325825214724777
 30
0.0
 11
1.860376129121743
 21
-1.026949686301135
 31
0.0
  0
LINE
  5
1E0
330
F1
100
AcDbEntity
  8
AM_4
100
AcDbLine
 10
1.860376129121743
 20
1.026949686301135
 30
0.0
 11
2.032931995911325
 21
1.325825214724777
 31
0.0
  0
ARC
  5
1E1
330
F1
100
AcDbEntity
  8
AM_4
100
AcDbCircle
 10
-0.0000000000000002
 20
-0.0000000000000001
 30
0.0
 40
2.125
100
AcDbArc
 50
151.1007815969987
 51
208.8992184030013
  0
LINE
  5
1E2
330
F1
100
AcDbEntity
  8
AM_4
100
AcDbLine
 10
-1.860376129121743
 20
-1.026949686301135
 30
0.0
 11
-2.032931995911324
 21
-1.325825214724776
 31
0.0
  0
LINE
  5
1E3
330
F1
100
AcDbEntity
  8
AM_4
100
AcDbLine
 10
-1.325825214724779
 20
-2.032931995911326
 30
0.0
 11
-1.026949686301134
 21
-1.860376129121743
 31
0.0
  0
LINE
  5
1E4
330
F1
100
AcDbEntity
  8
AM_4
100
AcDbLine
 10
1.325825214724776
 20
2.032931995911324
 30
0.0
 11
1.026949686301134
 21
1.860376129121743
 31
0.0
  0
ARC
  5
1E5
330
F1
100
AcDbEntity
  8
AM_4
100
AcDbCircle
 10
-0.0000000000000555
 20
-0.0000000000001101
 30
0.0
 40
2.125000000000123
100
AcDbArc
 50
61.10078159699883
 51
69.65231317374739
  0
LINE
  5
1E6
330
F1
100
AcDbEntity
  8
AM_4
100
AcDbLine
 10
0.7388967739068901
 20
1.992399698230752
 30
0.0
 11
0.6363793320239162
 21
2.375
 31
0.0
  0
LINE
  5
1E7
330
F1
100
AcDbEntity
  8
AM_4
100
AcDbLine
 10
-0.6363793320239167
 20
2.375
 30
0.0
 11
-0.7388967739068907
 21
1.992399698230751
 31
0.0
  0
ARC
  5
1E8
330
F1
100
AcDbEntity
  8
AM_4
100
AcDbCircle
 10
-1.67937860531805
 20
1.67937860531805
 30
0.0
 40
0.4999999999999999
100
AcDbArc
 50
44.99999999999996
 51
224.9999999999996
  0
ARC
  5
1E9
330
F1
100
AcDbEntity
  8
AM_4
100
AcDbCircle
 10
0.0000000000000007
 20
0.0
 30
0.0
 40
2.124999999999999
100
AcDbArc
 50
331.1007815969987
 51
28.89921840300132
  0
LINE
  5
1EA
330
F1
100
AcDbEntity
  8
AM_4
100
AcDbLine
 10
-1.026949686301135
 20
1.860376129121743
 30
0.0
 11
-1.325825214724776
 21
2.032931995911324
 31
0.0
  0
LINE
  5
1EB
330
F1
100
AcDbEntity
  8
AM_4
100
AcDbLine
 10
-2.032931995911326
 20
1.325825214724779
 30
0.0
 11
-1.860376129121743
 21
1.026949686301135
 31
0.0
  0
ARC
  5
1EC
330
F1
100
AcDbEntity
  8
AM_4
100
AcDbCircle
 10
-1.67937860531805
 20
-1.67937860531805
 30
0.0
 40
0.5000000000000001
100
AcDbArc
 50
135.0
 51
314.9999999999997
  0
ARC
  5
1ED
330
F1
100
AcDbEntity
  8
AM_4
100
AcDbCircle
 10
1.67937860531805
 20
1.67937860531805
 30
0.0
 40
0.4999999999999999
100
AcDbArc
 50
315.0000000000002
 51
135.0
  0
LINE
  5
1EE
330
F1
100
AcDbEntity
  8
AM_4
100
AcDbLine
 10
0.6363793320239162
 20
2.375
 30
0.0
 11
-0.6363793320239167
 21
2.375
 31
0.0
  0
ARC
  5
1EF
330
F1
100
AcDbEntity
  8
AM_4
100
AcDbCircle
 10
0.0000000000000313
 20
-0.0000000000000637
 30
0.0
 40
2.125000000000071
100
AcDbArc
 50
110.3476868262525
 51
118.8992184030012
  0
ENDBLK
  5
F4
330
F1
100
AcDbEntity
  8
0
100
AcDbBlockEnd
  0
ENDSEC
  0
SECTION
  2
ENTITIES
  0
INSERT
  5
6F
330
1F
100
AcDbEntity
  8
0
100
AcDbBlockReference
  2
1_129761_0
 10
0.0
 20
0.0
 30
0.0
  0
POINT
  5
1F1
330
1F
100
AcDbEntity
  8
ConnectionPoints
100
AcDbPoint
 10
0.0
 20
0.0000000000000002
 30
0.71
  0
POINT
  5
1F2
330
1F
100
AcDbEntity
  8
ConnectionPoints
100
AcDbPoint
 10
0.0
 20
0.0000000000000002
 30
1.97
  0
POINT
  5
1F3
330
1F
100
AcDbEntity
  8
ConnectionPoints
100
AcDbPoint
 10
0.0
 20
0.0
 30
1.97
  0
POINT
  5
1F4
330
1F
100
AcDbEntity
  8
ConnectionPoints
100
AcDbPoint
 10
0.0
 20
0.0
 30
1.97
  0
ENDSEC
  0
SECTION
  2
OBJECTS
  0
DICTIONARY
  5
C
330
0
100
AcDbDictionary
281
     1
  3
ACAD_DETAILVIEWSTYLE
350
1FC
  3
ACAD_GROUP
350
D
  3
ACAD_LAYOUT
350
1A
  3
ACAD_MATERIAL
350
43
  3
ACAD_MLEADERSTYLE
350
6B
  3
ACAD_MLINESTYLE
350
17
  3
ACAD_PLOTSETTINGS
350
19
  3
ACAD_PLOTSTYLENAME
350
E
  3
ACAD_SCALELIST
350
47
  3
ACAD_SECTIONVIEWSTYLE
350
1FD
  3
ACAD_TABLESTYLE
350
69
  3
ACAD_VISUALSTYLE
350
2A
  3
ACDB_RECOMPOSE_DATA
350
1F9
  3
AcDbVariableDictionary
350
1F5
  0
SUN
  5
6D
330
29
100
AcDbSun
 90
        1
290
     0
 63
     7
421
 16777215
 40
1.0
291
     1
 91
  2455826
 92
 54000000
292
     0
 70
     2
 71
   256
280
     1
  0
DICTIONARY
  5
1FC
102
{ACAD_REACTORS
330
C
102
}
330
C
100
AcDbDictionary
281
     1
  0
DICTIONARY
  5
D
102
{ACAD_REACTORS
330
C
102
}
330
C
100
AcDbDictionary
281
     1
  0
DICTIONARY
  5
1A
102
{ACAD_REACTORS
330
C
102
}
330
C
100
AcDbDictionary
281
     1
  3
Layout1
350
1E
  3
Layout2
350
26
  3
Model
350
22
  0
DICTIONARY
  5
43
102
{ACAD_REACTORS
330
C
102
}
330
C
100
AcDbDictionary
281
     1
  3
ByBlock
350
45
  3
ByLayer
350
44
  3
Global
350
46
  0
DICTIONARY
  5
6B
102
{ACAD_REACTORS
330
C
102
}
330
C
100
AcDbDictionary
281
     1
  3
Standard
350
6C
  0
DICTIONARY
  5
17
102
{ACAD_REACTORS
330
C
102
}
330
C
100
AcDbDictionary
281
     1
  3
Standard
350
18
  0
DICTIONARY
  5
19
102
{ACAD_REACTORS
330
C
102
}
330
C
100
AcDbDictionary
281
     1
  0
ACDBDICTIONARYWDFLT
  5
E
102
{ACAD_REACTORS
330
C
102
}
330
C
100
AcDbDictionary
281
     1
  3
Normal
350
F
100
AcDbDictionaryWithDefault
340
F
  0
DICTIONARY
  5
47
102
{ACAD_REACTORS
330
C
102
}
330
C
100
AcDbDictionary
281
     1
  3
A0
350
48
  3
A1
350
49
  3
A2
350
4A
  3
A3
350
4B
  3
A4
350
4C
  3
A5
350
4D
  3
A6
350
4E
  3
A7
350
4F
  3
A8
350
50
  3
A9
350
51
  3
B0
350
52
  3
B1
350
53
  3
B2
350
54
  3
B3
350
55
  3
B4
350
56
  3
B5
350
57
  3
B6
350
58
  3
B7
350
59
  3
B8
350
5A
  3
B9
350
5B
  3
C0
350
5C
  3
C1
350
5D
  3
C2
350
5E
  3
C3
350
5F
  3
C4
350
60
  3
C5
350
61
  3
C6
350
62
  3
C7
350
63
  3
C8
350
64
  3
C9
350
65
  3
D0
350
66
  3
D1
350
67
  3
D2
350
68
  0
DICTIONARY
  5
1FD
102
{ACAD_REACTORS
330
C
102
}
330
C
100
AcDbDictionary
281
     1
  0
DICTIONARY
  5
69
102
{ACAD_REACTORS
330
C
102
}
330
C
100
AcDbDictionary
281
     1
  3
Standard
350
6A
  0
DICTIONARY
  5
2A
102
{ACAD_REACTORS
330
C
102
}
330
C
100
AcDbDictionary
281
     1
  3
2dWireframe
350
2F
  3
Basic
350
32
  3
Brighten
350
36
  3
ColorChange
350
3A
  3
Conceptual
350
34
  3
Dim
350
35
  3
EdgeColorOff
350
3D
  3
Facepattern
350
39
  3
Flat
350
2B
  3
FlatWithEdges
350
2C
  3
Gouraud
350
2D
  3
GouraudWithEdges
350
2E
  3
Hidden
350
31
  3
JitterOff
350
3B
  3
Linepattern
350
38
  3
OverhangOff
350
3C
  3
Realistic
350
33
  3
Shaded
350
42
  3
Shaded with edges
350
41
  3
Shades of Gray
350
3E
  3
Sketchy
350
3F
  3
Thicken
350
37
  3
Wireframe
350
30
  3
X-Ray
350
40
  0
XRECORD
  5
1F9
102
{ACAD_REACTORS
330
C
102
}
330
C
100
AcDbXrecord
280
     1
 90
        1
330
6A
  0
DICTIONARY
  5
1F5
102
{ACAD_REACTORS
330
C
102
}
330
C
100
AcDbDictionary
281
     1
  3
CANNOSCALE
350
1F6
  3
CMLEADERSTYLE
350
1FB
  3
CTABLESTYLE
350
1FA
  0
LAYOUT
  5
1E
102
{ACAD_REACTORS
330
1A
102
}
330
1A
100
AcDbPlotSettings
  1

  2
none_device
  4

  6

 40
0.0
 41
0.0
 42
0.0
 43
0.0
 44
0.0
 45
0.0
 46
0.0
 47
0.0
 48
0.0
 49
0.0
140
0.0
141
0.0
142
1.0
143
1.0
 70
   688
 72
     0
 73
     0
 74
     5
  7

 75
    16
 76
     0
 77
     2
 78
   300
147
1.0
148
0.0
149
0.0
100
AcDbLayout
  1
Layout1
 70
     1
 71
     1
 10
0.0
 20
0.0
 11
12.0
 21
9.0
 12
0.0
 22
0.0
 32
0.0
 14
1.000000000000000E+20
 24
1.000000000000000E+20
 34
1.000000000000000E+20
 15
-1.000000000000000E+20
 25
-1.000000000000000E+20
 35
-1.000000000000000E+20
146
0.0
 13
0.0
 23
0.0
 33
0.0
 16
1.0
 26
0.0
 36
0.0
 17
0.0
 27
1.0
 37
0.0
 76
     0
330
1B
  0
LAYOUT
  5
26
102
{ACAD_REACTORS
330
1A
102
}
330
1A
100
AcDbPlotSettings
  1

  2
none_device
  4

  6

 40
0.0
 41
0.0
 42
0.0
 43
0.0
 44
0.0
 45
0.0
 46
0.0
 47
0.0
 48
0.0
 49
0.0
140
0.0
141
0.0
142
1.0
143
1.0
 70
   688
 72
     0
 73
     0
 74
     5
  7

 75
    16
 76
     0
 77
     2
 78
   300
147
1.0
148
0.0
149
0.0
100
AcDbLayout
  1
Layout2
 70
     1
 71
     2
 10
0.0
 20
0.0
 11
0.0
 21
0.0
 12
0.0
 22
0.0
 32
0.0
 14
0.0
 24
0.0
 34
0.0
 15
0.0
 25
0.0
 35
0.0
146
0.0
 13
0.0
 23
0.0
 33
0.0
 16
1.0
 26
0.0
 36
0.0
 17
0.0
 27
1.0
 37
0.0
 76
     0
330
23
  0
LAYOUT
  5
22
102
{ACAD_REACTORS
330
1A
102
}
330
1A
100
AcDbPlotSettings
  1

  2
none_device
  4
Letter_(8.50_x_11.00_Inches)
  6

 40
6.35
 41
6.35
 42
6.35000508
 43
6.35000508
 44
215.9
 45
279.4
 46
0.0
 47
0.0
 48
0.0
 49
0.0
140
0.0
141
0.0
142
1.0
143
1.0
 70
  1712
 72
     0
 73
     0
 74
     0
  7

 75
     0
 76
     0
 77
     2
 78
   300
147
1.0
148
0.0
149
0.0
100
AcDbLayout
  1
Model
 70
     1
 71
     0
 10
0.0
 20
0.0
 11
12.0
 21
9.0
 12
0.0
 22
0.0
 32
0.0
 14
1.000000000000000E+20
 24
1.000000000000000E+20
 34
1.000000000000000E+20
 15
-1.000000000000000E+20
 25
-1.000000000000000E+20
 35
-1.000000000000000E+20
146
0.0
 13
0.0
 23
0.0
 33
0.0
 16
1.0
 26
0.0
 36
0.0
 17
0.0
 27
1.0
 37
0.0
 76
     0
330
1F
331
29
  0
MATERIAL
  5
45
102
{ACAD_REACTORS
330
43
102
}
330
43
100
AcDbMaterial
  1
ByBlock
 72
     1
 94
      127
  0
MATERIAL
  5
44
102
{ACAD_REACTORS
330
43
102
}
330
43
100
AcDbMaterial
  1
ByLayer
 72
     1
 94
      127
  0
MATERIAL
  5
46
102
{ACAD_REACTORS
330
43
102
}
330
43
100
AcDbMaterial
  1
Global
 72
     1
 94
      127
  0
MLEADERSTYLE
  5
6C
102
{ACAD_REACTORS
330
6B
102
}
330
6B
100
AcDbMLeaderStyle
179
     2
170
     2
171
     1
172
     0
 90
        2
 40
0.0
 41
0.0
173
     1
 91
-1056964608
340
14
 92
       -2
290
     1
 42
0.09
291
     1
 43
0.36
  3
Standard
341
0
 44
0.18
300

342
11
174
     1
178
     6
175
     1
176
     0
 93
-1056964608
 45
0.18
292
     0
297
     0
 46
0.18
343
0
 94
-1056964608
 47
1.0
 49
1.0
140
1.0
293
     1
141
0.0
294
     1
177
     0
142
1.0
295
     0
296
     0
143
0.125
271
     0
272
     9
273
     9
298
     0
  0
MLINESTYLE
  5
18
102
{ACAD_REACTORS
330
17
102
}
330
17
100
AcDbMlineStyle
  2
Standard
 70
     0
  3

 62
   256
 51
90.0
 52
90.0
 71
     2
 49
0.5
 62
   256
  6
BYLAYER
 49
-0.5
 62
   256
  6
BYLAYER
  0
ACDBPLACEHOLDER
  5
F
102
{ACAD_REACTORS
330
E
102
}
330
E
  0
SCALE
  5
48
102
{ACAD_REACTORS
330
47
102
}
330
47
100
AcDbScale
 70
     0
300
1:1
140
1.0
141
1.0
290
     1
  0
SCALE
  5
49
102
{ACAD_REACTORS
330
47
102
}
330
47
100
AcDbScale
 70
     0
300
1:2
140
1.0
141
2.0
290
     0
  0
SCALE
  5
4A
102
{ACAD_REACTORS
330
47
102
}
330
47
100
AcDbScale
 70
     0
300
1:4
140
1.0
141
4.0
290
     0
  0
SCALE
  5
4B
102
{ACAD_REACTORS
330
47
102
}
330
47
100
AcDbScale
 70
     0
300
1:5
140
1.0
141
5.0
290
     0
  0
SCALE
  5
4C
102
{ACAD_REACTORS
330
47
102
}
330
47
100
AcDbScale
 70
     0
300
1:8
140
1.0
141
8.0
290
     0
  0
SCALE
  5
4D
102
{ACAD_REACTORS
330
47
102
}
330
47
100
AcDbScale
 70
     0
300
1:10
140
1.0
141
10.0
290
     0
  0
SCALE
  5
4E
102
{ACAD_REACTORS
330
47
102
}
330
47
100
AcDbScale
 70
     0
300
1:16
140
1.0
141
16.0
290
     0
  0
SCALE
  5
4F
102
{ACAD_REACTORS
330
47
102
}
330
47
100
AcDbScale
 70
     0
300
1:20
140
1.0
141
20.0
290
     0
  0
SCALE
  5
50
102
{ACAD_REACTORS
330
47
102
}
330
47
100
AcDbScale
 70
     0
300
1:30
140
1.0
141
30.0
290
     0
  0
SCALE
  5
51
102
{ACAD_REACTORS
330
47
102
}
330
47
100
AcDbScale
 70
     0
300
1:40
140
1.0
141
40.0
290
     0
  0
SCALE
  5
52
102
{ACAD_REACTORS
330
47
102
}
330
47
100
AcDbScale
 70
     0
300
1:50
140
1.0
141
50.0
290
     0
  0
SCALE
  5
53
102
{ACAD_REACTORS
330
47
102
}
330
47
100
AcDbScale
 70
     0
300
1:100
140
1.0
141
100.0
290
     0
  0
SCALE
  5
54
102
{ACAD_REACTORS
330
47
102
}
330
47
100
AcDbScale
 70
     0
300
2:1
140
2.0
141
1.0
290
     0
  0
SCALE
  5
55
102
{ACAD_REACTORS
330
47
102
}
330
47
100
AcDbScale
 70
     0
300
4:1
140
4.0
141
1.0
290
     0
  0
SCALE
  5
56
102
{ACAD_REACTORS
330
47
102
}
330
47
100
AcDbScale
 70
     0
300
8:1
140
8.0
141
1.0
290
     0
  0
SCALE
  5
57
102
{ACAD_REACTORS
330
47
102
}
330
47
100
AcDbScale
 70
     0
300
10:1
140
10.0
141
1.0
290
     0
  0
SCALE
  5
58
102
{ACAD_REACTORS
330
47
102
}
330
47
100
AcDbScale
 70
     0
300
100:1
140
100.0
141
1.0
290
     0
  0
SCALE
  5
59
102
{ACAD_REACTORS
330
47
102
}
330
47
100
AcDbScale
 70
     0
300
1/128" = 1'-0"
140
0.0078125
141
12.0
290
     0
  0
SCALE
  5
5A
102
{ACAD_REACTORS
330
47
102
}
330
47
100
AcDbScale
 70
     0
300
1/64" = 1'-0"
140
0.015625
141
12.0
290
     0
  0
SCALE
  5
5B
102
{ACAD_REACTORS
330
47
102
}
330
47
100
AcDbScale
 70
     0
300
1/32" = 1'-0"
140
0.03125
141
12.0
290
     0
  0
SCALE
  5
5C
102
{ACAD_REACTORS
330
47
102
}
330
47
100
AcDbScale
 70
     0
300
1/16" = 1'-0"
140
0.0625
141
12.0
290
     0
  0
SCALE
  5
5D
102
{ACAD_REACTORS
330
47
102
}
330
47
100
AcDbScale
 70
     0
300
3/32" = 1'-0"
140
0.09375
141
12.0
290
     0
  0
SCALE
  5
5E
102
{ACAD_REACTORS
330
47
102
}
330
47
100
AcDbScale
 70
     0
300
1/8" = 1'-0"
140
0.125
141
12.0
290
     0
  0
SCALE
  5
5F
102
{ACAD_REACTORS
330
47
102
}
330
47
100
AcDbScale
 70
     0
300
3/16" = 1'-0"
140
0.1875
141
12.0
290
     0
  0
SCALE
  5
60
102
{ACAD_REACTORS
330
47
102
}
330
47
100
AcDbScale
 70
     0
300
1/4" = 1'-0"
140
0.25
141
12.0
290
     0
  0
SCALE
  5
61
102
{ACAD_REACTORS
330
47
102
}
330
47
100
AcDbScale
 70
     0
300
3/8" = 1'-0"
140
0.375
141
12.0
290
     0
  0
SCALE
  5
62
102
{ACAD_REACTORS
330
47
102
}
330
47
100
AcDbScale
 70
     0
300
1/2" = 1'-0"
140
0.5
141
12.0
290
     0
  0
SCALE
  5
63
102
{ACAD_REACTORS
330
47
102
}
330
47
100
AcDbScale
 70
     0
300
3/4" = 1'-0"
140
0.75
141
12.0
290
     0
  0
SCALE
  5
64
102
{ACAD_REACTORS
330
47
102
}
330
47
100
AcDbScale
 70
     0
300
1" = 1'-0"
140
1.0
141
12.0
290
     0
  0
SCALE
  5
65
102
{ACAD_REACTORS
330
47
102
}
330
47
100
AcDbScale
 70
     0
300
1-1/2" = 1'-0"
140
1.5
141
12.0
290
     0
  0
SCALE
  5
66
102
{ACAD_REACTORS
330
47
102
}
330
47
100
AcDbScale
 70
     0
300
3" = 1'-0"
140
3.0
141
12.0
290
     0
  0
SCALE
  5
67
102
{ACAD_REACTORS
330
47
102
}
330
47
100
AcDbScale
 70
     0
300
6" = 1'-0"
140
6.0
141
12.0
290
     0
  0
SCALE
  5
68
102
{ACAD_REACTORS
330
47
102
}
330
47
100
AcDbScale
 70
     0
300
1'-0" = 1'-0"
140
12.0
141
12.0
290
     0
  0
TABLESTYLE
  5
6A
102
{ACAD_REACTORS
330
69
102
}
102
{ACAD_XDICTIONARY
360
1F7
102
}
330
69
100
AcDbTableStyle
  3
Standard
 70
     0
 71
     0
 40
0.06
 41
0.06
280
     0
281
     0
  7
Standard
140
0.18
170
     2
 62
     0
 63
   257
283
     0
 90
        4
 91
        0
  1

274
    -2
284
     1
 64
     0
275
    -2
285
     1
 65
     0
276
    -2
286
     1
 66
     0
277
    -2
287
     1
 67
     0
278
    -2
288
     1
 68
     0
279
    -2
289
     1
 69
     0
  7
Standard
140
0.25
170
     5
 62
     0
 63
   257
283
     0
 90
        4
 91
        0
  1

274
    -2
284
     1
 64
     0
275
    -2
285
     1
 65
     0
276
    -2
286
     1
 66
     0
277
    -2
287
     1
 67
     0
278
    -2
288
     1
 68
     0
279
    -2
289
     1
 69
     0
  7
Standard
140
0.18
170
     5
 62
     0
 63
   257
283
     0
 90
        4
 91
        0
  1

274
    -2
284
     1
 64
     0
275
    -2
285
     1
 65
     0
276
    -2
286
     1
 66
     0
277
    -2
287
     1
 67
     0
278
    -2
288
     1
 68
     0
279
    -2
289
     1
 69
     0
  0
VISUALSTYLE
  5
2F
102
{ACAD_REACTORS
330
2A
102
}
330
2A
100
AcDbVisualStyle
  2
2dWireframe
 70
     4
177
     3
291
     0
 70
    58
 90
        0
176
     1
 90
        2
176
     1
 90
        0
176
     1
 90
        0
176
     1
 40
0.6
176
     1
 40
30.0
176
     1
 62
     7
420
 16777215
176
     1
 90
        1
176
     1
 90
        4
176
     1
 62
     7
176
     1
 62
   257
176
     1
 90
        1
176
     1
 90
        1
176
     1
 40
1.0
176
     1
 90
        0
176
     1
 62
   257
176
     1
 40
1.0
176
     1
 90
        1
176
     1
 90
        6
176
     1
 90
        2
176
     1
 62
     7
176
     1
 90
        5
176
     1
 90
        0
176
     1
 90
        0
176
     1
290
     0
176
     1
 90
        1
176
     1
 40
0.0
176
     1
 90
        0
176
     1
290
     1
176
     1
290
     1
176
     1
290
     0
176
     1
290
     0
176
     1
290
     0
176
     1
290
     0
176
     1
290
     0
176
     1
290
     0
176
     1
290
     0
176
     1
 90
       50
176
     1
 40
0.0
176
     1
 40
1.0
176
     1
 90
        0
176
     1
 62
    18
420
        0
176
     1
 90
       50
176
     1
 90
        3
176
     1
 62
     5
420
      255
176
     1
290
     0
176
     1
 90
       50
176
     1
 90
       50
176
     1
 90
       50
176
     1
290
     0
176
     1
 90
       50
176
     1
 62
   256
176
     0
 40
1.0
176
     0
 90
        2
176
     1
  1
strokes_ogs.tif
176
     1
290
     0
176
     1
 40
1.0
176
     1
 40
1.0
176
     1
  0
VISUALSTYLE
  5
32
102
{ACAD_REACTORS
330
2A
102
}
330
2A
100
AcDbVisualStyle
  2
Basic
 70
     7
177
     3
291
     1
 70
    58
 90
        1
176
     1
 90
        0
176
     1
 90
        1
176
     1
 90
        0
176
     1
 40
0.6
176
     1
 40
30.0
176
     1
 62
     7
420
 16777215
176
     1
 90
        0
176
     1
 90
        4
176
     1
 62
     7
176
     1
 62
   257
176
     1
 90
        1
176
     1
 90
        1
176
     1
 40
1.0
176
     1
 90
        8
176
     1
 62
     7
176
     1
 40
1.0
176
     1
 90
        1
176
     1
 90
        6
176
     1
 90
        2
176
     1
 62
     7
176
     1
 90
        5
176
     1
 90
        0
176
     1
 90
        0
176
     1
290
     0
176
     1
 90
        1
176
     1
 40
0.0
176
     1
 90
        0
176
     1
290
     0
176
     1
290
     1
176
     1
290
     1
176
     1
290
     0
176
     1
290
     0
176
     1
290
     0
176
     1
290
     0
176
     1
290
     0
176
     1
290
     0
176
     1
 90
       50
176
     1
 40
0.0
176
     1
 40
1.0
176
     1
 90
        0
176
     1
 62
    18
420
        0
176
     1
 90
       50
176
     1
 90
        3
176
     1
 62
     5
420
      255
176
     1
290
     0
176
     1
 90
       50
176
     1
 90
       50
176
     1
 90
       50
176
     1
290
     0
176
     1
 90
       50
176
     1
 62
   256
176
     0
 40
1.0
176
     0
 90
        2
176
     1
  1
strokes_ogs.tif
176
     1
290
     0
176
     1
 40
1.0
176
     1
 40
1.0
176
     1
  0
VISUALSTYLE
  5
36
102
{ACAD_REACTORS
330
2A
102
}
330
2A
100
AcDbVisualStyle
  2
Brighten
 70
    12
177
     3
291
     1
 70
    58
 90
        2
176
     1
 90
        2
176
     1
 90
        0
176
     1
 90
        0
176
     1
 40
0.6
176
     1
 40
30.0
176
     1
 62
     7
420
 16777215
176
     1
 90
        1
176
     1
 90
        4
176
     1
 62
     7
176
     1
 62
   257
176
     1
 90
        1
176
     1
 90
        1
176
     1
 40
1.0
176
     1
 90
        8
176
     1
 62
     7
176
     1
 40
1.0
176
     1
 90
        1
176
     1
 90
        6
176
     1
 90
        2
176
     1
 62
     7
176
     1
 90
        5
176
     1
 90
        0
176
     1
 90
        0
176
     1
290
     0
176
     1
 90
        1
176
     1
 40
50.0
176
     1
 90
        0
176
     1
290
     0
176
     1
290
     1
176
     1
290
     1
176
     1
290
     0
176
     1
290
     0
176
     1
290
     0
176
     1
290
     0
176
     1
290
     0
176
     1
290
     0
176
     1
 90
       50
176
     1
 40
0.0
176
     1
 40
1.0
176
     1
 90
        0
176
     1
 62
    18
420
        0
176
     1
 90
       50
176
     1
 90
        3
176
     1
 62
     5
420
      255
176
     1
290
     0
176
     1
 90
       50
176
     1
 90
       50
176
     1
 90
       50
176
     1
290
     0
176
     1
 90
       50
176
     1
 62
   256
176
     0
 40
1.0
176
     0
 90
        2
176
     1
  1
strokes_ogs.tif
176
     1
290
     0
176
     1
 40
1.0
176
     1
 40
1.0
176
     1
  0
VISUALSTYLE
  5
3A
102
{ACAD_REACTORS
330
2A
102
}
330
2A
100
AcDbVisualStyle
  2
ColorChange
 70
    16
177
     3
291
     1
 70
    58
 90
        2
176
     1
 90
        2
176
     1
 90
        3
176
     1
 90
        0
176
     1
 40
0.6
176
     1
 40
30.0
176
     1
 62
     8
420
  8421504
176
     1
 90
        1
176
     1
 90
        4
176
     1
 62
     7
176
     1
 62
   257
176
     1
 90
        1
176
     1
 90
        1
176
     1
 40
1.0
176
     1
 90
        8
176
     1
 62
     8
420
  8421504
176
     1
 40
1.0
176
     1
 90
        1
176
     1
 90
        6
176
     1
 90
        2
176
     1
 62
     7
176
     1
 90
        5
176
     1
 90
        0
176
     1
 90
        0
176
     1
290
     0
176
     1
 90
        1
176
     1
 40
0.0
176
     1
 90
        0
176
     1
290
     0
176
     1
290
     1
176
     1
290
     1
176
     1
290
     0
176
     1
290
     0
176
     1
290
     0
176
     1
290
     0
176
     1
290
     0
176
     1
290
     0
176
     1
 90
       50
176
     1
 40
0.0
176
     1
 40
1.0
176
     1
 90
        0
176
     1
 62
    18
420
        0
176
     1
 90
       50
176
     1
 90
        3
176
     1
 62
     5
420
      255
176
     1
290
     0
176
     1
 90
       50
176
     1
 90
       50
176
     1
 90
       50
176
     1
290
     0
176
     1
 90
       50
176
     1
 62
   256
176
     0
 40
1.0
176
     0
 90
        2
176
     1
  1
strokes_ogs.tif
176
     1
290
     0
176
     1
 40
1.0
176
     1
 40
1.0
176
     1
  0
VISUALSTYLE
  5
34
102
{ACAD_REACTORS
330
2A
102
}
330
2A
100
AcDbVisualStyle
  2
Conceptual
 70
     9
177
     3
291
     0
 70
    58
 90
        3
176
     1
 90
        2
176
     1
 90
        0
176
     1
 90
        0
176
     1
 40
0.6
176
     1
 40
30.0
176
     1
 62
     7
420
 16777215
176
     1
 90
        2
176
     1
 90
        2
176
     1
 62
     7
176
     1
 62
   257
176
     1
 90
        1
176
     1
 90
        1
176
     1
 40
179.0
176
     1
 90
        8
176
     1
 62
     7
176
     1
 40
1.0
176
     1
 90
        1
176
     1
 90
        6
176
     1
 90
        2
176
     1
 62
     7
176
     1
 90
        3
176
     1
 90
        0
176
     1
 90
        0
176
     1
290
     0
176
     1
 90
        1
176
     1
 40
0.0
176
     1
 90
        0
176
     1
290
     0
176
     1
290
     1
176
     1
290
     1
176
     1
290
     0
176
     1
290
     0
176
     1
290
     0
176
     1
290
     0
176
     1
290
     0
176
     1
290
     0
176
     1
 90
       50
176
     1
 40
0.0
176
     1
 40
1.0
176
     1
 90
        0
176
     1
 62
    18
420
        0
176
     1
 90
       50
176
     1
 90
        3
176
     1
 62
     5
420
      255
176
     1
290
     0
176
     1
 90
       50
176
     1
 90
       50
176
     1
 90
       50
176
     1
290
     0
176
     1
 90
       50
176
     1
 62
   256
176
     0
 40
1.0
176
     0
 90
        2
176
     1
  1
strokes_ogs.tif
176
     1
290
     0
176
     1
 40
1.0
176
     1
 40
1.0
176
     1
  0
VISUALSTYLE
  5
35
102
{ACAD_REACTORS
330
2A
102
}
330
2A
100
AcDbVisualStyle
  2
Dim
 70
    11
177
     3
291
     1
 70
    58
 90
        2
176
     1
 90
        2
176
     1
 90
        0
176
     1
 90
        0
176
     1
 40
0.6
176
     1
 40
30.0
176
     1
 62
     7
420
 16777215
176
     1
 90
        1
176
     1
 90
        4
176
     1
 62
     7
176
     1
 62
   257
176
     1
 90
        1
176
     1
 90
        1
176
     1
 40
1.0
176
     1
 90
        8
176
     1
 62
     7
176
     1
 40
1.0
176
     1
 90
        1
176
     1
 90
        6
176
     1
 90
        2
176
     1
 62
     7
176
     1
 90
        5
176
     1
 90
        0
176
     1
 90
        0
176
     1
290
     0
176
     1
 90
        1
176
     1
 40
-50.0
176
     1
 90
        0
176
     1
290
     0
176
     1
290
     1
176
     1
290
     1
176
     1
290
     0
176
     1
290
     0
176
     1
290
     0
176
     1
290
     0
176
     1
290
     0
176
     1
290
     0
176
     1
 90
       50
176
     1
 40
0.0
176
     1
 40
1.0
176
     1
 90
        0
176
     1
 62
    18
420
        0
176
     1
 90
       50
176
     1
 90
        3
176
     1
 62
     5
420
      255
176
     1
290
     0
176
     1
 90
       50
176
     1
 90
       50
176
     1
 90
       50
176
     1
290
     0
176
     1
 90
       50
176
     1
 62
   256
176
     0
 40
1.0
176
     0
 90
        2
176
     1
  1
strokes_ogs.tif
176
     1
290
     0
176
     1
 40
1.0
176
     1
 40
1.0
176
     1
  0
VISUALSTYLE
  5
3D
102
{ACAD_REACTORS
330
2A
102
}
330
2A
100
AcDbVisualStyle
  2
EdgeColorOff
 70
    22
177
     3
291
     1
 70
    58
 90
        2
176
     0
 90
        2
176
     0
 90
        0
176
     0
 90
        0
176
     0
 40
0.6
176
     0
 40
30.0
176
     0
 62
     7
420
 16777215
176
     0
 90
        1
176
     0
 90
        4
176
     0
 62
     7
176
     0
 62
   257
176
     0
 90
        1
176
     0
 90
        1
176
     0
 40
1.0
176
     0
 90
        8
176
     2
 62
     7
176
     0
 40
1.0
176
     0
 90
        1
176
     0
 90
        6
176
     0
 90
        2
176
     0
 62
     7
176
     0
 90
        5
176
     0
 90
        0
176
     0
 90
        0
176
     0
290
     0
176
     0
 90
        1
176
     0
 40
0.0
176
     0
 90
        0
176
     0
290
     0
176
     0
290
     1
176
     0
290
     1
176
     0
290
     0
176
     0
290
     0
176
     0
290
     0
176
     0
290
     0
176
     0
290
     0
176
     0
290
     0
176
     0
 90
       50
176
     0
 40
0.0
176
     0
 40
1.0
176
     0
 90
        0
176
     0
 62
    18
420
        0
176
     0
 90
       50
176
     0
 90
        3
176
     0
 62
     5
420
      255
176
     0
290
     0
176
     0
 90
       50
176
     0
 90
       50
176
     0
 90
       50
176
     0
290
     0
176
     0
 90
       50
176
     0
 62
   256
176
     0
 40
1.0
176
     0
 90
        2
176
     0
  1
strokes_ogs.tif
176
     0
290
     0
176
     0
 40
1.0
176
     0
 40
1.0
176
     0
  0
VISUALSTYLE
  5
39
102
{ACAD_REACTORS
330
2A
102
}
330
2A
100
AcDbVisualStyle
  2
Facepattern
 70
    15
177
     3
291
     1
 70
    58
 90
        2
176
     1
 90
        2
176
     1
 90
        0
176
     1
 90
        0
176
     1
 40
0.6
176
     1
 40
30.0
176
     1
 62
     7
420
 16777215
176
     1
 90
        1
176
     1
 90
        4
176
     1
 62
     7
176
     1
 62
   257
176
     1
 90
        1
176
     1
 90
        1
176
     1
 40
1.0
176
     1
 90
        8
176
     1
 62
     7
176
     1
 40
1.0
176
     1
 90
        1
176
     1
 90
        6
176
     1
 90
        2
176
     1
 62
     7
176
     1
 90
        5
176
     1
 90
        0
176
     1
 90
        0
176
     1
290
     0
176
     1
 90
        1
176
     1
 40
0.0
176
     1
 90
        0
176
     1
290
     0
176
     1
290
     1
176
     1
290
     1
176
     1
290
     0
176
     1
290
     0
176
     1
290
     0
176
     1
290
     0
176
     1
290
     0
176
     1
290
     0
176
     1
 90
       50
176
     1
 40
0.0
176
     1
 40
1.0
176
     1
 90
        0
176
     1
 62
    18
420
        0
176
     1
 90
       50
176
     1
 90
        3
176
     1
 62
     5
420
      255
176
     1
290
     0
176
     1
 90
       50
176
     1
 90
       50
176
     1
 90
       50
176
     1
290
     0
176
     1
 90
       50
176
     1
 62
   256
176
     0
 40
1.0
176
     0
 90
        2
176
     1
  1
strokes_ogs.tif
176
     1
290
     0
176
     1
 40
1.0
176
     1
 40
1.0
176
     1
  0
VISUALSTYLE
  5
2B
102
{ACAD_REACTORS
330
2A
102
}
330
2A
100
AcDbVisualStyle
  2
Flat
 70
     0
177
     3
291
     1
 70
    58
 90
        2
176
     1
 90
        1
176
     1
 90
        1
176
     1
 90
        2
176
     1
 40
0.6
176
     1
 40
30.0
176
     1
 62
     7
420
 16777215
176
     1
 90
        0
176
     1
 90
        0
176
     1
 62
     7
176
     1
 62
   257
176
     1
 90
        1
176
     1
 90
        1
176
     1
 40
1.0
176
     1
 90
        8
176
     1
 62
     7
176
     1
 40
1.0
176
     1
 90
        1
176
     1
 90
        6
176
     1
 90
        2
176
     1
 62
     7
176
     1
 90
        5
176
     1
 90
        0
176
     1
 90
        0
176
     1
290
     0
176
     1
 90
       13
176
     1
 40
0.0
176
     1
 90
        0
176
     1
290
     0
176
     1
290
     1
176
     1
290
     1
176
     1
290
     0
176
     1
290
     0
176
     1
290
     0
176
     1
290
     0
176
     1
290
     0
176
     1
290
     0
176
     1
 90
       50
176
     1
 40
0.0
176
     1
 40
1.0
176
     1
 90
        0
176
     1
 62
    18
420
        0
176
     1
 90
       50
176
     1
 90
        3
176
     1
 62
     5
420
      255
176
     1
290
     0
176
     1
 90
       50
176
     1
 90
       50
176
     1
 90
       50
176
     1
290
     0
176
     1
 90
       50
176
     1
 62
   256
176
     0
 40
1.0
176
     0
 90
        2
176
     1
  1
strokes_ogs.tif
176
     1
290
     0
176
     1
 40
1.0
176
     1
 40
1.0
176
     1
  0
VISUALSTYLE
  5
2C
102
{ACAD_REACTORS
330
2A
102
}
330
2A
100
AcDbVisualStyle
  2
FlatWithEdges
 70
     1
177
     3
291
     1
 70
    58
 90
        2
176
     1
 90
        1
176
     1
 90
        1
176
     1
 90
        2
176
     1
 40
0.6
176
     1
 40
30.0
176
     1
 62
     7
420
 16777215
176
     1
 90
        1
176
     1
 90
        0
176
     1
 62
     7
176
     1
 62
   257
176
     1
 90
        1
176
     1
 90
        1
176
     1
 40
1.0
176
     1
 90
        0
176
     1
 62
   257
176
     1
 40
1.0
176
     1
 90
        1
176
     1
 90
        6
176
     1
 90
        2
176
     1
 62
     7
176
     1
 90
        5
176
     1
 90
        0
176
     1
 90
        0
176
     1
290
     0
176
     1
 90
       13
176
     1
 40
0.0
176
     1
 90
        0
176
     1
290
     0
176
     1
290
     1
176
     1
290
     1
176
     1
290
     0
176
     1
290
     0
176
     1
290
     0
176
     1
290
     0
176
     1
290
     0
176
     1
290
     0
176
     1
 90
       50
176
     1
 40
0.0
176
     1
 40
1.0
176
     1
 90
        0
176
     1
 62
    18
420
        0
176
     1
 90
       50
176
     1
 90
        3
176
     1
 62
     5
420
      255
176
     1
290
     0
176
     1
 90
       50
176
     1
 90
       50
176
     1
 90
       50
176
     1
290
     0
176
     1
 90
       50
176
     1
 62
   256
176
     0
 40
1.0
176
     0
 90
        2
176
     1
  1
strokes_ogs.tif
176
     1
290
     0
176
     1
 40
1.0
176
     1
 40
1.0
176
     1
  0
VISUALSTYLE
  5
2D
102
{ACAD_REACTORS
330
2A
102
}
330
2A
100
AcDbVisualStyle
  2
Gouraud
 70
     2
177
     3
291
     1
 70
    58
 90
        2
176
     1
 90
        2
176
     1
 90
        1
176
     1
 90
        2
176
     1
 40
0.6
176
     1
 40
30.0
176
     1
 62
     7
420
 16777215
176
     1
 90
        0
176
     1
 90
        0
176
     1
 62
     7
176
     1
 62
   257
176
     1
 90
        1
176
     1
 90
        1
176
     1
 40
1.0
176
     1
 90
        0
176
     1
 62
     7
176
     1
 40
1.0
176
     1
 90
        1
176
     1
 90
        6
176
     1
 90
        2
176
     1
 62
     7
176
     1
 90
        5
176
     1
 90
        0
176
     1
 90
        0
176
     1
290
     0
176
     1
 90
       13
176
     1
 40
0.0
176
     1
 90
        0
176
     1
290
     0
176
     1
290
     1
176
     1
290
     1
176
     1
290
     0
176
     1
290
     0
176
     1
290
     0
176
     1
290
     0
176
     1
290
     0
176
     1
290
     0
176
     1
 90
       50
176
     1
 40
0.0
176
     1
 40
1.0
176
     1
 90
        0
176
     1
 62
    18
420
        0
176
     1
 90
       50
176
     1
 90
        3
176
     1
 62
     5
420
      255
176
     1
290
     0
176
     1
 90
       50
176
     1
 90
       50
176
     1
 90
       50
176
     1
290
     0
176
     1
 90
       50
176
     1
 62
   256
176
     0
 40
1.0
176
     0
 90
        2
176
     1
  1
strokes_ogs.tif
176
     1
290
     0
176
     1
 40
1.0
176
     1
 40
1.0
176
     1
  0
VISUALSTYLE
  5
2E
102
{ACAD_REACTORS
330
2A
102
}
330
2A
100
AcDbVisualStyle
  2
GouraudWithEdges
 70
     3
177
     3
291
     1
 70
    58
 90
        2
176
     1
 90
        2
176
     1
 90
        1
176
     1
 90
        2
176
     1
 40
0.6
176
     1
 40
30.0
176
     1
 62
     7
420
 16777215
176
     1
 90
        1
176
     1
 90
        0
176
     1
 62
     7
176
     1
 62
   257
176
     1
 90
        1
176
     1
 90
        1
176
     1
 40
1.0
176
     1
 90
        0
176
     1
 62
   257
176
     1
 40
1.0
176
     1
 90
        1
176
     1
 90
        6
176
     1
 90
        2
176
     1
 62
     7
176
     1
 90
        5
176
     1
 90
        0
176
     1
 90
        0
176
     1
290
     0
176
     1
 90
       13
176
     1
 40
0.0
176
     1
 90
        0
176
     1
290
     0
176
     1
290
     1
176
     1
290
     1
176
     1
290
     0
176
     1
290
     0
176
     1
290
     0
176
     1
290
     0
176
     1
290
     0
176
     1
290
     0
176
     1
 90
       50
176
     1
 40
0.0
176
     1
 40
1.0
176
     1
 90
        0
176
     1
 62
    18
420
        0
176
     1
 90
       50
176
     1
 90
        3
176
     1
 62
     5
420
      255
176
     1
290
     0
176
     1
 90
       50
176
     1
 90
       50
176
     1
 90
       50
176
     1
290
     0
176
     1
 90
       50
176
     1
 62
   256
176
     0
 40
1.0
176
     0
 90
        2
176
     1
  1
strokes_ogs.tif
176
     1
290
     0
176
     1
 40
1.0
176
     1
 40
1.0
176
     1
  0
VISUALSTYLE
  5
31
102
{ACAD_REACTORS
330
2A
102
}
330
2A
100
AcDbVisualStyle
  2
Hidden
 70
     6
177
     3
291
     0
 70
    58
 90
        1
176
     1
 90
        2
176
     1
 90
        2
176
     1
 90
        0
176
     1
 40
0.6
176
     1
 40
30.0
176
     1
 62
     7
420
 16777215
176
     1
 90
        2
176
     1
 90
        2
176
     1
 62
     7
176
     1
 62
   257
176
     1
 90
        2
176
     1
 90
        1
176
     1
 40
40.0
176
     1
 90
        0
176
     1
 62
   257
176
     1
 40
1.0
176
     1
 90
        1
176
     1
 90
        6
176
     1
 90
        2
176
     1
 62
     7
176
     1
 90
        3
176
     1
 90
        0
176
     1
 90
        0
176
     1
290
     0
176
     1
 90
        1
176
     1
 40
0.0
176
     1
 90
        0
176
     1
290
     0
176
     1
290
     1
176
     1
290
     1
176
     1
290
     0
176
     1
290
     0
176
     1
290
     0
176
     1
290
     0
176
     1
290
     0
176
     1
290
     0
176
     1
 90
       50
176
     1
 40
0.0
176
     1
 40
1.0
176
     1
 90
        0
176
     1
 62
    18
420
        0
176
     1
 90
       50
176
     1
 90
        3
176
     1
 62
     5
420
      255
176
     1
290
     0
176
     1
 90
       50
176
     1
 90
       50
176
     1
 90
       50
176
     1
290
     0
176
     1
 90
       50
176
     1
 62
   256
176
     0
 40
1.0
176
     0
 90
        2
176
     1
  1
strokes_ogs.tif
176
     1
290
     0
176
     1
 40
1.0
176
     1
 40
1.0
176
     1
  0
VISUALSTYLE
  5
3B
102
{ACAD_REACTORS
330
2A
102
}
330
2A
100
AcDbVisualStyle
  2
JitterOff
 70
    20
177
     3
291
     1
 70
    58
 90
        2
176
     0
 90
        2
176
     0
 90
        0
176
     0
 90
        0
176
     0
 40
0.6
176
     0
 40
30.0
176
     0
 62
     7
420
 16777215
176
     0
 90
        1
176
     0
 90
        4
176
     0
 62
     7
176
     0
 62
   257
176
     0
 90
        1
176
     0
 90
        1
176
     0
 40
1.0
176
     0
 90
       10
176
     2
 62
     7
176
     0
 40
1.0
176
     0
 90
        1
176
     0
 90
        6
176
     0
 90
        2
176
     0
 62
     7
176
     0
 90
        5
176
     0
 90
        0
176
     0
 90
        0
176
     0
290
     0
176
     0
 90
        1
176
     0
 40
0.0
176
     0
 90
        0
176
     0
290
     0
176
     0
290
     1
176
     0
290
     1
176
     0
290
     0
176
     0
290
     0
176
     0
290
     0
176
     0
290
     0
176
     0
290
     0
176
     0
290
     0
176
     0
 90
       50
176
     0
 40
0.0
176
     0
 40
1.0
176
     0
 90
        0
176
     0
 62
    18
420
        0
176
     0
 90
       50
176
     0
 90
        3
176
     0
 62
     5
420
      255
176
     0
290
     0
176
     0
 90
       50
176
     0
 90
       50
176
     0
 90
       50
176
     0
290
     0
176
     0
 90
       50
176
     0
 62
   256
176
     0
 40
1.0
176
     0
 90
        2
176
     0
  1
strokes_ogs.tif
176
     0
290
     0
176
     0
 40
1.0
176
     0
 40
1.0
176
     0
  0
VISUALSTYLE
  5
38
102
{ACAD_REACTORS
330
2A
102
}
330
2A
100
AcDbVisualStyle
  2
Linepattern
 70
    14
177
     3
291
     1
 70
    58
 90
        2
176
     1
 90
        2
176
     1
 90
        0
176
     1
 90
        0
176
     1
 40
0.6
176
     1
 40
30.0
176
     1
 62
     7
420
 16777215
176
     1
 90
        1
176
     1
 90
        4
176
     1
 62
     7
176
     1
 62
   257
176
     1
 90
        7
176
     1
 90
        7
176
     1
 40
1.0
176
     1
 90
        8
176
     1
 62
     7
176
     1
 40
1.0
176
     1
 90
        1
176
     1
 90
        6
176
     1
 90
        2
176
     1
 62
     7
176
     1
 90
        5
176
     1
 90
        0
176
     1
 90
        0
176
     1
290
     0
176
     1
 90
        1
176
     1
 40
0.0
176
     1
 90
        0
176
     1
290
     0
176
     1
290
     1
176
     1
290
     1
176
     1
290
     0
176
     1
290
     0
176
     1
290
     0
176
     1
290
     0
176
     1
290
     0
176
     1
290
     0
176
     1
 90
       50
176
     1
 40
0.0
176
     1
 40
1.0
176
     1
 90
        0
176
     1
 62
    18
420
        0
176
     1
 90
       50
176
     1
 90
        3
176
     1
 62
     5
420
      255
176
     1
290
     0
176
     1
 90
       50
176
     1
 90
       50
176
     1
 90
       50
176
     1
290
     0
176
     1
 90
       50
176
     1
 62
   256
176
     0
 40
1.0
176
     0
 90
        2
176
     1
  1
strokes_ogs.tif
176
     1
290
     0
176
     1
 40
1.0
176
     1
 40
1.0
176
     1
  0
VISUALSTYLE
  5
3C
102
{ACAD_REACTORS
330
2A
102
}
330
2A
100
AcDbVisualStyle
  2
OverhangOff
 70
    21
177
     3
291
     1
 70
    58
 90
        2
176
     0
 90
        2
176
     0
 90
        0
176
     0
 90
        0
176
     0
 40
0.6
176
     0
 40
30.0
176
     0
 62
     7
420
 16777215
176
     0
 90
        1
176
     0
 90
        4
176
     0
 62
     7
176
     0
 62
   257
176
     0
 90
        1
176
     0
 90
        1
176
     0
 40
1.0
176
     0
 90
        9
176
     2
 62
     7
176
     0
 40
1.0
176
     0
 90
        1
176
     0
 90
        6
176
     0
 90
        2
176
     0
 62
     7
176
     0
 90
        5
176
     0
 90
        0
176
     0
 90
        0
176
     0
290
     0
176
     0
 90
        1
176
     0
 40
0.0
176
     0
 90
        0
176
     0
290
     0
176
     0
290
     1
176
     0
290
     1
176
     0
290
     0
176
     0
290
     0
176
     0
290
     0
176
     0
290
     0
176
     0
290
     0
176
     0
290
     0
176
     0
 90
       50
176
     0
 40
0.0
176
     0
 40
1.0
176
     0
 90
        0
176
     0
 62
    18
420
        0
176
     0
 90
       50
176
     0
 90
        3
176
     0
 62
     5
420
      255
176
     0
290
     0
176
     0
 90
       50
176
     0
 90
       50
176
     0
 90
       50
176
     0
290
     0
176
     0
 90
       50
176
     0
 62
   256
176
     0
 40
1.0
176
     0
 90
        2
176
     0
  1
strokes_ogs.tif
176
     0
290
     0
176
     0
 40
1.0
176
     0
 40
1.0
176
     0
  0
VISUALSTYLE
  5
33
102
{ACAD_REACTORS
330
2A
102
}
330
2A
100
AcDbVisualStyle
  2
Realistic
 70
     8
177
     3
291
     0
 70
    58
 90
        2
176
     1
 90
        3
176
     1
 90
        0
176
     1
 90
        2
176
     1
 40
0.6
176
     1
 40
30.0
176
     1
 62
     7
420
 16777215
176
     1
 90
        0
176
     1
 90
        0
176
     1
 62
     7
176
     1
 62
   257
176
     1
 90
        1
176
     1
 90
        1
176
     1
 40
1.0
176
     1
 90
        8
176
     1
 62
   257
176
     1
 40
1.0
176
     1
 90
        1
176
     1
 90
        6
176
     1
 90
        2
176
     1
 62
     7
176
     1
 90
        3
176
     1
 90
        0
176
     1
 90
        0
176
     1
290
     0
176
     1
 90
       13
176
     1
 40
0.0
176
     1
 90
        0
176
     1
290
     0
176
     1
290
     1
176
     1
290
     1
176
     1
290
     0
176
     1
290
     0
176
     1
290
     0
176
     1
290
     0
176
     1
290
     0
176
     1
290
     0
176
     1
 90
       50
176
     1
 40
0.0
176
     1
 40
1.0
176
     1
 90
        0
176
     1
 62
    18
420
        0
176
     1
 90
       50
176
     1
 90
        3
176
     1
 62
     5
420
      255
176
     1
290
     0
176
     1
 90
       50
176
     1
 90
       50
176
     1
 90
       50
176
     1
290
     0
176
     1
 90
       50
176
     1
 62
   256
176
     0
 40
1.0
176
     0
 90
        2
176
     1
  1
strokes_ogs.tif
176
     1
290
     0
176
     1
 40
1.0
176
     1
 40
1.0
176
     1
  0
VISUALSTYLE
  5
42
102
{ACAD_REACTORS
330
2A
102
}
330
2A
100
AcDbVisualStyle
  2
Shaded
 70
    27
177
     3
291
     0
 70
    58
 90
        2
176
     1
 90
        2
176
     1
 90
        1
176
     1
 90
        2
176
     1
 40
0.6
176
     1
 40
30.0
176
     1
 62
     7
420
 16777215
176
     1
 90
        0
176
     1
 90
        4
176
     1
 62
     7
176
     1
 62
   257
176
     1
 90
        1
176
     1
 90
        1
176
     1
 40
1.0
176
     1
 90
        8
176
     1
 62
   257
176
     1
 40
1.0
176
     1
 90
        1
176
     1
 90
        6
176
     1
 90
        2
176
     1
 62
     8
420
  7895160
176
     1
 90
        3
176
     1
 90
        0
176
     1
 90
        0
176
     1
290
     0
176
     1
 90
        5
176
     1
 40
0.0
176
     1
 90
        0
176
     1
290
     0
176
     1
290
     1
176
     1
290
     1
176
     1
290
     0
176
     1
290
     0
176
     1
290
     0
176
     1
290
     0
176
     1
290
     0
176
     1
290
     0
176
     1
 90
       50
176
     1
 40
0.0
176
     1
 40
1.0
176
     1
 90
        0
176
     1
 62
    18
420
        0
176
     1
 90
       50
176
     1
 90
        3
176
     1
 62
     5
420
      255
176
     1
290
     0
176
     1
 90
       50
176
     1
 90
       50
176
     1
 90
       50
176
     1
290
     0
176
     1
 90
       50
176
     1
 62
   256
176
     0
 40
1.0
176
     0
 90
        2
176
     1
  1
strokes_ogs.tif
176
     1
290
     0
176
     1
 40
1.0
176
     1
 40
1.0
176
     1
  0
VISUALSTYLE
  5
41
102
{ACAD_REACTORS
330
2A
102
}
330
2A
100
AcDbVisualStyle
  2
Shaded with edges
 70
    26
177
     3
291
     0
 70
    58
 90
        2
176
     1
 90
        2
176
     1
 90
        1
176
     1
 90
        2
176
     1
 40
0.6
176
     1
 40
30.0
176
     1
 62
     7
420
 16777215
176
     1
 90
        1
176
     1
 90
       10
176
     1
 62
     7
176
     1
 62
   257
176
     1
 90
        2
176
     1
 90
        1
176
     1
 40
1.0
176
     1
 90
        8
176
     1
 62
   257
176
     1
 40
1.0
176
     1
 90
        1
176
     1
 90
        6
176
     1
 90
        2
176
     1
 62
     7
176
     1
 90
        3
176
     1
 90
        0
176
     1
 90
        0
176
     1
290
     0
176
     1
 90
        5
176
     1
 40
0.0
176
     1
 90
        0
176
     1
290
     0
176
     1
290
     1
176
     1
290
     1
176
     1
290
     0
176
     1
290
     0
176
     1
290
     0
176
     1
290
     0
176
     1
290
     0
176
     1
290
     0
176
     1
 90
       50
176
     1
 40
0.0
176
     1
 40
1.0
176
     1
 90
        0
176
     1
 62
    18
420
        0
176
     1
 90
       50
176
     1
 90
        3
176
     1
 62
     5
420
      255
176
     1
290
     0
176
     1
 90
       50
176
     1
 90
       50
176
     1
 90
       50
176
     1
290
     0
176
     1
 90
       50
176
     1
 62
   256
176
     0
 40
1.0
176
     0
 90
        2
176
     1
  1
strokes_ogs.tif
176
     1
290
     0
176
     1
 40
1.0
176
     1
 40
1.0
176
     1
  0
VISUALSTYLE
  5
3E
102
{ACAD_REACTORS
330
2A
102
}
330
2A
100
AcDbVisualStyle
  2
Shades of Gray
 70
    23
177
     3
291
     0
 70
    58
 90
        2
176
     1
 90
        2
176
     1
 90
        3
176
     1
 90
        0
176
     1
 40
0.6
176
     1
 40
30.0
176
     1
 62
     7
420
 16777215
176
     1
 90
        2
176
     1
 90
        2
176
     1
 62
     7
176
     1
 62
     7
176
     1
 90
        1
176
     1
 90
        1
176
     1
 40
40.0
176
     1
 90
        8
176
     1
 62
     7
176
     1
 40
1.0
176
     1
 90
        1
176
     1
 90
        6
176
     1
 90
        2
176
     1
 62
     7
176
     1
 90
        3
176
     1
 90
        0
176
     1
 90
        0
176
     1
290
     0
176
     1
 90
        1
176
     1
 40
0.0
176
     1
 90
        0
176
     1
290
     0
176
     1
290
     1
176
     1
290
     1
176
     1
290
     0
176
     1
290
     0
176
     1
290
     0
176
     1
290
     0
176
     1
290
     0
176
     1
290
     0
176
     1
 90
       50
176
     1
 40
0.0
176
     1
 40
1.0
176
     1
 90
        0
176
     1
 62
    18
420
        0
176
     1
 90
       50
176
     1
 90
        3
176
     1
 62
     5
420
      255
176
     1
290
     0
176
     1
 90
       50
176
     1
 90
       50
176
     1
 90
       50
176
     1
290
     0
176
     1
 90
       50
176
     1
 62
   256
176
     0
 40
1.0
176
     0
 90
        2
176
     1
  1
strokes_ogs.tif
176
     1
290
     0
176
     1
 40
1.0
176
     1
 40
1.0
176
     1
  0
VISUALSTYLE
  5
3F
102
{ACAD_REACTORS
330
2A
102
}
330
2A
100
AcDbVisualStyle
  2
Sketchy
 70
    24
177
     3
291
     0
 70
    58
 90
        1
176
     1
 90
        2
176
     1
 90
        2
176
     1
 90
        0
176
     1
 40
0.6
176
     1
 40
30.0
176
     1
 62
     7
420
 16777215
176
     1
 90
        2
176
     1
 90
        2
176
     1
 62
     7
176
     1
 62
     7
176
     1
 90
        1
176
     1
 90
        1
176
     1
 40
40.0
176
     1
 90
       11
176
     1
 62
     7
176
     1
 40
1.0
176
     1
 90
        1
176
     1
 90
        6
176
     1
 90
        2
176
     1
 62
     7
176
     1
 90
        6
176
     1
 90
        0
176
     1
 90
        0
176
     1
290
     0
176
     1
 90
        1
176
     1
 40
0.0
176
     1
 90
        0
176
     1
290
     0
176
     1
290
     1
176
     1
290
     1
176
     1
290
     0
176
     1
290
     0
176
     1
290
     0
176
     1
290
     0
176
     1
290
     0
176
     1
290
     0
176
     1
 90
       50
176
     1
 40
0.0
176
     1
 40
1.0
176
     1
 90
        0
176
     1
 62
    18
420
        0
176
     1
 90
       50
176
     1
 90
        3
176
     1
 62
     5
420
      255
176
     1
290
     0
176
     1
 90
       50
176
     1
 90
       50
176
     1
 90
       50
176
     1
290
     0
176
     1
 90
       50
176
     1
 62
   256
176
     0
 40
1.0
176
     0
 90
        2
176
     1
  1
strokes_ogs.tif
176
     1
290
     0
176
     1
 40
1.0
176
     1
 40
1.0
176
     1
  0
VISUALSTYLE
  5
37
102
{ACAD_REACTORS
330
2A
102
}
330
2A
100
AcDbVisualStyle
  2
Thicken
 70
    13
177
     3
291
     1
 70
    58
 90
        2
176
     1
 90
        2
176
     1
 90
        0
176
     1
 90
        0
176
     1
 40
0.6
176
     1
 40
30.0
176
     1
 62
     7
420
 16777215
176
     1
 90
        1
176
     1
 90
        4
176
     1
 62
     7
176
     1
 62
   257
176
     1
 90
        1
176
     1
 90
        1
176
     1
 40
1.0
176
     1
 90
       12
176
     1
 62
     7
176
     1
 40
1.0
176
     1
 90
        1
176
     1
 90
        6
176
     1
 90
        2
176
     1
 62
     7
176
     1
 90
        5
176
     1
 90
        0
176
     1
 90
        0
176
     1
290
     0
176
     1
 90
        1
176
     1
 40
0.0
176
     1
 90
        0
176
     1
290
     0
176
     1
290
     1
176
     1
290
     1
176
     1
290
     0
176
     1
290
     0
176
     1
290
     0
176
     1
290
     0
176
     1
290
     0
176
     1
290
     0
176
     1
 90
       50
176
     1
 40
0.0
176
     1
 40
1.0
176
     1
 90
        0
176
     1
 62
    18
420
        0
176
     1
 90
       50
176
     1
 90
        3
176
     1
 62
     5
420
      255
176
     1
290
     0
176
     1
 90
       50
176
     1
 90
       50
176
     1
 90
       50
176
     1
290
     0
176
     1
 90
       50
176
     1
 62
   256
176
     0
 40
1.0
176
     0
 90
        2
176
     1
  1
strokes_ogs.tif
176
     1
290
     0
176
     1
 40
1.0
176
     1
 40
1.0
176
     1
  0
VISUALSTYLE
  5
30
102
{ACAD_REACTORS
330
2A
102
}
330
2A
100
AcDbVisualStyle
  2
Wireframe
 70
     5
177
     3
291
     0
 70
    58
 90
        0
176
     1
 90
        2
176
     1
 90
        0
176
     1
 90
        0
176
     1
 40
0.6
176
     1
 40
30.0
176
     1
 62
     7
420
 16777215
176
     1
 90
        1
176
     1
 90
        4
176
     1
 62
     7
176
     1
 62
   257
176
     1
 90
        1
176
     1
 90
        1
176
     1
 40
1.0
176
     1
 90
        0
176
     1
 62
   257
176
     1
 40
1.0
176
     1
 90
        1
176
     1
 90
        6
176
     1
 90
        2
176
     1
 62
     7
176
     1
 90
        3
176
     1
 90
        0
176
     1
 90
        0
176
     1
290
     0
176
     1
 90
        1
176
     1
 40
0.0
176
     1
 90
        0
176
     1
290
     0
176
     1
290
     1
176
     1
290
     1
176
     1
290
     0
176
     1
290
     0
176
     1
290
     0
176
     1
290
     0
176
     1
290
     0
176
     1
290
     0
176
     1
 90
       50
176
     1
 40
0.0
176
     1
 40
1.0
176
     1
 90
        0
176
     1
 62
    18
420
        0
176
     1
 90
       50
176
     1
 90
        3
176
     1
 62
     5
420
      255
176
     1
290
     0
176
     1
 90
       50
176
     1
 90
       50
176
     1
 90
       50
176
     1
290
     0
176
     1
 90
       50
176
     1
 62
   256
176
     0
 40
1.0
176
     0
 90
        2
176
     1
  1
strokes_ogs.tif
176
     1
290
     0
176
     1
 40
1.0
176
     1
 40
1.0
176
     1
  0
VISUALSTYLE
  5
40
102
{ACAD_REACTORS
330
2A
102
}
330
2A
100
AcDbVisualStyle
  2
X-Ray
 70
    25
177
     3
291
     0
 70
    58
 90
        2
176
     1
 90
        2
176
     1
 90
        1
176
     1
 90
        1
176
     1
 40
0.5
176
     1
 40
30.0
176
     1
 62
     7
420
 16777215
176
     1
 90
        1
176
     1
 90
        0
176
     1
 62
     7
176
     1
 62
   257
176
     1
 90
        1
176
     1
 90
        1
176
     1
 40
1.0
176
     1
 90
        8
176
     1
 62
     7
176
     1
 40
1.0
176
     1
 90
        1
176
     1
 90
        6
176
     1
 90
        2
176
     1
 62
     7
176
     1
 90
        3
176
     1
 90
        0
176
     1
 90
        0
176
     1
290
     0
176
     1
 90
       13
176
     1
 40
0.0
176
     1
 90
        0
176
     1
290
     0
176
     1
290
     1
176
     1
290
     1
176
     1
290
     0
176
     1
290
     0
176
     1
290
     0
176
     1
290
     0
176
     1
290
     0
176
     1
290
     0
176
     1
 90
       50
176
     1
 40
0.0
176
     1
 40
1.0
176
     1
 90
        0
176
     1
 62
    18
420
        0
176
     1
 90
       50
176
     1
 90
        3
176
     1
 62
     5
420
      255
176
     1
290
     0
176
     1
 90
       50
176
     1
 90
       50
176
     1
 90
       50
176
     1
290
     0
176
     1
 90
       50
176
     1
 62
   256
176
     0
 40
1.0
176
     0
 90
        2
176
     1
  1
strokes_ogs.tif
176
     1
290
     0
176
     1
 40
1.0
176
     1
 40
1.0
176
     1
  0
DICTIONARYVAR
  5
1F6
102
{ACAD_REACTORS
330
1F5
102
}
330
1F5
100
DictionaryVariables
280
     0
  1
1:1
  0
DICTIONARYVAR
  5
1FB
102
{ACAD_REACTORS
330
1F5
102
}
330
1F5
100
DictionaryVariables
280
     0
  1
Standard
  0
DICTIONARYVAR
  5
1FA
102
{ACAD_REACTORS
330
1F5
102
}
330
1F5
100
DictionaryVariables
280
     0
  1
Standard
  0
DICTIONARY
  5
1F7
330
6A
100
AcDbDictionary
280
     1
281
     1
  3
ACAD_ROUNDTRIP_2008_TABLESTYLE_CELLSTYLEMAP
360
1F8
  0
CELLSTYLEMAP
  5
1F8
102
{ACAD_REACTORS
330
1F7
102
}
330
1F7
100
AcDbCellStyleMap
 90
        3
300
CELLSTYLE
  1
TABLEFORMAT_BEGIN
 90
        5
170
     1
 91
        0
 92
    32768
 62
   257
 93
        1
300
CONTENTFORMAT
  1
CONTENTFORMAT_BEGIN
 90
        0
 91
        0
 92
        4
 93
        0
300

 40
0.0
140
1.0
 94
        5
 62
     0
340
11
144
0.25
309
CONTENTFORMAT_END
171
     1
301
MARGIN
  1
CELLMARGIN_BEGIN
 40
0.06
 40
0.06
 40
0.06
 40
0.06
 40
0.06
 40
0.06
309
CELLMARGIN_END
 94
        6
 95
        1
302
GRIDFORMAT
  1
GRIDFORMAT_BEGIN
 90
        0
 91
        1
 62
     0
 92
       -2
340
14
 93
        0
 40
0.045
309
GRIDFORMAT_END
 95
        2
302
GRIDFORMAT
  1
GRIDFORMAT_BEGIN
 90
        0
 91
        1
 62
     0
 92
       -2
340
14
 93
        0
 40
0.045
309
GRIDFORMAT_END
 95
        4
302
GRIDFORMAT
  1
GRIDFORMAT_BEGIN
 90
        0
 91
        1
 62
     0
 92
       -2
340
14
 93
        0
 40
0.045
309
GRIDFORMAT_END
 95
        8
302
GRIDFORMAT
  1
GRIDFORMAT_BEGIN
 90
        0
 91
        1
 62
     0
 92
       -2
340
14
 93
        0
 40
0.045
309
GRIDFORMAT_END
 95
       16
302
GRIDFORMAT
  1
GRIDFORMAT_BEGIN
 90
        0
 91
        1
 62
     0
 92
       -2
340
14
 93
        0
 40
0.045
309
GRIDFORMAT_END
 95
       32
302
GRIDFORMAT
  1
GRIDFORMAT_BEGIN
 90
        0
 91
        1
 62
     0
 92
       -2
340
14
 93
        0
 40
0.045
309
GRIDFORMAT_END
309
TABLEFORMAT_END
  1
CELLSTYLE_BEGIN
 90
        1
 91
        1
300
_TITLE
309
CELLSTYLE_END
300
CELLSTYLE
  1
TABLEFORMAT_BEGIN
 90
        5
170
     1
 91
        0
 92
        0
 62
   257
 93
        1
300
CONTENTFORMAT
  1
CONTENTFORMAT_BEGIN
 90
        0
 91
        0
 92
        4
 93
        0
300

 40
0.0
140
1.0
 94
        5
 62
     0
340
11
144
0.18
309
CONTENTFORMAT_END
171
     1
301
MARGIN
  1
CELLMARGIN_BEGIN
 40
0.06
 40
0.06
 40
0.06
 40
0.06
 40
0.06
 40
0.06
309
CELLMARGIN_END
 94
        6
 95
        1
302
GRIDFORMAT
  1
GRIDFORMAT_BEGIN
 90
        0
 91
        1
 62
     0
 92
       -2
340
14
 93
        0
 40
0.045
309
GRIDFORMAT_END
 95
        2
302
GRIDFORMAT
  1
GRIDFORMAT_BEGIN
 90
        0
 91
        1
 62
     0
 92
       -2
340
14
 93
        0
 40
0.045
309
GRIDFORMAT_END
 95
        4
302
GRIDFORMAT
  1
GRIDFORMAT_BEGIN
 90
        0
 91
        1
 62
     0
 92
       -2
340
14
 93
        0
 40
0.045
309
GRIDFORMAT_END
 95
        8
302
GRIDFORMAT
  1
GRIDFORMAT_BEGIN
 90
        0
 91
        1
 62
     0
 92
       -2
340
14
 93
        0
 40
0.045
309
GRIDFORMAT_END
 95
       16
302
GRIDFORMAT
  1
GRIDFORMAT_BEGIN
 90
        0
 91
        1
 62
     0
 92
       -2
340
14
 93
        0
 40
0.045
309
GRIDFORMAT_END
 95
       32
302
GRIDFORMAT
  1
GRIDFORMAT_BEGIN
 90
        0
 91
        1
 62
     0
 92
       -2
340
14
 93
        0
 40
0.045
309
GRIDFORMAT_END
309
TABLEFORMAT_END
  1
CELLSTYLE_BEGIN
 90
        2
 91
        1
300
_HEADER
309
CELLSTYLE_END
300
CELLSTYLE
  1
TABLEFORMAT_BEGIN
 90
        5
170
     1
 91
        0
 92
        0
 62
   257
 93
        1
300
CONTENTFORMAT
  1
CONTENTFORMAT_BEGIN
 90
        0
 91
        0
 92
        4
 93
        0
300

 40
0.0
140
1.0
 94
        2
 62
     0
340
11
144
0.18
309
CONTENTFORMAT_END
171
     1
301
MARGIN
  1
CELLMARGIN_BEGIN
 40
0.06
 40
0.06
 40
0.06
 40
0.06
 40
0.06
 40
0.06
309
CELLMARGIN_END
 94
        6
 95
        1
302
GRIDFORMAT
  1
GRIDFORMAT_BEGIN
 90
        0
 91
        1
 62
     0
 92
       -2
340
14
 93
        0
 40
0.045
309
GRIDFORMAT_END
 95
        2
302
GRIDFORMAT
  1
GRIDFORMAT_BEGIN
 90
        0
 91
        1
 62
     0
 92
       -2
340
14
 93
        0
 40
0.045
309
GRIDFORMAT_END
 95
        4
302
GRIDFORMAT
  1
GRIDFORMAT_BEGIN
 90
        0
 91
        1
 62
     0
 92
       -2
340
14
 93
        0
 40
0.045
309
GRIDFORMAT_END
 95
        8
302
GRIDFORMAT
  1
GRIDFORMAT_BEGIN
 90
        0
 91
        1
 62
     0
 92
       -2
340
14
 93
        0
 40
0.045
309
GRIDFORMAT_END
 95
       16
302
GRIDFORMAT
  1
GRIDFORMAT_BEGIN
 90
        0
 91
        1
 62
     0
 92
       -2
340
14
 93
        0
 40
0.045
309
GRIDFORMAT_END
 95
       32
302
GRIDFORMAT
  1
GRIDFORMAT_BEGIN
 90
        0
 91
        1
 62
     0
 92
       -2
340
14
 93
        0
 40
0.045
309
GRIDFORMAT_END
309
TABLEFORMAT_END
  1
CELLSTYLE_BEGIN
 90
        3
 91
        2
300
_DATA
309
CELLSTYLE_END
  0
ENDSEC
  0
EOF