0
SECTION
  2
HEADER
  9
$ACADVER
  1
AC1027
  9
$ACADMAINTVER
 70
     8
  9
$DWGCODEPAGE
  3
ANSI_1252
  9
$REQUIREDVERSIONS
160
                 0
  9
$COMMENTS
  1
File was created by Cadenas
  9
$CUSTOMPROPERTYTAG
  1
NN
  9
$CUSTOMPROPERTY
  1
Grip Tight Flange Cartridge Metric Bore
  9
$CUSTOMPROPERTYTAG
  1
NT
  9
$CUSTOMPROPERTY
  1
GT Normal Duty Piloted Flange Bearings
  9
$CUSTOMPROPERTYTAG
  1
NB
  9
$CUSTOMPROPERTY
  1
129756
  9
$CUSTOMPROPERTYTAG
  1
NBSYN
  9
$CUSTOMPROPERTY
  1
$PN.
  9
$CUSTOMPROPERTYTAG
  1
LINA
  9
$CUSTOMPROPERTY
  1
129756
  9
$CUSTOMPROPERTYTAG
  1
SERIES
  9
$CUSTOMPROPERTY
  1
212
  9
$CUSTOMPROPERTYTAG
  1
SS
  9
$CUSTOMPROPERTY
  1
60
  9
$CUSTOMPROPERTYTAG
  1
PN
  9
$CUSTOMPROPERTY
  1
129756
  9
$CUSTOMPROPERTYTAG
  1
DESCRIPTION
  9
$CUSTOMPROPERTY
  1
FC-GT-60M
  9
$CUSTOMPROPERTYTAG
  1
PNSL
  9
$CUSTOMPROPERTY
  1
129507
  9
$CUSTOMPROPERTYTAG
  1
DESCRIPTIONSL
  9
$CUSTOMPROPERTY
  1
FC-GT-12
  9
$CUSTOMPROPERTYTAG
  1
PNA
  9
$CUSTOMPROPERTY
  1
136594
  9
$CUSTOMPROPERTYTAG
  1
DESCRIPTIONA
  9
$CUSTOMPROPERTY
  1
AN-GT-12-60M-D
  9
$CUSTOMPROPERTYTAG
  1
W
  9
$CUSTOMPROPERTY
  1
4.9
  9
$CUSTOMPROPERTYTAG
  1
A
  9
$CUSTOMPROPERTY
  1
53.8
  9
$CUSTOMPROPERTYTAG
  1
B
  9
$CUSTOMPROPERTY
  1
181.1
  9
$CUSTOMPROPERTYTAG
  1
C
  9
$CUSTOMPROPERTY
  1
64.0
  9
$CUSTOMPROPERTYTAG
  1
D
  9
$CUSTOMPROPERTY
  1
152.4
  9
$CUSTOMPROPERTYTAG
  1
E
  9
$CUSTOMPROPERTY
  1
22.4
  9
$CUSTOMPROPERTYTAG
  1
F
  9
$CUSTOMPROPERTY
  1
M12
  9
$CUSTOMPROPERTYTAG
  1
G
  9
$CUSTOMPROPERTY
  1
41.9
  9
$CUSTOMPROPERTYTAG
  1
H
  9
$CUSTOMPROPERTY
  1
25.4
  9
$CUSTOMPROPERTYTAG
  1
K
  9
$CUSTOMPROPERTY
  1
127.00/126.95
  9
$CUSTOMPROPERTYTAG
  1
L
  9
$CUSTOMPROPERTY
  1
93.7
  9
$CUSTOMPROPERTYTAG
  1
Z
  9
$CUSTOMPROPERTY
  1
43.4
  9
$CUSTOMPROPERTYTAG
  1
CAPS
  9
$CUSTOMPROPERTY
  1
6955
  9
$CUSTOMPROPERTYTAG
  1
CAPD
  9
$CUSTOMPROPERTY
  1
11791
  9
$CUSTOMPROPERTYTAG
  1
COMPANY
  9
$CUSTOMPROPERTY
  1
baldor
  9
$INSBASE
 10
0.0
 20
0.0
 30
0.0
  9
$EXTMIN
 10
1.000000000000000E+20
 20
1.000000000000000E+20
 30
1.000000000000000E+20
  9
$EXTMAX
 10
-1.000000000000000E+20
 20
-1.000000000000000E+20
 30
-1.000000000000000E+20
  9
$LIMMIN
 10
0.0
 20
0.0
  9
$LIMMAX
 10
420.0
 20
297.0
  9
$ORTHOMODE
 70
     0
  9
$REGENMODE
 70
     1
  9
$FILLMODE
 70
     1
  9
$QTEXTMODE
 70
     0
  9
$MIRRTEXT
 70
     1
  9
$LTSCALE
 40
1.0
  9
$ATTMODE
 70
     1
  9
$TEXTSIZE
 40
2.5
  9
$TRACEWID
 40
1.0
  9
$TEXTSTYLE
  7
Standard
  9
$CLAYER
  8
0
  9
$CELTYPE
  6
ByLayer
  9
$CECOLOR
 62
   256
  9
$CELTSCALE
 40
1.0
  9
$DISPSILH
 70
     0
  9
$DIMSCALE
 40
1.0
  9
$DIMASZ
 40
2.5
  9
$DIMEXO
 40
0.625
  9
$DIMDLI
 40
3.75
  9
$DIMRND
 40
0.0
  9
$DIMDLE
 40
0.0
  9
$DIMEXE
 40
1.25
  9
$DIMTP
 40
0.0
  9
$DIMTM
 40
0.0
  9
$DIMTXT
 40
2.5
  9
$DIMCEN
 40
2.5
  9
$DIMTSZ
 40
0.0
  9
$DIMTOL
 70
     0
  9
$DIMLIM
 70
     0
  9
$DIMTIH
 70
     0
  9
$DIMTOH
 70
     0
  9
$DIMSE1
 70
     0
  9
$DIMSE2
 70
     0
  9
$DIMTAD
 70
     1
  9
$DIMZIN
 70
     8
  9
$DIMBLK
  1

  9
$DIMASO
 70
     1
  9
$DIMSHO
 70
     1
  9
$DIMPOST
  1

  9
$DIMAPOST
  1

  9
$DIMALT
 70
     0
  9
$DIMALTD
 70
     3
  9
$DIMALTF
 40
0.03937007874016
  9
$DIMLFAC
 40
1.0
  9
$DIMTOFL
 70
     1
  9
$DIMTVP
 40
0.0
  9
$DIMTIX
 70
     0
  9
$DIMSOXD
 70
     0
  9
$DIMSAH
 70
     0
  9
$DIMBLK1
  1

  9
$DIMBLK2
  1

  9
$DIMSTYLE
  2
ISO-25
  9
$DIMCLRD
 70
     0
  9
$DIMCLRE
 70
     0
  9
$DIMCLRT
 70
     0
  9
$DIMTFAC
 40
1.0
  9
$DIMGAP
 40
0.625
  9
$DIMJUST
 70
     0
  9
$DIMSD1
 70
     0
  9
$DIMSD2
 70
     0
  9
$DIMTOLJ
 70
     0
  9
$DIMTZIN
 70
     8
  9
$DIMALTZ
 70
     0
  9
$DIMALTTZ
 70
     0
  9
$DIMUPT
 70
     0
  9
$DIMDEC
 70
     2
  9
$DIMTDEC
 70
     2
  9
$DIMALTU
 70
     2
  9
$DIMALTTD
 70
     3
  9
$DIMTXSTY
  7
Standard
  9
$DIMAUNIT
 70
     0
  9
$DIMADEC
 70
     0
  9
$DIMALTRND
 40
0.0
  9
$DIMAZIN
 70
     0
  9
$DIMDSEP
 70
    44
  9
$DIMATFIT
 70
     3
  9
$DIMFRAC
 70
     0
  9
$DIMLDRBLK
  1

  9
$DIMLUNIT
 70
     2
  9
$DIMLWD
 70
    -2
  9
$DIMLWE
 70
    -2
  9
$DIMTMOVE
 70
     0
  9
$DIMFXL
 40
1.0
  9
$DIMFXLON
 70
     0
  9
$DIMJOGANG
 40
0.7853981633974483
  9
$DIMTFILL
 70
     0
  9
$DIMTFILLCLR
 70
     0
  9
$DIMARCSYM
 70
     0
  9
$DIMLTYPE
  6

  9
$DIMLTEX1
  6

  9
$DIMLTEX2
  6

  9
$DIMTXTDIRECTION
 70
     0
  9
$LUNITS
 70
     2
  9
$LUPREC
 70
     4
  9
$SKETCHINC
 40
1.0
  9
$FILLETRAD
 40
10.0
  9
$AUNITS
 70
     0
  9
$AUPREC
 70
     0
  9
$MENU
  1
.
  9
$ELEVATION
 40
0.0
  9
$PELEVATION
 40
0.0
  9
$THICKNESS
 40
0.0
  9
$LIMCHECK
 70
     0
  9
$CHAMFERA
 40
0.0
  9
$CHAMFERB
 40
0.0
  9
$CHAMFERC
 40
0.0
  9
$CHAMFERD
 40
0.0
  9
$SKPOLY
 70
     0
  9
$TDCREATE
 40
2458168.964864097
  9
$TDUCREATE
 40
2458168.923197431
  9
$TDUPDATE
 40
2458168.964864282
  9
$TDUUPDATE
 40
2458168.923197616
  9
$TDINDWG
 40
0.0000000116
  9
$TDUSRTIMER
 40
0.0000000116
  9
$USRTIMER
 70
     1
  9
$ANGBASE
 50
0.0
  9
$ANGDIR
 70
     0
  9
$PDMODE
 70
     0
  9
$PDSIZE
 40
0.0
  9
$PLINEWID
 40
0.0
  9
$SPLFRAME
 70
     0
  9
$SPLINETYPE
 70
     6
  9
$SPLINESEGS
 70
     8
  9
$HANDSEED
  5
20A
  9
$SURFTAB1
 70
     6
  9
$SURFTAB2
 70
     6
  9
$SURFTYPE
 70
     6
  9
$SURFU
 70
     6
  9
$SURFV
 70
     6
  9
$UCSBASE
  2

  9
$UCSNAME
  2

  9
$UCSORG
 10
0.0
 20
0.0
 30
0.0
  9
$UCSXDIR
 10
1.0
 20
0.0
 30
0.0
  9
$UCSYDIR
 10
0.0
 20
1.0
 30
0.0
  9
$UCSORTHOREF
  2

  9
$UCSORTHOVIEW
 70
     0
  9
$UCSORGTOP
 10
0.0
 20
0.0
 30
0.0
  9
$UCSORGBOTTOM
 10
0.0
 20
0.0
 30
0.0
  9
$UCSORGLEFT
 10
0.0
 20
0.0
 30
0.0
  9
$UCSORGRIGHT
 10
0.0
 20
0.0
 30
0.0
  9
$UCSORGFRONT
 10
0.0
 20
0.0
 30
0.0
  9
$UCSORGBACK
 10
0.0
 20
0.0
 30
0.0
  9
$PUCSBASE
  2

  9
$PUCSNAME
  2

  9
$PUCSORG
 10
0.0
 20
0.0
 30
0.0
  9
$PUCSXDIR
 10
1.0
 20
0.0
 30
0.0
  9
$PUCSYDIR
 10
0.0
 20
1.0
 30
0.0
  9
$PUCSORTHOREF
  2

  9
$PUCSORTHOVIEW
 70
     0
  9
$PUCSORGTOP
 10
0.0
 20
0.0
 30
0.0
  9
$PUCSORGBOTTOM
 10
0.0
 20
0.0
 30
0.0
  9
$PUCSORGLEFT
 10
0.0
 20
0.0
 30
0.0
  9
$PUCSORGRIGHT
 10
0.0
 20
0.0
 30
0.0
  9
$PUCSORGFRONT
 10
0.0
 20
0.0
 30
0.0
  9
$PUCSORGBACK
 10
0.0
 20
0.0
 30
0.0
  9
$USERI1
 70
     0
  9
$USERI2
 70
     0
  9
$USERI3
 70
     0
  9
$USERI4
 70
     0
  9
$USERI5
 70
     0
  9
$USERR1
 40
0.0
  9
$USERR2
 40
0.0
  9
$USERR3
 40
0.0
  9
$USERR4
 40
0.0
  9
$USERR5
 40
0.0
  9
$WORLDVIEW
 70
     1
  9
$SHADEDGE
 70
     3
  9
$SHADEDIF
 70
    70
  9
$TILEMODE
 70
     1
  9
$MAXACTVP
 70
    64
  9
$PINSBASE
 10
0.0
 20
0.0
 30
0.0
  9
$PLIMCHECK
 70
     0
  9
$PEXTMIN
 10
1.000000000000000E+20
 20
1.000000000000000E+20
 30
1.000000000000000E+20
  9
$PEXTMAX
 10
-1.000000000000000E+20
 20
-1.000000000000000E+20
 30
-1.000000000000000E+20
  9
$PLIMMIN
 10
0.0
 20
0.0
  9
$PLIMMAX
 10
420.0
 20
297.0
  9
$UNITMODE
 70
     0
  9
$VISRETAIN
 70
     1
  9
$PLINEGEN
 70
     0
  9
$PSLTSCALE
 70
     1
  9
$TREEDEPTH
 70
  3020
  9
$CMLSTYLE
  2
Standard
  9
$CMLJUST
 70
     0
  9
$CMLSCALE
 40
20.0
  9
$PROXYGRAPHICS
 70
     1
  9
$MEASUREMENT
 70
     1
  9
$CELWEIGHT
370
    -1
  9
$ENDCAPS
280
     0
  9
$JOINSTYLE
280
     0
  9
$LWDISPLAY
290
     0
  9
$INSUNITS
 70
     4
  9
$HYPERLINKBASE
  1

  9
$STYLESHEET
  1

  9
$XEDIT
290
     1
  9
$CEPSNTYPE
380
     0
  9
$PSTYLEMODE
290
     1
  9
$FINGERPRINTGUID
  2
{074D0836-19FE-4014-B7AE-A80D50875A78}
  9
$VERSIONGUID
  2
{FAEB1C32-E019-11D5-929B-00C0DF256EC4}
  9
$EXTNAMES
290
     1
  9
$PSVPSCALE
 40
0.0
  9
$OLESTARTUP
290
     0
  9
$SORTENTS
280
   127
  9
$INDEXCTL
280
     0
  9
$HIDETEXT
280
     1
  9
$XCLIPFRAME
280
     2
  9
$HALOGAP
280
     0
  9
$OBSCOLOR
 70
   257
  9
$OBSLTYPE
280
     0
  9
$INTERSECTIONDISPLAY
280
     0
  9
$INTERSECTIONCOLOR
 70
   257
  9
$DIMASSOC
280
     2
  9
$PROJECTNAME
  1

  9
$CAMERADISPLAY
290
     0
  9
$LENSLENGTH
 40
50.0
  9
$CAMERAHEIGHT
 40
0.0
  9
$STEPSPERSEC
 40
2.0
  9
$STEPSIZE
 40
6.0
  9
$3DDWFPREC
 40
2.0
  9
$PSOLWIDTH
 40
5.0
  9
$PSOLHEIGHT
 40
80.0
  9
$LOFTANG1
 40
1.570796326794897
  9
$LOFTANG2
 40
1.570796326794897
  9
$LOFTMAG1
 40
0.0
  9
$LOFTMAG2
 40
0.0
  9
$LOFTPARAM
 70
     7
  9
$LOFTNORMALS
280
     1
  9
$LATITUDE
 40
37.795
  9
$LONGITUDE
 40
-122.394
  9
$NORTHDIRECTION
 40
0.0
  9
$TIMEZONE
 70
 -8000
  9
$LIGHTGLYPHDISPLAY
280
     1
  9
$TILEMODELIGHTSYNCH
280
     1
  9
$CMATERIAL
347
44
  9
$SOLIDHIST
280
     0
  9
$SHOWHIST
280
     1
  9
$DWFFRAME
280
     2
  9
$DGNFRAME
280
     2
  9
$REALWORLDSCALE
290
     1
  9
$INTERFERECOLOR
 62
   256
  9
$CSHADOW
280
     0
  9
$SHADOWPLANELOCATION
 40
0.0
  0
ENDSEC
  0
SECTION
  2
CLASSES
  0
CLASS
  1
ACDBDICTIONARYWDFLT
  2
AcDbDictionaryWithDefault
  3
ObjectDBX Classes
 90
        0
 91
        4
280
     0
281
     0
  0
CLASS
  1
VISUALSTYLE
  2
AcDbVisualStyle
  3
ObjectDBX Classes
 90
     4095
 91
        4
280
     0
281
     0
  0
CLASS
  1
MATERIAL
  2
AcDbMaterial
  3
ObjectDBX Classes
 90
     1153
 91
        4
280
     0
281
     0
  0
CLASS
  1
SCALE
  2
AcDbScale
  3
ObjectDBX Classes
 90
     1153
 91
        4
280
     0
281
     0
  0
CLASS
  1
TABLESTYLE
  2
AcDbTableStyle
  3
ObjectDBX Classes
 90
     4095
 91
        4
280
     0
281
     0
  0
CLASS
  1
MLEADERSTYLE
  2
AcDbMLeaderStyle
  3
ACDB_MLEADERSTYLE_CLASS
 90
     4095
 91
        4
280
     0
281
     0
  0
CLASS
  1
SUN
  2
AcDbSun
  3
SCENEOE
 90
     1153
 91
        4
280
     0
281
     0
  0
CLASS
  1
DICTIONARYVAR
  2
AcDbDictionaryVar
  3
ObjectDBX Classes
 90
        0
 91
        4
280
     0
281
     0
  0
CLASS
  1
CELLSTYLEMAP
  2
AcDbCellStyleMap
  3
ObjectDBX Classes
 90
     1152
 91
        4
280
     0
281
     0
  0
ENDSEC
  0
SECTION
  2
TABLES
  0
TABLE
  2
VPORT
  5
8
330
0
100
AcDbSymbolTable
 70
     1
  0
VPORT
  5
29
330
8
100
AcDbSymbolTableRecord
100
AcDbViewportTableRecord
  2
*Active
 70
     0
 10
0.0
 20
0.0
 11
1.0
 21
1.0
 12
0.0
 22
0.0
 13
0.0
 23
0.0
 14
10.0
 24
10.0
 15
10.0
 25
10.0
 16
0.0
 26
0.0
 36
1.0
 17
-0.0000000000008527
 27
-0.0000000000004263
 37
0.0
 40
193.9580999999982
 41
1.0
 42
50.0
 43
0.0
 44
0.0
 50
0.0
 51
0.0
 71
     0
 72
   100
 73
     1
 74
     3
 75
     0
 76
     0
 77
     0
 78
     0
281
     0
 65
     1
110
0.0
120
0.0
130
0.0
111
1.0
121
0.0
131
0.0
112
0.0
122
1.0
132
0.0
 79
     0
146
0.0
348
2F
 60
     3
 61
     5
292
     1
282
     1
141
0.0
142
0.0
 63
   250
361
6D
  0
ENDTAB
  0
TABLE
  2
LTYPE
  5
5
330
0
100
AcDbSymbolTable
 70
     3
  0
LTYPE
  5
14
330
5
100
AcDbSymbolTableRecord
100
AcDbLinetypeTableRecord
  2
ByBlock
 70
     0
  3

 72
    65
 73
     0
 40
0.0
  0
LTYPE
  5
15
330
5
100
AcDbSymbolTableRecord
100
AcDbLinetypeTableRecord
  2
ByLayer
 70
     0
  3

 72
    65
 73
     0
 40
0.0
  0
LTYPE
  5
16
330
5
100
AcDbSymbolTableRecord
100
AcDbLinetypeTableRecord
  2
Continuous
 70
     0
  3
Solid line
 72
    65
 73
     0
 40
0.0
  0
LTYPE
  5
A5
330
5
100
AcDbSymbolTableRecord
100
AcDbLinetypeTableRecord
  2
Dashed
 70
     0
  3

 72
    65
 73
     2
 40
2.0
 49
1.0
 74
     0
 49
-1.0
 74
     0
  0
LTYPE
  5
11E
330
5
100
AcDbSymbolTableRecord
100
AcDbLinetypeTableRecord
  2
Center
 70
     0
  3

 72
    65
 73
     4
 40
1.5
 49
0.45
 74
     0
 49
-0.5
 74
     0
 49
0.05
 74
     0
 49
-0.5
 74
     0
  0
ENDTAB
  0
TABLE
  2
LAYER
  5
2
330
0
100
AcDbSymbolTable
 70
     7
  0
LAYER
  5
10
330
2
100
AcDbSymbolTableRecord
100
AcDbLayerTableRecord
  2
0
 70
     0
 62
     7
  6
Continuous
370
    -3
390
F
347
46
348
0
  0
LAYER
  5
72
330
2
100
AcDbSymbolTableRecord
100
AcDbLayerTableRecord
  2
AM_6
 70
     0
 62
    -2
  6
Continuous
370
    35
390
F
347
46
348
0
  0
LAYER
  5
A6
330
2
100
AcDbSymbolTableRecord
100
AcDbLayerTableRecord
  2
AM_9
 70
     0
 62
     6
  6
Dashed
370
    25
390
F
347
46
348
0
  0
LAYER
  5
AD
330
2
100
AcDbSymbolTableRecord
100
AcDbLayerTableRecord
  2
AM_4
 70
     0
 62
     3
  6
Continuous
370
    25
390
F
347
46
348
0
  0
LAYER
  5
E0
330
2
100
AcDbSymbolTableRecord
100
AcDbLayerTableRecord
  2
AM_5
 70
     0
 62
     3
  6
Continuous
370
    25
390
F
347
46
348
0
  0
LAYER
  5
11F
330
2
100
AcDbSymbolTableRecord
100
AcDbLayerTableRecord
  2
AM_7
 70
     0
 62
     7
  6
Center
370
    25
390
F
347
46
348
0
  0
LAYER
  5
1FC
330
2
100
AcDbSymbolTableRecord
100
AcDbLayerTableRecord
  2
ConnectionPoints
 70
     0
 62
     7
  6
Continuous
370
    50
390
F
347
46
348
0
  0
ENDTAB
  0
TABLE
  2
STYLE
  5
3
330
0
100
AcDbSymbolTable
 70
     1
  0
STYLE
  5
11
330
3
100
AcDbSymbolTableRecord
100
AcDbTextStyleTableRecord
  2
Standard
 70
     0
 40
0.0
 41
1.0
 50
0.0
 71
     0
 42
2.5
  3
txt
  4

  0
ENDTAB
  0
TABLE
  2
VIEW
  5
6
330
0
100
AcDbSymbolTable
 70
     0
  0
ENDTAB
  0
TABLE
  2
UCS
  5
7
330
0
100
AcDbSymbolTable
 70
     0
  0
ENDTAB
  0
TABLE
  2
APPID
  5
9
330
0
100
AcDbSymbolTable
 70
     1
  0
APPID
  5
12
330
9
100
AcDbSymbolTableRecord
100
AcDbRegAppTableRecord
  2
ACAD
 70
     0
  0
ENDTAB
  0
TABLE
  2
DIMSTYLE
  5
A
330
0
100
AcDbSymbolTable
 70
     1
100
AcDbDimStyleTable
  0
DIMSTYLE
105
27
330
A
100
AcDbSymbolTableRecord
100
AcDbDimStyleTableRecord
  2
ISO-25
 70
     0
 41
2.5
 42
0.625
 43
3.75
 44
1.25
 73
     0
 74
     0
 77
     1
 78
     8
140
2.5
141
2.5
143
0.03937007874016
147
0.625
171
     3
172
     1
178
     0
271
     2
272
     2
274
     3
278
    44
283
     0
284
     8
340
11
  0
ENDTAB
  0
TABLE
  2
BLOCK_RECORD
  5
1
330
0
100
AcDbSymbolTable
 70
     5
  0
BLOCK_RECORD
  5
1F
330
1
100
AcDbSymbolTableRecord
100
AcDbBlockTableRecord
  2
*Model_Space
340
22
 70
     0
280
     1
281
     0
  0
BLOCK_RECORD
  5
1B
330
1
100
AcDbSymbolTableRecord
100
AcDbBlockTableRecord
  2
*Paper_Space
340
1E
 70
     0
280
     1
281
     0
  0
BLOCK_RECORD
  5
23
330
1
100
AcDbSymbolTableRecord
100
AcDbBlockTableRecord
  2
*Paper_Space0
340
26
 70
     0
280
     1
281
     0
  0
BLOCK_RECORD
  5
6E
330
1
100
AcDbSymbolTableRecord
100
AcDbBlockTableRecord
  2
1_129756_0
340
0
102
{BLKREFS
331
6F
102
}
 70
     0
280
     1
281
     0
  0
BLOCK_RECORD
  5
8F
330
1
100
AcDbSymbolTableRecord
100
AcDbBlockTableRecord
  2
2_129525_0_in_129756_0
340
0
102
{BLKREFS
331
90
102
}
 70
     0
280
     1
281
     0
  0
BLOCK_RECORD
  5
B4
330
1
100
AcDbSymbolTableRecord
100
AcDbBlockTableRecord
  2
3_136594_0_in_129756_0
340
0
102
{BLKREFS
331
B5
102
}
 70
     0
280
     1
281
     0
  0
BLOCK_RECORD
  5
F8
330
1
100
AcDbSymbolTableRecord
100
AcDbBlockTableRecord
  2
4_129756h_0_in_129756_0
340
0
102
{BLKREFS
331
F9
102
}
 70
     0
280
     1
281
     0
  0
ENDTAB
  0
ENDSEC
  0
SECTION
  2
BLOCKS
  0
BLOCK
  5
20
330
1F
100
AcDbEntity
  8
0
100
AcDbBlockBegin
  2
*Model_Space
 70
     0
 10
0.0
 20
0.0
 30
0.0
  3
*Model_Space
  1

  0
ENDBLK
  5
21
330
1F
100
AcDbEntity
  8
0
100
AcDbBlockEnd
  0
BLOCK
  5
1C
330
1B
100
AcDbEntity
 67
     1
  8
0
100
AcDbBlockBegin
  2
*Paper_Space
 70
     0
 10
0.0
 20
0.0
 30
0.0
  3
*Paper_Space
  1

  0
ENDBLK
  5
1D
330
1B
100
AcDbEntity
 67
     1
  8
0
100
AcDbBlockEnd
  0
BLOCK
  5
24
330
23
100
AcDbEntity
  8
0
100
AcDbBlockBegin
  2
*Paper_Space0
 70
     0
 10
0.0
 20
0.0
 30
0.0
  3
*Paper_Space0
  1

  0
ENDBLK
  5
25
330
23
100
AcDbEntity
  8
0
100
AcDbBlockEnd
  0
BLOCK
  5
70
330
6E
100
AcDbEntity
  8
0
100
AcDbBlockBegin
  2
1_129756_0
 70
     2
 10
0.0
 20
0.0
 30
0.0
  3
1_129756_0
  1

  0
ATTDEF
  5
73
330
6E
100
AcDbEntity
  8
AM_6
100
AcDbText
 10
100.0774999999983
 20
95.07749999999871
 30
0.0
 40
0.5
  1
Grip Tight Flange Cartridge Metric Bore
100
AcDbAttributeDefinition
  3

  2
NN
 70
     8
280
     0
  0
ATTDEF
  5
74
330
6E
100
AcDbEntity
  8
AM_6
100
AcDbText
 10
100.0774999999983
 20
94.57749999999871
 30
0.0
 40
0.5
  1
GT Normal Duty Piloted Flange Bearings
100
AcDbAttributeDefinition
  3

  2
NT
 70
     8
280
     0
  0
ATTDEF
  5
75
330
6E
100
AcDbEntity
  8
AM_6
100
AcDbText
 10
100.0774999999983
 20
94.07749999999871
 30
0.0
 40
0.5
  1
129756
100
AcDbAttributeDefinition
  3

  2
NB
 70
     8
280
     0
  0
ATTDEF
  5
76
330
6E
100
AcDbEntity
  8
AM_6
100
AcDbText
 10
100.0774999999983
 20
93.57749999999871
 30
0.0
 40
0.5
  1
$PN.
100
AcDbAttributeDefinition
  3

  2
NBSYN
 70
     8
280
     0
  0
ATTDEF
  5
77
330
6E
100
AcDbEntity
  8
AM_6
100
AcDbText
 10
100.0774999999983
 20
93.07749999999871
 30
0.0
 40
0.5
  1
129756
100
AcDbAttributeDefinition
  3

  2
LINA
 70
     8
280
     0
  0
ATTDEF
  5
78
330
6E
100
AcDbEntity
  8
AM_6
100
AcDbText
 10
100.0774999999983
 20
92.57749999999871
 30
0.0
 40
0.5
  1
212
100
AcDbAttributeDefinition
  3

  2
SERIES
 70
     8
280
     0
  0
ATTDEF
  5
79
330
6E
100
AcDbEntity
  8
AM_6
100
AcDbText
 10
100.0774999999983
 20
92.07749999999871
 30
0.0
 40
0.5
  1
60
100
AcDbAttributeDefinition
  3

  2
SS
 70
     8
280
     0
  0
ATTDEF
  5
7A
330
6E
100
AcDbEntity
  8
AM_6
100
AcDbText
 10
100.0774999999983
 20
91.57749999999871
 30
0.0
 40
0.5
  1
129756
100
AcDbAttributeDefinition
  3

  2
PN
 70
     8
280
     0
  0
ATTDEF
  5
7B
330
6E
100
AcDbEntity
  8
AM_6
100
AcDbText
 10
100.0774999999983
 20
91.07749999999871
 30
0.0
 40
0.5
  1
FC-GT-60M
100
AcDbAttributeDefinition
  3

  2
DESCRIPTION
 70
     8
280
     0
  0
ATTDEF
  5
7C
330
6E
100
AcDbEntity
  8
AM_6
100
AcDbText
 10
100.0774999999983
 20
90.57749999999871
 30
0.0
 40
0.5
  1
129507
100
AcDbAttributeDefinition
  3

  2
PNSL
 70
     8
280
     0
  0
ATTDEF
  5
7D
330
6E
100
AcDbEntity
  8
AM_6
100
AcDbText
 10
100.0774999999983
 20
90.07749999999871
 30
0.0
 40
0.5
  1
FC-GT-12
100
AcDbAttributeDefinition
  3

  2
DESCRIPTIONSL
 70
     8
280
     0
  0
ATTDEF
  5
7E
330
6E
100
AcDbEntity
  8
AM_6
100
AcDbText
 10
100.0774999999983
 20
89.57749999999871
 30
0.0
 40
0.5
  1
136594
100
AcDbAttributeDefinition
  3

  2
PNA
 70
     8
280
     0
  0
ATTDEF
  5
7F
330
6E
100
AcDbEntity
  8
AM_6
100
AcDbText
 10
100.0774999999983
 20
89.07749999999871
 30
0.0
 40
0.5
  1
AN-GT-12-60M-D
100
AcDbAttributeDefinition
  3

  2
DESCRIPTIONA
 70
     8
280
     0
  0
ATTDEF
  5
80
330
6E
100
AcDbEntity
  8
AM_6
100
AcDbText
 10
100.0774999999983
 20
88.57749999999871
 30
0.0
 40
0.5
  1
4.9
100
AcDbAttributeDefinition
  3

  2
W
 70
     8
280
     0
  0
ATTDEF
  5
81
330
6E
100
AcDbEntity
  8
AM_6
100
AcDbText
 10
100.0774999999983
 20
88.07749999999871
 30
0.0
 40
0.5
  1
53.8
100
AcDbAttributeDefinition
  3

  2
A
 70
     8
280
     0
  0
ATTDEF
  5
82
330
6E
100
AcDbEntity
  8
AM_6
100
AcDbText
 10
100.0774999999983
 20
87.57749999999871
 30
0.0
 40
0.5
  1
181.1
100
AcDbAttributeDefinition
  3

  2
B
 70
     8
280
     0
  0
ATTDEF
  5
83
330
6E
100
AcDbEntity
  8
AM_6
100
AcDbText
 10
100.0774999999983
 20
87.07749999999871
 30
0.0
 40
0.5
  1
64.0
100
AcDbAttributeDefinition
  3

  2
C
 70
     8
280
     0
  0
ATTDEF
  5
84
330
6E
100
AcDbEntity
  8
AM_6
100
AcDbText
 10
100.0774999999983
 20
86.57749999999871
 30
0.0
 40
0.5
  1
152.4
100
AcDbAttributeDefinition
  3

  2
D
 70
     8
280
     0
  0
ATTDEF
  5
85
330
6E
100
AcDbEntity
  8
AM_6
100
AcDbText
 10
100.0774999999983
 20
86.07749999999871
 30
0.0
 40
0.5
  1
22.4
100
AcDbAttributeDefinition
  3

  2
E
 70
     8
280
     0
  0
ATTDEF
  5
86
330
6E
100
AcDbEntity
  8
AM_6
100
AcDbText
 10
100.0774999999983
 20
85.57749999999871
 30
0.0
 40
0.5
  1
M12
100
AcDbAttributeDefinition
  3

  2
F
 70
     8
280
     0
  0
ATTDEF
  5
87
330
6E
100
AcDbEntity
  8
AM_6
100
AcDbText
 10
100.0774999999983
 20
85.07749999999871
 30
0.0
 40
0.5
  1
41.9
100
AcDbAttributeDefinition
  3

  2
G
 70
     8
280
     0
  0
ATTDEF
  5
88
330
6E
100
AcDbEntity
  8
AM_6
100
AcDbText
 10
100.0774999999983
 20
84.57749999999871
 30
0.0
 40
0.5
  1
25.4
100
AcDbAttributeDefinition
  3

  2
H
 70
     8
280
     0
  0
ATTDEF
  5
89
330
6E
100
AcDbEntity
  8
AM_6
100
AcDbText
 10
100.0774999999983
 20
84.07749999999871
 30
0.0
 40
0.5
  1
127.00/126.95
100
AcDbAttributeDefinition
  3

  2
K
 70
     8
280
     0
  0
ATTDEF
  5
8A
330
6E
100
AcDbEntity
  8
AM_6
100
AcDbText
 10
100.0774999999983
 20
83.57749999999871
 30
0.0
 40
0.5
  1
93.7
100
AcDbAttributeDefinition
  3

  2
L
 70
     8
280
     0
  0
ATTDEF
  5
8B
330
6E
100
AcDbEntity
  8
AM_6
100
AcDbText
 10
100.0774999999983
 20
83.07749999999871
 30
0.0
 40
0.5
  1
43.4
100
AcDbAttributeDefinition
  3

  2
Z
 70
     8
280
     0
  0
ATTDEF
  5
8C
330
6E
100
AcDbEntity
  8
AM_6
100
AcDbText
 10
100.0774999999983
 20
82.57749999999871
 30
0.0
 40
0.5
  1
6955
100
AcDbAttributeDefinition
  3

  2
CAPS
 70
     8
280
     0
  0
ATTDEF
  5
8D
330
6E
100
AcDbEntity
  8
AM_6
100
AcDbText
 10
100.0774999999983
 20
82.07749999999871
 30
0.0
 40
0.5
  1
11791
100
AcDbAttributeDefinition
  3

  2
CAPD
 70
     8
280
     0
  0
ATTDEF
  5
8E
330
6E
100
AcDbEntity
  8
AM_6
100
AcDbText
 10
100.0774999999983
 20
81.57749999999871
 30
0.0
 40
0.5
  1
baldor
100
AcDbAttributeDefinition
  3

  2
COMPANY
 70
     8
280
     0
  0
INSERT
  5
90
330
6E
100
AcDbEntity
  8
0
100
AcDbBlockReference
  2
2_129525_0_in_129756_0
 10
0.0
 20
0.0
 30
0.0
  0
INSERT
  5
B5
330
6E
100
AcDbEntity
  8
0
100
AcDbBlockReference
  2
3_136594_0_in_129756_0
 10
0.0
 20
0.0
 30
0.0
  0
INSERT
  5
F9
330
6E
100
AcDbEntity
  8
0
100
AcDbBlockReference
  2
4_129756h_0_in_129756_0
 10
0.0
 20
0.0
 30
0.0
  0
ENDBLK
  5
71
330
6E
100
AcDbEntity
  8
0
100
AcDbBlockEnd
  0
BLOCK
  5
91
330
8F
100
AcDbEntity
  8
0
100
AcDbBlockBegin
  2
2_129525_0_in_129756_0
 70
     2
 10
0.0
 20
0.0
 30
0.0
  3
2_129525_0_in_129756_0
  1

  0
ATTDEF
  5
93
330
8F
100
AcDbEntity
  8
AM_6
100
AcDbText
 10
59.64173676732361
 20
54.64173676732361
 30
0.0
 40
0.5
  1
INS-GT-M B
100
AcDbAttributeDefinition
  3

  2
NN
 70
     8
280
     0
  0
ATTDEF
  5
94
330
8F
100
AcDbEntity
  8
AM_6
100
AcDbText
 10
59.64173676732361
 20
54.14173676732361
 30
0.0
 40
0.5
  1
GT Normal Duty Bearing Inserts
100
AcDbAttributeDefinition
  3

  2
NT
 70
     8
280
     0
  0
ATTDEF
  5
95
330
8F
100
AcDbEntity
  8
AM_6
100
AcDbText
 10
59.64173676732361
 20
53.64173676732361
 30
0.0
 40
0.5
  1
129525
100
AcDbAttributeDefinition
  3

  2
NB
 70
     8
280
     0
  0
ATTDEF
  5
96
330
8F
100
AcDbEntity
  8
AM_6
100
AcDbText
 10
59.64173676732361
 20
53.14173676732361
 30
0.0
 40
0.5
  1
$PN.
100
AcDbAttributeDefinition
  3

  2
NBSYN
 70
     8
280
     0
  0
ATTDEF
  5
97
330
8F
100
AcDbEntity
  8
AM_6
100
AcDbText
 10
59.64173676732361
 20
52.64173676732361
 30
0.0
 40
0.5
  1
129525
100
AcDbAttributeDefinition
  3

  2
LINA
 70
     8
280
     0
  0
ATTDEF
  5
98
330
8F
100
AcDbEntity
  8
AM_6
100
AcDbText
 10
59.64173676732361
 20
52.14173676732361
 30
0.0
 40
0.5
  1
212
100
AcDbAttributeDefinition
  3

  2
SERIES
 70
     8
280
     0
  0
ATTDEF
  5
99
330
8F
100
AcDbEntity
  8
AM_6
100
AcDbText
 10
59.64173676732361
 20
51.64173676732361
 30
0.0
 40
0.5
  1
129525
100
AcDbAttributeDefinition
  3

  2
PN
 70
     8
280
     0
  0
ATTDEF
  5
9A
330
8F
100
AcDbEntity
  8
AM_6
100
AcDbText
 10
59.64173676732361
 20
51.14173676732361
 30
0.0
 40
0.5
  1
INS-GT-12
100
AcDbAttributeDefinition
  3

  2
DESCRIPTION
 70
     8
280
     0
  0
ATTDEF
  5
9B
330
8F
100
AcDbEntity
  8
AM_6
100
AcDbText
 10
59.64173676732361
 20
50.64173676732361
 30
0.0
 40
0.5
  1
53.8
100
AcDbAttributeDefinition
  3

  2
A
 70
     8
280
     0
  0
ATTDEF
  5
9C
330
8F
100
AcDbEntity
  8
AM_6
100
AcDbText
 10
59.64173676732361
 20
50.14173676732361
 30
0.0
 40
0.5
  1
25.9
100
AcDbAttributeDefinition
  3

  2
C
 70
     8
280
     0
  0
ATTDEF
  5
9D
330
8F
100
AcDbEntity
  8
AM_6
100
AcDbText
 10
59.64173676732361
 20
49.64173676732361
 30
0.0
 40
0.5
  1
110.0
100
AcDbAttributeDefinition
  3

  2
D
 70
     8
280
     0
  0
ATTDEF
  5
9E
330
8F
100
AcDbEntity
  8
AM_6
100
AcDbText
 10
59.64173676732361
 20
49.14173676732361
 30
0.0
 40
0.5
  1
6.4
100
AcDbAttributeDefinition
  3

  2
J
 70
     8
280
     0
  0
ATTDEF
  5
9F
330
8F
100
AcDbEntity
  8
AM_6
100
AcDbText
 10
59.64173676732361
 20
48.64173676732361
 30
0.0
 40
0.5
  1
93.7
100
AcDbAttributeDefinition
  3

  2
L
 70
     8
280
     0
  0
ATTDEF
  5
A0
330
8F
100
AcDbEntity
  8
AM_6
100
AcDbText
 10
59.64173676732361
 20
48.14173676732361
 30
0.0
 40
0.5
  1
#10 - 32 x 1/4
100
AcDbAttributeDefinition
  3

  2
N
 70
     8
280
     0
  0
ATTDEF
  5
A1
330
8F
100
AcDbEntity
  8
AM_6
100
AcDbText
 10
59.64173676732361
 20
47.64173676732361
 30
0.0
 40
0.5
  1
18.5
100
AcDbAttributeDefinition
  3

  2
W
 70
     8
280
     0
  0
ATTDEF
  5
A2
330
8F
100
AcDbEntity
  8
AM_6
100
AcDbText
 10
59.64173676732361
 20
47.14173676732361
 30
0.0
 40
0.5
  1
37.1
100
AcDbAttributeDefinition
  3

  2
X
 70
     8
280
     0
  0
ATTDEF
  5
A3
330
8F
100
AcDbEntity
  8
AM_6
100
AcDbText
 10
59.64173676732361
 20
46.64173676732361
 30
0.0
 40
0.5
  1
35.3
100
AcDbAttributeDefinition
  3

  2
Y
 70
     8
280
     0
  0
ATTDEF
  5
A4
330
8F
100
AcDbEntity
  8
AM_6
100
AcDbText
 10
59.64173676732361
 20
46.14173676732361
 30
0.0
 40
0.5
  1
baldor
100
AcDbAttributeDefinition
  3

  2
COMPANY
 70
     8
280
     0
  0
CIRCLE
  5
A7
330
8F
100
AcDbEntity
  8
AM_9
100
AcDbCircle
 10
0.0
 20
0.0000000000000045
 30
0.0
 40
36.01885331917885
  0
CIRCLE
  5
A8
330
8F
100
AcDbEntity
  8
AM_9
100
AcDbCircle
 10
0.0
 20
0.0000000000000045
 30
0.0
 40
52.41
  0
CIRCLE
  5
A9
330
8F
100
AcDbEntity
  8
AM_9
100
AcDbCircle
 10
0.0
 20
0.0000000000000045
 30
0.0
 40
53.78407832615186
  0
CIRCLE
  5
AA
330
8F
100
AcDbEntity
  8
AM_9
100
AcDbCircle
 10
0.0
 20
0.0000000000000045
 30
0.0
 40
38.29801587301587
  0
CIRCLE
  5
AB
330
8F
100
AcDbEntity
  8
AM_9
100
AcDbCircle
 10
0.0
 20
0.0000000000000045
 30
0.0
 40
41.64444444444445
  0
CIRCLE
  5
AC
330
8F
100
AcDbEntity
  8
AM_9
100
AcDbCircle
 10
0.0
 20
0.0000000000000045
 30
0.0
 40
40.60844444444444
  0
CIRCLE
  5
AE
330
8F
100
AcDbEntity
  8
AM_4
100
AcDbCircle
 10
0.0
 20
0.0000000000000045
 30
0.0
 40
54.64173676732361
  0
CIRCLE
  5
AF
330
8F
100
AcDbEntity
  8
AM_4
100
AcDbCircle
 10
0.0
 20
0.0000000000000045
 30
0.0
 40
54.38549273570218
  0
CIRCLE
  5
B0
330
8F
100
AcDbEntity
  8
AM_4
100
AcDbCircle
 10
0.0
 20
0.0000000000000045
 30
0.0
 40
54.04307832615186
  0
CIRCLE
  5
B1
330
8F
100
AcDbEntity
  8
AM_4
100
AcDbCircle
 10
0.0
 20
0.0000000000000045
 30
0.0
 40
54.03566032868017
  0
CIRCLE
  5
B2
330
8F
100
AcDbEntity
  8
AM_4
100
AcDbCircle
 10
0.0
 20
0.0000000000000045
 30
0.0
 40
51.71148383473066
  0
CIRCLE
  5
B3
330
8F
100
AcDbEntity
  8
AM_4
100
AcDbCircle
 10
0.0
 20
0.0000000000000045
 30
0.0
 40
52.67597538503956
  0
ENDBLK
  5
92
330
8F
100
AcDbEntity
  8
0
100
AcDbBlockEnd
  0
BLOCK
  5
B6
330
B4
100
AcDbEntity
  8
0
100
AcDbBlockBegin
  2
3_136594_0_in_129756_0
 70
     2
 10
0.0
 20
0.0
 30
0.0
  3
3_136594_0_in_129756_0
  1

  0
ATTDEF
  5
B8
330
B4
100
AcDbEntity
  8
AM_6
100
AcDbText
 10
51.8293951260374
 20
46.84999999876278
 30
0.0
 40
0.5
  1
Grip Tight Normal Duty Adapter and Nut Metric Bore D
100
AcDbAttributeDefinition
  3

  2
NN
 70
     8
280
     0
  0
ATTDEF
  5
B9
330
B4
100
AcDbEntity
  8
AM_6
100
AcDbText
 10
51.8293951260374
 20
46.34999999876278
 30
0.0
 40
0.5
  1
GT and GTM Adapter & Lock Nut Assemblies
100
AcDbAttributeDefinition
  3

  2
NT
 70
     8
280
     0
  0
ATTDEF
  5
BA
330
B4
100
AcDbEntity
  8
AM_6
100
AcDbText
 10
51.8293951260374
 20
45.84999999876278
 30
0.0
 40
0.5
  1
136594
100
AcDbAttributeDefinition
  3

  2
NB
 70
     8
280
     0
  0
ATTDEF
  5
BB
330
B4
100
AcDbEntity
  8
AM_6
100
AcDbText
 10
51.8293951260374
 20
45.34999999876278
 30
0.0
 40
0.5
  1
$PN.
100
AcDbAttributeDefinition
  3

  2
NBSYN
 70
     8
280
     0
  0
ATTDEF
  5
BC
330
B4
100
AcDbEntity
  8
AM_6
100
AcDbText
 10
51.8293951260374
 20
44.84999999876278
 30
0.0
 40
0.5
  1
136594
100
AcDbAttributeDefinition
  3

  2
LINA
 70
     8
280
     0
  0
ATTDEF
  5
BD
330
B4
100
AcDbEntity
  8
AM_6
100
AcDbText
 10
51.8293951260374
 20
44.34999999876278
 30
0.0
 40
0.5
  1
212
100
AcDbAttributeDefinition
  3

  2
SERIES
 70
     8
280
     0
  0
ATTDEF
  5
BE
330
B4
100
AcDbEntity
  8
AM_6
100
AcDbText
 10
51.8293951260374
 20
43.84999999876278
 30
0.0
 40
0.5
  1
60
100
AcDbAttributeDefinition
  3

  2
SS
 70
     8
280
     0
  0
ATTDEF
  5
BF
330
B4
100
AcDbEntity
  8
AM_6
100
AcDbText
 10
51.8293951260374
 20
43.34999999876278
 30
0.0
 40
0.5
  1
136594
100
AcDbAttributeDefinition
  3

  2
PN
 70
     8
280
     0
  0
ATTDEF
  5
C0
330
B4
100
AcDbEntity
  8
AM_6
100
AcDbText
 10
51.8293951260374
 20
42.84999999876278
 30
0.0
 40
0.5
  1
AN-GT-12-60M-D
100
AcDbAttributeDefinition
  3

  2
DESCRIPTION
 70
     8
280
     0
  0
ATTDEF
  5
C1
330
B4
100
AcDbEntity
  8
AM_6
100
AcDbText
 10
51.8293951260374
 20
42.34999999876278
 30
0.0
 40
0.5
  1
53.8
100
AcDbAttributeDefinition
  3

  2
A
 70
     8
280
     0
  0
ATTDEF
  5
C2
330
B4
100
AcDbEntity
  8
AM_6
100
AcDbText
 10
51.8293951260374
 20
41.84999999876278
 30
0.0
 40
0.5
  1
25.9
100
AcDbAttributeDefinition
  3

  2
C
 70
     8
280
     0
  0
ATTDEF
  5
C3
330
B4
100
AcDbEntity
  8
AM_6
100
AcDbText
 10
51.8293951260374
 20
41.34999999876278
 30
0.0
 40
0.5
  1
110.0
100
AcDbAttributeDefinition
  3

  2
D
 70
     8
280
     0
  0
ATTDEF
  5
C4
330
B4
100
AcDbEntity
  8
AM_6
100
AcDbText
 10
51.8293951260374
 20
40.84999999876278
 30
0.0
 40
0.5
  1
6.4
100
AcDbAttributeDefinition
  3

  2
J
 70
     8
280
     0
  0
ATTDEF
  5
C5
330
B4
100
AcDbEntity
  8
AM_6
100
AcDbText
 10
51.8293951260374
 20
40.34999999876278
 30
0.0
 40
0.5
  1
93.7
100
AcDbAttributeDefinition
  3

  2
L
 70
     8
280
     0
  0
ATTDEF
  5
C6
330
B4
100
AcDbEntity
  8
AM_6
100
AcDbText
 10
51.8293951260374
 20
39.84999999876278
 30
0.0
 40
0.5
  1
10 - 32 x 1/4
100
AcDbAttributeDefinition
  3

  2
N
 70
     8
280
     0
  0
ATTDEF
  5
C7
330
B4
100
AcDbEntity
  8
AM_6
100
AcDbText
 10
51.8293951260374
 20
39.34999999876278
 30
0.0
 40
0.5
  1
4.8260
100
AcDbAttributeDefinition
  3

  2
NDM1
 70
     8
280
     0
  0
ATTDEF
  5
C8
330
B4
100
AcDbEntity
  8
AM_6
100
AcDbText
 10
51.8293951260374
 20
38.84999999876278
 30
0.0
 40
0.5
  1
3.9624
100
AcDbAttributeDefinition
  3

  2
KDM1
 70
     8
280
     0
  0
ATTDEF
  5
C9
330
B4
100
AcDbEntity
  8
AM_6
100
AcDbText
 10
51.8293951260374
 20
38.34999999876278
 30
0.0
 40
0.5
  1
18.5
100
AcDbAttributeDefinition
  3

  2
W
 70
     8
280
     0
  0
ATTDEF
  5
CA
330
B4
100
AcDbEntity
  8
AM_6
100
AcDbText
 10
51.8293951260374
 20
37.84999999876278
 30
0.0
 40
0.5
  1
37.1
100
AcDbAttributeDefinition
  3

  2
X
 70
     8
280
     0
  0
ATTDEF
  5
CB
330
B4
100
AcDbEntity
  8
AM_6
100
AcDbText
 10
51.8293951260374
 20
37.34999999876278
 30
0.0
 40
0.5
  1
35.3
100
AcDbAttributeDefinition
  3

  2
Y
 70
     8
280
     0
  0
ATTDEF
  5
CC
330
B4
100
AcDbEntity
  8
AM_6
100
AcDbText
 10
51.8293951260374
 20
36.84999999876278
 30
0.0
 40
0.5
  1
baldor
100
AcDbAttributeDefinition
  3

  2
COMPANY
 70
     8
280
     0
  0
LINE
  5
CD
330
B4
100
AcDbEntity
  8
AM_9
100
AcDbLine
 10
34.92922780280833
 20
1.250000000000005
 30
0.0
 11
36.0617990469844
 21
1.250000000000005
 31
0.0
  0
LINE
  5
CE
330
B4
100
AcDbEntity
  8
AM_9
100
AcDbLine
 10
34.92922780280833
 20
-1.249999999999996
 30
0.0
 11
36.0617990469844
 21
-1.249999999999996
 31
0.0
  0
ARC
  5
CF
330
B4
100
AcDbEntity
  8
AM_9
100
AcDbCircle
 10
-0.000000000000005
 20
0.0000000000000046
 30
0.0
 40
36.08345674273858
100
AcDbArc
 50
1.985232660236033
 51
358.0147673397639
  0
CIRCLE
  5
D0
330
B4
100
AcDbEntity
  8
AM_9
100
AcDbCircle
 10
0.0
 20
0.0000000000000045
 30
0.0
 40
38.29801587301583
  0
CIRCLE
  5
D1
330
B4
100
AcDbEntity
  8
AM_9
100
AcDbCircle
 10
0.0
 20
0.0000000000000045
 30
0.0
 40
42.11294444444447
  0
LINE
  5
D2
330
B4
100
AcDbEntity
  8
AM_9
100
AcDbLine
 10
34.9515873015873
 20
-1.249999999999996
 30
0.0
 11
34.9515873015873
 21
1.250000000000005
 31
0.0
  0
LINE
  5
D3
330
B4
100
AcDbEntity
  8
AM_9
100
AcDbLine
 10
-1.840229999999998
 20
46.27723000000001
 30
0.0
 11
-1.840229999999998
 21
35.71027000000001
 31
0.0
  0
LINE
  5
D4
330
B4
100
AcDbEntity
  8
AM_9
100
AcDbLine
 10
1.840229999999998
 20
35.71027000000001
 30
0.0
 11
1.840229999999998
 21
46.27723000000001
 31
0.0
  0
LINE
  5
D5
330
B4
100
AcDbEntity
  8
AM_9
100
AcDbLine
 10
-1.840229999999998
 20
35.71027000000001
 30
0.0
 11
-2.412999999999991
 21
35.13750000000001
 31
0.0
  0
LINE
  5
D6
330
B4
100
AcDbEntity
  8
AM_9
100
AcDbLine
 10
2.412999999999991
 20
35.13750000000001
 30
0.0
 11
1.840229999999998
 21
35.71027000000001
 31
0.0
  0
LINE
  5
D7
330
B4
100
AcDbEntity
  8
AM_9
100
AcDbLine
 10
2.412999999999991
 20
35.13750000000001
 30
0.0
 11
-2.412999999999991
 21
35.13750000000001
 31
0.0
  0
LINE
  5
D8
330
B4
100
AcDbEntity
  8
AM_9
100
AcDbLine
 10
1.840229999999998
 20
35.71027000000001
 30
0.0
 11
-1.840229999999998
 21
35.71027000000001
 31
0.0
  0
LINE
  5
D9
330
B4
100
AcDbEntity
  8
AM_9
100
AcDbLine
 10
1.840229999999998
 20
46.27723000000001
 30
0.0
 11
2.33760647849408
 21
46.77460647849409
 31
0.0
  0
LINE
  5
DA
330
B4
100
AcDbEntity
  8
AM_9
100
AcDbLine
 10
-2.342143937105943
 20
46.77914393710596
 30
0.0
 11
-1.840229999999998
 21
46.27723000000001
 31
0.0
  0
LINE
  5
DB
330
B4
100
AcDbEntity
  8
AM_9
100
AcDbLine
 10
1.840229999999998
 20
46.27723000000001
 30
0.0
 11
-1.840229999999998
 21
46.27723000000001
 31
0.0
  0
LWPOLYLINE
  5
DC
330
B4
100
AcDbEntity
  8
AM_9
100
AcDbPolyline
 90
        6
 70
     0
 43
0.0
 10
0.3242329456285404
 20
46.84887803349159
 10
0.8929349586141322
 20
46.84148980508292
 10
1.546076376056843
 20
46.82448235527437
 10
2.038881159483525
 20
46.80561359086649
 10
2.313033330050914
 20
46.79286673002709
 10
2.35383214313268
 20
46.79083216017811
  0
LINE
  5
DD
330
B4
100
AcDbEntity
  8
AM_9
100
AcDbLine
 10
0.2113376754135559
 20
46.84952333148069
 30
0.0
 11
0.3242329456285404
 21
46.84887803349159
 31
0.0
  0
LINE
  5
DE
330
B4
100
AcDbEntity
  8
AM_9
100
AcDbLine
 10
-0.3400036611171217
 20
46.84876623253198
 30
0.0
 11
-0.0003404846303856
 21
46.84999999876278
 31
0.0
  0
LWPOLYLINE
  5
DF
330
B4
100
AcDbEntity
  8
AM_9
100
AcDbPolyline
 90
        6
 70
     0
 43
0.0
 10
-2.353831847687732
 20
46.79083217504058
 10
-2.271866342312417
 20
46.79488351649857
 10
-1.927731970759638
 20
46.81032310771752
 10
-1.356374432499664
 20
46.83036139513406
 10
-0.6355299111068102
 20
46.8456892545311
 10
-0.3400036611171217
 20
46.84876623253198
  0
LINE
  5
E1
330
B4
100
AcDbEntity
  8
AM_5
100
AcDbLine
 10
2.412999999999991
 20
46.78781819020847
 30
0.0
 11
2.412999999999991
 21
35.13750000000001
 31
0.0
  0
LINE
  5
E2
330
B4
100
AcDbEntity
  8
AM_5
100
AcDbLine
 10
-2.412999999999998
 20
46.78781819020847
 30
0.0
 11
-2.412999999999998
 21
35.13750000000001
 31
0.0
  0
LINE
  5
E3
330
B4
100
AcDbEntity
  8
AM_4
100
AcDbLine
 10
34.92922780280833
 20
-1.249999999999996
 30
0.0
 11
29.9739470207045
 21
-1.249999999999996
 31
0.0
  0
ARC
  5
E4
330
B4
100
AcDbEntity
  8
AM_4
100
AcDbCircle
 10
-0.000000000000002
 20
0.0000000000000046
 30
0.0
 40
30.00000000000001
100
AcDbArc
 50
2.388015463268849
 51
357.6119845367311
  0
LINE
  5
E5
330
B4
100
AcDbEntity
  8
AM_4
100
AcDbLine
 10
34.92922780280833
 20
1.250000000000005
 30
0.0
 11
29.9739470207045
 21
1.250000000000005
 31
0.0
  0
LINE
  5
E6
330
B4
100
AcDbEntity
  8
AM_4
100
AcDbLine
 10
-36.26839513983079
 20
24.63460941987062
 30
0.0
 11
-38.87853597896053
 21
26.14157493596501
 31
0.0
  0
LINE
  5
E7
330
B4
100
AcDbEntity
  8
AM_4
100
AcDbLine
 10
38.87853597896051
 20
26.14157493596503
 30
0.0
 11
36.26839513983078
 21
24.63460941987064
 31
0.0
  0
ARC
  5
E8
330
B4
100
AcDbEntity
  8
AM_4
100
AcDbCircle
 10
-0.0000000000000036
 20
-0.0000000000000142
 30
0.0
 40
46.85000000000003
100
AcDbArc
 50
33.91652841035773
 51
89.63177803775169
  0
LINE
  5
E9
330
B4
100
AcDbEntity
  8
AM_4
100
AcDbLine
 10
0.3010881486533951
 20
46.84903249723244
 30
0.0
 11
-0.3010881486555577
 21
46.84903249723245
 31
0.0
  0
ARC
  5
EA
330
B4
100
AcDbEntity
  8
AM_4
100
AcDbCircle
 10
0.0000000000000373
 20
-0.0000000000000284
 30
0.0
 40
46.85000000000006
100
AcDbArc
 50
90.368221962251
 51
146.0834715896423
  0
LINE
  5
EB
330
B4
100
AcDbEntity
  8
AM_4
100
AcDbLine
 10
3.200000000000001
 20
-46.74058728770961
 30
0.0
 11
3.2
 21
-43.72665625552084
 31
0.0
  0
LINE
  5
EC
330
B4
100
AcDbEntity
  8
AM_4
100
AcDbLine
 10
3.2
 20
-43.72665625552084
 30
0.0
 11
-3.2
 21
-43.72665625552084
 31
0.0
  0
LINE
  5
ED
330
B4
100
AcDbEntity
  8
AM_4
100
AcDbLine
 10
-39.4683951398308
 20
19.09204683565021
 30
0.0
 11
-36.26839513983079
 21
24.63460941987062
 31
0.0
  0
LINE
  5
EE
330
B4
100
AcDbEntity
  8
AM_4
100
AcDbLine
 10
-42.07853597896052
 20
20.59901235174459
 30
0.0
 11
-39.4683951398308
 21
19.09204683565021
 31
0.0
  0
LINE
  5
EF
330
B4
100
AcDbEntity
  8
AM_4
100
AcDbLine
 10
36.26839513983078
 20
24.63460941987064
 30
0.0
 11
39.46839513983078
 21
19.09204683565024
 31
0.0
  0
LINE
  5
F0
330
B4
100
AcDbEntity
  8
AM_4
100
AcDbLine
 10
-3.2
 20
-43.72665625552084
 30
0.0
 11
-3.2
 21
-46.74058728770961
 31
0.0
  0
CIRCLE
  5
F1
330
B4
100
AcDbEntity
  8
AM_4
100
AcDbCircle
 10
0.0
 20
0.0000000000000045
 30
0.0
 40
34.9515873015873
  0
LINE
  5
F2
330
B4
100
AcDbEntity
  8
AM_4
100
AcDbLine
 10
39.46839513983078
 20
19.09204683565024
 30
0.0
 11
42.0785359789605
 21
20.59901235174462
 31
0.0
  0
ARC
  5
F3
330
B4
100
AcDbEntity
  8
AM_4
100
AcDbCircle
 10
0.0
 20
0.0
 30
0.0
 40
45.81400000000001
100
AcDbArc
 50
34.00523649065959
 51
145.9947635093404
  0
ARC
  5
F4
330
B4
100
AcDbEntity
  8
AM_4
100
AcDbCircle
 10
0.0000000000000284
 20
0.0000000000000184
 30
0.0
 40
46.85000000000004
100
AcDbArc
 50
153.9165284103577
 51
266.0834715896423
  0
ARC
  5
F5
330
B4
100
AcDbEntity
  8
AM_4
100
AcDbCircle
 10
-0.0000000000000213
 20
-0.0000000000000073
 30
0.0
 40
45.81399999999999
100
AcDbArc
 50
154.0052364906596
 51
265.9947635093404
  0
ARC
  5
F6
330
B4
100
AcDbEntity
  8
AM_4
100
AcDbCircle
 10
-0.0000000000000497
 20
0.0000000000000284
 30
0.0
 40
46.85000000000004
100
AcDbArc
 50
273.9165284103578
 51
26.08347158964225
  0
ARC
  5
F7
330
B4
100
AcDbEntity
  8
AM_4
100
AcDbCircle
 10
-0.0000000000000178
 20
0.0000000000000213
 30
0.0
 40
45.81400000000002
100
AcDbArc
 50
274.0052364906596
 51
25.99476350934044
  0
ENDBLK
  5
B7
330
B4
100
AcDbEntity
  8
0
100
AcDbBlockEnd
  0
BLOCK
  5
FA
330
F8
100
AcDbEntity
  8
0
100
AcDbBlockBegin
  2
4_129756h_0_in_129756_0
 70
     2
 10
0.0
 20
0.0
 30
0.0
  3
4_129756h_0_in_129756_0
  1

  0
ATTDEF
  5
FC
330
F8
100
AcDbEntity
  8
AM_6
100
AcDbText
 10
100.0774999999983
 20
95.07749999999871
 30
0.0
 40
0.5
  1
FC-GT-Metric - Housing
100
AcDbAttributeDefinition
  3

  2
NN
 70
     8
280
     0
  0
ATTDEF
  5
FD
330
F8
100
AcDbEntity
  8
AM_6
100
AcDbText
 10
100.0774999999983
 20
94.57749999999871
 30
0.0
 40
0.5
  1
GT Normal Duty Piloted Flange Bearings
100
AcDbAttributeDefinition
  3

  2
NT
 70
     8
280
     0
  0
ATTDEF
  5
FE
330
F8
100
AcDbEntity
  8
AM_6
100
AcDbText
 10
100.0774999999983
 20
94.07749999999871
 30
0.0
 40
0.5
  1
129756h
100
AcDbAttributeDefinition
  3

  2
NB
 70
     8
280
     0
  0
ATTDEF
  5
FF
330
F8
100
AcDbEntity
  8
AM_6
100
AcDbText
 10
100.0774999999983
 20
93.57749999999871
 30
0.0
 40
0.5
  1
$PN.h
100
AcDbAttributeDefinition
  3

  2
NBSYN
 70
     8
280
     0
  0
ATTDEF
  5
100
330
F8
100
AcDbEntity
  8
AM_6
100
AcDbText
 10
100.0774999999983
 20
93.07749999999871
 30
0.0
 40
0.5
  1
129756
100
AcDbAttributeDefinition
  3

  2
LINA
 70
     8
280
     0
  0
ATTDEF
  5
101
330
F8
100
AcDbEntity
  8
AM_6
100
AcDbText
 10
100.0774999999983
 20
92.57749999999871
 30
0.0
 40
0.5
  1
212
100
AcDbAttributeDefinition
  3

  2
SERIES
 70
     8
280
     0
  0
ATTDEF
  5
102
330
F8
100
AcDbEntity
  8
AM_6
100
AcDbText
 10
100.0774999999983
 20
92.07749999999871
 30
0.0
 40
0.5
  1
60
100
AcDbAttributeDefinition
  3

  2
SS
 70
     8
280
     0
  0
ATTDEF
  5
103
330
F8
100
AcDbEntity
  8
AM_6
100
AcDbText
 10
100.0774999999983
 20
91.57749999999871
 30
0.0
 40
0.5
  1
129756
100
AcDbAttributeDefinition
  3

  2
PN
 70
     8
280
     0
  0
ATTDEF
  5
104
330
F8
100
AcDbEntity
  8
AM_6
100
AcDbText
 10
100.0774999999983
 20
91.07749999999871
 30
0.0
 40
0.5
  1
FC-GT-60M
100
AcDbAttributeDefinition
  3

  2
DESCRIPTION
 70
     8
280
     0
  0
ATTDEF
  5
105
330
F8
100
AcDbEntity
  8
AM_6
100
AcDbText
 10
100.0774999999983
 20
90.57749999999871
 30
0.0
 40
0.5
  1
129507
100
AcDbAttributeDefinition
  3

  2
PNSL
 70
     8
280
     0
  0
ATTDEF
  5
106
330
F8
100
AcDbEntity
  8
AM_6
100
AcDbText
 10
100.0774999999983
 20
90.07749999999871
 30
0.0
 40
0.5
  1
FC-GT-12
100
AcDbAttributeDefinition
  3

  2
DESCRIPTIONSL
 70
     8
280
     0
  0
ATTDEF
  5
107
330
F8
100
AcDbEntity
  8
AM_6
100
AcDbText
 10
100.0774999999983
 20
89.57749999999871
 30
0.0
 40
0.5
  1
136594
100
AcDbAttributeDefinition
  3

  2
PNA
 70
     8
280
     0
  0
ATTDEF
  5
108
330
F8
100
AcDbEntity
  8
AM_6
100
AcDbText
 10
100.0774999999983
 20
89.07749999999871
 30
0.0
 40
0.5
  1
AN-GT-12-60M-D
100
AcDbAttributeDefinition
  3

  2
DESCRIPTIONA
 70
     8
280
     0
  0
ATTDEF
  5
109
330
F8
100
AcDbEntity
  8
AM_6
100
AcDbText
 10
100.0774999999983
 20
88.57749999999871
 30
0.0
 40
0.5
  1
4.9
100
AcDbAttributeDefinition
  3

  2
W
 70
     8
280
     0
  0
ATTDEF
  5
10A
330
F8
100
AcDbEntity
  8
AM_6
100
AcDbText
 10
100.0774999999983
 20
88.07749999999871
 30
0.0
 40
0.5
  1
53.8
100
AcDbAttributeDefinition
  3

  2
A
 70
     8
280
     0
  0
ATTDEF
  5
10B
330
F8
100
AcDbEntity
  8
AM_6
100
AcDbText
 10
100.0774999999983
 20
87.57749999999871
 30
0.0
 40
0.5
  1
181.1
100
AcDbAttributeDefinition
  3

  2
B
 70
     8
280
     0
  0
ATTDEF
  5
10C
330
F8
100
AcDbEntity
  8
AM_6
100
AcDbText
 10
100.0774999999983
 20
87.07749999999871
 30
0.0
 40
0.5
  1
64.0
100
AcDbAttributeDefinition
  3

  2
C
 70
     8
280
     0
  0
ATTDEF
  5
10D
330
F8
100
AcDbEntity
  8
AM_6
100
AcDbText
 10
100.0774999999983
 20
86.57749999999871
 30
0.0
 40
0.5
  1
152.4
100
AcDbAttributeDefinition
  3

  2
D
 70
     8
280
     0
  0
ATTDEF
  5
10E
330
F8
100
AcDbEntity
  8
AM_6
100
AcDbText
 10
100.0774999999983
 20
86.07749999999871
 30
0.0
 40
0.5
  1
22.4
100
AcDbAttributeDefinition
  3

  2
E
 70
     8
280
     0
  0
ATTDEF
  5
10F
330
F8
100
AcDbEntity
  8
AM_6
100
AcDbText
 10
100.0774999999983
 20
85.57749999999871
 30
0.0
 40
0.5
  1
M12
100
AcDbAttributeDefinition
  3

  2
F
 70
     8
280
     0
  0
ATTDEF
  5
110
330
F8
100
AcDbEntity
  8
AM_6
100
AcDbText
 10
100.0774999999983
 20
85.07749999999871
 30
0.0
 40
0.5
  1
41.9
100
AcDbAttributeDefinition
  3

  2
G
 70
     8
280
     0
  0
ATTDEF
  5
111
330
F8
100
AcDbEntity
  8
AM_6
100
AcDbText
 10
100.0774999999983
 20
84.57749999999871
 30
0.0
 40
0.5
  1
25.4
100
AcDbAttributeDefinition
  3

  2
H
 70
     8
280
     0
  0
ATTDEF
  5
112
330
F8
100
AcDbEntity
  8
AM_6
100
AcDbText
 10
100.0774999999983
 20
84.07749999999871
 30
0.0
 40
0.5
  1
127.00/126.95
100
AcDbAttributeDefinition
  3

  2
K
 70
     8
280
     0
  0
ATTDEF
  5
113
330
F8
100
AcDbEntity
  8
AM_6
100
AcDbText
 10
100.0774999999983
 20
83.57749999999871
 30
0.0
 40
0.5
  1
127.00
100
AcDbAttributeDefinition
  3

  2
K1
 70
     8
280
     0
  0
ATTDEF
  5
114
330
F8
100
AcDbEntity
  8
AM_6
100
AcDbText
 10
100.0774999999983
 20
83.07749999999871
 30
0.0
 40
0.5
  1
93.7
100
AcDbAttributeDefinition
  3

  2
L
 70
     8
280
     0
  0
ATTDEF
  5
115
330
F8
100
AcDbEntity
  8
AM_6
100
AcDbText
 10
100.0774999999983
 20
82.57749999999871
 30
0.0
 40
0.5
  1
43.4
100
AcDbAttributeDefinition
  3

  2
Z
 70
     8
280
     0
  0
ATTDEF
  5
116
330
F8
100
AcDbEntity
  8
AM_6
100
AcDbText
 10
100.0774999999983
 20
82.07749999999871
 30
0.0
 40
0.5
  1
Infotext
100
AcDbAttributeDefinition
  3

  2
INFO
 70
     8
280
     0
  0
ATTDEF
  5
117
330
F8
100
AcDbEntity
  8
AM_6
100
AcDbText
 10
100.0774999999983
 20
81.57749999999871
 30
0.0
 40
0.5
  1
fc_gt_templ.prj
100
AcDbAttributeDefinition
  3

  2
PPATH
 70
     8
280
     0
  0
ATTDEF
  5
118
330
F8
100
AcDbEntity
  8
AM_6
100
AcDbText
 10
100.0774999999983
 20
81.07749999999871
 30
0.0
 40
0.5
  1
6955
100
AcDbAttributeDefinition
  3

  2
CAPS
 70
     8
280
     0
  0
ATTDEF
  5
119
330
F8
100
AcDbEntity
  8
AM_6
100
AcDbText
 10
100.0774999999983
 20
80.57749999999871
 30
0.0
 40
0.5
  1
11791
100
AcDbAttributeDefinition
  3

  2
CAPD
 70
     8
280
     0
  0
ATTDEF
  5
11A
330
F8
100
AcDbEntity
  8
AM_6
100
AcDbText
 10
100.0774999999983
 20
80.07749999999871
 30
0.0
 40
0.5
  1
baldor
100
AcDbAttributeDefinition
  3

  2
COMPANY
 70
     8
280
     0
  0
CIRCLE
  5
11B
330
F8
100
AcDbEntity
  8
AM_9
100
AcDbCircle
 10
0.0
 20
0.0
 30
0.0
 40
55.51
  0
CIRCLE
  5
11C
330
F8
100
AcDbEntity
  8
AM_9
100
AcDbCircle
 10
0.0
 20
0.0
 30
0.0
 40
63.5
  0
CIRCLE
  5
11D
330
F8
100
AcDbEntity
  8
AM_9
100
AcDbCircle
 10
0.0000000000000533
 20
0.0000000000000533
 30
0.0
 40
57.74999999999994
  0
LINE
  5
120
330
F8
100
AcDbEntity
  8
AM_7
100
AcDbLine
 10
38.81403672641492
 20
53.88153672641495
 30
0.0
 11
68.9490367264149
 21
53.88153672641495
 31
0.0
  0
LINE
  5
121
330
F8
100
AcDbEntity
  8
AM_7
100
AcDbLine
 10
53.88153672641491
 20
38.81403672641495
 30
0.0
 11
53.88153672641491
 21
68.94903672641495
 31
0.0
  0
LINE
  5
122
330
F8
100
AcDbEntity
  8
AM_7
100
AcDbLine
 10
-68.94903648799634
 20
53.88153648799639
 30
0.0
 11
-38.8140364879964
 21
53.88153648799639
 31
0.0
  0
LINE
  5
123
330
F8
100
AcDbEntity
  8
AM_7
100
AcDbLine
 10
-53.88153648799637
 20
38.81403648799641
 30
0.0
 11
-53.88153648799637
 21
68.94903648799635
 31
0.0
  0
LINE
  5
124
330
F8
100
AcDbEntity
  8
AM_7
100
AcDbLine
 10
-95.07749999999997
 20
-0.0000000000004192
 30
0.0
 11
95.0774999999983
 21
-0.0000000000004192
 31
0.0
  0
LINE
  5
125
330
F8
100
AcDbEntity
  8
AM_7
100
AcDbLine
 10
-0.0000000000008384
 20
-95.07749999999956
 30
0.0
 11
-0.0000000000008384
 21
95.07749999999871
 31
0.0
  0
LINE
  5
126
330
F8
100
AcDbEntity
  8
AM_7
100
AcDbLine
 10
38.81403672641495
 20
-53.88153672641491
 30
0.0
 11
68.94903672641495
 21
-53.88153672641491
 31
0.0
  0
LINE
  5
127
330
F8
100
AcDbEntity
  8
AM_7
100
AcDbLine
 10
53.88153672641495
 20
-68.9490367264149
 30
0.0
 11
53.88153672641495
 21
-38.8140367264149
 31
0.0
  0
LINE
  5
128
330
F8
100
AcDbEntity
  8
AM_7
100
AcDbLine
 10
-68.94903643441297
 20
-53.88153643441304
 30
0.0
 11
-38.81403643441305
 21
-53.88153643441304
 31
0.0
  0
LINE
  5
129
330
F8
100
AcDbEntity
  8
AM_7
100
AcDbLine
 10
-53.88153643441301
 20
-68.949036434413
 30
0.0
 11
-53.88153643441301
 21
-38.81403643441308
 31
0.0
  0
LINE
  5
12A
330
F8
100
AcDbEntity
  8
AM_4
100
AcDbLine
 10
2.44901
 20
-83.47502
 30
0.0
 11
2.37126
 21
-83.105012
 31
0.0
  0
LINE
  5
12B
330
F8
100
AcDbEntity
  8
AM_4
100
AcDbLine
 10
4.31492
 20
-84.28904
 30
0.0
 11
3.6152
 21
-84.28904
 31
0.0
  0
LINE
  5
12C
330
F8
100
AcDbEntity
  8
AM_4
100
AcDbLine
 10
2.37126
 20
-83.105012
 30
0.0
 11
2.37126
 21
-81.99498799999999
 31
0.0
  0
LINE
  5
12D
330
F8
100
AcDbEntity
  8
AM_4
100
AcDbLine
 10
-4.859140000000002
 20
-81.32897
 30
0.0
 11
-4.54816
 21
-81.03296999999999
 31
0.0
  0
LINE
  5
12E
330
F8
100
AcDbEntity
  8
AM_4
100
AcDbLine
 10
-2.52675
 20
-84.06703
 30
0.0
 11
-2.83774
 21
-84.21504
 31
0.0
  0
LINE
  5
12F
330
F8
100
AcDbEntity
  8
AM_4
100
AcDbLine
 10
-6.56956
 20
-80.88495999999998
 30
0.0
 11
-6.25858
 21
-81.03296999999999
 31
0.0
  0
LINE
  5
130
330
F8
100
AcDbEntity
  8
AM_4
100
AcDbLine
 10
-5.7921
 20
-81.62498
 30
0.0
 11
-5.71435
 21
-81.99498799999999
 31
0.0
  0
LINE
  5
131
330
F8
100
AcDbEntity
  8
AM_4
100
AcDbLine
 10
-5.94759
 20
-81.32897
 30
0.0
 11
-5.7921
 21
-81.62498
 31
0.0
  0
LINE
  5
132
330
F8
100
AcDbEntity
  8
AM_4
100
AcDbLine
 10
-6.25858
 20
-81.03296999999999
 30
0.0
 11
-5.94759
 21
-81.32897
 31
0.0
  0
LINE
  5
133
330
F8
100
AcDbEntity
  8
AM_4
100
AcDbLine
 10
2.37126
 20
-81.99498799999999
 30
0.0
 11
2.44901
 21
-81.62498
 31
0.0
  0
LINE
  5
134
330
F8
100
AcDbEntity
  8
AM_4
100
AcDbLine
 10
-4.859140000000001
 20
-83.77103
 30
0.0
 11
-5.01464
 21
-83.47502
 31
0.0
  0
LINE
  5
135
330
F8
100
AcDbEntity
  8
AM_4
100
AcDbLine
 10
-4.54816
 20
-84.06703
 30
0.0
 11
-4.859140000000001
 21
-83.77103
 31
0.0
  0
LINE
  5
136
330
F8
100
AcDbEntity
  8
AM_4
100
AcDbLine
 10
2.91549
 20
-84.06703
 30
0.0
 11
2.6045
 21
-83.77103
 31
0.0
  0
LINE
  5
137
330
F8
100
AcDbEntity
  8
AM_4
100
AcDbLine
 10
-8.8242
 20
-80.81096
 30
0.0
 11
-6.95829
 21
-80.81096
 31
0.0
  0
LINE
  5
138
330
F8
100
AcDbEntity
  8
AM_4
100
AcDbLine
 10
-8.8242
 20
-84.28904
 30
0.0
 11
-8.8242
 21
-80.81096
 31
0.0
  0
LINE
  5
139
330
F8
100
AcDbEntity
  8
AM_4
100
AcDbLine
 10
4.703650000000001
 20
-84.21504
 30
0.0
 11
4.31492
 21
-84.28904
 31
0.0
  0
LINE
  5
13A
330
F8
100
AcDbEntity
  8
AM_4
100
AcDbLine
 10
5.01464
 20
-84.06703
 30
0.0
 11
4.703650000000001
 21
-84.21504
 31
0.0
  0
LINE
  5
13B
330
F8
100
AcDbEntity
  8
AM_4
100
AcDbLine
 10
5.32562
 20
-83.77103
 30
0.0
 11
5.01464
 21
-84.06703
 31
0.0
  0
LINE
  5
13C
330
F8
100
AcDbEntity
  8
AM_4
100
AcDbLine
 10
-5.94759
 20
-83.77103
 30
0.0
 11
-6.25858
 21
-84.06703
 31
0.0
  0
LINE
  5
13D
330
F8
100
AcDbEntity
  8
AM_4
100
AcDbLine
 10
-5.7921
 20
-83.47502
 30
0.0
 11
-5.94759
 21
-83.77103
 31
0.0
  0
LINE
  5
13E
330
F8
100
AcDbEntity
  8
AM_4
100
AcDbLine
 10
4.93689
 20
-82.80900600000001
 30
0.0
 11
4.23717
 21
-82.80900600000001
 31
0.0
  0
LINE
  5
13F
330
F8
100
AcDbEntity
  8
AM_4
100
AcDbLine
 10
1.67155
 20
-81.62498
 30
0.0
 11
1.74929
 21
-81.99498799999999
 31
0.0
  0
LINE
  5
140
330
F8
100
AcDbEntity
  8
AM_4
100
AcDbLine
 10
1.51605
 20
-81.32897
 30
0.0
 11
1.67155
 21
-81.62498
 31
0.0
  0
LINE
  5
141
330
F8
100
AcDbEntity
  8
AM_4
100
AcDbLine
 10
1.20507
 20
-81.03296999999999
 30
0.0
 11
1.51605
 21
-81.32897
 31
0.0
  0
LINE
  5
142
330
F8
100
AcDbEntity
  8
AM_4
100
AcDbLine
 10
0.894082
 20
-80.88495999999999
 30
0.0
 11
1.20507
 21
-81.03296999999999
 31
0.0
  0
LINE
  5
143
330
F8
100
AcDbEntity
  8
AM_4
100
AcDbLine
 10
0.505351
 20
-80.81096
 30
0.0
 11
0.894082
 21
-80.88495999999999
 31
0.0
  0
LINE
  5
144
330
F8
100
AcDbEntity
  8
AM_4
100
AcDbLine
 10
-6.95829
 20
-84.28904
 30
0.0
 11
-8.8242
 21
-84.28904
 31
0.0
  0
LINE
  5
145
330
F8
100
AcDbEntity
  8
AM_4
100
AcDbLine
 10
-6.56956
 20
-84.21504
 30
0.0
 11
-6.95829
 21
-84.28904
 31
0.0
  0
LINE
  5
146
330
F8
100
AcDbEntity
  8
AM_4
100
AcDbLine
 10
-6.25858
 20
-84.06703
 30
0.0
 11
-6.56956
 21
-84.21504
 31
0.0
  0
LINE
  5
147
330
F8
100
AcDbEntity
  8
AM_4
100
AcDbLine
 10
-5.71435
 20
-83.105012
 30
0.0
 11
-5.7921
 21
-83.47502
 31
0.0
  0
LINE
  5
148
330
F8
100
AcDbEntity
  8
AM_4
100
AcDbLine
 10
-5.71435
 20
-81.99498799999999
 30
0.0
 11
-5.71435
 21
-83.105012
 31
0.0
  0
LINE
  5
149
330
F8
100
AcDbEntity
  8
AM_4
100
AcDbLine
 10
1.74929
 20
-81.99498799999999
 30
0.0
 11
1.74929
 21
-83.105012
 31
0.0
  0
LINE
  5
14A
330
F8
100
AcDbEntity
  8
AM_4
100
AcDbLine
 10
-5.09238
 20
-81.99498799999999
 30
0.0
 11
-5.01464
 21
-81.62498
 31
0.0
  0
LINE
  5
14B
330
F8
100
AcDbEntity
  8
AM_4
100
AcDbLine
 10
-5.09238
 20
-83.105012
 30
0.0
 11
-5.09238
 21
-81.99498799999999
 31
0.0
  0
LINE
  5
14C
330
F8
100
AcDbEntity
  8
AM_4
100
AcDbLine
 10
-5.01464
 20
-83.47502
 30
0.0
 11
-5.09238
 21
-83.105012
 31
0.0
  0
LINE
  5
14D
330
F8
100
AcDbEntity
  8
AM_4
100
AcDbLine
 10
4.703650000000001
 20
-80.88495999999999
 30
0.0
 11
5.01464
 21
-81.03296999999999
 31
0.0
  0
LINE
  5
14E
330
F8
100
AcDbEntity
  8
AM_4
100
AcDbLine
 10
4.31492
 20
-80.81096
 30
0.0
 11
4.703650000000001
 21
-80.88495999999999
 31
0.0
  0
LINE
  5
14F
330
F8
100
AcDbEntity
  8
AM_4
100
AcDbLine
 10
2.6045
 20
-83.77103
 30
0.0
 11
2.44901
 21
-83.47502
 31
0.0
  0
LINE
  5
150
330
F8
100
AcDbEntity
  8
AM_4
100
AcDbLine
 10
-3.84844
 20
-84.28904
 30
0.0
 11
-4.23717
 21
-84.21504
 31
0.0
  0
LINE
  5
151
330
F8
100
AcDbEntity
  8
AM_4
100
AcDbLine
 10
3.22647
 20
-84.21504
 30
0.0
 11
2.91549
 21
-84.06703
 31
0.0
  0
LINE
  5
152
330
F8
100
AcDbEntity
  8
AM_4
100
AcDbLine
 10
3.6152
 20
-84.28904
 30
0.0
 11
3.22647
 21
-84.21504
 31
0.0
  0
LINE
  5
153
330
F8
100
AcDbEntity
  8
AM_4
100
AcDbLine
 10
2.44901
 20
-81.62498
 30
0.0
 11
2.604500000000002
 21
-81.32897
 31
0.0
  0
LINE
  5
154
330
F8
100
AcDbEntity
  8
AM_4
100
AcDbLine
 10
-2.21577
 20
-83.77103
 30
0.0
 11
-2.52675
 21
-84.06703
 31
0.0
  0
LINE
  5
155
330
F8
100
AcDbEntity
  8
AM_4
100
AcDbLine
 10
-2.06028
 20
-83.47502
 30
0.0
 11
-2.21577
 21
-83.77103
 31
0.0
  0
LINE
  5
156
330
F8
100
AcDbEntity
  8
AM_4
100
AcDbLine
 10
-1.98253
 20
-83.105012
 30
0.0
 11
-2.06028
 21
-83.47502
 31
0.0
  0
LINE
  5
157
330
F8
100
AcDbEntity
  8
AM_4
100
AcDbLine
 10
5.40337
 20
-83.47502
 30
0.0
 11
5.32562
 21
-83.77103
 31
0.0
  0
LINE
  5
158
330
F8
100
AcDbEntity
  8
AM_4
100
AcDbLine
 10
5.40337
 20
-82.36499599999999
 30
0.0
 11
5.40337
 21
-83.47502
 31
0.0
  0
LINE
  5
159
330
F8
100
AcDbEntity
  8
AM_4
100
AcDbLine
 10
4.23717
 20
-82.36499599999999
 30
0.0
 11
5.40337
 21
-82.36499599999999
 31
0.0
  0
LINE
  5
15A
330
F8
100
AcDbEntity
  8
AM_4
100
AcDbLine
 10
4.23717
 20
-82.80900600000001
 30
0.0
 11
4.23717
 21
-82.36499599999999
 31
0.0
  0
LINE
  5
15B
330
F8
100
AcDbEntity
  8
AM_4
100
AcDbLine
 10
-2.83774
 20
-80.88495999999999
 30
0.0
 11
-2.52675
 21
-81.03296999999999
 31
0.0
  0
LINE
  5
15C
330
F8
100
AcDbEntity
  8
AM_4
100
AcDbLine
 10
4.93689
 20
-83.40101899999999
 30
0.0
 11
4.93689
 21
-82.80900600000001
 31
0.0
  0
LINE
  5
15D
330
F8
100
AcDbEntity
  8
AM_4
100
AcDbLine
 10
4.859140000000001
 20
-83.62302
 30
0.0
 11
4.93689
 21
-83.40101899999999
 31
0.0
  0
LINE
  5
15E
330
F8
100
AcDbEntity
  8
AM_4
100
AcDbLine
 10
4.6259
 20
-83.77103
 30
0.0
 11
4.859140000000001
 21
-83.62302
 31
0.0
  0
LINE
  5
15F
330
F8
100
AcDbEntity
  8
AM_4
100
AcDbLine
 10
4.31492
 20
-83.84503
 30
0.0
 11
4.6259
 21
-83.77103
 31
0.0
  0
LINE
  5
160
330
F8
100
AcDbEntity
  8
AM_4
100
AcDbLine
 10
3.6152
 20
-83.84503
 30
0.0
 11
4.31492
 21
-83.84503
 31
0.0
  0
LINE
  5
161
330
F8
100
AcDbEntity
  8
AM_4
100
AcDbLine
 10
3.30422
 20
-83.77103
 30
0.0
 11
3.6152
 21
-83.84503
 31
0.0
  0
LINE
  5
162
330
F8
100
AcDbEntity
  8
AM_4
100
AcDbLine
 10
3.07098
 20
-83.62302
 30
0.0
 11
3.30422
 21
-83.77103
 31
0.0
  0
LINE
  5
163
330
F8
100
AcDbEntity
  8
AM_4
100
AcDbLine
 10
2.91549
 20
-83.40101899999999
 30
0.0
 11
3.07098
 21
-83.62302
 31
0.0
  0
LINE
  5
164
330
F8
100
AcDbEntity
  8
AM_4
100
AcDbLine
 10
2.83774
 20
-83.105012
 30
0.0
 11
2.91549
 21
-83.40101899999999
 31
0.0
  0
LINE
  5
165
330
F8
100
AcDbEntity
  8
AM_4
100
AcDbLine
 10
2.83774
 20
-81.99498799999999
 30
0.0
 11
2.83774
 21
-83.105012
 31
0.0
  0
LINE
  5
166
330
F8
100
AcDbEntity
  8
AM_4
100
AcDbLine
 10
2.91549
 20
-81.698981
 30
0.0
 11
2.83774
 21
-81.99498799999999
 31
0.0
  0
LINE
  5
167
330
F8
100
AcDbEntity
  8
AM_4
100
AcDbLine
 10
3.07098
 20
-81.47698
 30
0.0
 11
2.91549
 21
-81.698981
 31
0.0
  0
LINE
  5
168
330
F8
100
AcDbEntity
  8
AM_4
100
AcDbLine
 10
3.30422
 20
-81.32897
 30
0.0
 11
3.07098
 21
-81.47698
 31
0.0
  0
LINE
  5
169
330
F8
100
AcDbEntity
  8
AM_4
100
AcDbLine
 10
3.6152
 20
-81.25497
 30
0.0
 11
3.30422
 21
-81.32897
 31
0.0
  0
LINE
  5
16A
330
F8
100
AcDbEntity
  8
AM_4
100
AcDbLine
 10
4.31492
 20
-81.25497
 30
0.0
 11
3.6152
 21
-81.25497
 31
0.0
  0
LINE
  5
16B
330
F8
100
AcDbEntity
  8
AM_4
100
AcDbLine
 10
4.6259
 20
-81.32897
 30
0.0
 11
4.31492
 21
-81.25497
 31
0.0
  0
LINE
  5
16C
330
F8
100
AcDbEntity
  8
AM_4
100
AcDbLine
 10
4.859140000000001
 20
-81.47698
 30
0.0
 11
4.6259
 21
-81.32897
 31
0.0
  0
LINE
  5
16D
330
F8
100
AcDbEntity
  8
AM_4
100
AcDbLine
 10
4.93689
 20
-81.698981
 30
0.0
 11
4.859140000000001
 21
-81.47698
 31
0.0
  0
LINE
  5
16E
330
F8
100
AcDbEntity
  8
AM_4
100
AcDbLine
 10
5.40337
 20
-81.698981
 30
0.0
 11
4.93689
 21
-81.698981
 31
0.0
  0
LINE
  5
16F
330
F8
100
AcDbEntity
  8
AM_4
100
AcDbLine
 10
5.32562
 20
-81.32897
 30
0.0
 11
5.40337
 21
-81.698981
 31
0.0
  0
LINE
  5
170
330
F8
100
AcDbEntity
  8
AM_4
100
AcDbLine
 10
5.01464
 20
-81.03296999999999
 30
0.0
 11
5.32562
 21
-81.32897
 31
0.0
  0
LINE
  5
171
330
F8
100
AcDbEntity
  8
AM_4
100
AcDbLine
 10
3.6152
 20
-80.81096
 30
0.0
 11
4.31492
 21
-80.81096
 31
0.0
  0
LINE
  5
172
330
F8
100
AcDbEntity
  8
AM_4
100
AcDbLine
 10
3.22647
 20
-80.88495999999999
 30
0.0
 11
3.6152
 21
-80.81096
 31
0.0
  0
LINE
  5
173
330
F8
100
AcDbEntity
  8
AM_4
100
AcDbLine
 10
2.91549
 20
-81.03296999999999
 30
0.0
 11
3.22647
 21
-80.88495999999999
 31
0.0
  0
LINE
  5
174
330
F8
100
AcDbEntity
  8
AM_4
100
AcDbLine
 10
2.604500000000002
 20
-81.32897
 30
0.0
 11
2.91549
 21
-81.03296999999999
 31
0.0
  0
LINE
  5
175
330
F8
100
AcDbEntity
  8
AM_4
100
AcDbLine
 10
-1.36056
 20
-84.28904
 30
0.0
 11
-1.36056
 21
-80.81096
 31
0.0
  0
LINE
  5
176
330
F8
100
AcDbEntity
  8
AM_4
100
AcDbLine
 10
6.02534
 20
-84.28904
 30
0.0
 11
6.02534
 21
-80.81096
 31
0.0
  0
LINE
  5
177
330
F8
100
AcDbEntity
  8
AM_4
100
AcDbLine
 10
8.8242
 20
-84.28904
 30
0.0
 11
6.02534
 21
-84.28904
 31
0.0
  0
LINE
  5
178
330
F8
100
AcDbEntity
  8
AM_4
100
AcDbLine
 10
8.8242
 20
-83.84503
 30
0.0
 11
8.8242
 21
-84.28904
 31
0.0
  0
LINE
  5
179
330
F8
100
AcDbEntity
  8
AM_4
100
AcDbLine
 10
6.491810000000001
 20
-83.84503
 30
0.0
 11
8.8242
 21
-83.84503
 31
0.0
  0
LINE
  5
17A
330
F8
100
AcDbEntity
  8
AM_4
100
AcDbLine
 10
6.491810000000001
 20
-82.661002
 30
0.0
 11
6.491810000000001
 21
-83.84503
 31
0.0
  0
LINE
  5
17B
330
F8
100
AcDbEntity
  8
AM_4
100
AcDbLine
 10
8.51322
 20
-82.661002
 30
0.0
 11
6.491810000000001
 21
-82.661002
 31
0.0
  0
LINE
  5
17C
330
F8
100
AcDbEntity
  8
AM_4
100
AcDbLine
 10
8.51322
 20
-82.216993
 30
0.0
 11
8.51322
 21
-82.661002
 31
0.0
  0
LINE
  5
17D
330
F8
100
AcDbEntity
  8
AM_4
100
AcDbLine
 10
6.491810000000001
 20
-82.216993
 30
0.0
 11
8.51322
 21
-82.216993
 31
0.0
  0
LINE
  5
17E
330
F8
100
AcDbEntity
  8
AM_4
100
AcDbLine
 10
6.491810000000001
 20
-81.25497
 30
0.0
 11
6.491810000000001
 21
-82.216993
 31
0.0
  0
LINE
  5
17F
330
F8
100
AcDbEntity
  8
AM_4
100
AcDbLine
 10
8.8242
 20
-81.25497
 30
0.0
 11
6.491810000000001
 21
-81.25497
 31
0.0
  0
LINE
  5
180
330
F8
100
AcDbEntity
  8
AM_4
100
AcDbLine
 10
8.8242
 20
-80.81096
 30
0.0
 11
8.8242
 21
-81.25497
 31
0.0
  0
LINE
  5
181
330
F8
100
AcDbEntity
  8
AM_4
100
AcDbLine
 10
6.02534
 20
-80.81096
 30
0.0
 11
8.8242
 21
-80.81096
 31
0.0
  0
LINE
  5
182
330
F8
100
AcDbEntity
  8
AM_4
100
AcDbLine
 10
-6.95829
 20
-80.81096
 30
0.0
 11
-6.56956
 21
-80.88495999999998
 31
0.0
  0
LINE
  5
183
330
F8
100
AcDbEntity
  8
AM_4
100
AcDbLine
 10
-1.36056
 20
-80.81096
 30
0.0
 11
0.505351
 21
-80.81096
 31
0.0
  0
LINE
  5
184
330
F8
100
AcDbEntity
  8
AM_4
100
AcDbLine
 10
-4.54816
 20
-81.03296999999999
 30
0.0
 11
-4.23717
 21
-80.88495999999999
 31
0.0
  0
LINE
  5
185
330
F8
100
AcDbEntity
  8
AM_4
100
AcDbLine
 10
-1.98253
 20
-81.99498799999999
 30
0.0
 11
-1.98253
 21
-83.105012
 31
0.0
  0
LINE
  5
186
330
F8
100
AcDbEntity
  8
AM_4
100
AcDbLine
 10
-4.23717
 20
-84.21504
 30
0.0
 11
-4.54816
 21
-84.06703
 31
0.0
  0
LINE
  5
187
330
F8
100
AcDbEntity
  8
AM_4
100
AcDbLine
 10
-3.22647
 20
-84.28904
 30
0.0
 11
-3.84844
 21
-84.28904
 31
0.0
  0
LINE
  5
188
330
F8
100
AcDbEntity
  8
AM_4
100
AcDbLine
 10
-2.83774
 20
-84.21504
 30
0.0
 11
-3.22647
 21
-84.28904
 31
0.0
  0
LINE
  5
189
330
F8
100
AcDbEntity
  8
AM_4
100
AcDbLine
 10
-3.22647
 20
-80.81096
 30
0.0
 11
-2.83774
 21
-80.88495999999999
 31
0.0
  0
LINE
  5
18A
330
F8
100
AcDbEntity
  8
AM_4
100
AcDbLine
 10
0.505351
 20
-84.28904
 30
0.0
 11
-1.36056
 21
-84.28904
 31
0.0
  0
LINE
  5
18B
330
F8
100
AcDbEntity
  8
AM_4
100
AcDbLine
 10
0.894082
 20
-84.21504
 30
0.0
 11
0.505351
 21
-84.28904
 31
0.0
  0
LINE
  5
18C
330
F8
100
AcDbEntity
  8
AM_4
100
AcDbLine
 10
-2.06028
 20
-81.62498
 30
0.0
 11
-1.98253
 21
-81.99498799999999
 31
0.0
  0
LINE
  5
18D
330
F8
100
AcDbEntity
  8
AM_4
100
AcDbLine
 10
-2.21577
 20
-81.32897
 30
0.0
 11
-2.06028
 21
-81.62498
 31
0.0
  0
LINE
  5
18E
330
F8
100
AcDbEntity
  8
AM_4
100
AcDbLine
 10
-2.52675
 20
-81.03296999999999
 30
0.0
 11
-2.21577
 21
-81.32897
 31
0.0
  0
LINE
  5
18F
330
F8
100
AcDbEntity
  8
AM_4
100
AcDbLine
 10
1.20507
 20
-84.06703
 30
0.0
 11
0.894082
 21
-84.21504
 31
0.0
  0
LINE
  5
190
330
F8
100
AcDbEntity
  8
AM_4
100
AcDbLine
 10
-3.84844
 20
-80.81096
 30
0.0
 11
-3.22647
 21
-80.81096
 31
0.0
  0
LINE
  5
191
330
F8
100
AcDbEntity
  8
AM_4
100
AcDbLine
 10
-4.23717
 20
-80.88495999999999
 30
0.0
 11
-3.84844
 21
-80.81096
 31
0.0
  0
LINE
  5
192
330
F8
100
AcDbEntity
  8
AM_4
100
AcDbLine
 10
-5.01464
 20
-81.62498
 30
0.0
 11
-4.859140000000002
 21
-81.32897
 31
0.0
  0
LINE
  5
193
330
F8
100
AcDbEntity
  8
AM_4
100
AcDbLine
 10
1.74929
 20
-83.105012
 30
0.0
 11
1.67155
 21
-83.47502
 31
0.0
  0
LINE
  5
194
330
F8
100
AcDbEntity
  8
AM_4
100
AcDbLine
 10
1.67155
 20
-83.47502
 30
0.0
 11
1.51605
 21
-83.77103
 31
0.0
  0
LINE
  5
195
330
F8
100
AcDbEntity
  8
AM_4
100
AcDbLine
 10
1.51605
 20
-83.77103
 30
0.0
 11
1.20507
 21
-84.06703
 31
0.0
  0
LINE
  5
196
330
F8
100
AcDbEntity
  8
AM_4
100
AcDbLine
 10
-8.35773
 20
-81.25497
 30
0.0
 11
-6.95829
 21
-81.25497
 31
0.0
  0
LINE
  5
197
330
F8
100
AcDbEntity
  8
AM_4
100
AcDbLine
 10
-6.25858
 20
-81.698981
 30
0.0
 11
-6.18083
 21
-81.99498799999999
 31
0.0
  0
LINE
  5
198
330
F8
100
AcDbEntity
  8
AM_4
100
AcDbLine
 10
-6.64731
 20
-81.32897
 30
0.0
 11
-6.41407
 21
-81.47698
 31
0.0
  0
LINE
  5
199
330
F8
100
AcDbEntity
  8
AM_4
100
AcDbLine
 10
-8.35773
 20
-83.84503
 30
0.0
 11
-8.35773
 21
-81.25497
 31
0.0
  0
LINE
  5
19A
330
F8
100
AcDbEntity
  8
AM_4
100
AcDbLine
 10
-6.95829
 20
-81.25497
 30
0.0
 11
-6.64731
 21
-81.32897
 31
0.0
  0
LINE
  5
19B
330
F8
100
AcDbEntity
  8
AM_4
100
AcDbLine
 10
-6.41407
 20
-81.47698
 30
0.0
 11
-6.25858
 21
-81.698981
 31
0.0
  0
LINE
  5
19C
330
F8
100
AcDbEntity
  8
AM_4
100
AcDbLine
 10
-6.64731
 20
-83.77103
 30
0.0
 11
-6.95829
 21
-83.84503
 31
0.0
  0
LINE
  5
19D
330
F8
100
AcDbEntity
  8
AM_4
100
AcDbLine
 10
-6.95829
 20
-83.84503
 30
0.0
 11
-8.35773
 21
-83.84503
 31
0.0
  0
LINE
  5
19E
330
F8
100
AcDbEntity
  8
AM_4
100
AcDbLine
 10
-6.18083
 20
-81.99498799999999
 30
0.0
 11
-6.18083
 21
-83.105012
 31
0.0
  0
LINE
  5
19F
330
F8
100
AcDbEntity
  8
AM_4
100
AcDbLine
 10
-6.18083
 20
-83.105012
 30
0.0
 11
-6.25858
 21
-83.40101899999999
 31
0.0
  0
LINE
  5
1A0
330
F8
100
AcDbEntity
  8
AM_4
100
AcDbLine
 10
-6.25858
 20
-83.40101899999999
 30
0.0
 11
-6.41407
 21
-83.62302
 31
0.0
  0
LINE
  5
1A1
330
F8
100
AcDbEntity
  8
AM_4
100
AcDbLine
 10
-6.41407
 20
-83.62302
 30
0.0
 11
-6.64731
 21
-83.77103
 31
0.0
  0
LINE
  5
1A2
330
F8
100
AcDbEntity
  8
AM_4
100
AcDbLine
 10
-0.894082
 20
-83.84503
 30
0.0
 11
-0.8940820000000003
 21
-81.25497
 31
0.0
  0
LINE
  5
1A3
330
F8
100
AcDbEntity
  8
AM_4
100
AcDbLine
 10
-0.8940820000000003
 20
-81.25497
 30
0.0
 11
0.505351
 21
-81.25497
 31
0.0
  0
LINE
  5
1A4
330
F8
100
AcDbEntity
  8
AM_4
100
AcDbLine
 10
0.505351
 20
-81.25497
 30
0.0
 11
0.816336
 21
-81.32897
 31
0.0
  0
LINE
  5
1A5
330
F8
100
AcDbEntity
  8
AM_4
100
AcDbLine
 10
0.816336
 20
-81.32897
 30
0.0
 11
1.04957
 21
-81.47698
 31
0.0
  0
LINE
  5
1A6
330
F8
100
AcDbEntity
  8
AM_4
100
AcDbLine
 10
1.04957
 20
-81.47698
 30
0.0
 11
1.20507
 21
-81.698981
 31
0.0
  0
LINE
  5
1A7
330
F8
100
AcDbEntity
  8
AM_4
100
AcDbLine
 10
1.20507
 20
-83.40101899999999
 30
0.0
 11
1.04957
 21
-83.62302
 31
0.0
  0
LINE
  5
1A8
330
F8
100
AcDbEntity
  8
AM_4
100
AcDbLine
 10
1.04957
 20
-83.62302
 30
0.0
 11
0.816336
 21
-83.77103
 31
0.0
  0
LINE
  5
1A9
330
F8
100
AcDbEntity
  8
AM_4
100
AcDbLine
 10
0.5053510000000002
 20
-83.84503
 30
0.0
 11
-0.894082
 21
-83.84503
 31
0.0
  0
LINE
  5
1AA
330
F8
100
AcDbEntity
  8
AM_4
100
AcDbLine
 10
1.28281
 20
-83.105012
 30
0.0
 11
1.20507
 21
-83.40101899999999
 31
0.0
  0
LINE
  5
1AB
330
F8
100
AcDbEntity
  8
AM_4
100
AcDbLine
 10
1.20507
 20
-81.698981
 30
0.0
 11
1.28281
 21
-81.99498799999999
 31
0.0
  0
LINE
  5
1AC
330
F8
100
AcDbEntity
  8
AM_4
100
AcDbLine
 10
1.28281
 20
-81.99498799999999
 30
0.0
 11
1.28281
 21
-83.105012
 31
0.0
  0
LINE
  5
1AD
330
F8
100
AcDbEntity
  8
AM_4
100
AcDbLine
 10
0.816336
 20
-83.77103
 30
0.0
 11
0.5053510000000002
 21
-83.84503
 31
0.0
  0
ARC
  5
1AE
330
F8
100
AcDbEntity
  8
AM_4
100
AcDbCircle
 10
0.0000000000000213
 20
0.0000000000000964
 30
0.0
 40
90.54999999999991
100
AcDbArc
 50
105.0
 51
74.99999999999996
  0
LINE
  5
1AF
330
F8
100
AcDbEntity
  8
AM_4
100
AcDbLine
 10
-4.15943
 20
-83.77103
 30
0.0
 11
-4.39266
 21
-83.62302
 31
0.0
  0
LINE
  5
1B0
330
F8
100
AcDbEntity
  8
AM_4
100
AcDbLine
 10
-4.39266
 20
-83.62302
 30
0.0
 11
-4.54816
 21
-83.40101899999999
 31
0.0
  0
LINE
  5
1B1
330
F8
100
AcDbEntity
  8
AM_4
100
AcDbLine
 10
-4.6259
 20
-81.99498799999999
 30
0.0
 11
-4.54816
 21
-81.698981
 31
0.0
  0
LINE
  5
1B2
330
F8
100
AcDbEntity
  8
AM_4
100
AcDbLine
 10
-4.54816
 20
-81.698981
 30
0.0
 11
-4.39266
 21
-81.47698
 31
0.0
  0
LINE
  5
1B3
330
F8
100
AcDbEntity
  8
AM_4
100
AcDbLine
 10
-4.39266
 20
-81.47698
 30
0.0
 11
-4.15943
 21
-81.32897
 31
0.0
  0
LINE
  5
1B4
330
F8
100
AcDbEntity
  8
AM_4
100
AcDbLine
 10
-4.15943
 20
-81.32897
 30
0.0
 11
-3.84844
 21
-81.25497
 31
0.0
  0
LINE
  5
1B5
330
F8
100
AcDbEntity
  8
AM_4
100
AcDbLine
 10
-3.84844
 20
-81.25497
 30
0.0
 11
-3.22647
 21
-81.25497
 31
0.0
  0
LINE
  5
1B6
330
F8
100
AcDbEntity
  8
AM_4
100
AcDbLine
 10
-2.91549
 20
-83.77103
 30
0.0
 11
-3.22647
 21
-83.84503
 31
0.0
  0
LINE
  5
1B7
330
F8
100
AcDbEntity
  8
AM_4
100
AcDbLine
 10
-3.22647
 20
-83.84503
 30
0.0
 11
-3.84844
 21
-83.84503
 31
0.0
  0
LINE
  5
1B8
330
F8
100
AcDbEntity
  8
AM_4
100
AcDbLine
 10
-3.84844
 20
-83.84503
 30
0.0
 11
-4.15943
 21
-83.77103
 31
0.0
  0
LINE
  5
1B9
330
F8
100
AcDbEntity
  8
AM_4
100
AcDbLine
 10
-4.6259
 20
-83.105012
 30
0.0
 11
-4.6259
 21
-81.99498799999999
 31
0.0
  0
LINE
  5
1BA
330
F8
100
AcDbEntity
  8
AM_4
100
AcDbLine
 10
-3.22647
 20
-81.25497
 30
0.0
 11
-2.91549
 21
-81.32897
 31
0.0
  0
LINE
  5
1BB
330
F8
100
AcDbEntity
  8
AM_4
100
AcDbLine
 10
-2.52675
 20
-81.698981
 30
0.0
 11
-2.44901
 21
-81.99498799999999
 31
0.0
  0
LINE
  5
1BC
330
F8
100
AcDbEntity
  8
AM_4
100
AcDbLine
 10
-2.68225
 20
-83.62302
 30
0.0
 11
-2.91549
 21
-83.77103
 31
0.0
  0
LINE
  5
1BD
330
F8
100
AcDbEntity
  8
AM_4
100
AcDbLine
 10
-2.68225
 20
-81.47698
 30
0.0
 11
-2.52675
 21
-81.698981
 31
0.0
  0
LINE
  5
1BE
330
F8
100
AcDbEntity
  8
AM_4
100
AcDbLine
 10
-4.54816
 20
-83.40101899999999
 30
0.0
 11
-4.6259
 21
-83.105012
 31
0.0
  0
LINE
  5
1BF
330
F8
100
AcDbEntity
  8
AM_4
100
AcDbLine
 10
-2.44901
 20
-83.105012
 30
0.0
 11
-2.52675
 21
-83.40101899999999
 31
0.0
  0
LINE
  5
1C0
330
F8
100
AcDbEntity
  8
AM_4
100
AcDbLine
 10
-2.52675
 20
-83.40101899999999
 30
0.0
 11
-2.68225
 21
-83.62302
 31
0.0
  0
LINE
  5
1C1
330
F8
100
AcDbEntity
  8
AM_4
100
AcDbLine
 10
-2.91549
 20
-81.32897
 30
0.0
 11
-2.68225
 21
-81.47698
 31
0.0
  0
LINE
  5
1C2
330
F8
100
AcDbEntity
  8
AM_4
100
AcDbLine
 10
-2.44901
 20
-81.99498799999999
 30
0.0
 11
-2.44901
 21
-83.105012
 31
0.0
  0
LINE
  5
1C3
330
F8
100
AcDbEntity
  8
AM_4
100
AcDbLine
 10
-20.41772846325155
 20
76.20000000000002
 30
0.0
 11
-23.43606453403326
 21
87.46458357047514
 31
0.0
  0
LINE
  5
1C4
330
F8
100
AcDbEntity
  8
AM_4
100
AcDbLine
 10
23.43606453403331
 20
87.46458357047513
 30
0.0
 11
20.41772846325155
 21
76.2
 31
0.0
  0
LINE
  5
1C5
330
F8
100
AcDbEntity
  8
AM_4
100
AcDbLine
 10
-1.661483519286586
 20
85.2
 30
0.0
 11
1.661483519286586
 21
85.2
 31
0.0
  0
ARC
  5
1C6
330
F8
100
AcDbEntity
  8
AM_4
100
AcDbCircle
 10
1.661483519286564
 20
84.70000000000002
 30
0.0
 40
0.4999999999999831
100
AcDbArc
 50
21.80140948635123
 51
90.0
  0
ARC
  5
1C7
330
F8
100
AcDbEntity
  8
AM_4
100
AcDbCircle
 10
-1.661483519286564
 20
84.70000000000002
 30
0.0
 40
0.4999999999999858
100
AcDbArc
 50
90.0
 51
158.1985905136488
  0
LINE
  5
1C8
330
F8
100
AcDbEntity
  8
AM_4
100
AcDbLine
 10
-2.12572186472918
 20
84.88569533817706
 30
0.0
 11
2.12572186472918
 21
84.88569533817706
 31
0.0
  0
LINE
  5
1C9
330
F8
100
AcDbEntity
  8
AM_4
100
AcDbLine
 10
-2.12572186472918
 20
84.88569533817706
 30
0.0
 11
-2.663890264528344
 21
83.54027433867915
 31
0.0
  0
LINE
  5
1CA
330
F8
100
AcDbEntity
  8
AM_4
100
AcDbLine
 10
2.663890264528344
 20
83.54027433867915
 30
0.0
 11
2.12572186472918
 21
84.88569533817706
 31
0.0
  0
LINE
  5
1CB
330
F8
100
AcDbEntity
  8
AM_4
100
AcDbLine
 10
-2.663890264528345
 20
83.54027433867915
 30
0.0
 11
2.663890264528345
 21
83.54027433867915
 31
0.0
  0
ARC
  5
1CC
330
F8
100
AcDbEntity
  8
AM_4
100
AcDbCircle
 10
2.199651919085699
 20
83.3545790005021
 30
0.0
 40
0.5000000000000168
100
AcDbArc
 50
314.157078281255
 51
21.80140948635149
  0
ARC
  5
1CD
330
F8
100
AcDbEntity
  8
AM_4
100
AcDbCircle
 10
-2.199651919085699
 20
83.3545790005021
 30
0.0
 40
0.500000000000016
100
AcDbArc
 50
158.1985905136485
 51
225.842921718745
  0
LINE
  5
1CE
330
F8
100
AcDbEntity
  8
AM_4
100
AcDbLine
 10
2.8
 20
79.7
 30
0.0
 11
2.8
 21
80.2
 31
0.0
  0
LINE
  5
1CF
330
F8
100
AcDbEntity
  8
AM_4
100
AcDbLine
 10
-2.8
 20
80.2
 30
0.0
 11
-2.8
 21
79.7
 31
0.0
  0
LINE
  5
1D0
330
F8
100
AcDbEntity
  8
AM_4
100
AcDbLine
 10
-2.547965844786243
 20
82.99586266526896
 30
0.0
 11
2.547965844786243
 21
82.99586266526896
 31
0.0
  0
LINE
  5
1D1
330
F8
100
AcDbEntity
  8
AM_4
100
AcDbLine
 10
-2.8
 20
80.2
 30
0.0
 11
2.8
 21
80.2
 31
0.0
  0
ARC
  5
1D2
330
F8
100
AcDbEntity
  8
AM_4
100
AcDbCircle
 10
3.806249999999983
 20
81.69999999999999
 30
0.0
 40
1.806249999999988
100
AcDbArc
 50
134.1570826417041
 51
236.1449738717061
  0
ARC
  5
1D3
330
F8
100
AcDbEntity
  8
AM_4
100
AcDbCircle
 10
-3.806249999999995
 20
81.69999999999999
 30
0.0
 40
1.806249999999985
100
AcDbArc
 50
303.8550261282942
 51
45.8429173582957
  0
LINE
  5
1D4
330
F8
100
AcDbEntity
  8
AM_4
100
AcDbLine
 10
2.8
 20
76.20000000000002
 30
0.0
 11
2.8
 21
76.7
 31
0.0
  0
LINE
  5
1D5
330
F8
100
AcDbEntity
  8
AM_4
100
AcDbLine
 10
-2.8
 20
76.7
 30
0.0
 11
-2.8
 21
76.20000000000002
 31
0.0
  0
LINE
  5
1D6
330
F8
100
AcDbEntity
  8
AM_4
100
AcDbLine
 10
4.0
 20
79.7
 30
0.0
 11
4.0
 21
76.7
 31
0.0
  0
LINE
  5
1D7
330
F8
100
AcDbEntity
  8
AM_4
100
AcDbLine
 10
-4.0
 20
76.7
 30
0.0
 11
4.0
 21
76.7
 31
0.0
  0
LINE
  5
1D8
330
F8
100
AcDbEntity
  8
AM_4
100
AcDbLine
 10
-4.0
 20
79.7
 30
0.0
 11
4.0
 21
79.7
 31
0.0
  0
LINE
  5
1D9
330
F8
100
AcDbEntity
  8
AM_4
100
AcDbLine
 10
-4.0
 20
76.7
 30
0.0
 11
-4.0
 21
79.7
 31
0.0
  0
LINE
  5
1DA
330
F8
100
AcDbEntity
  8
AM_4
100
AcDbLine
 10
2.000000000000003
 20
76.7
 30
0.0
 11
4.0
 21
76.86580753730952
 31
0.0
  0
LINE
  5
1DB
330
F8
100
AcDbEntity
  8
AM_4
100
AcDbLine
 10
4.0
 20
79.53419246269048
 30
0.0
 11
2.000000000000004
 21
79.7
 31
0.0
  0
LINE
  5
1DC
330
F8
100
AcDbEntity
  8
AM_4
100
AcDbLine
 10
-4.0
 20
76.86580753730952
 30
0.0
 11
-2.000000000000003
 21
76.7
 31
0.0
  0
LINE
  5
1DD
330
F8
100
AcDbEntity
  8
AM_4
100
AcDbLine
 10
0.0
 20
76.86580753730952
 30
0.0
 11
0.0
 21
79.53419246269048
 31
0.0
  0
LINE
  5
1DE
330
F8
100
AcDbEntity
  8
AM_4
100
AcDbLine
 10
-2.000000000000001
 20
79.7
 30
0.0
 11
-4.0
 21
79.53419246269048
 31
0.0
  0
LINE
  5
1DF
330
F8
100
AcDbEntity
  8
AM_4
100
AcDbLine
 10
2.000000000000004
 20
79.7
 30
0.0
 11
0.0
 21
79.53419246269048
 31
0.0
  0
LINE
  5
1E0
330
F8
100
AcDbEntity
  8
AM_4
100
AcDbLine
 10
0.0
 20
79.53419246269048
 30
0.0
 11
-2.000000000000001
 21
79.7
 31
0.0
  0
LINE
  5
1E1
330
F8
100
AcDbEntity
  8
AM_4
100
AcDbLine
 10
-2.000000000000003
 20
76.7
 30
0.0
 11
0.0
 21
76.86580753730952
 31
0.0
  0
LINE
  5
1E2
330
F8
100
AcDbEntity
  8
AM_4
100
AcDbLine
 10
0.0
 20
76.86580753730952
 30
0.0
 11
2.000000000000003
 21
76.7
 31
0.0
  0
ARC
  5
1E3
330
F8
100
AcDbEntity
  8
AM_4
100
AcDbCircle
 10
-0.0000000000000107
 20
0.0000000000001137
 30
0.0
 40
69.95000000000009
100
AcDbArc
 50
238.6919817837823
 51
301.3080182162177
  0
ARC
  5
1E4
330
F8
100
AcDbEntity
  8
AM_4
100
AcDbCircle
 10
-53.88153648799637
 20
53.88153648799636
 30
0.0
 40
14.35
100
AcDbArc
 50
45.00000134625011
 51
224.9999986537495
  0
LINE
  5
1E5
330
F8
100
AcDbEntity
  8
AM_4
100
AcDbLine
 10
-43.73455441638801
 20
-64.0285190364419
 30
0.0
 11
-36.34872590465487
 21
-59.76430895700437
 31
0.0
  0
CIRCLE
  5
1E6
330
F8
100
AcDbEntity
  8
AM_4
100
AcDbCircle
 10
53.88153672641492
 20
-53.88153672641493
 30
0.0
 40
6.25
  0
CIRCLE
  5
1E7
330
F8
100
AcDbEntity
  8
AM_4
100
AcDbCircle
 10
-53.88153672641492
 20
-53.88153672641491
 30
0.0
 40
6.25
  0
CIRCLE
  5
1E8
330
F8
100
AcDbEntity
  8
AM_4
100
AcDbCircle
 10
-53.88153672641492
 20
53.88153672641493
 30
0.0
 40
6.25
  0
CIRCLE
  5
1E9
330
F8
100
AcDbEntity
  8
AM_4
100
AcDbCircle
 10
53.88153672641492
 20
53.88153672641493
 30
0.0
 40
6.25
  0
CIRCLE
  5
1EA
330
F8
100
AcDbEntity
  8
AM_4
100
AcDbCircle
 10
0.0
 20
0.0
 30
0.0
 40
55.0
  0
LINE
  5
1EB
330
F8
100
AcDbEntity
  8
AM_4
100
AcDbLine
 10
-64.02851903644192
 20
43.73455441638801
 30
0.0
 11
-59.76430895700436
 21
36.34872590465486
 31
0.0
  0
ARC
  5
1EC
330
F8
100
AcDbEntity
  8
AM_4
100
AcDbCircle
 10
0.0000000000000853
 20
-0.0000000000000142
 30
0.0
 40
69.95000000000007
100
AcDbArc
 50
148.6919817837823
 51
211.3080182162177
  0
LINE
  5
1ED
330
F8
100
AcDbEntity
  8
AM_4
100
AcDbLine
 10
-59.76430895700435
 20
-36.3487259046549
 30
0.0
 11
-64.02851903644188
 21
-43.73455441638799
 31
0.0
  0
ARC
  5
1EE
330
F8
100
AcDbEntity
  8
AM_4
100
AcDbCircle
 10
-53.88153643441301
 20
-53.88153643441301
 30
0.0
 40
14.34999999999999
100
AcDbArc
 50
135.0000016488132
 51
314.9999983511867
  0
LINE
  5
1EF
330
F8
100
AcDbEntity
  8
AM_4
100
AcDbLine
 10
36.34872590465486
 20
-59.76430895700437
 30
0.0
 11
43.73455441638799
 21
-64.02851903644189
 31
0.0
  0
ARC
  5
1F0
330
F8
100
AcDbEntity
  8
AM_4
100
AcDbCircle
 10
53.88153672641494
 20
-53.88153672641493
 30
0.0
 40
14.34999999999999
100
AcDbArc
 50
225.0000000000001
 51
45.00000000000014
  0
LINE
  5
1F1
330
F8
100
AcDbEntity
  8
AM_4
100
AcDbLine
 10
64.02851903644186
 20
-43.73455441638795
 30
0.0
 11
59.76430895700436
 21
-36.34872590465487
 31
0.0
  0
ARC
  5
1F2
330
F8
100
AcDbEntity
  8
AM_4
100
AcDbCircle
 10
0.0000000000000426
 20
0.0
 30
0.0
 40
69.94999999999996
100
AcDbArc
 50
328.6919817837823
 51
31.30801821621773
  0
LINE
  5
1F3
330
F8
100
AcDbEntity
  8
AM_4
100
AcDbLine
 10
59.7643089570044
 20
36.34872590465482
 30
0.0
 11
64.02851903644189
 21
43.73455441638799
 31
0.0
  0
ARC
  5
1F4
330
F8
100
AcDbEntity
  8
AM_4
100
AcDbCircle
 10
53.88153672641493
 20
53.88153672641494
 30
0.0
 40
14.34999999999999
100
AcDbArc
 50
315.0000000000001
 51
135.0000000000001
  0
LINE
  5
1F5
330
F8
100
AcDbEntity
  8
AM_4
100
AcDbLine
 10
43.73455441638797
 20
64.02851903644188
 30
0.0
 11
36.34872590465488
 21
59.76430895700437
 31
0.0
  0
ARC
  5
1F6
330
F8
100
AcDbEntity
  8
AM_4
100
AcDbCircle
 10
-0.000000000002089
 20
-0.0000000000043769
 30
0.0
 40
69.95000000000483
100
AcDbArc
 50
58.69198178378264
 51
70.67483596314324
  0
LINE
  5
1F7
330
F8
100
AcDbEntity
  8
AM_4
100
AcDbLine
 10
23.1484747196198
 20
66.00871622865517
 30
0.0
 11
20.41772846325155
 21
76.2
 31
0.0
  0
LINE
  5
1F8
330
F8
100
AcDbEntity
  8
AM_4
100
AcDbLine
 10
20.41772846325155
 20
76.2
 30
0.0
 11
-20.41772846325155
 21
76.2
 31
0.0
  0
LINE
  5
1F9
330
F8
100
AcDbEntity
  8
AM_4
100
AcDbLine
 10
-20.41772846325155
 20
76.2
 30
0.0
 11
-23.14847471961982
 21
66.00871622865515
 31
0.0
  0
ARC
  5
1FA
330
F8
100
AcDbEntity
  8
AM_4
100
AcDbCircle
 10
-0.0000000000014211
 20
0.0000000000030411
 30
0.0
 40
69.94999999999665
100
AcDbArc
 50
109.3251640368561
 51
121.3080182162181
  0
LINE
  5
1FB
330
F8
100
AcDbEntity
  8
AM_4
100
AcDbLine
 10
-36.34872590465491
 20
59.76430895700433
 30
0.0
 11
-43.73455441638796
 21
64.02851903644185
 31
0.0
  0
ENDBLK
  5
FB
330
F8
100
AcDbEntity
  8
0
100
AcDbBlockEnd
  0
ENDSEC
  0
SECTION
  2
ENTITIES
  0
INSERT
  5
6F
330
1F
100
AcDbEntity
  8
0
100
AcDbBlockReference
  2
1_129756_0
 10
0.0
 20
0.0
 30
0.0
  0
POINT
  5
1FD
330
1F
100
AcDbEntity
  8
ConnectionPoints
100
AcDbPoint
 10
0.0
 20
0.0000000000000045
 30
26.9
  0
POINT
  5
1FE
330
1F
100
AcDbEntity
  8
ConnectionPoints
100
AcDbPoint
 10
0.0
 20
0.0000000000000045
 30
64.0
  0
POINT
  5
1FF
330
1F
100
AcDbEntity
  8
ConnectionPoints
100
AcDbPoint
 10
0.0
 20
0.0
 30
64.0
  0
POINT
  5
200
330
1F
100
AcDbEntity
  8
ConnectionPoints
100
AcDbPoint
 10
0.0
 20
0.0
 30
64.0
  0
ENDSEC
  0
SECTION
  2
OBJECTS
  0
DICTIONARY
  5
C
330
0
100
AcDbDictionary
281
     1
  3
ACAD_DETAILVIEWSTYLE
350
208
  3
ACAD_GROUP
350
D
  3
ACAD_LAYOUT
350
1A
  3
ACAD_MATERIAL
350
43
  3
ACAD_MLEADERSTYLE
350
6B
  3
ACAD_MLINESTYLE
350
17
  3
ACAD_PLOTSETTINGS
350
19
  3
ACAD_PLOTSTYLENAME
350
E
  3
ACAD_SCALELIST
350
47
  3
ACAD_SECTIONVIEWSTYLE
350
209
  3
ACAD_TABLESTYLE
350
69
  3
ACAD_VISUALSTYLE
350
2A
  3
ACDB_RECOMPOSE_DATA
350
205
  3
AcDbVariableDictionary
350
201
  0
SUN
  5
6D
330
29
100
AcDbSun
 90
        1
290
     0
 63
     7
421
 16777215
 40
1.0
291
     1
 91
  2455826
 92
 54000000
292
     0
 70
     2
 71
   256
280
     1
  0
DICTIONARY
  5
208
102
{ACAD_REACTORS
330
C
102
}
330
C
100
AcDbDictionary
281
     1
  0
DICTIONARY
  5
D
102
{ACAD_REACTORS
330
C
102
}
330
C
100
AcDbDictionary
281
     1
  0
DICTIONARY
  5
1A
102
{ACAD_REACTORS
330
C
102
}
330
C
100
AcDbDictionary
281
     1
  3
Layout1
350
1E
  3
Layout2
350
26
  3
Model
350
22
  0
DICTIONARY
  5
43
102
{ACAD_REACTORS
330
C
102
}
330
C
100
AcDbDictionary
281
     1
  3
ByBlock
350
45
  3
ByLayer
350
44
  3
Global
350
46
  0
DICTIONARY
  5
6B
102
{ACAD_REACTORS
330
C
102
}
330
C
100
AcDbDictionary
281
     1
  3
Standard
350
6C
  0
DICTIONARY
  5
17
102
{ACAD_REACTORS
330
C
102
}
330
C
100
AcDbDictionary
281
     1
  3
Standard
350
18
  0
DICTIONARY
  5
19
102
{ACAD_REACTORS
330
C
102
}
330
C
100
AcDbDictionary
281
     1
  0
ACDBDICTIONARYWDFLT
  5
E
102
{ACAD_REACTORS
330
C
102
}
330
C
100
AcDbDictionary
281
     1
  3
Normal
350
F
100
AcDbDictionaryWithDefault
340
F
  0
DICTIONARY
  5
47
102
{ACAD_REACTORS
330
C
102
}
330
C
100
AcDbDictionary
281
     1
  3
A0
350
48
  3
A1
350
49
  3
A2
350
4A
  3
A3
350
4B
  3
A4
350
4C
  3
A5
350
4D
  3
A6
350
4E
  3
A7
350
4F
  3
A8
350
50
  3
A9
350
51
  3
B0
350
52
  3
B1
350
53
  3
B2
350
54
  3
B3
350
55
  3
B4
350
56
  3
B5
350
57
  3
B6
350
58
  3
B7
350
59
  3
B8
350
5A
  3
B9
350
5B
  3
C0
350
5C
  3
C1
350
5D
  3
C2
350
5E
  3
C3
350
5F
  3
C4
350
60
  3
C5
350
61
  3
C6
350
62
  3
C7
350
63
  3
C8
350
64
  3
C9
350
65
  3
D0
350
66
  3
D1
350
67
  3
D2
350
68
  0
DICTIONARY
  5
209
102
{ACAD_REACTORS
330
C
102
}
330
C
100
AcDbDictionary
281
     1
  0
DICTIONARY
  5
69
102
{ACAD_REACTORS
330
C
102
}
330
C
100
AcDbDictionary
281
     1
  3
Standard
350
6A
  0
DICTIONARY
  5
2A
102
{ACAD_REACTORS
330
C
102
}
330
C
100
AcDbDictionary
281
     1
  3
2dWireframe
350
2F
  3
Basic
350
32
  3
Brighten
350
36
  3
ColorChange
350
3A
  3
Conceptual
350
34
  3
Dim
350
35
  3
EdgeColorOff
350
3D
  3
Facepattern
350
39
  3
Flat
350
2B
  3
FlatWithEdges
350
2C
  3
Gouraud
350
2D
  3
GouraudWithEdges
350
2E
  3
Hidden
350
31
  3
JitterOff
350
3B
  3
Linepattern
350
38
  3
OverhangOff
350
3C
  3
Realistic
350
33
  3
Shaded
350
42
  3
Shaded with edges
350
41
  3
Shades of Gray
350
3E
  3
Sketchy
350
3F
  3
Thicken
350
37
  3
Wireframe
350
30
  3
X-Ray
350
40
  0
XRECORD
  5
205
102
{ACAD_REACTORS
330
C
102
}
330
C
100
AcDbXrecord
280
     1
 90
        1
330
6A
  0
DICTIONARY
  5
201
102
{ACAD_REACTORS
330
C
102
}
330
C
100
AcDbDictionary
281
     1
  3
CANNOSCALE
350
202
  3
CMLEADERSTYLE
350
207
  3
CTABLESTYLE
350
206
  0
LAYOUT
  5
1E
102
{ACAD_REACTORS
330
1A
102
}
330
1A
100
AcDbPlotSettings
  1

  2
none_device
  4

  6

 40
0.0
 41
0.0
 42
0.0
 43
0.0
 44
0.0
 45
0.0
 46
0.0
 47
0.0
 48
0.0
 49
0.0
140
0.0
141
0.0
142
1.0
143
1.0
 70
   688
 72
     1
 73
     0
 74
     5
  7

 75
    16
 76
     0
 77
     2
 78
   300
147
1.0
148
0.0
149
0.0
100
AcDbLayout
  1
Layout1
 70
     1
 71
     1
 10
0.0
 20
0.0
 11
420.0
 21
297.0
 12
0.0
 22
0.0
 32
0.0
 14
1.000000000000000E+20
 24
1.000000000000000E+20
 34
1.000000000000000E+20
 15
-1.000000000000000E+20
 25
-1.000000000000000E+20
 35
-1.000000000000000E+20
146
0.0
 13
0.0
 23
0.0
 33
0.0
 16
1.0
 26
0.0
 36
0.0
 17
0.0
 27
1.0
 37
0.0
 76
     0
330
1B
  0
LAYOUT
  5
26
102
{ACAD_REACTORS
330
1A
102
}
330
1A
100
AcDbPlotSettings
  1

  2
none_device
  4

  6

 40
0.0
 41
0.0
 42
0.0
 43
0.0
 44
0.0
 45
0.0
 46
0.0
 47
0.0
 48
0.0
 49
0.0
140
0.0
141
0.0
142
1.0
143
1.0
 70
   688
 72
     1
 73
     0
 74
     5
  7

 75
    16
 76
     0
 77
     2
 78
   300
147
1.0
148
0.0
149
0.0
100
AcDbLayout
  1
Layout2
 70
     1
 71
     2
 10
0.0
 20
0.0
 11
0.0
 21
0.0
 12
0.0
 22
0.0
 32
0.0
 14
0.0
 24
0.0
 34
0.0
 15
0.0
 25
0.0
 35
0.0
146
0.0
 13
0.0
 23
0.0
 33
0.0
 16
1.0
 26
0.0
 36
0.0
 17
0.0
 27
1.0
 37
0.0
 76
     0
330
23
  0
LAYOUT
  5
22
102
{ACAD_REACTORS
330
1A
102
}
330
1A
100
AcDbPlotSettings
  1

  2
none_device
  4
Letter_(8.50_x_11.00_Inches)
  6

 40
6.35
 41
6.35
 42
6.35000508
 43
6.35000508
 44
215.9
 45
279.4
 46
0.0
 47
0.0
 48
0.0
 49
0.0
140
0.0
141
0.0
142
1.0
143
1.0
 70
  1712
 72
     1
 73
     0
 74
     0
  7

 75
     0
 76
     0
 77
     2
 78
   300
147
1.0
148
0.0
149
0.0
100
AcDbLayout
  1
Model
 70
     1
 71
     0
 10
0.0
 20
0.0
 11
420.0
 21
297.0
 12
0.0
 22
0.0
 32
0.0
 14
1.000000000000000E+20
 24
1.000000000000000E+20
 34
1.000000000000000E+20
 15
-1.000000000000000E+20
 25
-1.000000000000000E+20
 35
-1.000000000000000E+20
146
0.0
 13
0.0
 23
0.0
 33
0.0
 16
1.0
 26
0.0
 36
0.0
 17
0.0
 27
1.0
 37
0.0
 76
     0
330
1F
331
29
  0
MATERIAL
  5
45
102
{ACAD_REACTORS
330
43
102
}
330
43
100
AcDbMaterial
  1
ByBlock
 72
     1
 94
      127
  0
MATERIAL
  5
44
102
{ACAD_REACTORS
330
43
102
}
330
43
100
AcDbMaterial
  1
ByLayer
 72
     1
 94
      127
  0
MATERIAL
  5
46
102
{ACAD_REACTORS
330
43
102
}
330
43
100
AcDbMaterial
  1
Global
 72
     1
 94
      127
  0
MLEADERSTYLE
  5
6C
102
{ACAD_REACTORS
330
6B
102
}
330
6B
100
AcDbMLeaderStyle
179
     2
170
     2
171
     1
172
     0
 90
        2
 40
0.0
 41
0.0
173
     1
 91
-1056964608
340
14
 92
       -2
290
     1
 42
2.0
291
     1
 43
8.0
  3
Standard
341
0
 44
4.0
300

342
11
174
     1
178
     6
175
     1
176
     0
 93
-1056964608
 45
4.0
292
     0
297
     0
 46
4.0
343
0
 94
-1056964608
 47
1.0
 49
1.0
140
1.0
293
     1
141
0.0
294
     1
177
     0
142
1.0
295
     0
296
     0
143
3.75
271
     0
272
     9
273
     9
298
     0
  0
MLINESTYLE
  5
18
102
{ACAD_REACTORS
330
17
102
}
330
17
100
AcDbMlineStyle
  2
Standard
 70
     0
  3

 62
   256
 51
90.0
 52
90.0
 71
     2
 49
0.5
 62
   256
  6
BYLAYER
 49
-0.5
 62
   256
  6
BYLAYER
  0
ACDBPLACEHOLDER
  5
F
102
{ACAD_REACTORS
330
E
102
}
330
E
  0
SCALE
  5
48
102
{ACAD_REACTORS
330
47
102
}
330
47
100
AcDbScale
 70
     0
300
1:1
140
1.0
141
1.0
290
     1
  0
SCALE
  5
49
102
{ACAD_REACTORS
330
47
102
}
330
47
100
AcDbScale
 70
     0
300
1:2
140
1.0
141
2.0
290
     0
  0
SCALE
  5
4A
102
{ACAD_REACTORS
330
47
102
}
330
47
100
AcDbScale
 70
     0
300
1:4
140
1.0
141
4.0
290
     0
  0
SCALE
  5
4B
102
{ACAD_REACTORS
330
47
102
}
330
47
100
AcDbScale
 70
     0
300
1:5
140
1.0
141
5.0
290
     0
  0
SCALE
  5
4C
102
{ACAD_REACTORS
330
47
102
}
330
47
100
AcDbScale
 70
     0
300
1:8
140
1.0
141
8.0
290
     0
  0
SCALE
  5
4D
102
{ACAD_REACTORS
330
47
102
}
330
47
100
AcDbScale
 70
     0
300
1:10
140
1.0
141
10.0
290
     0
  0
SCALE
  5
4E
102
{ACAD_REACTORS
330
47
102
}
330
47
100
AcDbScale
 70
     0
300
1:16
140
1.0
141
16.0
290
     0
  0
SCALE
  5
4F
102
{ACAD_REACTORS
330
47
102
}
330
47
100
AcDbScale
 70
     0
300
1:20
140
1.0
141
20.0
290
     0
  0
SCALE
  5
50
102
{ACAD_REACTORS
330
47
102
}
330
47
100
AcDbScale
 70
     0
300
1:30
140
1.0
141
30.0
290
     0
  0
SCALE
  5
51
102
{ACAD_REACTORS
330
47
102
}
330
47
100
AcDbScale
 70
     0
300
1:40
140
1.0
141
40.0
290
     0
  0
SCALE
  5
52
102
{ACAD_REACTORS
330
47
102
}
330
47
100
AcDbScale
 70
     0
300
1:50
140
1.0
141
50.0
290
     0
  0
SCALE
  5
53
102
{ACAD_REACTORS
330
47
102
}
330
47
100
AcDbScale
 70
     0
300
1:100
140
1.0
141
100.0
290
     0
  0
SCALE
  5
54
102
{ACAD_REACTORS
330
47
102
}
330
47
100
AcDbScale
 70
     0
300
2:1
140
2.0
141
1.0
290
     0
  0
SCALE
  5
55
102
{ACAD_REACTORS
330
47
102
}
330
47
100
AcDbScale
 70
     0
300
4:1
140
4.0
141
1.0
290
     0
  0
SCALE
  5
56
102
{ACAD_REACTORS
330
47
102
}
330
47
100
AcDbScale
 70
     0
300
8:1
140
8.0
141
1.0
290
     0
  0
SCALE
  5
57
102
{ACAD_REACTORS
330
47
102
}
330
47
100
AcDbScale
 70
     0
300
10:1
140
10.0
141
1.0
290
     0
  0
SCALE
  5
58
102
{ACAD_REACTORS
330
47
102
}
330
47
100
AcDbScale
 70
     0
300
100:1
140
100.0
141
1.0
290
     0
  0
SCALE
  5
59
102
{ACAD_REACTORS
330
47
102
}
330
47
100
AcDbScale
 70
     0
300
1/128" = 1'-0"
140
0.0078125
141
12.0
290
     0
  0
SCALE
  5
5A
102
{ACAD_REACTORS
330
47
102
}
330
47
100
AcDbScale
 70
     0
300
1/64" = 1'-0"
140
0.015625
141
12.0
290
     0
  0
SCALE
  5
5B
102
{ACAD_REACTORS
330
47
102
}
330
47
100
AcDbScale
 70
     0
300
1/32" = 1'-0"
140
0.03125
141
12.0
290
     0
  0
SCALE
  5
5C
102
{ACAD_REACTORS
330
47
102
}
330
47
100
AcDbScale
 70
     0
300
1/16" = 1'-0"
140
0.0625
141
12.0
290
     0
  0
SCALE
  5
5D
102
{ACAD_REACTORS
330
47
102
}
330
47
100
AcDbScale
 70
     0
300
3/32" = 1'-0"
140
0.09375
141
12.0
290
     0
  0
SCALE
  5
5E
102
{ACAD_REACTORS
330
47
102
}
330
47
100
AcDbScale
 70
     0
300
1/8" = 1'-0"
140
0.125
141
12.0
290
     0
  0
SCALE
  5
5F
102
{ACAD_REACTORS
330
47
102
}
330
47
100
AcDbScale
 70
     0
300
3/16" = 1'-0"
140
0.1875
141
12.0
290
     0
  0
SCALE
  5
60
102
{ACAD_REACTORS
330
47
102
}
330
47
100
AcDbScale
 70
     0
300
1/4" = 1'-0"
140
0.25
141
12.0
290
     0
  0
SCALE
  5
61
102
{ACAD_REACTORS
330
47
102
}
330
47
100
AcDbScale
 70
     0
300
3/8" = 1'-0"
140
0.375
141
12.0
290
     0
  0
SCALE
  5
62
102
{ACAD_REACTORS
330
47
102
}
330
47
100
AcDbScale
 70
     0
300
1/2" = 1'-0"
140
0.5
141
12.0
290
     0
  0
SCALE
  5
63
102
{ACAD_REACTORS
330
47
102
}
330
47
100
AcDbScale
 70
     0
300
3/4" = 1'-0"
140
0.75
141
12.0
290
     0
  0
SCALE
  5
64
102
{ACAD_REACTORS
330
47
102
}
330
47
100
AcDbScale
 70
     0
300
1" = 1'-0"
140
1.0
141
12.0
290
     0
  0
SCALE
  5
65
102
{ACAD_REACTORS
330
47
102
}
330
47
100
AcDbScale
 70
     0
300
1-1/2" = 1'-0"
140
1.5
141
12.0
290
     0
  0
SCALE
  5
66
102
{ACAD_REACTORS
330
47
102
}
330
47
100
AcDbScale
 70
     0
300
3" = 1'-0"
140
3.0
141
12.0
290
     0
  0
SCALE
  5
67
102
{ACAD_REACTORS
330
47
102
}
330
47
100
AcDbScale
 70
     0
300
6" = 1'-0"
140
6.0
141
12.0
290
     0
  0
SCALE
  5
68
102
{ACAD_REACTORS
330
47
102
}
330
47
100
AcDbScale
 70
     0
300
1'-0" = 1'-0"
140
12.0
141
12.0
290
     0
  0
TABLESTYLE
  5
6A
102
{ACAD_REACTORS
330
69
102
}
102
{ACAD_XDICTIONARY
360
203
102
}
330
69
100
AcDbTableStyle
  3
Standard
 70
     0
 71
     0
 40
0.06
 41
0.06
280
     0
281
     0
  7
Standard
140
4.5
170
     2
 62
     0
 63
   257
283
     0
 90
        4
 91
        0
  1

274
    -2
284
     1
 64
     0
275
    -2
285
     1
 65
     0
276
    -2
286
     1
 66
     0
277
    -2
287
     1
 67
     0
278
    -2
288
     1
 68
     0
279
    -2
289
     1
 69
     0
  7
Standard
140
6.0
170
     5
 62
     0
 63
   257
283
     0
 90
        4
 91
        0
  1

274
    -2
284
     1
 64
     0
275
    -2
285
     1
 65
     0
276
    -2
286
     1
 66
     0
277
    -2
287
     1
 67
     0
278
    -2
288
     1
 68
     0
279
    -2
289
     1
 69
     0
  7
Standard
140
4.5
170
     5
 62
     0
 63
   257
283
     0
 90
        4
 91
        0
  1

274
    -2
284
     1
 64
     0
275
    -2
285
     1
 65
     0
276
    -2
286
     1
 66
     0
277
    -2
287
     1
 67
     0
278
    -2
288
     1
 68
     0
279
    -2
289
     1
 69
     0
  0
VISUALSTYLE
  5
2F
102
{ACAD_REACTORS
330
2A
102
}
330
2A
100
AcDbVisualStyle
  2
2dWireframe
 70
     4
177
     3
291
     0
 70
    58
 90
        0
176
     1
 90
        2
176
     1
 90
        0
176
     1
 90
        0
176
     1
 40
0.6
176
     1
 40
30.0
176
     1
 62
     7
420
 16777215
176
     1
 90
        1
176
     1
 90
        4
176
     1
 62
     7
176
     1
 62
   257
176
     1
 90
        1
176
     1
 90
        1
176
     1
 40
1.0
176
     1
 90
        0
176
     1
 62
   257
176
     1
 40
1.0
176
     1
 90
        1
176
     1
 90
        6
176
     1
 90
        2
176
     1
 62
     7
176
     1
 90
        5
176
     1
 90
        0
176
     1
 90
        0
176
     1
290
     0
176
     1
 90
        1
176
     1
 40
0.0
176
     1
 90
        0
176
     1
290
     1
176
     1
290
     1
176
     1
290
     0
176
     1
290
     0
176
     1
290
     0
176
     1
290
     0
176
     1
290
     0
176
     1
290
     0
176
     1
290
     0
176
     1
 90
       50
176
     1
 40
0.0
176
     1
 40
1.0
176
     1
 90
        0
176
     1
 62
    18
420
        0
176
     1
 90
       50
176
     1
 90
        3
176
     1
 62
     5
420
      255
176
     1
290
     0
176
     1
 90
       50
176
     1
 90
       50
176
     1
 90
       50
176
     1
290
     0
176
     1
 90
       50
176
     1
 62
   256
176
     0
 40
1.0
176
     0
 90
        2
176
     1
  1
strokes_ogs.tif
176
     1
290
     0
176
     1
 40
1.0
176
     1
 40
1.0
176
     1
  0
VISUALSTYLE
  5
32
102
{ACAD_REACTORS
330
2A
102
}
330
2A
100
AcDbVisualStyle
  2
Basic
 70
     7
177
     3
291
     1
 70
    58
 90
        1
176
     1
 90
        0
176
     1
 90
        1
176
     1
 90
        0
176
     1
 40
0.6
176
     1
 40
30.0
176
     1
 62
     7
420
 16777215
176
     1
 90
        0
176
     1
 90
        4
176
     1
 62
     7
176
     1
 62
   257
176
     1
 90
        1
176
     1
 90
        1
176
     1
 40
1.0
176
     1
 90
        8
176
     1
 62
     7
176
     1
 40
1.0
176
     1
 90
        1
176
     1
 90
        6
176
     1
 90
        2
176
     1
 62
     7
176
     1
 90
        5
176
     1
 90
        0
176
     1
 90
        0
176
     1
290
     0
176
     1
 90
        1
176
     1
 40
0.0
176
     1
 90
        0
176
     1
290
     0
176
     1
290
     1
176
     1
290
     1
176
     1
290
     0
176
     1
290
     0
176
     1
290
     0
176
     1
290
     0
176
     1
290
     0
176
     1
290
     0
176
     1
 90
       50
176
     1
 40
0.0
176
     1
 40
1.0
176
     1
 90
        0
176
     1
 62
    18
420
        0
176
     1
 90
       50
176
     1
 90
        3
176
     1
 62
     5
420
      255
176
     1
290
     0
176
     1
 90
       50
176
     1
 90
       50
176
     1
 90
       50
176
     1
290
     0
176
     1
 90
       50
176
     1
 62
   256
176
     0
 40
1.0
176
     0
 90
        2
176
     1
  1
strokes_ogs.tif
176
     1
290
     0
176
     1
 40
1.0
176
     1
 40
1.0
176
     1
  0
VISUALSTYLE
  5
36
102
{ACAD_REACTORS
330
2A
102
}
330
2A
100
AcDbVisualStyle
  2
Brighten
 70
    12
177
     3
291
     1
 70
    58
 90
        2
176
     1
 90
        2
176
     1
 90
        0
176
     1
 90
        0
176
     1
 40
0.6
176
     1
 40
30.0
176
     1
 62
     7
420
 16777215
176
     1
 90
        1
176
     1
 90
        4
176
     1
 62
     7
176
     1
 62
   257
176
     1
 90
        1
176
     1
 90
        1
176
     1
 40
1.0
176
     1
 90
        8
176
     1
 62
     7
176
     1
 40
1.0
176
     1
 90
        1
176
     1
 90
        6
176
     1
 90
        2
176
     1
 62
     7
176
     1
 90
        5
176
     1
 90
        0
176
     1
 90
        0
176
     1
290
     0
176
     1
 90
        1
176
     1
 40
50.0
176
     1
 90
        0
176
     1
290
     0
176
     1
290
     1
176
     1
290
     1
176
     1
290
     0
176
     1
290
     0
176
     1
290
     0
176
     1
290
     0
176
     1
290
     0
176
     1
290
     0
176
     1
 90
       50
176
     1
 40
0.0
176
     1
 40
1.0
176
     1
 90
        0
176
     1
 62
    18
420
        0
176
     1
 90
       50
176
     1
 90
        3
176
     1
 62
     5
420
      255
176
     1
290
     0
176
     1
 90
       50
176
     1
 90
       50
176
     1
 90
       50
176
     1
290
     0
176
     1
 90
       50
176
     1
 62
   256
176
     0
 40
1.0
176
     0
 90
        2
176
     1
  1
strokes_ogs.tif
176
     1
290
     0
176
     1
 40
1.0
176
     1
 40
1.0
176
     1
  0
VISUALSTYLE
  5
3A
102
{ACAD_REACTORS
330
2A
102
}
330
2A
100
AcDbVisualStyle
  2
ColorChange
 70
    16
177
     3
291
     1
 70
    58
 90
        2
176
     1
 90
        2
176
     1
 90
        3
176
     1
 90
        0
176
     1
 40
0.6
176
     1
 40
30.0
176
     1
 62
     8
420
  8421504
176
     1
 90
        1
176
     1
 90
        4
176
     1
 62
     7
176
     1
 62
   257
176
     1
 90
        1
176
     1
 90
        1
176
     1
 40
1.0
176
     1
 90
        8
176
     1
 62
     8
420
  8421504
176
     1
 40
1.0
176
     1
 90
        1
176
     1
 90
        6
176
     1
 90
        2
176
     1
 62
     7
176
     1
 90
        5
176
     1
 90
        0
176
     1
 90
        0
176
     1
290
     0
176
     1
 90
        1
176
     1
 40
0.0
176
     1
 90
        0
176
     1
290
     0
176
     1
290
     1
176
     1
290
     1
176
     1
290
     0
176
     1
290
     0
176
     1
290
     0
176
     1
290
     0
176
     1
290
     0
176
     1
290
     0
176
     1
 90
       50
176
     1
 40
0.0
176
     1
 40
1.0
176
     1
 90
        0
176
     1
 62
    18
420
        0
176
     1
 90
       50
176
     1
 90
        3
176
     1
 62
     5
420
      255
176
     1
290
     0
176
     1
 90
       50
176
     1
 90
       50
176
     1
 90
       50
176
     1
290
     0
176
     1
 90
       50
176
     1
 62
   256
176
     0
 40
1.0
176
     0
 90
        2
176
     1
  1
strokes_ogs.tif
176
     1
290
     0
176
     1
 40
1.0
176
     1
 40
1.0
176
     1
  0
VISUALSTYLE
  5
34
102
{ACAD_REACTORS
330
2A
102
}
330
2A
100
AcDbVisualStyle
  2
Conceptual
 70
     9
177
     3
291
     0
 70
    58
 90
        3
176
     1
 90
        2
176
     1
 90
        0
176
     1
 90
        0
176
     1
 40
0.6
176
     1
 40
30.0
176
     1
 62
     7
420
 16777215
176
     1
 90
        2
176
     1
 90
        2
176
     1
 62
     7
176
     1
 62
   257
176
     1
 90
        1
176
     1
 90
        1
176
     1
 40
179.0
176
     1
 90
        8
176
     1
 62
     7
176
     1
 40
1.0
176
     1
 90
        1
176
     1
 90
        6
176
     1
 90
        2
176
     1
 62
     7
176
     1
 90
        3
176
     1
 90
        0
176
     1
 90
        0
176
     1
290
     0
176
     1
 90
        1
176
     1
 40
0.0
176
     1
 90
        0
176
     1
290
     0
176
     1
290
     1
176
     1
290
     1
176
     1
290
     0
176
     1
290
     0
176
     1
290
     0
176
     1
290
     0
176
     1
290
     0
176
     1
290
     0
176
     1
 90
       50
176
     1
 40
0.0
176
     1
 40
1.0
176
     1
 90
        0
176
     1
 62
    18
420
        0
176
     1
 90
       50
176
     1
 90
        3
176
     1
 62
     5
420
      255
176
     1
290
     0
176
     1
 90
       50
176
     1
 90
       50
176
     1
 90
       50
176
     1
290
     0
176
     1
 90
       50
176
     1
 62
   256
176
     0
 40
1.0
176
     0
 90
        2
176
     1
  1
strokes_ogs.tif
176
     1
290
     0
176
     1
 40
1.0
176
     1
 40
1.0
176
     1
  0
VISUALSTYLE
  5
35
102
{ACAD_REACTORS
330
2A
102
}
330
2A
100
AcDbVisualStyle
  2
Dim
 70
    11
177
     3
291
     1
 70
    58
 90
        2
176
     1
 90
        2
176
     1
 90
        0
176
     1
 90
        0
176
     1
 40
0.6
176
     1
 40
30.0
176
     1
 62
     7
420
 16777215
176
     1
 90
        1
176
     1
 90
        4
176
     1
 62
     7
176
     1
 62
   257
176
     1
 90
        1
176
     1
 90
        1
176
     1
 40
1.0
176
     1
 90
        8
176
     1
 62
     7
176
     1
 40
1.0
176
     1
 90
        1
176
     1
 90
        6
176
     1
 90
        2
176
     1
 62
     7
176
     1
 90
        5
176
     1
 90
        0
176
     1
 90
        0
176
     1
290
     0
176
     1
 90
        1
176
     1
 40
-50.0
176
     1
 90
        0
176
     1
290
     0
176
     1
290
     1
176
     1
290
     1
176
     1
290
     0
176
     1
290
     0
176
     1
290
     0
176
     1
290
     0
176
     1
290
     0
176
     1
290
     0
176
     1
 90
       50
176
     1
 40
0.0
176
     1
 40
1.0
176
     1
 90
        0
176
     1
 62
    18
420
        0
176
     1
 90
       50
176
     1
 90
        3
176
     1
 62
     5
420
      255
176
     1
290
     0
176
     1
 90
       50
176
     1
 90
       50
176
     1
 90
       50
176
     1
290
     0
176
     1
 90
       50
176
     1
 62
   256
176
     0
 40
1.0
176
     0
 90
        2
176
     1
  1
strokes_ogs.tif
176
     1
290
     0
176
     1
 40
1.0
176
     1
 40
1.0
176
     1
  0
VISUALSTYLE
  5
3D
102
{ACAD_REACTORS
330
2A
102
}
330
2A
100
AcDbVisualStyle
  2
EdgeColorOff
 70
    22
177
     3
291
     1
 70
    58
 90
        2
176
     0
 90
        2
176
     0
 90
        0
176
     0
 90
        0
176
     0
 40
0.6
176
     0
 40
30.0
176
     0
 62
     7
420
 16777215
176
     0
 90
        1
176
     0
 90
        4
176
     0
 62
     7
176
     0
 62
   257
176
     0
 90
        1
176
     0
 90
        1
176
     0
 40
1.0
176
     0
 90
        8
176
     2
 62
     7
176
     0
 40
1.0
176
     0
 90
        1
176
     0
 90
        6
176
     0
 90
        2
176
     0
 62
     7
176
     0
 90
        5
176
     0
 90
        0
176
     0
 90
        0
176
     0
290
     0
176
     0
 90
        1
176
     0
 40
0.0
176
     0
 90
        0
176
     0
290
     0
176
     0
290
     1
176
     0
290
     1
176
     0
290
     0
176
     0
290
     0
176
     0
290
     0
176
     0
290
     0
176
     0
290
     0
176
     0
290
     0
176
     0
 90
       50
176
     0
 40
0.0
176
     0
 40
1.0
176
     0
 90
        0
176
     0
 62
    18
420
        0
176
     0
 90
       50
176
     0
 90
        3
176
     0
 62
     5
420
      255
176
     0
290
     0
176
     0
 90
       50
176
     0
 90
       50
176
     0
 90
       50
176
     0
290
     0
176
     0
 90
       50
176
     0
 62
   256
176
     0
 40
1.0
176
     0
 90
        2
176
     0
  1
strokes_ogs.tif
176
     0
290
     0
176
     0
 40
1.0
176
     0
 40
1.0
176
     0
  0
VISUALSTYLE
  5
39
102
{ACAD_REACTORS
330
2A
102
}
330
2A
100
AcDbVisualStyle
  2
Facepattern
 70
    15
177
     3
291
     1
 70
    58
 90
        2
176
     1
 90
        2
176
     1
 90
        0
176
     1
 90
        0
176
     1
 40
0.6
176
     1
 40
30.0
176
     1
 62
     7
420
 16777215
176
     1
 90
        1
176
     1
 90
        4
176
     1
 62
     7
176
     1
 62
   257
176
     1
 90
        1
176
     1
 90
        1
176
     1
 40
1.0
176
     1
 90
        8
176
     1
 62
     7
176
     1
 40
1.0
176
     1
 90
        1
176
     1
 90
        6
176
     1
 90
        2
176
     1
 62
     7
176
     1
 90
        5
176
     1
 90
        0
176
     1
 90
        0
176
     1
290
     0
176
     1
 90
        1
176
     1
 40
0.0
176
     1
 90
        0
176
     1
290
     0
176
     1
290
     1
176
     1
290
     1
176
     1
290
     0
176
     1
290
     0
176
     1
290
     0
176
     1
290
     0
176
     1
290
     0
176
     1
290
     0
176
     1
 90
       50
176
     1
 40
0.0
176
     1
 40
1.0
176
     1
 90
        0
176
     1
 62
    18
420
        0
176
     1
 90
       50
176
     1
 90
        3
176
     1
 62
     5
420
      255
176
     1
290
     0
176
     1
 90
       50
176
     1
 90
       50
176
     1
 90
       50
176
     1
290
     0
176
     1
 90
       50
176
     1
 62
   256
176
     0
 40
1.0
176
     0
 90
        2
176
     1
  1
strokes_ogs.tif
176
     1
290
     0
176
     1
 40
1.0
176
     1
 40
1.0
176
     1
  0
VISUALSTYLE
  5
2B
102
{ACAD_REACTORS
330
2A
102
}
330
2A
100
AcDbVisualStyle
  2
Flat
 70
     0
177
     3
291
     1
 70
    58
 90
        2
176
     1
 90
        1
176
     1
 90
        1
176
     1
 90
        2
176
     1
 40
0.6
176
     1
 40
30.0
176
     1
 62
     7
420
 16777215
176
     1
 90
        0
176
     1
 90
        0
176
     1
 62
     7
176
     1
 62
   257
176
     1
 90
        1
176
     1
 90
        1
176
     1
 40
1.0
176
     1
 90
        8
176
     1
 62
     7
176
     1
 40
1.0
176
     1
 90
        1
176
     1
 90
        6
176
     1
 90
        2
176
     1
 62
     7
176
     1
 90
        5
176
     1
 90
        0
176
     1
 90
        0
176
     1
290
     0
176
     1
 90
       13
176
     1
 40
0.0
176
     1
 90
        0
176
     1
290
     0
176
     1
290
     1
176
     1
290
     1
176
     1
290
     0
176
     1
290
     0
176
     1
290
     0
176
     1
290
     0
176
     1
290
     0
176
     1
290
     0
176
     1
 90
       50
176
     1
 40
0.0
176
     1
 40
1.0
176
     1
 90
        0
176
     1
 62
    18
420
        0
176
     1
 90
       50
176
     1
 90
        3
176
     1
 62
     5
420
      255
176
     1
290
     0
176
     1
 90
       50
176
     1
 90
       50
176
     1
 90
       50
176
     1
290
     0
176
     1
 90
       50
176
     1
 62
   256
176
     0
 40
1.0
176
     0
 90
        2
176
     1
  1
strokes_ogs.tif
176
     1
290
     0
176
     1
 40
1.0
176
     1
 40
1.0
176
     1
  0
VISUALSTYLE
  5
2C
102
{ACAD_REACTORS
330
2A
102
}
330
2A
100
AcDbVisualStyle
  2
FlatWithEdges
 70
     1
177
     3
291
     1
 70
    58
 90
        2
176
     1
 90
        1
176
     1
 90
        1
176
     1
 90
        2
176
     1
 40
0.6
176
     1
 40
30.0
176
     1
 62
     7
420
 16777215
176
     1
 90
        1
176
     1
 90
        0
176
     1
 62
     7
176
     1
 62
   257
176
     1
 90
        1
176
     1
 90
        1
176
     1
 40
1.0
176
     1
 90
        0
176
     1
 62
   257
176
     1
 40
1.0
176
     1
 90
        1
176
     1
 90
        6
176
     1
 90
        2
176
     1
 62
     7
176
     1
 90
        5
176
     1
 90
        0
176
     1
 90
        0
176
     1
290
     0
176
     1
 90
       13
176
     1
 40
0.0
176
     1
 90
        0
176
     1
290
     0
176
     1
290
     1
176
     1
290
     1
176
     1
290
     0
176
     1
290
     0
176
     1
290
     0
176
     1
290
     0
176
     1
290
     0
176
     1
290
     0
176
     1
 90
       50
176
     1
 40
0.0
176
     1
 40
1.0
176
     1
 90
        0
176
     1
 62
    18
420
        0
176
     1
 90
       50
176
     1
 90
        3
176
     1
 62
     5
420
      255
176
     1
290
     0
176
     1
 90
       50
176
     1
 90
       50
176
     1
 90
       50
176
     1
290
     0
176
     1
 90
       50
176
     1
 62
   256
176
     0
 40
1.0
176
     0
 90
        2
176
     1
  1
strokes_ogs.tif
176
     1
290
     0
176
     1
 40
1.0
176
     1
 40
1.0
176
     1
  0
VISUALSTYLE
  5
2D
102
{ACAD_REACTORS
330
2A
102
}
330
2A
100
AcDbVisualStyle
  2
Gouraud
 70
     2
177
     3
291
     1
 70
    58
 90
        2
176
     1
 90
        2
176
     1
 90
        1
176
     1
 90
        2
176
     1
 40
0.6
176
     1
 40
30.0
176
     1
 62
     7
420
 16777215
176
     1
 90
        0
176
     1
 90
        0
176
     1
 62
     7
176
     1
 62
   257
176
     1
 90
        1
176
     1
 90
        1
176
     1
 40
1.0
176
     1
 90
        0
176
     1
 62
     7
176
     1
 40
1.0
176
     1
 90
        1
176
     1
 90
        6
176
     1
 90
        2
176
     1
 62
     7
176
     1
 90
        5
176
     1
 90
        0
176
     1
 90
        0
176
     1
290
     0
176
     1
 90
       13
176
     1
 40
0.0
176
     1
 90
        0
176
     1
290
     0
176
     1
290
     1
176
     1
290
     1
176
     1
290
     0
176
     1
290
     0
176
     1
290
     0
176
     1
290
     0
176
     1
290
     0
176
     1
290
     0
176
     1
 90
       50
176
     1
 40
0.0
176
     1
 40
1.0
176
     1
 90
        0
176
     1
 62
    18
420
        0
176
     1
 90
       50
176
     1
 90
        3
176
     1
 62
     5
420
      255
176
     1
290
     0
176
     1
 90
       50
176
     1
 90
       50
176
     1
 90
       50
176
     1
290
     0
176
     1
 90
       50
176
     1
 62
   256
176
     0
 40
1.0
176
     0
 90
        2
176
     1
  1
strokes_ogs.tif
176
     1
290
     0
176
     1
 40
1.0
176
     1
 40
1.0
176
     1
  0
VISUALSTYLE
  5
2E
102
{ACAD_REACTORS
330
2A
102
}
330
2A
100
AcDbVisualStyle
  2
GouraudWithEdges
 70
     3
177
     3
291
     1
 70
    58
 90
        2
176
     1
 90
        2
176
     1
 90
        1
176
     1
 90
        2
176
     1
 40
0.6
176
     1
 40
30.0
176
     1
 62
     7
420
 16777215
176
     1
 90
        1
176
     1
 90
        0
176
     1
 62
     7
176
     1
 62
   257
176
     1
 90
        1
176
     1
 90
        1
176
     1
 40
1.0
176
     1
 90
        0
176
     1
 62
   257
176
     1
 40
1.0
176
     1
 90
        1
176
     1
 90
        6
176
     1
 90
        2
176
     1
 62
     7
176
     1
 90
        5
176
     1
 90
        0
176
     1
 90
        0
176
     1
290
     0
176
     1
 90
       13
176
     1
 40
0.0
176
     1
 90
        0
176
     1
290
     0
176
     1
290
     1
176
     1
290
     1
176
     1
290
     0
176
     1
290
     0
176
     1
290
     0
176
     1
290
     0
176
     1
290
     0
176
     1
290
     0
176
     1
 90
       50
176
     1
 40
0.0
176
     1
 40
1.0
176
     1
 90
        0
176
     1
 62
    18
420
        0
176
     1
 90
       50
176
     1
 90
        3
176
     1
 62
     5
420
      255
176
     1
290
     0
176
     1
 90
       50
176
     1
 90
       50
176
     1
 90
       50
176
     1
290
     0
176
     1
 90
       50
176
     1
 62
   256
176
     0
 40
1.0
176
     0
 90
        2
176
     1
  1
strokes_ogs.tif
176
     1
290
     0
176
     1
 40
1.0
176
     1
 40
1.0
176
     1
  0
VISUALSTYLE
  5
31
102
{ACAD_REACTORS
330
2A
102
}
330
2A
100
AcDbVisualStyle
  2
Hidden
 70
     6
177
     3
291
     0
 70
    58
 90
        1
176
     1
 90
        2
176
     1
 90
        2
176
     1
 90
        0
176
     1
 40
0.6
176
     1
 40
30.0
176
     1
 62
     7
420
 16777215
176
     1
 90
        2
176
     1
 90
        2
176
     1
 62
     7
176
     1
 62
   257
176
     1
 90
        2
176
     1
 90
        1
176
     1
 40
40.0
176
     1
 90
        0
176
     1
 62
   257
176
     1
 40
1.0
176
     1
 90
        1
176
     1
 90
        6
176
     1
 90
        2
176
     1
 62
     7
176
     1
 90
        3
176
     1
 90
        0
176
     1
 90
        0
176
     1
290
     0
176
     1
 90
        1
176
     1
 40
0.0
176
     1
 90
        0
176
     1
290
     0
176
     1
290
     1
176
     1
290
     1
176
     1
290
     0
176
     1
290
     0
176
     1
290
     0
176
     1
290
     0
176
     1
290
     0
176
     1
290
     0
176
     1
 90
       50
176
     1
 40
0.0
176
     1
 40
1.0
176
     1
 90
        0
176
     1
 62
    18
420
        0
176
     1
 90
       50
176
     1
 90
        3
176
     1
 62
     5
420
      255
176
     1
290
     0
176
     1
 90
       50
176
     1
 90
       50
176
     1
 90
       50
176
     1
290
     0
176
     1
 90
       50
176
     1
 62
   256
176
     0
 40
1.0
176
     0
 90
        2
176
     1
  1
strokes_ogs.tif
176
     1
290
     0
176
     1
 40
1.0
176
     1
 40
1.0
176
     1
  0
VISUALSTYLE
  5
3B
102
{ACAD_REACTORS
330
2A
102
}
330
2A
100
AcDbVisualStyle
  2
JitterOff
 70
    20
177
     3
291
     1
 70
    58
 90
        2
176
     0
 90
        2
176
     0
 90
        0
176
     0
 90
        0
176
     0
 40
0.6
176
     0
 40
30.0
176
     0
 62
     7
420
 16777215
176
     0
 90
        1
176
     0
 90
        4
176
     0
 62
     7
176
     0
 62
   257
176
     0
 90
        1
176
     0
 90
        1
176
     0
 40
1.0
176
     0
 90
       10
176
     2
 62
     7
176
     0
 40
1.0
176
     0
 90
        1
176
     0
 90
        6
176
     0
 90
        2
176
     0
 62
     7
176
     0
 90
        5
176
     0
 90
        0
176
     0
 90
        0
176
     0
290
     0
176
     0
 90
        1
176
     0
 40
0.0
176
     0
 90
        0
176
     0
290
     0
176
     0
290
     1
176
     0
290
     1
176
     0
290
     0
176
     0
290
     0
176
     0
290
     0
176
     0
290
     0
176
     0
290
     0
176
     0
290
     0
176
     0
 90
       50
176
     0
 40
0.0
176
     0
 40
1.0
176
     0
 90
        0
176
     0
 62
    18
420
        0
176
     0
 90
       50
176
     0
 90
        3
176
     0
 62
     5
420
      255
176
     0
290
     0
176
     0
 90
       50
176
     0
 90
       50
176
     0
 90
       50
176
     0
290
     0
176
     0
 90
       50
176
     0
 62
   256
176
     0
 40
1.0
176
     0
 90
        2
176
     0
  1
strokes_ogs.tif
176
     0
290
     0
176
     0
 40
1.0
176
     0
 40
1.0
176
     0
  0
VISUALSTYLE
  5
38
102
{ACAD_REACTORS
330
2A
102
}
330
2A
100
AcDbVisualStyle
  2
Linepattern
 70
    14
177
     3
291
     1
 70
    58
 90
        2
176
     1
 90
        2
176
     1
 90
        0
176
     1
 90
        0
176
     1
 40
0.6
176
     1
 40
30.0
176
     1
 62
     7
420
 16777215
176
     1
 90
        1
176
     1
 90
        4
176
     1
 62
     7
176
     1
 62
   257
176
     1
 90
        7
176
     1
 90
        7
176
     1
 40
1.0
176
     1
 90
        8
176
     1
 62
     7
176
     1
 40
1.0
176
     1
 90
        1
176
     1
 90
        6
176
     1
 90
        2
176
     1
 62
     7
176
     1
 90
        5
176
     1
 90
        0
176
     1
 90
        0
176
     1
290
     0
176
     1
 90
        1
176
     1
 40
0.0
176
     1
 90
        0
176
     1
290
     0
176
     1
290
     1
176
     1
290
     1
176
     1
290
     0
176
     1
290
     0
176
     1
290
     0
176
     1
290
     0
176
     1
290
     0
176
     1
290
     0
176
     1
 90
       50
176
     1
 40
0.0
176
     1
 40
1.0
176
     1
 90
        0
176
     1
 62
    18
420
        0
176
     1
 90
       50
176
     1
 90
        3
176
     1
 62
     5
420
      255
176
     1
290
     0
176
     1
 90
       50
176
     1
 90
       50
176
     1
 90
       50
176
     1
290
     0
176
     1
 90
       50
176
     1
 62
   256
176
     0
 40
1.0
176
     0
 90
        2
176
     1
  1
strokes_ogs.tif
176
     1
290
     0
176
     1
 40
1.0
176
     1
 40
1.0
176
     1
  0
VISUALSTYLE
  5
3C
102
{ACAD_REACTORS
330
2A
102
}
330
2A
100
AcDbVisualStyle
  2
OverhangOff
 70
    21
177
     3
291
     1
 70
    58
 90
        2
176
     0
 90
        2
176
     0
 90
        0
176
     0
 90
        0
176
     0
 40
0.6
176
     0
 40
30.0
176
     0
 62
     7
420
 16777215
176
     0
 90
        1
176
     0
 90
        4
176
     0
 62
     7
176
     0
 62
   257
176
     0
 90
        1
176
     0
 90
        1
176
     0
 40
1.0
176
     0
 90
        9
176
     2
 62
     7
176
     0
 40
1.0
176
     0
 90
        1
176
     0
 90
        6
176
     0
 90
        2
176
     0
 62
     7
176
     0
 90
        5
176
     0
 90
        0
176
     0
 90
        0
176
     0
290
     0
176
     0
 90
        1
176
     0
 40
0.0
176
     0
 90
        0
176
     0
290
     0
176
     0
290
     1
176
     0
290
     1
176
     0
290
     0
176
     0
290
     0
176
     0
290
     0
176
     0
290
     0
176
     0
290
     0
176
     0
290
     0
176
     0
 90
       50
176
     0
 40
0.0
176
     0
 40
1.0
176
     0
 90
        0
176
     0
 62
    18
420
        0
176
     0
 90
       50
176
     0
 90
        3
176
     0
 62
     5
420
      255
176
     0
290
     0
176
     0
 90
       50
176
     0
 90
       50
176
     0
 90
       50
176
     0
290
     0
176
     0
 90
       50
176
     0
 62
   256
176
     0
 40
1.0
176
     0
 90
        2
176
     0
  1
strokes_ogs.tif
176
     0
290
     0
176
     0
 40
1.0
176
     0
 40
1.0
176
     0
  0
VISUALSTYLE
  5
33
102
{ACAD_REACTORS
330
2A
102
}
330
2A
100
AcDbVisualStyle
  2
Realistic
 70
     8
177
     3
291
     0
 70
    58
 90
        2
176
     1
 90
        3
176
     1
 90
        0
176
     1
 90
        2
176
     1
 40
0.6
176
     1
 40
30.0
176
     1
 62
     7
420
 16777215
176
     1
 90
        0
176
     1
 90
        0
176
     1
 62
     7
176
     1
 62
   257
176
     1
 90
        1
176
     1
 90
        1
176
     1
 40
1.0
176
     1
 90
        8
176
     1
 62
   257
176
     1
 40
1.0
176
     1
 90
        1
176
     1
 90
        6
176
     1
 90
        2
176
     1
 62
     7
176
     1
 90
        3
176
     1
 90
        0
176
     1
 90
        0
176
     1
290
     0
176
     1
 90
       13
176
     1
 40
0.0
176
     1
 90
        0
176
     1
290
     0
176
     1
290
     1
176
     1
290
     1
176
     1
290
     0
176
     1
290
     0
176
     1
290
     0
176
     1
290
     0
176
     1
290
     0
176
     1
290
     0
176
     1
 90
       50
176
     1
 40
0.0
176
     1
 40
1.0
176
     1
 90
        0
176
     1
 62
    18
420
        0
176
     1
 90
       50
176
     1
 90
        3
176
     1
 62
     5
420
      255
176
     1
290
     0
176
     1
 90
       50
176
     1
 90
       50
176
     1
 90
       50
176
     1
290
     0
176
     1
 90
       50
176
     1
 62
   256
176
     0
 40
1.0
176
     0
 90
        2
176
     1
  1
strokes_ogs.tif
176
     1
290
     0
176
     1
 40
1.0
176
     1
 40
1.0
176
     1
  0
VISUALSTYLE
  5
42
102
{ACAD_REACTORS
330
2A
102
}
330
2A
100
AcDbVisualStyle
  2
Shaded
 70
    27
177
     3
291
     0
 70
    58
 90
        2
176
     1
 90
        2
176
     1
 90
        1
176
     1
 90
        2
176
     1
 40
0.6
176
     1
 40
30.0
176
     1
 62
     7
420
 16777215
176
     1
 90
        0
176
     1
 90
        4
176
     1
 62
     7
176
     1
 62
   257
176
     1
 90
        1
176
     1
 90
        1
176
     1
 40
1.0
176
     1
 90
        8
176
     1
 62
   257
176
     1
 40
1.0
176
     1
 90
        1
176
     1
 90
        6
176
     1
 90
        2
176
     1
 62
     8
420
  7895160
176
     1
 90
        3
176
     1
 90
        0
176
     1
 90
        0
176
     1
290
     0
176
     1
 90
        5
176
     1
 40
0.0
176
     1
 90
        0
176
     1
290
     0
176
     1
290
     1
176
     1
290
     1
176
     1
290
     0
176
     1
290
     0
176
     1
290
     0
176
     1
290
     0
176
     1
290
     0
176
     1
290
     0
176
     1
 90
       50
176
     1
 40
0.0
176
     1
 40
1.0
176
     1
 90
        0
176
     1
 62
    18
420
        0
176
     1
 90
       50
176
     1
 90
        3
176
     1
 62
     5
420
      255
176
     1
290
     0
176
     1
 90
       50
176
     1
 90
       50
176
     1
 90
       50
176
     1
290
     0
176
     1
 90
       50
176
     1
 62
   256
176
     0
 40
1.0
176
     0
 90
        2
176
     1
  1
strokes_ogs.tif
176
     1
290
     0
176
     1
 40
1.0
176
     1
 40
1.0
176
     1
  0
VISUALSTYLE
  5
41
102
{ACAD_REACTORS
330
2A
102
}
330
2A
100
AcDbVisualStyle
  2
Shaded with edges
 70
    26
177
     3
291
     0
 70
    58
 90
        2
176
     1
 90
        2
176
     1
 90
        1
176
     1
 90
        2
176
     1
 40
0.6
176
     1
 40
30.0
176
     1
 62
     7
420
 16777215
176
     1
 90
        1
176
     1
 90
       10
176
     1
 62
     7
176
     1
 62
   257
176
     1
 90
        2
176
     1
 90
        1
176
     1
 40
1.0
176
     1
 90
        8
176
     1
 62
   257
176
     1
 40
1.0
176
     1
 90
        1
176
     1
 90
        6
176
     1
 90
        2
176
     1
 62
     7
176
     1
 90
        3
176
     1
 90
        0
176
     1
 90
        0
176
     1
290
     0
176
     1
 90
        5
176
     1
 40
0.0
176
     1
 90
        0
176
     1
290
     0
176
     1
290
     1
176
     1
290
     1
176
     1
290
     0
176
     1
290
     0
176
     1
290
     0
176
     1
290
     0
176
     1
290
     0
176
     1
290
     0
176
     1
 90
       50
176
     1
 40
0.0
176
     1
 40
1.0
176
     1
 90
        0
176
     1
 62
    18
420
        0
176
     1
 90
       50
176
     1
 90
        3
176
     1
 62
     5
420
      255
176
     1
290
     0
176
     1
 90
       50
176
     1
 90
       50
176
     1
 90
       50
176
     1
290
     0
176
     1
 90
       50
176
     1
 62
   256
176
     0
 40
1.0
176
     0
 90
        2
176
     1
  1
strokes_ogs.tif
176
     1
290
     0
176
     1
 40
1.0
176
     1
 40
1.0
176
     1
  0
VISUALSTYLE
  5
3E
102
{ACAD_REACTORS
330
2A
102
}
330
2A
100
AcDbVisualStyle
  2
Shades of Gray
 70
    23
177
     3
291
     0
 70
    58
 90
        2
176
     1
 90
        2
176
     1
 90
        3
176
     1
 90
        0
176
     1
 40
0.6
176
     1
 40
30.0
176
     1
 62
     7
420
 16777215
176
     1
 90
        2
176
     1
 90
        2
176
     1
 62
     7
176
     1
 62
     7
176
     1
 90
        1
176
     1
 90
        1
176
     1
 40
40.0
176
     1
 90
        8
176
     1
 62
     7
176
     1
 40
1.0
176
     1
 90
        1
176
     1
 90
        6
176
     1
 90
        2
176
     1
 62
     7
176
     1
 90
        3
176
     1
 90
        0
176
     1
 90
        0
176
     1
290
     0
176
     1
 90
        1
176
     1
 40
0.0
176
     1
 90
        0
176
     1
290
     0
176
     1
290
     1
176
     1
290
     1
176
     1
290
     0
176
     1
290
     0
176
     1
290
     0
176
     1
290
     0
176
     1
290
     0
176
     1
290
     0
176
     1
 90
       50
176
     1
 40
0.0
176
     1
 40
1.0
176
     1
 90
        0
176
     1
 62
    18
420
        0
176
     1
 90
       50
176
     1
 90
        3
176
     1
 62
     5
420
      255
176
     1
290
     0
176
     1
 90
       50
176
     1
 90
       50
176
     1
 90
       50
176
     1
290
     0
176
     1
 90
       50
176
     1
 62
   256
176
     0
 40
1.0
176
     0
 90
        2
176
     1
  1
strokes_ogs.tif
176
     1
290
     0
176
     1
 40
1.0
176
     1
 40
1.0
176
     1
  0
VISUALSTYLE
  5
3F
102
{ACAD_REACTORS
330
2A
102
}
330
2A
100
AcDbVisualStyle
  2
Sketchy
 70
    24
177
     3
291
     0
 70
    58
 90
        1
176
     1
 90
        2
176
     1
 90
        2
176
     1
 90
        0
176
     1
 40
0.6
176
     1
 40
30.0
176
     1
 62
     7
420
 16777215
176
     1
 90
        2
176
     1
 90
        2
176
     1
 62
     7
176
     1
 62
     7
176
     1
 90
        1
176
     1
 90
        1
176
     1
 40
40.0
176
     1
 90
       11
176
     1
 62
     7
176
     1
 40
1.0
176
     1
 90
        1
176
     1
 90
        6
176
     1
 90
        2
176
     1
 62
     7
176
     1
 90
        6
176
     1
 90
        0
176
     1
 90
        0
176
     1
290
     0
176
     1
 90
        1
176
     1
 40
0.0
176
     1
 90
        0
176
     1
290
     0
176
     1
290
     1
176
     1
290
     1
176
     1
290
     0
176
     1
290
     0
176
     1
290
     0
176
     1
290
     0
176
     1
290
     0
176
     1
290
     0
176
     1
 90
       50
176
     1
 40
0.0
176
     1
 40
1.0
176
     1
 90
        0
176
     1
 62
    18
420
        0
176
     1
 90
       50
176
     1
 90
        3
176
     1
 62
     5
420
      255
176
     1
290
     0
176
     1
 90
       50
176
     1
 90
       50
176
     1
 90
       50
176
     1
290
     0
176
     1
 90
       50
176
     1
 62
   256
176
     0
 40
1.0
176
     0
 90
        2
176
     1
  1
strokes_ogs.tif
176
     1
290
     0
176
     1
 40
1.0
176
     1
 40
1.0
176
     1
  0
VISUALSTYLE
  5
37
102
{ACAD_REACTORS
330
2A
102
}
330
2A
100
AcDbVisualStyle
  2
Thicken
 70
    13
177
     3
291
     1
 70
    58
 90
        2
176
     1
 90
        2
176
     1
 90
        0
176
     1
 90
        0
176
     1
 40
0.6
176
     1
 40
30.0
176
     1
 62
     7
420
 16777215
176
     1
 90
        1
176
     1
 90
        4
176
     1
 62
     7
176
     1
 62
   257
176
     1
 90
        1
176
     1
 90
        1
176
     1
 40
1.0
176
     1
 90
       12
176
     1
 62
     7
176
     1
 40
1.0
176
     1
 90
        1
176
     1
 90
        6
176
     1
 90
        2
176
     1
 62
     7
176
     1
 90
        5
176
     1
 90
        0
176
     1
 90
        0
176
     1
290
     0
176
     1
 90
        1
176
     1
 40
0.0
176
     1
 90
        0
176
     1
290
     0
176
     1
290
     1
176
     1
290
     1
176
     1
290
     0
176
     1
290
     0
176
     1
290
     0
176
     1
290
     0
176
     1
290
     0
176
     1
290
     0
176
     1
 90
       50
176
     1
 40
0.0
176
     1
 40
1.0
176
     1
 90
        0
176
     1
 62
    18
420
        0
176
     1
 90
       50
176
     1
 90
        3
176
     1
 62
     5
420
      255
176
     1
290
     0
176
     1
 90
       50
176
     1
 90
       50
176
     1
 90
       50
176
     1
290
     0
176
     1
 90
       50
176
     1
 62
   256
176
     0
 40
1.0
176
     0
 90
        2
176
     1
  1
strokes_ogs.tif
176
     1
290
     0
176
     1
 40
1.0
176
     1
 40
1.0
176
     1
  0
VISUALSTYLE
  5
30
102
{ACAD_REACTORS
330
2A
102
}
330
2A
100
AcDbVisualStyle
  2
Wireframe
 70
     5
177
     3
291
     0
 70
    58
 90
        0
176
     1
 90
        2
176
     1
 90
        0
176
     1
 90
        0
176
     1
 40
0.6
176
     1
 40
30.0
176
     1
 62
     7
420
 16777215
176
     1
 90
        1
176
     1
 90
        4
176
     1
 62
     7
176
     1
 62
   257
176
     1
 90
        1
176
     1
 90
        1
176
     1
 40
1.0
176
     1
 90
        0
176
     1
 62
   257
176
     1
 40
1.0
176
     1
 90
        1
176
     1
 90
        6
176
     1
 90
        2
176
     1
 62
     7
176
     1
 90
        3
176
     1
 90
        0
176
     1
 90
        0
176
     1
290
     0
176
     1
 90
        1
176
     1
 40
0.0
176
     1
 90
        0
176
     1
290
     0
176
     1
290
     1
176
     1
290
     1
176
     1
290
     0
176
     1
290
     0
176
     1
290
     0
176
     1
290
     0
176
     1
290
     0
176
     1
290
     0
176
     1
 90
       50
176
     1
 40
0.0
176
     1
 40
1.0
176
     1
 90
        0
176
     1
 62
    18
420
        0
176
     1
 90
       50
176
     1
 90
        3
176
     1
 62
     5
420
      255
176
     1
290
     0
176
     1
 90
       50
176
     1
 90
       50
176
     1
 90
       50
176
     1
290
     0
176
     1
 90
       50
176
     1
 62
   256
176
     0
 40
1.0
176
     0
 90
        2
176
     1
  1
strokes_ogs.tif
176
     1
290
     0
176
     1
 40
1.0
176
     1
 40
1.0
176
     1
  0
VISUALSTYLE
  5
40
102
{ACAD_REACTORS
330
2A
102
}
330
2A
100
AcDbVisualStyle
  2
X-Ray
 70
    25
177
     3
291
     0
 70
    58
 90
        2
176
     1
 90
        2
176
     1
 90
        1
176
     1
 90
        1
176
     1
 40
0.5
176
     1
 40
30.0
176
     1
 62
     7
420
 16777215
176
     1
 90
        1
176
     1
 90
        0
176
     1
 62
     7
176
     1
 62
   257
176
     1
 90
        1
176
     1
 90
        1
176
     1
 40
1.0
176
     1
 90
        8
176
     1
 62
     7
176
     1
 40
1.0
176
     1
 90
        1
176
     1
 90
        6
176
     1
 90
        2
176
     1
 62
     7
176
     1
 90
        3
176
     1
 90
        0
176
     1
 90
        0
176
     1
290
     0
176
     1
 90
       13
176
     1
 40
0.0
176
     1
 90
        0
176
     1
290
     0
176
     1
290
     1
176
     1
290
     1
176
     1
290
     0
176
     1
290
     0
176
     1
290
     0
176
     1
290
     0
176
     1
290
     0
176
     1
290
     0
176
     1
 90
       50
176
     1
 40
0.0
176
     1
 40
1.0
176
     1
 90
        0
176
     1
 62
    18
420
        0
176
     1
 90
       50
176
     1
 90
        3
176
     1
 62
     5
420
      255
176
     1
290
     0
176
     1
 90
       50
176
     1
 90
       50
176
     1
 90
       50
176
     1
290
     0
176
     1
 90
       50
176
     1
 62
   256
176
     0
 40
1.0
176
     0
 90
        2
176
     1
  1
strokes_ogs.tif
176
     1
290
     0
176
     1
 40
1.0
176
     1
 40
1.0
176
     1
  0
DICTIONARYVAR
  5
202
102
{ACAD_REACTORS
330
201
102
}
330
201
100
DictionaryVariables
280
     0
  1
1:1
  0
DICTIONARYVAR
  5
207
102
{ACAD_REACTORS
330
201
102
}
330
201
100
DictionaryVariables
280
     0
  1
Standard
  0
DICTIONARYVAR
  5
206
102
{ACAD_REACTORS
330
201
102
}
330
201
100
DictionaryVariables
280
     0
  1
Standard
  0
DICTIONARY
  5
203
330
6A
100
AcDbDictionary
280
     1
281
     1
  3
ACAD_ROUNDTRIP_2008_TABLESTYLE_CELLSTYLEMAP
360
204
  0
CELLSTYLEMAP
  5
204
102
{ACAD_REACTORS
330
203
102
}
330
203
100
AcDbCellStyleMap
 90
        3
300
CELLSTYLE
  1
TABLEFORMAT_BEGIN
 90
        5
170
     1
 91
        0
 92
    32768
 62
   257
 93
        1
300
CONTENTFORMAT
  1
CONTENTFORMAT_BEGIN
 90
        0
 91
        0
 92
        4
 93
        0
300

 40
0.0
140
1.0
 94
        5
 62
     0
340
11
144
6.0
309
CONTENTFORMAT_END
171
     1
301
MARGIN
  1
CELLMARGIN_BEGIN
 40
1.5
 40
1.5
 40
1.5
 40
1.5
 40
1.5
 40
1.5
309
CELLMARGIN_END
 94
        6
 95
        1
302
GRIDFORMAT
  1
GRIDFORMAT_BEGIN
 90
        0
 91
        1
 62
     0
 92
       -2
340
14
 93
        0
 40
0.045
309
GRIDFORMAT_END
 95
        2
302
GRIDFORMAT
  1
GRIDFORMAT_BEGIN
 90
        0
 91
        1
 62
     0
 92
       -2
340
14
 93
        0
 40
0.045
309
GRIDFORMAT_END
 95
        4
302
GRIDFORMAT
  1
GRIDFORMAT_BEGIN
 90
        0
 91
        1
 62
     0
 92
       -2
340
14
 93
        0
 40
0.045
309
GRIDFORMAT_END
 95
        8
302
GRIDFORMAT
  1
GRIDFORMAT_BEGIN
 90
        0
 91
        1
 62
     0
 92
       -2
340
14
 93
        0
 40
0.045
309
GRIDFORMAT_END
 95
       16
302
GRIDFORMAT
  1
GRIDFORMAT_BEGIN
 90
        0
 91
        1
 62
     0
 92
       -2
340
14
 93
        0
 40
0.045
309
GRIDFORMAT_END
 95
       32
302
GRIDFORMAT
  1
GRIDFORMAT_BEGIN
 90
        0
 91
        1
 62
     0
 92
       -2
340
14
 93
        0
 40
0.045
309
GRIDFORMAT_END
309
TABLEFORMAT_END
  1
CELLSTYLE_BEGIN
 90
        1
 91
        1
300
_TITLE
309
CELLSTYLE_END
300
CELLSTYLE
  1
TABLEFORMAT_BEGIN
 90
        5
170
     1
 91
        0
 92
        0
 62
   257
 93
        1
300
CONTENTFORMAT
  1
CONTENTFORMAT_BEGIN
 90
        0
 91
        0
 92
        4
 93
        0
300

 40
0.0
140
1.0
 94
        5
 62
     0
340
11
144
4.5
309
CONTENTFORMAT_END
171
     1
301
MARGIN
  1
CELLMARGIN_BEGIN
 40
1.5
 40
1.5
 40
1.5
 40
1.5
 40
1.5
 40
1.5
309
CELLMARGIN_END
 94
        6
 95
        1
302
GRIDFORMAT
  1
GRIDFORMAT_BEGIN
 90
        0
 91
        1
 62
     0
 92
       -2
340
14
 93
        0
 40
0.045
309
GRIDFORMAT_END
 95
        2
302
GRIDFORMAT
  1
GRIDFORMAT_BEGIN
 90
        0
 91
        1
 62
     0
 92
       -2
340
14
 93
        0
 40
0.045
309
GRIDFORMAT_END
 95
        4
302
GRIDFORMAT
  1
GRIDFORMAT_BEGIN
 90
        0
 91
        1
 62
     0
 92
       -2
340
14
 93
        0
 40
0.045
309
GRIDFORMAT_END
 95
        8
302
GRIDFORMAT
  1
GRIDFORMAT_BEGIN
 90
        0
 91
        1
 62
     0
 92
       -2
340
14
 93
        0
 40
0.045
309
GRIDFORMAT_END
 95
       16
302
GRIDFORMAT
  1
GRIDFORMAT_BEGIN
 90
        0
 91
        1
 62
     0
 92
       -2
340
14
 93
        0
 40
0.045
309
GRIDFORMAT_END
 95
       32
302
GRIDFORMAT
  1
GRIDFORMAT_BEGIN
 90
        0
 91
        1
 62
     0
 92
       -2
340
14
 93
        0
 40
0.045
309
GRIDFORMAT_END
309
TABLEFORMAT_END
  1
CELLSTYLE_BEGIN
 90
        2
 91
        1
300
_HEADER
309
CELLSTYLE_END
300
CELLSTYLE
  1
TABLEFORMAT_BEGIN
 90
        5
170
     1
 91
        0
 92
        0
 62
   257
 93
        1
300
CONTENTFORMAT
  1
CONTENTFORMAT_BEGIN
 90
        0
 91
        0
 92
        4
 93
        0
300

 40
0.0
140
1.0
 94
        2
 62
     0
340
11
144
4.5
309
CONTENTFORMAT_END
171
     1
301
MARGIN
  1
CELLMARGIN_BEGIN
 40
1.5
 40
1.5
 40
1.5
 40
1.5
 40
1.5
 40
1.5
309
CELLMARGIN_END
 94
        6
 95
        1
302
GRIDFORMAT
  1
GRIDFORMAT_BEGIN
 90
        0
 91
        1
 62
     0
 92
       -2
340
14
 93
        0
 40
0.045
309
GRIDFORMAT_END
 95
        2
302
GRIDFORMAT
  1
GRIDFORMAT_BEGIN
 90
        0
 91
        1
 62
     0
 92
       -2
340
14
 93
        0
 40
0.045
309
GRIDFORMAT_END
 95
        4
302
GRIDFORMAT
  1
GRIDFORMAT_BEGIN
 90
        0
 91
        1
 62
     0
 92
       -2
340
14
 93
        0
 40
0.045
309
GRIDFORMAT_END
 95
        8
302
GRIDFORMAT
  1
GRIDFORMAT_BEGIN
 90
        0
 91
        1
 62
     0
 92
       -2
340
14
 93
        0
 40
0.045
309
GRIDFORMAT_END
 95
       16
302
GRIDFORMAT
  1
GRIDFORMAT_BEGIN
 90
        0
 91
        1
 62
     0
 92
       -2
340
14
 93
        0
 40
0.045
309
GRIDFORMAT_END
 95
       32
302
GRIDFORMAT
  1
GRIDFORMAT_BEGIN
 90
        0
 91
        1
 62
     0
 92
       -2
340
14
 93
        0
 40
0.045
309
GRIDFORMAT_END
309
TABLEFORMAT_END
  1
CELLSTYLE_BEGIN
 90
        3
 91
        2
300
_DATA
309
CELLSTYLE_END
  0
ENDSEC
  0
EOF