0
SECTION
  2
HEADER
  9
$ACADVER
  1
AC1027
  9
$ACADMAINTVER
 70
     8
  9
$DWGCODEPAGE
  3
ANSI_1252
  9
$REQUIREDVERSIONS
160
                 0
  9
$COMMENTS
  1
File was created by Cadenas
  9
$CUSTOMPROPERTYTAG
  1
NN
  9
$CUSTOMPROPERTY
  1
Grip Tight Flange Cartridge Metric Bore
  9
$CUSTOMPROPERTYTAG
  1
NT
  9
$CUSTOMPROPERTY
  1
GT Normal Duty Piloted Flange Bearings
  9
$CUSTOMPROPERTYTAG
  1
NB
  9
$CUSTOMPROPERTY
  1
129750
  9
$CUSTOMPROPERTYTAG
  1
NBSYN
  9
$CUSTOMPROPERTY
  1
$PN.
  9
$CUSTOMPROPERTYTAG
  1
LINA
  9
$CUSTOMPROPERTY
  1
129750
  9
$CUSTOMPROPERTYTAG
  1
SERIES
  9
$CUSTOMPROPERTY
  1
206
  9
$CUSTOMPROPERTYTAG
  1
SS
  9
$CUSTOMPROPERTY
  1
30
  9
$CUSTOMPROPERTYTAG
  1
PN
  9
$CUSTOMPROPERTY
  1
129750
  9
$CUSTOMPROPERTYTAG
  1
DESCRIPTION
  9
$CUSTOMPROPERTY
  1
FC-GT-30M
  9
$CUSTOMPROPERTYTAG
  1
PNSL
  9
$CUSTOMPROPERTY
  1
129501
  9
$CUSTOMPROPERTYTAG
  1
DESCRIPTIONSL
  9
$CUSTOMPROPERTY
  1
FC-GT-06
  9
$CUSTOMPROPERTYTAG
  1
PNA
  9
$CUSTOMPROPERTY
  1
136555
  9
$CUSTOMPROPERTYTAG
  1
DESCRIPTIONA
  9
$CUSTOMPROPERTY
  1
AN-GT-06-30M-D
  9
$CUSTOMPROPERTYTAG
  1
W
  9
$CUSTOMPROPERTY
  1
1.4
  9
$CUSTOMPROPERTYTAG
  1
A
  9
$CUSTOMPROPERTY
  1
40.9
  9
$CUSTOMPROPERTYTAG
  1
B
  9
$CUSTOMPROPERTY
  1
111.3
  9
$CUSTOMPROPERTYTAG
  1
C
  9
$CUSTOMPROPERTY
  1
42.7
  9
$CUSTOMPROPERTYTAG
  1
D
  9
$CUSTOMPROPERTY
  1
92.2
  9
$CUSTOMPROPERTYTAG
  1
E
  9
$CUSTOMPROPERTY
  1
6.4
  9
$CUSTOMPROPERTYTAG
  1
F
  9
$CUSTOMPROPERTY
  1
M10
  9
$CUSTOMPROPERTYTAG
  1
G
  9
$CUSTOMPROPERTY
  1
36.3
  9
$CUSTOMPROPERTYTAG
  1
H
  9
$CUSTOMPROPERTY
  1
20.6
  9
$CUSTOMPROPERTYTAG
  1
K
  9
$CUSTOMPROPERTY
  1
76.20/76.15
  9
$CUSTOMPROPERTYTAG
  1
L
  9
$CUSTOMPROPERTY
  1
52.8
  9
$CUSTOMPROPERTYTAG
  1
Z
  9
$CUSTOMPROPERTY
  1
37.1
  9
$CUSTOMPROPERTYTAG
  1
CAPS
  9
$CUSTOMPROPERTY
  1
2250
  9
$CUSTOMPROPERTYTAG
  1
CAPD
  9
$CUSTOMPROPERTY
  1
4368
  9
$CUSTOMPROPERTYTAG
  1
COMPANY
  9
$CUSTOMPROPERTY
  1
baldor
  9
$INSBASE
 10
0.0
 20
0.0
 30
0.0
  9
$EXTMIN
 10
1.000000000000000E+20
 20
1.000000000000000E+20
 30
1.000000000000000E+20
  9
$EXTMAX
 10
-1.000000000000000E+20
 20
-1.000000000000000E+20
 30
-1.000000000000000E+20
  9
$LIMMIN
 10
0.0
 20
0.0
  9
$LIMMAX
 10
420.0
 20
297.0
  9
$ORTHOMODE
 70
     0
  9
$REGENMODE
 70
     1
  9
$FILLMODE
 70
     1
  9
$QTEXTMODE
 70
     0
  9
$MIRRTEXT
 70
     1
  9
$LTSCALE
 40
1.0
  9
$ATTMODE
 70
     1
  9
$TEXTSIZE
 40
2.5
  9
$TRACEWID
 40
1.0
  9
$TEXTSTYLE
  7
Standard
  9
$CLAYER
  8
0
  9
$CELTYPE
  6
ByLayer
  9
$CECOLOR
 62
   256
  9
$CELTSCALE
 40
1.0
  9
$DISPSILH
 70
     0
  9
$DIMSCALE
 40
1.0
  9
$DIMASZ
 40
2.5
  9
$DIMEXO
 40
0.625
  9
$DIMDLI
 40
3.75
  9
$DIMRND
 40
0.0
  9
$DIMDLE
 40
0.0
  9
$DIMEXE
 40
1.25
  9
$DIMTP
 40
0.0
  9
$DIMTM
 40
0.0
  9
$DIMTXT
 40
2.5
  9
$DIMCEN
 40
2.5
  9
$DIMTSZ
 40
0.0
  9
$DIMTOL
 70
     0
  9
$DIMLIM
 70
     0
  9
$DIMTIH
 70
     0
  9
$DIMTOH
 70
     0
  9
$DIMSE1
 70
     0
  9
$DIMSE2
 70
     0
  9
$DIMTAD
 70
     1
  9
$DIMZIN
 70
     8
  9
$DIMBLK
  1

  9
$DIMASO
 70
     1
  9
$DIMSHO
 70
     1
  9
$DIMPOST
  1

  9
$DIMAPOST
  1

  9
$DIMALT
 70
     0
  9
$DIMALTD
 70
     3
  9
$DIMALTF
 40
0.03937007874016
  9
$DIMLFAC
 40
1.0
  9
$DIMTOFL
 70
     1
  9
$DIMTVP
 40
0.0
  9
$DIMTIX
 70
     0
  9
$DIMSOXD
 70
     0
  9
$DIMSAH
 70
     0
  9
$DIMBLK1
  1

  9
$DIMBLK2
  1

  9
$DIMSTYLE
  2
ISO-25
  9
$DIMCLRD
 70
     0
  9
$DIMCLRE
 70
     0
  9
$DIMCLRT
 70
     0
  9
$DIMTFAC
 40
1.0
  9
$DIMGAP
 40
0.625
  9
$DIMJUST
 70
     0
  9
$DIMSD1
 70
     0
  9
$DIMSD2
 70
     0
  9
$DIMTOLJ
 70
     0
  9
$DIMTZIN
 70
     8
  9
$DIMALTZ
 70
     0
  9
$DIMALTTZ
 70
     0
  9
$DIMUPT
 70
     0
  9
$DIMDEC
 70
     2
  9
$DIMTDEC
 70
     2
  9
$DIMALTU
 70
     2
  9
$DIMALTTD
 70
     3
  9
$DIMTXSTY
  7
Standard
  9
$DIMAUNIT
 70
     0
  9
$DIMADEC
 70
     0
  9
$DIMALTRND
 40
0.0
  9
$DIMAZIN
 70
     0
  9
$DIMDSEP
 70
    44
  9
$DIMATFIT
 70
     3
  9
$DIMFRAC
 70
     0
  9
$DIMLDRBLK
  1

  9
$DIMLUNIT
 70
     2
  9
$DIMLWD
 70
    -2
  9
$DIMLWE
 70
    -2
  9
$DIMTMOVE
 70
     0
  9
$DIMFXL
 40
1.0
  9
$DIMFXLON
 70
     0
  9
$DIMJOGANG
 40
0.7853981633974483
  9
$DIMTFILL
 70
     0
  9
$DIMTFILLCLR
 70
     0
  9
$DIMARCSYM
 70
     0
  9
$DIMLTYPE
  6

  9
$DIMLTEX1
  6

  9
$DIMLTEX2
  6

  9
$DIMTXTDIRECTION
 70
     0
  9
$LUNITS
 70
     2
  9
$LUPREC
 70
     4
  9
$SKETCHINC
 40
1.0
  9
$FILLETRAD
 40
10.0
  9
$AUNITS
 70
     0
  9
$AUPREC
 70
     0
  9
$MENU
  1
.
  9
$ELEVATION
 40
0.0
  9
$PELEVATION
 40
0.0
  9
$THICKNESS
 40
0.0
  9
$LIMCHECK
 70
     0
  9
$CHAMFERA
 40
0.0
  9
$CHAMFERB
 40
0.0
  9
$CHAMFERC
 40
0.0
  9
$CHAMFERD
 40
0.0
  9
$SKPOLY
 70
     0
  9
$TDCREATE
 40
2458168.995688229
  9
$TDUCREATE
 40
2458168.954021562
  9
$TDUPDATE
 40
2458168.995688414
  9
$TDUUPDATE
 40
2458168.954021748
  9
$TDINDWG
 40
0.0000000116
  9
$TDUSRTIMER
 40
0.0000000116
  9
$USRTIMER
 70
     1
  9
$ANGBASE
 50
0.0
  9
$ANGDIR
 70
     0
  9
$PDMODE
 70
     0
  9
$PDSIZE
 40
0.0
  9
$PLINEWID
 40
0.0
  9
$SPLFRAME
 70
     0
  9
$SPLINETYPE
 70
     6
  9
$SPLINESEGS
 70
     8
  9
$HANDSEED
  5
204
  9
$SURFTAB1
 70
     6
  9
$SURFTAB2
 70
     6
  9
$SURFTYPE
 70
     6
  9
$SURFU
 70
     6
  9
$SURFV
 70
     6
  9
$UCSBASE
  2

  9
$UCSNAME
  2

  9
$UCSORG
 10
0.0
 20
0.0
 30
0.0
  9
$UCSXDIR
 10
1.0
 20
0.0
 30
0.0
  9
$UCSYDIR
 10
0.0
 20
1.0
 30
0.0
  9
$UCSORTHOREF
  2

  9
$UCSORTHOVIEW
 70
     0
  9
$UCSORGTOP
 10
0.0
 20
0.0
 30
0.0
  9
$UCSORGBOTTOM
 10
0.0
 20
0.0
 30
0.0
  9
$UCSORGLEFT
 10
0.0
 20
0.0
 30
0.0
  9
$UCSORGRIGHT
 10
0.0
 20
0.0
 30
0.0
  9
$UCSORGFRONT
 10
0.0
 20
0.0
 30
0.0
  9
$UCSORGBACK
 10
0.0
 20
0.0
 30
0.0
  9
$PUCSBASE
  2

  9
$PUCSNAME
  2

  9
$PUCSORG
 10
0.0
 20
0.0
 30
0.0
  9
$PUCSXDIR
 10
1.0
 20
0.0
 30
0.0
  9
$PUCSYDIR
 10
0.0
 20
1.0
 30
0.0
  9
$PUCSORTHOREF
  2

  9
$PUCSORTHOVIEW
 70
     0
  9
$PUCSORGTOP
 10
0.0
 20
0.0
 30
0.0
  9
$PUCSORGBOTTOM
 10
0.0
 20
0.0
 30
0.0
  9
$PUCSORGLEFT
 10
0.0
 20
0.0
 30
0.0
  9
$PUCSORGRIGHT
 10
0.0
 20
0.0
 30
0.0
  9
$PUCSORGFRONT
 10
0.0
 20
0.0
 30
0.0
  9
$PUCSORGBACK
 10
0.0
 20
0.0
 30
0.0
  9
$USERI1
 70
     0
  9
$USERI2
 70
     0
  9
$USERI3
 70
     0
  9
$USERI4
 70
     0
  9
$USERI5
 70
     0
  9
$USERR1
 40
0.0
  9
$USERR2
 40
0.0
  9
$USERR3
 40
0.0
  9
$USERR4
 40
0.0
  9
$USERR5
 40
0.0
  9
$WORLDVIEW
 70
     1
  9
$SHADEDGE
 70
     3
  9
$SHADEDIF
 70
    70
  9
$TILEMODE
 70
     1
  9
$MAXACTVP
 70
    64
  9
$PINSBASE
 10
0.0
 20
0.0
 30
0.0
  9
$PLIMCHECK
 70
     0
  9
$PEXTMIN
 10
1.000000000000000E+20
 20
1.000000000000000E+20
 30
1.000000000000000E+20
  9
$PEXTMAX
 10
-1.000000000000000E+20
 20
-1.000000000000000E+20
 30
-1.000000000000000E+20
  9
$PLIMMIN
 10
0.0
 20
0.0
  9
$PLIMMAX
 10
420.0
 20
297.0
  9
$UNITMODE
 70
     0
  9
$VISRETAIN
 70
     1
  9
$PLINEGEN
 70
     0
  9
$PSLTSCALE
 70
     1
  9
$TREEDEPTH
 70
  3020
  9
$CMLSTYLE
  2
Standard
  9
$CMLJUST
 70
     0
  9
$CMLSCALE
 40
20.0
  9
$PROXYGRAPHICS
 70
     1
  9
$MEASUREMENT
 70
     1
  9
$CELWEIGHT
370
    -1
  9
$ENDCAPS
280
     0
  9
$JOINSTYLE
280
     0
  9
$LWDISPLAY
290
     0
  9
$INSUNITS
 70
     4
  9
$HYPERLINKBASE
  1

  9
$STYLESHEET
  1

  9
$XEDIT
290
     1
  9
$CEPSNTYPE
380
     0
  9
$PSTYLEMODE
290
     1
  9
$FINGERPRINTGUID
  2
{42CE985A-F562-4A98-A80F-8555C01CC0A0}
  9
$VERSIONGUID
  2
{FAEB1C32-E019-11D5-929B-00C0DF256EC4}
  9
$EXTNAMES
290
     1
  9
$PSVPSCALE
 40
0.0
  9
$OLESTARTUP
290
     0
  9
$SORTENTS
280
   127
  9
$INDEXCTL
280
     0
  9
$HIDETEXT
280
     1
  9
$XCLIPFRAME
280
     2
  9
$HALOGAP
280
     0
  9
$OBSCOLOR
 70
   257
  9
$OBSLTYPE
280
     0
  9
$INTERSECTIONDISPLAY
280
     0
  9
$INTERSECTIONCOLOR
 70
   257
  9
$DIMASSOC
280
     2
  9
$PROJECTNAME
  1

  9
$CAMERADISPLAY
290
     0
  9
$LENSLENGTH
 40
50.0
  9
$CAMERAHEIGHT
 40
0.0
  9
$STEPSPERSEC
 40
2.0
  9
$STEPSIZE
 40
6.0
  9
$3DDWFPREC
 40
2.0
  9
$PSOLWIDTH
 40
5.0
  9
$PSOLHEIGHT
 40
80.0
  9
$LOFTANG1
 40
1.570796326794897
  9
$LOFTANG2
 40
1.570796326794897
  9
$LOFTMAG1
 40
0.0
  9
$LOFTMAG2
 40
0.0
  9
$LOFTPARAM
 70
     7
  9
$LOFTNORMALS
280
     1
  9
$LATITUDE
 40
37.795
  9
$LONGITUDE
 40
-122.394
  9
$NORTHDIRECTION
 40
0.0
  9
$TIMEZONE
 70
 -8000
  9
$LIGHTGLYPHDISPLAY
280
     1
  9
$TILEMODELIGHTSYNCH
280
     1
  9
$CMATERIAL
347
44
  9
$SOLIDHIST
280
     0
  9
$SHOWHIST
280
     1
  9
$DWFFRAME
280
     2
  9
$DGNFRAME
280
     2
  9
$REALWORLDSCALE
290
     1
  9
$INTERFERECOLOR
 62
   256
  9
$CSHADOW
280
     0
  9
$SHADOWPLANELOCATION
 40
0.0
  0
ENDSEC
  0
SECTION
  2
CLASSES
  0
CLASS
  1
ACDBDICTIONARYWDFLT
  2
AcDbDictionaryWithDefault
  3
ObjectDBX Classes
 90
        0
 91
        4
280
     0
281
     0
  0
CLASS
  1
VISUALSTYLE
  2
AcDbVisualStyle
  3
ObjectDBX Classes
 90
     4095
 91
        4
280
     0
281
     0
  0
CLASS
  1
MATERIAL
  2
AcDbMaterial
  3
ObjectDBX Classes
 90
     1153
 91
        4
280
     0
281
     0
  0
CLASS
  1
SCALE
  2
AcDbScale
  3
ObjectDBX Classes
 90
     1153
 91
        4
280
     0
281
     0
  0
CLASS
  1
TABLESTYLE
  2
AcDbTableStyle
  3
ObjectDBX Classes
 90
     4095
 91
        4
280
     0
281
     0
  0
CLASS
  1
MLEADERSTYLE
  2
AcDbMLeaderStyle
  3
ACDB_MLEADERSTYLE_CLASS
 90
     4095
 91
        4
280
     0
281
     0
  0
CLASS
  1
SUN
  2
AcDbSun
  3
SCENEOE
 90
     1153
 91
        4
280
     0
281
     0
  0
CLASS
  1
DICTIONARYVAR
  2
AcDbDictionaryVar
  3
ObjectDBX Classes
 90
        0
 91
        4
280
     0
281
     0
  0
CLASS
  1
CELLSTYLEMAP
  2
AcDbCellStyleMap
  3
ObjectDBX Classes
 90
     1152
 91
        4
280
     0
281
     0
  0
ENDSEC
  0
SECTION
  2
TABLES
  0
TABLE
  2
VPORT
  5
8
330
0
100
AcDbSymbolTable
 70
     1
  0
VPORT
  5
29
330
8
100
AcDbSymbolTableRecord
100
AcDbViewportTableRecord
  2
*Active
 70
     0
 10
0.0
 20
0.0
 11
1.0
 21
1.0
 12
0.0
 22
0.0
 13
0.0
 23
0.0
 14
10.0
 24
10.0
 15
10.0
 25
10.0
 16
0.0
 26
0.0
 36
1.0
 17
0.0000000000005684
 27
0.0000000000003411
 37
0.0
 40
119.2023000000012
 41
1.0
 42
50.0
 43
0.0
 44
0.0
 50
0.0
 51
0.0
 71
     0
 72
   100
 73
     1
 74
     3
 75
     0
 76
     0
 77
     0
 78
     0
281
     0
 65
     1
110
0.0
120
0.0
130
0.0
111
1.0
121
0.0
131
0.0
112
0.0
122
1.0
132
0.0
 79
     0
146
0.0
348
2F
 60
     3
 61
     5
292
     1
282
     1
141
0.0
142
0.0
 63
   250
361
6D
  0
ENDTAB
  0
TABLE
  2
LTYPE
  5
5
330
0
100
AcDbSymbolTable
 70
     3
  0
LTYPE
  5
14
330
5
100
AcDbSymbolTableRecord
100
AcDbLinetypeTableRecord
  2
ByBlock
 70
     0
  3

 72
    65
 73
     0
 40
0.0
  0
LTYPE
  5
15
330
5
100
AcDbSymbolTableRecord
100
AcDbLinetypeTableRecord
  2
ByLayer
 70
     0
  3

 72
    65
 73
     0
 40
0.0
  0
LTYPE
  5
16
330
5
100
AcDbSymbolTableRecord
100
AcDbLinetypeTableRecord
  2
Continuous
 70
     0
  3
Solid line
 72
    65
 73
     0
 40
0.0
  0
LTYPE
  5
A5
330
5
100
AcDbSymbolTableRecord
100
AcDbLinetypeTableRecord
  2
Dashed
 70
     0
  3

 72
    65
 73
     2
 40
2.0
 49
1.0
 74
     0
 49
-1.0
 74
     0
  0
LTYPE
  5
118
330
5
100
AcDbSymbolTableRecord
100
AcDbLinetypeTableRecord
  2
Center
 70
     0
  3

 72
    65
 73
     4
 40
1.5
 49
0.45
 74
     0
 49
-0.5
 74
     0
 49
0.05
 74
     0
 49
-0.5
 74
     0
  0
ENDTAB
  0
TABLE
  2
LAYER
  5
2
330
0
100
AcDbSymbolTable
 70
     7
  0
LAYER
  5
10
330
2
100
AcDbSymbolTableRecord
100
AcDbLayerTableRecord
  2
0
 70
     0
 62
     7
  6
Continuous
370
    -3
390
F
347
46
348
0
  0
LAYER
  5
72
330
2
100
AcDbSymbolTableRecord
100
AcDbLayerTableRecord
  2
AM_6
 70
     0
 62
    -2
  6
Continuous
370
    35
390
F
347
46
348
0
  0
LAYER
  5
A6
330
2
100
AcDbSymbolTableRecord
100
AcDbLayerTableRecord
  2
AM_9
 70
     0
 62
     6
  6
Dashed
370
    25
390
F
347
46
348
0
  0
LAYER
  5
AD
330
2
100
AcDbSymbolTableRecord
100
AcDbLayerTableRecord
  2
AM_4
 70
     0
 62
     3
  6
Continuous
370
    25
390
F
347
46
348
0
  0
LAYER
  5
DC
330
2
100
AcDbSymbolTableRecord
100
AcDbLayerTableRecord
  2
AM_5
 70
     0
 62
     3
  6
Continuous
370
    25
390
F
347
46
348
0
  0
LAYER
  5
119
330
2
100
AcDbSymbolTableRecord
100
AcDbLayerTableRecord
  2
AM_7
 70
     0
 62
     7
  6
Center
370
    25
390
F
347
46
348
0
  0
LAYER
  5
1F6
330
2
100
AcDbSymbolTableRecord
100
AcDbLayerTableRecord
  2
ConnectionPoints
 70
     0
 62
     7
  6
Continuous
370
    50
390
F
347
46
348
0
  0
ENDTAB
  0
TABLE
  2
STYLE
  5
3
330
0
100
AcDbSymbolTable
 70
     1
  0
STYLE
  5
11
330
3
100
AcDbSymbolTableRecord
100
AcDbTextStyleTableRecord
  2
Standard
 70
     0
 40
0.0
 41
1.0
 50
0.0
 71
     0
 42
2.5
  3
txt
  4

  0
ENDTAB
  0
TABLE
  2
VIEW
  5
6
330
0
100
AcDbSymbolTable
 70
     0
  0
ENDTAB
  0
TABLE
  2
UCS
  5
7
330
0
100
AcDbSymbolTable
 70
     0
  0
ENDTAB
  0
TABLE
  2
APPID
  5
9
330
0
100
AcDbSymbolTable
 70
     1
  0
APPID
  5
12
330
9
100
AcDbSymbolTableRecord
100
AcDbRegAppTableRecord
  2
ACAD
 70
     0
  0
ENDTAB
  0
TABLE
  2
DIMSTYLE
  5
A
330
0
100
AcDbSymbolTable
 70
     1
100
AcDbDimStyleTable
  0
DIMSTYLE
105
27
330
A
100
AcDbSymbolTableRecord
100
AcDbDimStyleTableRecord
  2
ISO-25
 70
     0
 41
2.5
 42
0.625
 43
3.75
 44
1.25
 73
     0
 74
     0
 77
     1
 78
     8
140
2.5
141
2.5
143
0.03937007874016
147
0.625
171
     3
172
     1
178
     0
271
     2
272
     2
274
     3
278
    44
283
     0
284
     8
340
11
  0
ENDTAB
  0
TABLE
  2
BLOCK_RECORD
  5
1
330
0
100
AcDbSymbolTable
 70
     5
  0
BLOCK_RECORD
  5
1F
330
1
100
AcDbSymbolTableRecord
100
AcDbBlockTableRecord
  2
*Model_Space
340
22
 70
     0
280
     1
281
     0
  0
BLOCK_RECORD
  5
1B
330
1
100
AcDbSymbolTableRecord
100
AcDbBlockTableRecord
  2
*Paper_Space
340
1E
 70
     0
280
     1
281
     0
  0
BLOCK_RECORD
  5
23
330
1
100
AcDbSymbolTableRecord
100
AcDbBlockTableRecord
  2
*Paper_Space0
340
26
 70
     0
280
     1
281
     0
  0
BLOCK_RECORD
  5
6E
330
1
100
AcDbSymbolTableRecord
100
AcDbBlockTableRecord
  2
1_129750_0
340
0
102
{BLKREFS
331
6F
102
}
 70
     0
280
     1
281
     0
  0
BLOCK_RECORD
  5
8F
330
1
100
AcDbSymbolTableRecord
100
AcDbBlockTableRecord
  2
2_129519_0_in_129750_0
340
0
102
{BLKREFS
331
90
102
}
 70
     0
280
     1
281
     0
  0
BLOCK_RECORD
  5
B4
330
1
100
AcDbSymbolTableRecord
100
AcDbBlockTableRecord
  2
3_136555_0_in_129750_0
340
0
102
{BLKREFS
331
B5
102
}
 70
     0
280
     1
281
     0
  0
BLOCK_RECORD
  5
F2
330
1
100
AcDbSymbolTableRecord
100
AcDbBlockTableRecord
  2
4_129750h_0_in_129750_0
340
0
102
{BLKREFS
331
F3
102
}
 70
     0
280
     1
281
     0
  0
ENDTAB
  0
ENDSEC
  0
SECTION
  2
BLOCKS
  0
BLOCK
  5
20
330
1F
100
AcDbEntity
  8
0
100
AcDbBlockBegin
  2
*Model_Space
 70
     0
 10
0.0
 20
0.0
 30
0.0
  3
*Model_Space
  1

  0
ENDBLK
  5
21
330
1F
100
AcDbEntity
  8
0
100
AcDbBlockEnd
  0
BLOCK
  5
1C
330
1B
100
AcDbEntity
 67
     1
  8
0
100
AcDbBlockBegin
  2
*Paper_Space
 70
     0
 10
0.0
 20
0.0
 30
0.0
  3
*Paper_Space
  1

  0
ENDBLK
  5
1D
330
1B
100
AcDbEntity
 67
     1
  8
0
100
AcDbBlockEnd
  0
BLOCK
  5
24
330
23
100
AcDbEntity
  8
0
100
AcDbBlockBegin
  2
*Paper_Space0
 70
     0
 10
0.0
 20
0.0
 30
0.0
  3
*Paper_Space0
  1

  0
ENDBLK
  5
25
330
23
100
AcDbEntity
  8
0
100
AcDbBlockEnd
  0
BLOCK
  5
70
330
6E
100
AcDbEntity
  8
0
100
AcDbBlockBegin
  2
1_129750_0
 70
     2
 10
0.0
 20
0.0
 30
0.0
  3
1_129750_0
  1

  0
ATTDEF
  5
73
330
6E
100
AcDbEntity
  8
AM_6
100
AcDbText
 10
63.43250000000115
 20
58.43250000000091
 30
0.0
 40
0.5
  1
Grip Tight Flange Cartridge Metric Bore
100
AcDbAttributeDefinition
  3

  2
NN
 70
     8
280
     0
  0
ATTDEF
  5
74
330
6E
100
AcDbEntity
  8
AM_6
100
AcDbText
 10
63.43250000000115
 20
57.93250000000091
 30
0.0
 40
0.5
  1
GT Normal Duty Piloted Flange Bearings
100
AcDbAttributeDefinition
  3

  2
NT
 70
     8
280
     0
  0
ATTDEF
  5
75
330
6E
100
AcDbEntity
  8
AM_6
100
AcDbText
 10
63.43250000000115
 20
57.43250000000091
 30
0.0
 40
0.5
  1
129750
100
AcDbAttributeDefinition
  3

  2
NB
 70
     8
280
     0
  0
ATTDEF
  5
76
330
6E
100
AcDbEntity
  8
AM_6
100
AcDbText
 10
63.43250000000115
 20
56.93250000000091
 30
0.0
 40
0.5
  1
$PN.
100
AcDbAttributeDefinition
  3

  2
NBSYN
 70
     8
280
     0
  0
ATTDEF
  5
77
330
6E
100
AcDbEntity
  8
AM_6
100
AcDbText
 10
63.43250000000115
 20
56.43250000000091
 30
0.0
 40
0.5
  1
129750
100
AcDbAttributeDefinition
  3

  2
LINA
 70
     8
280
     0
  0
ATTDEF
  5
78
330
6E
100
AcDbEntity
  8
AM_6
100
AcDbText
 10
63.43250000000115
 20
55.93250000000091
 30
0.0
 40
0.5
  1
206
100
AcDbAttributeDefinition
  3

  2
SERIES
 70
     8
280
     0
  0
ATTDEF
  5
79
330
6E
100
AcDbEntity
  8
AM_6
100
AcDbText
 10
63.43250000000115
 20
55.43250000000091
 30
0.0
 40
0.5
  1
30
100
AcDbAttributeDefinition
  3

  2
SS
 70
     8
280
     0
  0
ATTDEF
  5
7A
330
6E
100
AcDbEntity
  8
AM_6
100
AcDbText
 10
63.43250000000115
 20
54.93250000000091
 30
0.0
 40
0.5
  1
129750
100
AcDbAttributeDefinition
  3

  2
PN
 70
     8
280
     0
  0
ATTDEF
  5
7B
330
6E
100
AcDbEntity
  8
AM_6
100
AcDbText
 10
63.43250000000115
 20
54.43250000000091
 30
0.0
 40
0.5
  1
FC-GT-30M
100
AcDbAttributeDefinition
  3

  2
DESCRIPTION
 70
     8
280
     0
  0
ATTDEF
  5
7C
330
6E
100
AcDbEntity
  8
AM_6
100
AcDbText
 10
63.43250000000115
 20
53.93250000000091
 30
0.0
 40
0.5
  1
129501
100
AcDbAttributeDefinition
  3

  2
PNSL
 70
     8
280
     0
  0
ATTDEF
  5
7D
330
6E
100
AcDbEntity
  8
AM_6
100
AcDbText
 10
63.43250000000115
 20
53.43250000000091
 30
0.0
 40
0.5
  1
FC-GT-06
100
AcDbAttributeDefinition
  3

  2
DESCRIPTIONSL
 70
     8
280
     0
  0
ATTDEF
  5
7E
330
6E
100
AcDbEntity
  8
AM_6
100
AcDbText
 10
63.43250000000115
 20
52.93250000000091
 30
0.0
 40
0.5
  1
136555
100
AcDbAttributeDefinition
  3

  2
PNA
 70
     8
280
     0
  0
ATTDEF
  5
7F
330
6E
100
AcDbEntity
  8
AM_6
100
AcDbText
 10
63.43250000000115
 20
52.43250000000091
 30
0.0
 40
0.5
  1
AN-GT-06-30M-D
100
AcDbAttributeDefinition
  3

  2
DESCRIPTIONA
 70
     8
280
     0
  0
ATTDEF
  5
80
330
6E
100
AcDbEntity
  8
AM_6
100
AcDbText
 10
63.43250000000115
 20
51.93250000000091
 30
0.0
 40
0.5
  1
1.4
100
AcDbAttributeDefinition
  3

  2
W
 70
     8
280
     0
  0
ATTDEF
  5
81
330
6E
100
AcDbEntity
  8
AM_6
100
AcDbText
 10
63.43250000000115
 20
51.43250000000091
 30
0.0
 40
0.5
  1
40.9
100
AcDbAttributeDefinition
  3

  2
A
 70
     8
280
     0
  0
ATTDEF
  5
82
330
6E
100
AcDbEntity
  8
AM_6
100
AcDbText
 10
63.43250000000115
 20
50.93250000000091
 30
0.0
 40
0.5
  1
111.3
100
AcDbAttributeDefinition
  3

  2
B
 70
     8
280
     0
  0
ATTDEF
  5
83
330
6E
100
AcDbEntity
  8
AM_6
100
AcDbText
 10
63.43250000000115
 20
50.43250000000091
 30
0.0
 40
0.5
  1
42.7
100
AcDbAttributeDefinition
  3

  2
C
 70
     8
280
     0
  0
ATTDEF
  5
84
330
6E
100
AcDbEntity
  8
AM_6
100
AcDbText
 10
63.43250000000115
 20
49.93250000000091
 30
0.0
 40
0.5
  1
92.2
100
AcDbAttributeDefinition
  3

  2
D
 70
     8
280
     0
  0
ATTDEF
  5
85
330
6E
100
AcDbEntity
  8
AM_6
100
AcDbText
 10
63.43250000000115
 20
49.43250000000091
 30
0.0
 40
0.5
  1
6.4
100
AcDbAttributeDefinition
  3

  2
E
 70
     8
280
     0
  0
ATTDEF
  5
86
330
6E
100
AcDbEntity
  8
AM_6
100
AcDbText
 10
63.43250000000115
 20
48.93250000000091
 30
0.0
 40
0.5
  1
M10
100
AcDbAttributeDefinition
  3

  2
F
 70
     8
280
     0
  0
ATTDEF
  5
87
330
6E
100
AcDbEntity
  8
AM_6
100
AcDbText
 10
63.43250000000115
 20
48.43250000000091
 30
0.0
 40
0.5
  1
36.3
100
AcDbAttributeDefinition
  3

  2
G
 70
     8
280
     0
  0
ATTDEF
  5
88
330
6E
100
AcDbEntity
  8
AM_6
100
AcDbText
 10
63.43250000000115
 20
47.93250000000091
 30
0.0
 40
0.5
  1
20.6
100
AcDbAttributeDefinition
  3

  2
H
 70
     8
280
     0
  0
ATTDEF
  5
89
330
6E
100
AcDbEntity
  8
AM_6
100
AcDbText
 10
63.43250000000115
 20
47.43250000000091
 30
0.0
 40
0.5
  1
76.20/76.15
100
AcDbAttributeDefinition
  3

  2
K
 70
     8
280
     0
  0
ATTDEF
  5
8A
330
6E
100
AcDbEntity
  8
AM_6
100
AcDbText
 10
63.43250000000115
 20
46.93250000000091
 30
0.0
 40
0.5
  1
52.8
100
AcDbAttributeDefinition
  3

  2
L
 70
     8
280
     0
  0
ATTDEF
  5
8B
330
6E
100
AcDbEntity
  8
AM_6
100
AcDbText
 10
63.43250000000115
 20
46.43250000000091
 30
0.0
 40
0.5
  1
37.1
100
AcDbAttributeDefinition
  3

  2
Z
 70
     8
280
     0
  0
ATTDEF
  5
8C
330
6E
100
AcDbEntity
  8
AM_6
100
AcDbText
 10
63.43250000000115
 20
45.93250000000091
 30
0.0
 40
0.5
  1
2250
100
AcDbAttributeDefinition
  3

  2
CAPS
 70
     8
280
     0
  0
ATTDEF
  5
8D
330
6E
100
AcDbEntity
  8
AM_6
100
AcDbText
 10
63.43250000000115
 20
45.43250000000091
 30
0.0
 40
0.5
  1
4368
100
AcDbAttributeDefinition
  3

  2
CAPD
 70
     8
280
     0
  0
ATTDEF
  5
8E
330
6E
100
AcDbEntity
  8
AM_6
100
AcDbText
 10
63.43250000000115
 20
44.93250000000091
 30
0.0
 40
0.5
  1
baldor
100
AcDbAttributeDefinition
  3

  2
COMPANY
 70
     8
280
     0
  0
INSERT
  5
90
330
6E
100
AcDbEntity
  8
0
100
AcDbBlockReference
  2
2_129519_0_in_129750_0
 10
0.0
 20
0.0
 30
0.0
  0
INSERT
  5
B5
330
6E
100
AcDbEntity
  8
0
100
AcDbBlockReference
  2
3_136555_0_in_129750_0
 10
0.0
 20
0.0
 30
0.0
  0
INSERT
  5
F3
330
6E
100
AcDbEntity
  8
0
100
AcDbBlockReference
  2
4_129750h_0_in_129750_0
 10
0.0
 20
0.0
 30
0.0
  0
ENDBLK
  5
71
330
6E
100
AcDbEntity
  8
0
100
AcDbBlockEnd
  0
BLOCK
  5
91
330
8F
100
AcDbEntity
  8
0
100
AcDbBlockBegin
  2
2_129519_0_in_129750_0
 70
     2
 10
0.0
 20
0.0
 30
0.0
  3
2_129519_0_in_129750_0
  1

  0
ATTDEF
  5
93
330
8F
100
AcDbEntity
  8
AM_6
100
AcDbText
 10
35.78378402289508
 20
30.78378402289508
 30
0.0
 40
0.5
  1
INS-GT-M B
100
AcDbAttributeDefinition
  3

  2
NN
 70
     8
280
     0
  0
ATTDEF
  5
94
330
8F
100
AcDbEntity
  8
AM_6
100
AcDbText
 10
35.78378402289508
 20
30.28378402289508
 30
0.0
 40
0.5
  1
GT Normal Duty Bearing Inserts
100
AcDbAttributeDefinition
  3

  2
NT
 70
     8
280
     0
  0
ATTDEF
  5
95
330
8F
100
AcDbEntity
  8
AM_6
100
AcDbText
 10
35.78378402289508
 20
29.78378402289508
 30
0.0
 40
0.5
  1
129519
100
AcDbAttributeDefinition
  3

  2
NB
 70
     8
280
     0
  0
ATTDEF
  5
96
330
8F
100
AcDbEntity
  8
AM_6
100
AcDbText
 10
35.78378402289508
 20
29.28378402289508
 30
0.0
 40
0.5
  1
$PN.
100
AcDbAttributeDefinition
  3

  2
NBSYN
 70
     8
280
     0
  0
ATTDEF
  5
97
330
8F
100
AcDbEntity
  8
AM_6
100
AcDbText
 10
35.78378402289508
 20
28.78378402289508
 30
0.0
 40
0.5
  1
129519
100
AcDbAttributeDefinition
  3

  2
LINA
 70
     8
280
     0
  0
ATTDEF
  5
98
330
8F
100
AcDbEntity
  8
AM_6
100
AcDbText
 10
35.78378402289508
 20
28.28378402289508
 30
0.0
 40
0.5
  1
206
100
AcDbAttributeDefinition
  3

  2
SERIES
 70
     8
280
     0
  0
ATTDEF
  5
99
330
8F
100
AcDbEntity
  8
AM_6
100
AcDbText
 10
35.78378402289508
 20
27.78378402289508
 30
0.0
 40
0.5
  1
129519
100
AcDbAttributeDefinition
  3

  2
PN
 70
     8
280
     0
  0
ATTDEF
  5
9A
330
8F
100
AcDbEntity
  8
AM_6
100
AcDbText
 10
35.78378402289508
 20
27.28378402289508
 30
0.0
 40
0.5
  1
INS-GT-06
100
AcDbAttributeDefinition
  3

  2
DESCRIPTION
 70
     8
280
     0
  0
ATTDEF
  5
9B
330
8F
100
AcDbEntity
  8
AM_6
100
AcDbText
 10
35.78378402289508
 20
26.78378402289508
 30
0.0
 40
0.5
  1
40.9
100
AcDbAttributeDefinition
  3

  2
A
 70
     8
280
     0
  0
ATTDEF
  5
9C
330
8F
100
AcDbEntity
  8
AM_6
100
AcDbText
 10
35.78378402289508
 20
26.28378402289508
 30
0.0
 40
0.5
  1
17.5
100
AcDbAttributeDefinition
  3

  2
C
 70
     8
280
     0
  0
ATTDEF
  5
9D
330
8F
100
AcDbEntity
  8
AM_6
100
AcDbText
 10
35.78378402289508
 20
25.78378402289508
 30
0.0
 40
0.5
  1
62.0
100
AcDbAttributeDefinition
  3

  2
D
 70
     8
280
     0
  0
ATTDEF
  5
9E
330
8F
100
AcDbEntity
  8
AM_6
100
AcDbText
 10
35.78378402289508
 20
25.28378402289508
 30
0.0
 40
0.5
  1
4.1
100
AcDbAttributeDefinition
  3

  2
J
 70
     8
280
     0
  0
ATTDEF
  5
9F
330
8F
100
AcDbEntity
  8
AM_6
100
AcDbText
 10
35.78378402289508
 20
24.78378402289508
 30
0.0
 40
0.5
  1
52.8
100
AcDbAttributeDefinition
  3

  2
L
 70
     8
280
     0
  0
ATTDEF
  5
A0
330
8F
100
AcDbEntity
  8
AM_6
100
AcDbText
 10
35.78378402289508
 20
24.28378402289508
 30
0.0
 40
0.5
  1
#10 - 32 x 1/4
100
AcDbAttributeDefinition
  3

  2
N
 70
     8
280
     0
  0
ATTDEF
  5
A1
330
8F
100
AcDbEntity
  8
AM_6
100
AcDbText
 10
35.78378402289508
 20
23.78378402289508
 30
0.0
 40
0.5
  1
13.2
100
AcDbAttributeDefinition
  3

  2
W
 70
     8
280
     0
  0
ATTDEF
  5
A2
330
8F
100
AcDbEntity
  8
AM_6
100
AcDbText
 10
35.78378402289508
 20
23.28378402289508
 30
0.0
 40
0.5
  1
28.7
100
AcDbAttributeDefinition
  3

  2
X
 70
     8
280
     0
  0
ATTDEF
  5
A3
330
8F
100
AcDbEntity
  8
AM_6
100
AcDbText
 10
35.78378402289508
 20
22.78378402289508
 30
0.0
 40
0.5
  1
27.7
100
AcDbAttributeDefinition
  3

  2
Y
 70
     8
280
     0
  0
ATTDEF
  5
A4
330
8F
100
AcDbEntity
  8
AM_6
100
AcDbText
 10
35.78378402289508
 20
22.28378402289508
 30
0.0
 40
0.5
  1
baldor
100
AcDbAttributeDefinition
  3

  2
COMPANY
 70
     8
280
     0
  0
CIRCLE
  5
A7
330
8F
100
AcDbEntity
  8
AM_9
100
AcDbCircle
 10
0.0
 20
0.0000000000000035
 30
0.0
 40
20.48593161845499
  0
CIRCLE
  5
A8
330
8F
100
AcDbEntity
  8
AM_9
100
AcDbCircle
 10
0.0
 20
0.0000000000000035
 30
0.0
 40
29.25
  0
CIRCLE
  5
A9
330
8F
100
AcDbEntity
  8
AM_9
100
AcDbCircle
 10
0.0
 20
0.0000000000000035
 30
0.0
 40
30.24253509716422
  0
CIRCLE
  5
AA
330
8F
100
AcDbEntity
  8
AM_9
100
AcDbCircle
 10
0.0
 20
0.0000000000000035
 30
0.0
 40
21.58095238095238
  0
CIRCLE
  5
AB
330
8F
100
AcDbEntity
  8
AM_9
100
AcDbCircle
 10
0.0
 20
0.0000000000000035
 30
0.0
 40
23.46666666666667
  0
CIRCLE
  5
AC
330
8F
100
AcDbEntity
  8
AM_9
100
AcDbCircle
 10
0.0
 20
0.0000000000000035
 30
0.0
 40
22.76666666666667
  0
CIRCLE
  5
AE
330
8F
100
AcDbEntity
  8
AM_4
100
AcDbCircle
 10
0.0
 20
0.0000000000000035
 30
0.0
 40
30.78378402289507
  0
CIRCLE
  5
AF
330
8F
100
AcDbEntity
  8
AM_4
100
AcDbCircle
 10
0.0
 20
0.0000000000000035
 30
0.0
 40
30.61044722271896
  0
CIRCLE
  5
B0
330
8F
100
AcDbEntity
  8
AM_4
100
AcDbCircle
 10
0.0
 20
0.0000000000000035
 30
0.0
 40
30.41753509716422
  0
CIRCLE
  5
B1
330
8F
100
AcDbEntity
  8
AM_4
100
AcDbCircle
 10
0.0
 20
0.0000000000000035
 30
0.0
 40
30.4130198653593
  0
CIRCLE
  5
B2
330
8F
100
AcDbEntity
  8
AM_4
100
AcDbCircle
 10
0.0
 20
0.0000000000000035
 30
0.0
 40
29.4297130979997
  0
CIRCLE
  5
B3
330
8F
100
AcDbEntity
  8
AM_4
100
AcDbCircle
 10
0.0
 20
0.0000000000000035
 30
0.0
 40
28.77802961806126
  0
ENDBLK
  5
92
330
8F
100
AcDbEntity
  8
0
100
AcDbBlockEnd
  0
BLOCK
  5
B6
330
B4
100
AcDbEntity
  8
0
100
AcDbBlockBegin
  2
3_136555_0_in_129750_0
 70
     2
 10
0.0
 20
0.0
 30
0.0
  3
3_136555_0_in_129750_0
  1

  0
ATTDEF
  5
B8
330
B4
100
AcDbEntity
  8
AM_6
100
AcDbText
 10
31.39216655887926
 20
26.37655119452188
 30
0.0
 40
0.5
  1
Grip Tight Normal Duty Adapter and Nut Metric Bore D
100
AcDbAttributeDefinition
  3

  2
NN
 70
     8
280
     0
  0
ATTDEF
  5
B9
330
B4
100
AcDbEntity
  8
AM_6
100
AcDbText
 10
31.39216655887926
 20
25.87655119452188
 30
0.0
 40
0.5
  1
GT and GTM Adapter & Lock Nut Assemblies
100
AcDbAttributeDefinition
  3

  2
NT
 70
     8
280
     0
  0
ATTDEF
  5
BA
330
B4
100
AcDbEntity
  8
AM_6
100
AcDbText
 10
31.39216655887926
 20
25.37655119452188
 30
0.0
 40
0.5
  1
136555
100
AcDbAttributeDefinition
  3

  2
NB
 70
     8
280
     0
  0
ATTDEF
  5
BB
330
B4
100
AcDbEntity
  8
AM_6
100
AcDbText
 10
31.39216655887926
 20
24.87655119452188
 30
0.0
 40
0.5
  1
$PN.
100
AcDbAttributeDefinition
  3

  2
NBSYN
 70
     8
280
     0
  0
ATTDEF
  5
BC
330
B4
100
AcDbEntity
  8
AM_6
100
AcDbText
 10
31.39216655887926
 20
24.37655119452188
 30
0.0
 40
0.5
  1
136555
100
AcDbAttributeDefinition
  3

  2
LINA
 70
     8
280
     0
  0
ATTDEF
  5
BD
330
B4
100
AcDbEntity
  8
AM_6
100
AcDbText
 10
31.39216655887926
 20
23.87655119452188
 30
0.0
 40
0.5
  1
206
100
AcDbAttributeDefinition
  3

  2
SERIES
 70
     8
280
     0
  0
ATTDEF
  5
BE
330
B4
100
AcDbEntity
  8
AM_6
100
AcDbText
 10
31.39216655887926
 20
23.37655119452188
 30
0.0
 40
0.5
  1
30
100
AcDbAttributeDefinition
  3

  2
SS
 70
     8
280
     0
  0
ATTDEF
  5
BF
330
B4
100
AcDbEntity
  8
AM_6
100
AcDbText
 10
31.39216655887926
 20
22.87655119452188
 30
0.0
 40
0.5
  1
136555
100
AcDbAttributeDefinition
  3

  2
PN
 70
     8
280
     0
  0
ATTDEF
  5
C0
330
B4
100
AcDbEntity
  8
AM_6
100
AcDbText
 10
31.39216655887926
 20
22.37655119452188
 30
0.0
 40
0.5
  1
AN-GT-06-30M-D
100
AcDbAttributeDefinition
  3

  2
DESCRIPTION
 70
     8
280
     0
  0
ATTDEF
  5
C1
330
B4
100
AcDbEntity
  8
AM_6
100
AcDbText
 10
31.39216655887926
 20
21.87655119452188
 30
0.0
 40
0.5
  1
40.9
100
AcDbAttributeDefinition
  3

  2
A
 70
     8
280
     0
  0
ATTDEF
  5
C2
330
B4
100
AcDbEntity
  8
AM_6
100
AcDbText
 10
31.39216655887926
 20
21.37655119452188
 30
0.0
 40
0.5
  1
17.5
100
AcDbAttributeDefinition
  3

  2
C
 70
     8
280
     0
  0
ATTDEF
  5
C3
330
B4
100
AcDbEntity
  8
AM_6
100
AcDbText
 10
31.39216655887926
 20
20.87655119452188
 30
0.0
 40
0.5
  1
62.0
100
AcDbAttributeDefinition
  3

  2
D
 70
     8
280
     0
  0
ATTDEF
  5
C4
330
B4
100
AcDbEntity
  8
AM_6
100
AcDbText
 10
31.39216655887926
 20
20.37655119452188
 30
0.0
 40
0.5
  1
4.1
100
AcDbAttributeDefinition
  3

  2
J
 70
     8
280
     0
  0
ATTDEF
  5
C5
330
B4
100
AcDbEntity
  8
AM_6
100
AcDbText
 10
31.39216655887926
 20
19.87655119452188
 30
0.0
 40
0.5
  1
52.8
100
AcDbAttributeDefinition
  3

  2
L
 70
     8
280
     0
  0
ATTDEF
  5
C6
330
B4
100
AcDbEntity
  8
AM_6
100
AcDbText
 10
31.39216655887926
 20
19.37655119452188
 30
0.0
 40
0.5
  1
10 - 32 x 1/4
100
AcDbAttributeDefinition
  3

  2
N
 70
     8
280
     0
  0
ATTDEF
  5
C7
330
B4
100
AcDbEntity
  8
AM_6
100
AcDbText
 10
31.39216655887926
 20
18.87655119452188
 30
0.0
 40
0.5
  1
4.8260
100
AcDbAttributeDefinition
  3

  2
NDM1
 70
     8
280
     0
  0
ATTDEF
  5
C8
330
B4
100
AcDbEntity
  8
AM_6
100
AcDbText
 10
31.39216655887926
 20
18.37655119452188
 30
0.0
 40
0.5
  1
3.9624
100
AcDbAttributeDefinition
  3

  2
KDM1
 70
     8
280
     0
  0
ATTDEF
  5
C9
330
B4
100
AcDbEntity
  8
AM_6
100
AcDbText
 10
31.39216655887926
 20
17.87655119452188
 30
0.0
 40
0.5
  1
13.2
100
AcDbAttributeDefinition
  3

  2
W
 70
     8
280
     0
  0
ATTDEF
  5
CA
330
B4
100
AcDbEntity
  8
AM_6
100
AcDbText
 10
31.39216655887926
 20
17.37655119452188
 30
0.0
 40
0.5
  1
28.7
100
AcDbAttributeDefinition
  3

  2
X
 70
     8
280
     0
  0
ATTDEF
  5
CB
330
B4
100
AcDbEntity
  8
AM_6
100
AcDbText
 10
31.39216655887926
 20
16.87655119452188
 30
0.0
 40
0.5
  1
27.7
100
AcDbAttributeDefinition
  3

  2
Y
 70
     8
280
     0
  0
ATTDEF
  5
CC
330
B4
100
AcDbEntity
  8
AM_6
100
AcDbText
 10
31.39216655887926
 20
16.37655119452188
 30
0.0
 40
0.5
  1
baldor
100
AcDbAttributeDefinition
  3

  2
COMPANY
 70
     8
280
     0
  0
LINE
  5
CD
330
B4
100
AcDbEntity
  8
AM_9
100
AcDbLine
 10
19.65553112047899
 20
1.250000000000004
 30
0.0
 11
20.49394140063025
 21
1.250000000000004
 31
0.0
  0
LINE
  5
CE
330
B4
100
AcDbEntity
  8
AM_9
100
AcDbLine
 10
19.65553112047899
 20
-1.249999999999996
 30
0.0
 11
20.49394140063025
 21
-1.249999999999996
 31
0.0
  0
ARC
  5
CF
330
B4
100
AcDbEntity
  8
AM_9
100
AcDbCircle
 10
0.0000000000000026
 20
0.0000000000000034
 30
0.0
 40
20.53202703418409
100
AcDbArc
 50
3.49035390095305
 51
356.509646099047
  0
CIRCLE
  5
D0
330
B4
100
AcDbEntity
  8
AM_9
100
AcDbCircle
 10
0.0
 20
0.0000000000000035
 30
0.0
 40
21.58095238095237
  0
CIRCLE
  5
D1
330
B4
100
AcDbEntity
  8
AM_9
100
AcDbCircle
 10
0.0
 20
0.0000000000000035
 30
0.0
 40
23.73066666666667
  0
LINE
  5
D2
330
B4
100
AcDbEntity
  8
AM_9
100
AcDbLine
 10
-1.840229999999998
 20
25.82723
 30
0.0
 11
-1.840229999999998
 21
20.37277
 31
0.0
  0
LINE
  5
D3
330
B4
100
AcDbEntity
  8
AM_9
100
AcDbLine
 10
1.840229999999998
 20
20.37277
 30
0.0
 11
1.840229999999998
 21
25.82723
 31
0.0
  0
LINE
  5
D4
330
B4
100
AcDbEntity
  8
AM_9
100
AcDbLine
 10
19.69523809523809
 20
-1.249999999999996
 30
0.0
 11
19.69523809523809
 21
1.250000000000004
 31
0.0
  0
LINE
  5
D5
330
B4
100
AcDbEntity
  8
AM_9
100
AcDbLine
 10
-1.840229999999998
 20
20.37277
 30
0.0
 11
-2.412999999999998
 21
19.8
 31
0.0
  0
LINE
  5
D6
330
B4
100
AcDbEntity
  8
AM_9
100
AcDbLine
 10
2.412999999999998
 20
19.8
 30
0.0
 11
1.840229999999998
 21
20.37277
 31
0.0
  0
LINE
  5
D7
330
B4
100
AcDbEntity
  8
AM_9
100
AcDbLine
 10
2.412999999999998
 20
19.8
 30
0.0
 11
-2.412999999999998
 21
19.8
 31
0.0
  0
LINE
  5
D8
330
B4
100
AcDbEntity
  8
AM_9
100
AcDbLine
 10
1.840229999999998
 20
20.37277
 30
0.0
 11
-1.840229999999998
 21
20.37277
 31
0.0
  0
LINE
  5
D9
330
B4
100
AcDbEntity
  8
AM_9
100
AcDbLine
 10
1.840229999999998
 20
25.82723
 30
0.0
 11
2.29671728282977
 21
26.28371728282978
 31
0.0
  0
LINE
  5
DA
330
B4
100
AcDbEntity
  8
AM_9
100
AcDbLine
 10
-2.298343444282403
 20
26.28534344428241
 30
0.0
 11
-1.840229999999998
 21
25.82723
 31
0.0
  0
LINE
  5
DB
330
B4
100
AcDbEntity
  8
AM_9
100
AcDbLine
 10
1.840229999999998
 20
25.82723
 30
0.0
 11
-1.840229999999998
 21
25.82723
 31
0.0
  0
LINE
  5
DD
330
B4
100
AcDbEntity
  8
AM_5
100
AcDbLine
 10
2.412999999999998
 20
26.28949278704328
 30
0.0
 11
2.412999999999998
 21
19.8
 31
0.0
  0
LINE
  5
DE
330
B4
100
AcDbEntity
  8
AM_5
100
AcDbLine
 10
-2.412999999999995
 20
26.28949278704328
 30
0.0
 11
-2.412999999999995
 21
19.8
 31
0.0
  0
LINE
  5
DF
330
B4
100
AcDbEntity
  8
AM_4
100
AcDbLine
 10
19.65553112047899
 20
-1.249999999999996
 30
0.0
 11
14.94782592887675
 21
-1.249999999999996
 31
0.0
  0
ARC
  5
E0
330
B4
100
AcDbEntity
  8
AM_4
100
AcDbCircle
 10
0.0000000000000011
 20
0.0000000000000037
 30
0.0
 40
15.0
100
AcDbArc
 50
4.780191847199117
 51
355.2198081528009
  0
LINE
  5
E1
330
B4
100
AcDbEntity
  8
AM_4
100
AcDbLine
 10
19.65553112047899
 20
1.250000000000004
 30
0.0
 11
14.94782592887675
 21
1.250000000000004
 31
0.0
  0
LINE
  5
E2
330
B4
100
AcDbEntity
  8
AM_4
100
AcDbLine
 10
-20.31386086854927
 20
14.09534914441499
 30
0.0
 11
-21.76903704919337
 21
14.93549550402819
 31
0.0
  0
LINE
  5
E3
330
B4
100
AcDbEntity
  8
AM_4
100
AcDbLine
 10
21.76903704919336
 20
14.93549550402821
 30
0.0
 11
20.31386086854926
 21
14.095349144415
 31
0.0
  0
ARC
  5
E4
330
B4
100
AcDbEntity
  8
AM_4
100
AcDbCircle
 10
0.0000000000000018
 20
0.0
 30
0.0
 40
26.40000000000001
100
AcDbArc
 50
34.4535874367535
 51
145.5464125632465
  0
LINE
  5
E5
330
B4
100
AcDbEntity
  8
AM_4
100
AcDbLine
 10
2.049999999999999
 20
-26.32028685254019
 30
0.0
 11
2.05
 21
-24.63999413331377
 31
0.0
  0
LINE
  5
E6
330
B4
100
AcDbEntity
  8
AM_4
100
AcDbLine
 10
2.05
 20
-24.63999413331377
 30
0.0
 11
-2.05
 21
-24.63999413331377
 31
0.0
  0
LINE
  5
E7
330
B4
100
AcDbEntity
  8
AM_4
100
AcDbLine
 10
-22.36386086854927
 20
10.54464498889879
 30
0.0
 11
-20.31386086854927
 21
14.09534914441499
 31
0.0
  0
LINE
  5
E8
330
B4
100
AcDbEntity
  8
AM_4
100
AcDbLine
 10
-23.81903704919337
 20
11.384791348512
 30
0.0
 11
-22.36386086854927
 21
10.54464498889879
 31
0.0
  0
LINE
  5
E9
330
B4
100
AcDbEntity
  8
AM_4
100
AcDbLine
 10
20.31386086854926
 20
14.095349144415
 30
0.0
 11
22.36386086854925
 21
10.5446449888988
 31
0.0
  0
LINE
  5
EA
330
B4
100
AcDbEntity
  8
AM_4
100
AcDbLine
 10
-2.05
 20
-24.63999413331377
 30
0.0
 11
-2.05
 21
-26.32028685254019
 31
0.0
  0
CIRCLE
  5
EB
330
B4
100
AcDbEntity
  8
AM_4
100
AcDbCircle
 10
0.0
 20
0.0000000000000035
 30
0.0
 40
19.6952380952381
  0
LINE
  5
EC
330
B4
100
AcDbEntity
  8
AM_4
100
AcDbLine
 10
22.36386086854925
 20
10.5446449888988
 30
0.0
 11
23.81903704919337
 21
11.38479134851201
 31
0.0
  0
ARC
  5
ED
330
B4
100
AcDbEntity
  8
AM_4
100
AcDbCircle
 10
0.0000000000000018
 20
0.0
 30
0.0
 40
25.7
100
AcDbArc
 50
34.57514640401374
 51
145.4248535959863
  0
ARC
  5
EE
330
B4
100
AcDbEntity
  8
AM_4
100
AcDbCircle
 10
0.0000000000000036
 20
0.0000000000000063
 30
0.0
 40
26.40000000000001
100
AcDbArc
 50
154.4535874367535
 51
265.5464125632466
  0
ARC
  5
EF
330
B4
100
AcDbEntity
  8
AM_4
100
AcDbCircle
 10
-0.0000000000000071
 20
-0.0000000000000004
 30
0.0
 40
25.7
100
AcDbArc
 50
154.5751464040137
 51
265.4248535959863
  0
ARC
  5
F0
330
B4
100
AcDbEntity
  8
AM_4
100
AcDbCircle
 10
-0.0000000000000053
 20
0.0000000000000071
 30
0.0
 40
26.40000000000001
100
AcDbArc
 50
274.4535874367535
 51
25.54641256324655
  0
ARC
  5
F1
330
B4
100
AcDbEntity
  8
AM_4
100
AcDbCircle
 10
0.0000000000000036
 20
0.0000000000000036
 30
0.0
 40
25.7
100
AcDbArc
 50
274.5751464040137
 51
25.42485359598635
  0
ENDBLK
  5
B7
330
B4
100
AcDbEntity
  8
0
100
AcDbBlockEnd
  0
BLOCK
  5
F4
330
F2
100
AcDbEntity
  8
0
100
AcDbBlockBegin
  2
4_129750h_0_in_129750_0
 70
     2
 10
0.0
 20
0.0
 30
0.0
  3
4_129750h_0_in_129750_0
  1

  0
ATTDEF
  5
F6
330
F2
100
AcDbEntity
  8
AM_6
100
AcDbText
 10
63.43250000000115
 20
58.43250000000091
 30
0.0
 40
0.5
  1
FC-GT-Metric - Housing
100
AcDbAttributeDefinition
  3

  2
NN
 70
     8
280
     0
  0
ATTDEF
  5
F7
330
F2
100
AcDbEntity
  8
AM_6
100
AcDbText
 10
63.43250000000115
 20
57.93250000000091
 30
0.0
 40
0.5
  1
GT Normal Duty Piloted Flange Bearings
100
AcDbAttributeDefinition
  3

  2
NT
 70
     8
280
     0
  0
ATTDEF
  5
F8
330
F2
100
AcDbEntity
  8
AM_6
100
AcDbText
 10
63.43250000000115
 20
57.43250000000091
 30
0.0
 40
0.5
  1
129750h
100
AcDbAttributeDefinition
  3

  2
NB
 70
     8
280
     0
  0
ATTDEF
  5
F9
330
F2
100
AcDbEntity
  8
AM_6
100
AcDbText
 10
63.43250000000115
 20
56.93250000000091
 30
0.0
 40
0.5
  1
$PN.h
100
AcDbAttributeDefinition
  3

  2
NBSYN
 70
     8
280
     0
  0
ATTDEF
  5
FA
330
F2
100
AcDbEntity
  8
AM_6
100
AcDbText
 10
63.43250000000115
 20
56.43250000000091
 30
0.0
 40
0.5
  1
129750
100
AcDbAttributeDefinition
  3

  2
LINA
 70
     8
280
     0
  0
ATTDEF
  5
FB
330
F2
100
AcDbEntity
  8
AM_6
100
AcDbText
 10
63.43250000000115
 20
55.93250000000091
 30
0.0
 40
0.5
  1
206
100
AcDbAttributeDefinition
  3

  2
SERIES
 70
     8
280
     0
  0
ATTDEF
  5
FC
330
F2
100
AcDbEntity
  8
AM_6
100
AcDbText
 10
63.43250000000115
 20
55.43250000000091
 30
0.0
 40
0.5
  1
30
100
AcDbAttributeDefinition
  3

  2
SS
 70
     8
280
     0
  0
ATTDEF
  5
FD
330
F2
100
AcDbEntity
  8
AM_6
100
AcDbText
 10
63.43250000000115
 20
54.93250000000091
 30
0.0
 40
0.5
  1
129750
100
AcDbAttributeDefinition
  3

  2
PN
 70
     8
280
     0
  0
ATTDEF
  5
FE
330
F2
100
AcDbEntity
  8
AM_6
100
AcDbText
 10
63.43250000000115
 20
54.43250000000091
 30
0.0
 40
0.5
  1
FC-GT-30M
100
AcDbAttributeDefinition
  3

  2
DESCRIPTION
 70
     8
280
     0
  0
ATTDEF
  5
FF
330
F2
100
AcDbEntity
  8
AM_6
100
AcDbText
 10
63.43250000000115
 20
53.93250000000091
 30
0.0
 40
0.5
  1
129501
100
AcDbAttributeDefinition
  3

  2
PNSL
 70
     8
280
     0
  0
ATTDEF
  5
100
330
F2
100
AcDbEntity
  8
AM_6
100
AcDbText
 10
63.43250000000115
 20
53.43250000000091
 30
0.0
 40
0.5
  1
FC-GT-06
100
AcDbAttributeDefinition
  3

  2
DESCRIPTIONSL
 70
     8
280
     0
  0
ATTDEF
  5
101
330
F2
100
AcDbEntity
  8
AM_6
100
AcDbText
 10
63.43250000000115
 20
52.93250000000091
 30
0.0
 40
0.5
  1
136555
100
AcDbAttributeDefinition
  3

  2
PNA
 70
     8
280
     0
  0
ATTDEF
  5
102
330
F2
100
AcDbEntity
  8
AM_6
100
AcDbText
 10
63.43250000000115
 20
52.43250000000091
 30
0.0
 40
0.5
  1
AN-GT-06-30M-D
100
AcDbAttributeDefinition
  3

  2
DESCRIPTIONA
 70
     8
280
     0
  0
ATTDEF
  5
103
330
F2
100
AcDbEntity
  8
AM_6
100
AcDbText
 10
63.43250000000115
 20
51.93250000000091
 30
0.0
 40
0.5
  1
1.4
100
AcDbAttributeDefinition
  3

  2
W
 70
     8
280
     0
  0
ATTDEF
  5
104
330
F2
100
AcDbEntity
  8
AM_6
100
AcDbText
 10
63.43250000000115
 20
51.43250000000091
 30
0.0
 40
0.5
  1
40.9
100
AcDbAttributeDefinition
  3

  2
A
 70
     8
280
     0
  0
ATTDEF
  5
105
330
F2
100
AcDbEntity
  8
AM_6
100
AcDbText
 10
63.43250000000115
 20
50.93250000000091
 30
0.0
 40
0.5
  1
111.3
100
AcDbAttributeDefinition
  3

  2
B
 70
     8
280
     0
  0
ATTDEF
  5
106
330
F2
100
AcDbEntity
  8
AM_6
100
AcDbText
 10
63.43250000000115
 20
50.43250000000091
 30
0.0
 40
0.5
  1
42.7
100
AcDbAttributeDefinition
  3

  2
C
 70
     8
280
     0
  0
ATTDEF
  5
107
330
F2
100
AcDbEntity
  8
AM_6
100
AcDbText
 10
63.43250000000115
 20
49.93250000000091
 30
0.0
 40
0.5
  1
92.2
100
AcDbAttributeDefinition
  3

  2
D
 70
     8
280
     0
  0
ATTDEF
  5
108
330
F2
100
AcDbEntity
  8
AM_6
100
AcDbText
 10
63.43250000000115
 20
49.43250000000091
 30
0.0
 40
0.5
  1
6.4
100
AcDbAttributeDefinition
  3

  2
E
 70
     8
280
     0
  0
ATTDEF
  5
109
330
F2
100
AcDbEntity
  8
AM_6
100
AcDbText
 10
63.43250000000115
 20
48.93250000000091
 30
0.0
 40
0.5
  1
M10
100
AcDbAttributeDefinition
  3

  2
F
 70
     8
280
     0
  0
ATTDEF
  5
10A
330
F2
100
AcDbEntity
  8
AM_6
100
AcDbText
 10
63.43250000000115
 20
48.43250000000091
 30
0.0
 40
0.5
  1
36.3
100
AcDbAttributeDefinition
  3

  2
G
 70
     8
280
     0
  0
ATTDEF
  5
10B
330
F2
100
AcDbEntity
  8
AM_6
100
AcDbText
 10
63.43250000000115
 20
47.93250000000091
 30
0.0
 40
0.5
  1
20.6
100
AcDbAttributeDefinition
  3

  2
H
 70
     8
280
     0
  0
ATTDEF
  5
10C
330
F2
100
AcDbEntity
  8
AM_6
100
AcDbText
 10
63.43250000000115
 20
47.43250000000091
 30
0.0
 40
0.5
  1
76.20/76.15
100
AcDbAttributeDefinition
  3

  2
K
 70
     8
280
     0
  0
ATTDEF
  5
10D
330
F2
100
AcDbEntity
  8
AM_6
100
AcDbText
 10
63.43250000000115
 20
46.93250000000091
 30
0.0
 40
0.5
  1
76.20
100
AcDbAttributeDefinition
  3

  2
K1
 70
     8
280
     0
  0
ATTDEF
  5
10E
330
F2
100
AcDbEntity
  8
AM_6
100
AcDbText
 10
63.43250000000115
 20
46.43250000000091
 30
0.0
 40
0.5
  1
52.8
100
AcDbAttributeDefinition
  3

  2
L
 70
     8
280
     0
  0
ATTDEF
  5
10F
330
F2
100
AcDbEntity
  8
AM_6
100
AcDbText
 10
63.43250000000115
 20
45.93250000000091
 30
0.0
 40
0.5
  1
37.1
100
AcDbAttributeDefinition
  3

  2
Z
 70
     8
280
     0
  0
ATTDEF
  5
110
330
F2
100
AcDbEntity
  8
AM_6
100
AcDbText
 10
63.43250000000115
 20
45.43250000000091
 30
0.0
 40
0.5
  1
Infotext
100
AcDbAttributeDefinition
  3

  2
INFO
 70
     8
280
     0
  0
ATTDEF
  5
111
330
F2
100
AcDbEntity
  8
AM_6
100
AcDbText
 10
63.43250000000115
 20
44.93250000000091
 30
0.0
 40
0.5
  1
fc_gt_templ.prj
100
AcDbAttributeDefinition
  3

  2
PPATH
 70
     8
280
     0
  0
ATTDEF
  5
112
330
F2
100
AcDbEntity
  8
AM_6
100
AcDbText
 10
63.43250000000115
 20
44.43250000000091
 30
0.0
 40
0.5
  1
2250
100
AcDbAttributeDefinition
  3

  2
CAPS
 70
     8
280
     0
  0
ATTDEF
  5
113
330
F2
100
AcDbEntity
  8
AM_6
100
AcDbText
 10
63.43250000000115
 20
43.93250000000091
 30
0.0
 40
0.5
  1
4368
100
AcDbAttributeDefinition
  3

  2
CAPD
 70
     8
280
     0
  0
ATTDEF
  5
114
330
F2
100
AcDbEntity
  8
AM_6
100
AcDbText
 10
63.43250000000115
 20
43.43250000000091
 30
0.0
 40
0.5
  1
baldor
100
AcDbAttributeDefinition
  3

  2
COMPANY
 70
     8
280
     0
  0
CIRCLE
  5
115
330
F2
100
AcDbEntity
  8
AM_9
100
AcDbCircle
 10
0.0
 20
0.0
 30
0.0
 40
31.91000000000001
  0
CIRCLE
  5
116
330
F2
100
AcDbEntity
  8
AM_9
100
AcDbCircle
 10
0.0
 20
0.0
 30
0.0
 40
38.1
  0
CIRCLE
  5
117
330
F2
100
AcDbEntity
  8
AM_9
100
AcDbCircle
 10
-0.0000000000000107
 20
-0.0000000000000107
 30
0.0
 40
32.55000000000001
  0
LINE
  5
11A
330
F2
100
AcDbEntity
  8
AM_7
100
AcDbLine
 10
22.57012261269982
 20
32.59762261269984
 30
0.0
 11
42.62512261269983
 21
32.59762261269984
 31
0.0
  0
LINE
  5
11B
330
F2
100
AcDbEntity
  8
AM_7
100
AcDbLine
 10
32.59762261269982
 20
22.57012261269984
 30
0.0
 11
32.59762261269982
 21
42.62512261269985
 31
0.0
  0
LINE
  5
11C
330
F2
100
AcDbEntity
  8
AM_7
100
AcDbLine
 10
-58.43250000000001
 20
0.000000000000334
 30
0.0
 11
58.43250000000115
 21
0.000000000000334
 31
0.0
  0
LINE
  5
11D
330
F2
100
AcDbEntity
  8
AM_7
100
AcDbLine
 10
0.0000000000005684
 20
-58.43250000000025
 30
0.0
 11
0.0000000000005684
 21
58.43250000000091
 31
0.0
  0
LINE
  5
11E
330
F2
100
AcDbEntity
  8
AM_7
100
AcDbLine
 10
-42.62512273190912
 20
32.59762273190911
 30
0.0
 11
-22.57012273190909
 21
32.59762273190911
 31
0.0
  0
LINE
  5
11F
330
F2
100
AcDbEntity
  8
AM_7
100
AcDbLine
 10
-32.59762273190911
 20
22.5701227319091
 30
0.0
 11
-32.59762273190911
 21
42.62512273190912
 31
0.0
  0
LINE
  5
120
330
F2
100
AcDbEntity
  8
AM_7
100
AcDbLine
 10
22.57012261269983
 20
-32.59762261269982
 30
0.0
 11
42.62512261269986
 21
-32.59762261269982
 31
0.0
  0
LINE
  5
121
330
F2
100
AcDbEntity
  8
AM_7
100
AcDbLine
 10
32.59762261269984
 20
-42.62512261269984
 30
0.0
 11
32.59762261269984
 21
-22.57012261269981
 31
0.0
  0
LINE
  5
122
330
F2
100
AcDbEntity
  8
AM_7
100
AcDbLine
 10
-42.62512273190912
 20
-32.59762273190911
 30
0.0
 11
-22.57012273190911
 21
-32.59762273190911
 31
0.0
  0
LINE
  5
123
330
F2
100
AcDbEntity
  8
AM_7
100
AcDbLine
 10
-32.59762273190911
 20
-42.62512273190911
 30
0.0
 11
-32.59762273190911
 21
-22.5701227319091
 31
0.0
  0
LINE
  5
124
330
F2
100
AcDbEntity
  8
AM_4
100
AcDbLine
 10
-4.39266
 20
-48.72302
 30
0.0
 11
-4.54816
 21
-48.501019
 31
0.0
  0
LINE
  5
125
330
F2
100
AcDbEntity
  8
AM_4
100
AcDbLine
 10
-2.91549
 20
-48.87103
 30
0.0
 11
-3.22647
 21
-48.94503
 31
0.0
  0
LINE
  5
126
330
F2
100
AcDbEntity
  8
AM_4
100
AcDbLine
 10
-3.22647
 20
-46.35497
 30
0.0
 11
-2.91549
 21
-46.42897
 31
0.0
  0
LINE
  5
127
330
F2
100
AcDbEntity
  8
AM_4
100
AcDbLine
 10
-2.68225
 20
-48.72302
 30
0.0
 11
-2.91549
 21
-48.87103
 31
0.0
  0
LINE
  5
128
330
F2
100
AcDbEntity
  8
AM_4
100
AcDbLine
 10
-2.52675
 20
-46.798981
 30
0.0
 11
-2.44901
 21
-47.094988
 31
0.0
  0
LINE
  5
129
330
F2
100
AcDbEntity
  8
AM_4
100
AcDbLine
 10
-4.6259
 20
-47.094988
 30
0.0
 11
-4.54816
 21
-46.798981
 31
0.0
  0
LINE
  5
12A
330
F2
100
AcDbEntity
  8
AM_4
100
AcDbLine
 10
-4.54816
 20
-46.798981
 30
0.0
 11
-4.39266
 21
-46.57698
 31
0.0
  0
LINE
  5
12B
330
F2
100
AcDbEntity
  8
AM_4
100
AcDbLine
 10
-4.39266
 20
-46.57698
 30
0.0
 11
-4.15943
 21
-46.42897
 31
0.0
  0
LINE
  5
12C
330
F2
100
AcDbEntity
  8
AM_4
100
AcDbLine
 10
-4.15943
 20
-46.42897
 30
0.0
 11
-3.84844
 21
-46.35497
 31
0.0
  0
LINE
  5
12D
330
F2
100
AcDbEntity
  8
AM_4
100
AcDbLine
 10
-3.84844
 20
-46.35497
 30
0.0
 11
-3.22647
 21
-46.35497
 31
0.0
  0
LINE
  5
12E
330
F2
100
AcDbEntity
  8
AM_4
100
AcDbLine
 10
-2.91549
 20
-46.42897
 30
0.0
 11
-2.68225
 21
-46.57698
 31
0.0
  0
LINE
  5
12F
330
F2
100
AcDbEntity
  8
AM_4
100
AcDbLine
 10
-2.68225
 20
-46.57698
 30
0.0
 11
-2.52675
 21
-46.798981
 31
0.0
  0
LINE
  5
130
330
F2
100
AcDbEntity
  8
AM_4
100
AcDbLine
 10
-2.44901
 20
-47.094988
 30
0.0
 11
-2.44901
 21
-48.205012
 31
0.0
  0
LINE
  5
131
330
F2
100
AcDbEntity
  8
AM_4
100
AcDbLine
 10
-2.44901
 20
-48.205012
 30
0.0
 11
-2.52675
 21
-48.501019
 31
0.0
  0
LINE
  5
132
330
F2
100
AcDbEntity
  8
AM_4
100
AcDbLine
 10
-2.52675
 20
-48.501019
 30
0.0
 11
-2.68225
 21
-48.72302
 31
0.0
  0
LINE
  5
133
330
F2
100
AcDbEntity
  8
AM_4
100
AcDbLine
 10
-4.6259
 20
-48.205012
 30
0.0
 11
-4.6259
 21
-47.094988
 31
0.0
  0
LINE
  5
134
330
F2
100
AcDbEntity
  8
AM_4
100
AcDbLine
 10
-4.54816
 20
-48.501019
 30
0.0
 11
-4.6259
 21
-48.205012
 31
0.0
  0
LINE
  5
135
330
F2
100
AcDbEntity
  8
AM_4
100
AcDbLine
 10
-4.15943
 20
-48.87103
 30
0.0
 11
-4.39266
 21
-48.72302
 31
0.0
  0
LINE
  5
136
330
F2
100
AcDbEntity
  8
AM_4
100
AcDbLine
 10
-3.84844
 20
-48.94503
 30
0.0
 11
-4.15943
 21
-48.87103
 31
0.0
  0
LINE
  5
137
330
F2
100
AcDbEntity
  8
AM_4
100
AcDbLine
 10
-3.22647
 20
-48.94503
 30
0.0
 11
-3.84844
 21
-48.94503
 31
0.0
  0
LINE
  5
138
330
F2
100
AcDbEntity
  8
AM_4
100
AcDbLine
 10
-8.35773
 20
-48.94503
 30
0.0
 11
-8.35773
 21
-46.35497
 31
0.0
  0
LINE
  5
139
330
F2
100
AcDbEntity
  8
AM_4
100
AcDbLine
 10
-8.35773
 20
-46.35497
 30
0.0
 11
-6.95829
 21
-46.35497
 31
0.0
  0
LINE
  5
13A
330
F2
100
AcDbEntity
  8
AM_4
100
AcDbLine
 10
-6.95829
 20
-46.35497
 30
0.0
 11
-6.64731
 21
-46.42897
 31
0.0
  0
LINE
  5
13B
330
F2
100
AcDbEntity
  8
AM_4
100
AcDbLine
 10
-6.64731
 20
-46.42897
 30
0.0
 11
-6.41407
 21
-46.57698
 31
0.0
  0
LINE
  5
13C
330
F2
100
AcDbEntity
  8
AM_4
100
AcDbLine
 10
-6.41407
 20
-46.57698
 30
0.0
 11
-6.25858
 21
-46.798981
 31
0.0
  0
LINE
  5
13D
330
F2
100
AcDbEntity
  8
AM_4
100
AcDbLine
 10
-6.25858
 20
-46.798981
 30
0.0
 11
-6.18083
 21
-47.094988
 31
0.0
  0
LINE
  5
13E
330
F2
100
AcDbEntity
  8
AM_4
100
AcDbLine
 10
-6.64731
 20
-48.87103
 30
0.0
 11
-6.95829
 21
-48.94503
 31
0.0
  0
LINE
  5
13F
330
F2
100
AcDbEntity
  8
AM_4
100
AcDbLine
 10
-6.95829
 20
-48.94503
 30
0.0
 11
-8.35773
 21
-48.94503
 31
0.0
  0
LINE
  5
140
330
F2
100
AcDbEntity
  8
AM_4
100
AcDbLine
 10
-6.18083
 20
-47.094988
 30
0.0
 11
-6.18083
 21
-48.205012
 31
0.0
  0
LINE
  5
141
330
F2
100
AcDbEntity
  8
AM_4
100
AcDbLine
 10
-6.18083
 20
-48.205012
 30
0.0
 11
-6.25858
 21
-48.501019
 31
0.0
  0
LINE
  5
142
330
F2
100
AcDbEntity
  8
AM_4
100
AcDbLine
 10
-6.25858
 20
-48.501019
 30
0.0
 11
-6.41407
 21
-48.72302
 31
0.0
  0
LINE
  5
143
330
F2
100
AcDbEntity
  8
AM_4
100
AcDbLine
 10
-6.41407
 20
-48.72302
 30
0.0
 11
-6.64731
 21
-48.87103
 31
0.0
  0
LINE
  5
144
330
F2
100
AcDbEntity
  8
AM_4
100
AcDbLine
 10
-0.894082
 20
-48.94503
 30
0.0
 11
-0.8940820000000003
 21
-46.35497
 31
0.0
  0
LINE
  5
145
330
F2
100
AcDbEntity
  8
AM_4
100
AcDbLine
 10
0.5053510000000002
 20
-48.94503
 30
0.0
 11
-0.894082
 21
-48.94503
 31
0.0
  0
LINE
  5
146
330
F2
100
AcDbEntity
  8
AM_4
100
AcDbLine
 10
0.816336
 20
-48.87103
 30
0.0
 11
0.5053510000000002
 21
-48.94503
 31
0.0
  0
LINE
  5
147
330
F2
100
AcDbEntity
  8
AM_4
100
AcDbLine
 10
1.04957
 20
-48.72302
 30
0.0
 11
0.816336
 21
-48.87103
 31
0.0
  0
LINE
  5
148
330
F2
100
AcDbEntity
  8
AM_4
100
AcDbLine
 10
1.20507
 20
-48.501019
 30
0.0
 11
1.04957
 21
-48.72302
 31
0.0
  0
LINE
  5
149
330
F2
100
AcDbEntity
  8
AM_4
100
AcDbLine
 10
1.28281
 20
-48.205012
 30
0.0
 11
1.20507
 21
-48.501019
 31
0.0
  0
LINE
  5
14A
330
F2
100
AcDbEntity
  8
AM_4
100
AcDbLine
 10
1.28281
 20
-47.094988
 30
0.0
 11
1.28281
 21
-48.205012
 31
0.0
  0
LINE
  5
14B
330
F2
100
AcDbEntity
  8
AM_4
100
AcDbLine
 10
1.20507
 20
-46.798981
 30
0.0
 11
1.28281
 21
-47.094988
 31
0.0
  0
LINE
  5
14C
330
F2
100
AcDbEntity
  8
AM_4
100
AcDbLine
 10
1.04957
 20
-46.57698
 30
0.0
 11
1.20507
 21
-46.798981
 31
0.0
  0
LINE
  5
14D
330
F2
100
AcDbEntity
  8
AM_4
100
AcDbLine
 10
0.816336
 20
-46.42897
 30
0.0
 11
1.04957
 21
-46.57698
 31
0.0
  0
LINE
  5
14E
330
F2
100
AcDbEntity
  8
AM_4
100
AcDbLine
 10
0.505351
 20
-46.35497
 30
0.0
 11
0.816336
 21
-46.42897
 31
0.0
  0
LINE
  5
14F
330
F2
100
AcDbEntity
  8
AM_4
100
AcDbLine
 10
-0.8940820000000003
 20
-46.35497
 30
0.0
 11
0.505351
 21
-46.35497
 31
0.0
  0
LINE
  5
150
330
F2
100
AcDbEntity
  8
AM_4
100
AcDbLine
 10
2.44901
 20
-48.57501999999999
 30
0.0
 11
2.37126
 21
-48.205012
 31
0.0
  0
LINE
  5
151
330
F2
100
AcDbEntity
  8
AM_4
100
AcDbLine
 10
-4.859139999999995
 20
-46.42897
 30
0.0
 11
-4.54816
 21
-46.13297
 31
0.0
  0
LINE
  5
152
330
F2
100
AcDbEntity
  8
AM_4
100
AcDbLine
 10
-5.7921
 20
-46.72498000000001
 30
0.0
 11
-5.71435
 21
-47.094988
 31
0.0
  0
LINE
  5
153
330
F2
100
AcDbEntity
  8
AM_4
100
AcDbLine
 10
-5.94759
 20
-46.42897
 30
0.0
 11
-5.7921
 21
-46.72498000000001
 31
0.0
  0
LINE
  5
154
330
F2
100
AcDbEntity
  8
AM_4
100
AcDbLine
 10
-6.25858
 20
-46.13297
 30
0.0
 11
-5.94759
 21
-46.42897
 31
0.0
  0
LINE
  5
155
330
F2
100
AcDbEntity
  8
AM_4
100
AcDbLine
 10
-4.54816
 20
-49.16703
 30
0.0
 11
-4.859140000000001
 21
-48.87103
 31
0.0
  0
LINE
  5
156
330
F2
100
AcDbEntity
  8
AM_4
100
AcDbLine
 10
-6.56956
 20
-45.98496000000001
 30
0.0
 11
-6.25858
 21
-46.13297
 31
0.0
  0
LINE
  5
157
330
F2
100
AcDbEntity
  8
AM_4
100
AcDbLine
 10
-8.8242
 20
-45.91096
 30
0.0
 11
-6.95829
 21
-45.91096
 31
0.0
  0
LINE
  5
158
330
F2
100
AcDbEntity
  8
AM_4
100
AcDbLine
 10
4.703650000000001
 20
-49.31504
 30
0.0
 11
4.31492
 21
-49.38904
 31
0.0
  0
LINE
  5
159
330
F2
100
AcDbEntity
  8
AM_4
100
AcDbLine
 10
5.01464
 20
-49.16703
 30
0.0
 11
4.703650000000001
 21
-49.31504
 31
0.0
  0
LINE
  5
15A
330
F2
100
AcDbEntity
  8
AM_4
100
AcDbLine
 10
-5.94759
 20
-48.87103
 30
0.0
 11
-6.25858
 21
-49.16703
 31
0.0
  0
LINE
  5
15B
330
F2
100
AcDbEntity
  8
AM_4
100
AcDbLine
 10
-5.7921
 20
-48.57501999999999
 30
0.0
 11
-5.94759
 21
-48.87103
 31
0.0
  0
LINE
  5
15C
330
F2
100
AcDbEntity
  8
AM_4
100
AcDbLine
 10
-8.8242
 20
-49.38904
 30
0.0
 11
-8.8242
 21
-45.91096
 31
0.0
  0
LINE
  5
15D
330
F2
100
AcDbEntity
  8
AM_4
100
AcDbLine
 10
-6.95829
 20
-45.91096
 30
0.0
 11
-6.56956
 21
-45.98496000000001
 31
0.0
  0
LINE
  5
15E
330
F2
100
AcDbEntity
  8
AM_4
100
AcDbLine
 10
-5.71435
 20
-47.094988
 30
0.0
 11
-5.71435
 21
-48.205012
 31
0.0
  0
LINE
  5
15F
330
F2
100
AcDbEntity
  8
AM_4
100
AcDbLine
 10
-5.71435
 20
-48.205012
 30
0.0
 11
-5.7921
 21
-48.57501999999999
 31
0.0
  0
LINE
  5
160
330
F2
100
AcDbEntity
  8
AM_4
100
AcDbLine
 10
-6.25858
 20
-49.16703
 30
0.0
 11
-6.56956
 21
-49.31504
 31
0.0
  0
LINE
  5
161
330
F2
100
AcDbEntity
  8
AM_4
100
AcDbLine
 10
-6.56956
 20
-49.31504
 30
0.0
 11
-6.95829
 21
-49.38904
 31
0.0
  0
LINE
  5
162
330
F2
100
AcDbEntity
  8
AM_4
100
AcDbLine
 10
-6.95829
 20
-49.38904
 30
0.0
 11
-8.8242
 21
-49.38904
 31
0.0
  0
LINE
  5
163
330
F2
100
AcDbEntity
  8
AM_4
100
AcDbLine
 10
-5.09238
 20
-48.205012
 30
0.0
 11
-5.09238
 21
-47.094988
 31
0.0
  0
LINE
  5
164
330
F2
100
AcDbEntity
  8
AM_4
100
AcDbLine
 10
-5.09238
 20
-47.094988
 30
0.0
 11
-5.01464
 21
-46.72498000000001
 31
0.0
  0
LINE
  5
165
330
F2
100
AcDbEntity
  8
AM_4
100
AcDbLine
 10
-5.01464
 20
-46.72498000000001
 30
0.0
 11
-4.859139999999995
 21
-46.42897
 31
0.0
  0
LINE
  5
166
330
F2
100
AcDbEntity
  8
AM_4
100
AcDbLine
 10
-4.54816
 20
-46.13297
 30
0.0
 11
-4.23717
 21
-45.98496000000001
 31
0.0
  0
LINE
  5
167
330
F2
100
AcDbEntity
  8
AM_4
100
AcDbLine
 10
-4.23717
 20
-45.98496000000001
 30
0.0
 11
-3.84844
 21
-45.91096
 31
0.0
  0
LINE
  5
168
330
F2
100
AcDbEntity
  8
AM_4
100
AcDbLine
 10
-3.84844
 20
-45.91096
 30
0.0
 11
-3.22647
 21
-45.91096
 31
0.0
  0
LINE
  5
169
330
F2
100
AcDbEntity
  8
AM_4
100
AcDbLine
 10
-3.22647
 20
-45.91096
 30
0.0
 11
-2.83774
 21
-45.98496000000001
 31
0.0
  0
LINE
  5
16A
330
F2
100
AcDbEntity
  8
AM_4
100
AcDbLine
 10
-2.83774
 20
-45.98496000000001
 30
0.0
 11
-2.52675
 21
-46.13297
 31
0.0
  0
LINE
  5
16B
330
F2
100
AcDbEntity
  8
AM_4
100
AcDbLine
 10
-2.52675
 20
-46.13297
 30
0.0
 11
-2.21577
 21
-46.42897
 31
0.0
  0
LINE
  5
16C
330
F2
100
AcDbEntity
  8
AM_4
100
AcDbLine
 10
-2.21577
 20
-46.42897
 30
0.0
 11
-2.06028
 21
-46.72498000000001
 31
0.0
  0
LINE
  5
16D
330
F2
100
AcDbEntity
  8
AM_4
100
AcDbLine
 10
-2.06028
 20
-46.72498000000001
 30
0.0
 11
-1.98253
 21
-47.094988
 31
0.0
  0
LINE
  5
16E
330
F2
100
AcDbEntity
  8
AM_4
100
AcDbLine
 10
-1.98253
 20
-47.094988
 30
0.0
 11
-1.98253
 21
-48.205012
 31
0.0
  0
LINE
  5
16F
330
F2
100
AcDbEntity
  8
AM_4
100
AcDbLine
 10
-1.98253
 20
-48.205012
 30
0.0
 11
-2.06028
 21
-48.57501999999999
 31
0.0
  0
LINE
  5
170
330
F2
100
AcDbEntity
  8
AM_4
100
AcDbLine
 10
-2.06028
 20
-48.57501999999999
 30
0.0
 11
-2.21577
 21
-48.87103
 31
0.0
  0
LINE
  5
171
330
F2
100
AcDbEntity
  8
AM_4
100
AcDbLine
 10
-2.21577
 20
-48.87103
 30
0.0
 11
-2.52675
 21
-49.16703
 31
0.0
  0
LINE
  5
172
330
F2
100
AcDbEntity
  8
AM_4
100
AcDbLine
 10
-2.52675
 20
-49.16703
 30
0.0
 11
-2.83774
 21
-49.31504
 31
0.0
  0
LINE
  5
173
330
F2
100
AcDbEntity
  8
AM_4
100
AcDbLine
 10
-2.83774
 20
-49.31504
 30
0.0
 11
-3.22647
 21
-49.38904
 31
0.0
  0
LINE
  5
174
330
F2
100
AcDbEntity
  8
AM_4
100
AcDbLine
 10
-3.22647
 20
-49.38904
 30
0.0
 11
-3.84844
 21
-49.38904
 31
0.0
  0
LINE
  5
175
330
F2
100
AcDbEntity
  8
AM_4
100
AcDbLine
 10
-3.84844
 20
-49.38904
 30
0.0
 11
-4.23717
 21
-49.31504
 31
0.0
  0
LINE
  5
176
330
F2
100
AcDbEntity
  8
AM_4
100
AcDbLine
 10
-4.23717
 20
-49.31504
 30
0.0
 11
-4.54816
 21
-49.16703
 31
0.0
  0
LINE
  5
177
330
F2
100
AcDbEntity
  8
AM_4
100
AcDbLine
 10
-4.859140000000001
 20
-48.87103
 30
0.0
 11
-5.01464
 21
-48.57501999999999
 31
0.0
  0
LINE
  5
178
330
F2
100
AcDbEntity
  8
AM_4
100
AcDbLine
 10
-5.01464
 20
-48.57501999999999
 30
0.0
 11
-5.09238
 21
-48.205012
 31
0.0
  0
LINE
  5
179
330
F2
100
AcDbEntity
  8
AM_4
100
AcDbLine
 10
0.505351
 20
-49.38904
 30
0.0
 11
-1.36056
 21
-49.38904
 31
0.0
  0
LINE
  5
17A
330
F2
100
AcDbEntity
  8
AM_4
100
AcDbLine
 10
-1.36056
 20
-49.38904
 30
0.0
 11
-1.36056
 21
-45.91096
 31
0.0
  0
LINE
  5
17B
330
F2
100
AcDbEntity
  8
AM_4
100
AcDbLine
 10
-1.36056
 20
-45.91096
 30
0.0
 11
0.505351
 21
-45.91096
 31
0.0
  0
LINE
  5
17C
330
F2
100
AcDbEntity
  8
AM_4
100
AcDbLine
 10
0.505351
 20
-45.91096
 30
0.0
 11
0.894082
 21
-45.98496000000001
 31
0.0
  0
LINE
  5
17D
330
F2
100
AcDbEntity
  8
AM_4
100
AcDbLine
 10
0.894082
 20
-45.98496000000001
 30
0.0
 11
1.20507
 21
-46.13297
 31
0.0
  0
LINE
  5
17E
330
F2
100
AcDbEntity
  8
AM_4
100
AcDbLine
 10
1.20507
 20
-46.13297
 30
0.0
 11
1.51605
 21
-46.42897
 31
0.0
  0
LINE
  5
17F
330
F2
100
AcDbEntity
  8
AM_4
100
AcDbLine
 10
1.51605
 20
-46.42897
 30
0.0
 11
1.67155
 21
-46.72498000000001
 31
0.0
  0
LINE
  5
180
330
F2
100
AcDbEntity
  8
AM_4
100
AcDbLine
 10
1.67155
 20
-46.72498000000001
 30
0.0
 11
1.74929
 21
-47.094988
 31
0.0
  0
LINE
  5
181
330
F2
100
AcDbEntity
  8
AM_4
100
AcDbLine
 10
1.74929
 20
-47.094988
 30
0.0
 11
1.74929
 21
-48.205012
 31
0.0
  0
LINE
  5
182
330
F2
100
AcDbEntity
  8
AM_4
100
AcDbLine
 10
1.74929
 20
-48.205012
 30
0.0
 11
1.67155
 21
-48.57501999999999
 31
0.0
  0
LINE
  5
183
330
F2
100
AcDbEntity
  8
AM_4
100
AcDbLine
 10
1.67155
 20
-48.57501999999999
 30
0.0
 11
1.51605
 21
-48.87103
 31
0.0
  0
LINE
  5
184
330
F2
100
AcDbEntity
  8
AM_4
100
AcDbLine
 10
1.51605
 20
-48.87103
 30
0.0
 11
1.20507
 21
-49.16703
 31
0.0
  0
LINE
  5
185
330
F2
100
AcDbEntity
  8
AM_4
100
AcDbLine
 10
1.20507
 20
-49.16703
 30
0.0
 11
0.894082
 21
-49.31504
 31
0.0
  0
LINE
  5
186
330
F2
100
AcDbEntity
  8
AM_4
100
AcDbLine
 10
0.894082
 20
-49.31504
 30
0.0
 11
0.505351
 21
-49.38904
 31
0.0
  0
LINE
  5
187
330
F2
100
AcDbEntity
  8
AM_4
100
AcDbLine
 10
2.37126
 20
-48.205012
 30
0.0
 11
2.37126
 21
-47.094988
 31
0.0
  0
LINE
  5
188
330
F2
100
AcDbEntity
  8
AM_4
100
AcDbLine
 10
2.37126
 20
-47.094988
 30
0.0
 11
2.44901
 21
-46.72498000000001
 31
0.0
  0
LINE
  5
189
330
F2
100
AcDbEntity
  8
AM_4
100
AcDbLine
 10
2.44901
 20
-46.72498000000001
 30
0.0
 11
2.604500000000002
 21
-46.42897
 31
0.0
  0
LINE
  5
18A
330
F2
100
AcDbEntity
  8
AM_4
100
AcDbLine
 10
2.604500000000002
 20
-46.42897
 30
0.0
 11
2.91549
 21
-46.13297
 31
0.0
  0
LINE
  5
18B
330
F2
100
AcDbEntity
  8
AM_4
100
AcDbLine
 10
2.91549
 20
-46.13297
 30
0.0
 11
3.22647
 21
-45.98496000000001
 31
0.0
  0
LINE
  5
18C
330
F2
100
AcDbEntity
  8
AM_4
100
AcDbLine
 10
3.22647
 20
-45.98496000000001
 30
0.0
 11
3.6152
 21
-45.91096
 31
0.0
  0
LINE
  5
18D
330
F2
100
AcDbEntity
  8
AM_4
100
AcDbLine
 10
3.6152
 20
-45.91096
 30
0.0
 11
4.31492
 21
-45.91096
 31
0.0
  0
LINE
  5
18E
330
F2
100
AcDbEntity
  8
AM_4
100
AcDbLine
 10
4.31492
 20
-45.91096
 30
0.0
 11
4.703650000000001
 21
-45.98496000000001
 31
0.0
  0
LINE
  5
18F
330
F2
100
AcDbEntity
  8
AM_4
100
AcDbLine
 10
4.703650000000001
 20
-45.98496000000001
 30
0.0
 11
5.01464
 21
-46.13297
 31
0.0
  0
LINE
  5
190
330
F2
100
AcDbEntity
  8
AM_4
100
AcDbLine
 10
5.01464
 20
-46.13297
 30
0.0
 11
5.32562
 21
-46.42897
 31
0.0
  0
LINE
  5
191
330
F2
100
AcDbEntity
  8
AM_4
100
AcDbLine
 10
5.32562
 20
-46.42897
 30
0.0
 11
5.40337
 21
-46.798981
 31
0.0
  0
LINE
  5
192
330
F2
100
AcDbEntity
  8
AM_4
100
AcDbLine
 10
5.40337
 20
-46.798981
 30
0.0
 11
4.93689
 21
-46.798981
 31
0.0
  0
LINE
  5
193
330
F2
100
AcDbEntity
  8
AM_4
100
AcDbLine
 10
4.93689
 20
-46.798981
 30
0.0
 11
4.859140000000001
 21
-46.57698
 31
0.0
  0
LINE
  5
194
330
F2
100
AcDbEntity
  8
AM_4
100
AcDbLine
 10
4.859140000000001
 20
-46.57698
 30
0.0
 11
4.6259
 21
-46.42897
 31
0.0
  0
LINE
  5
195
330
F2
100
AcDbEntity
  8
AM_4
100
AcDbLine
 10
4.6259
 20
-46.42897
 30
0.0
 11
4.31492
 21
-46.35497
 31
0.0
  0
LINE
  5
196
330
F2
100
AcDbEntity
  8
AM_4
100
AcDbLine
 10
4.31492
 20
-46.35497
 30
0.0
 11
3.6152
 21
-46.35497
 31
0.0
  0
LINE
  5
197
330
F2
100
AcDbEntity
  8
AM_4
100
AcDbLine
 10
3.6152
 20
-46.35497
 30
0.0
 11
3.30422
 21
-46.42897
 31
0.0
  0
LINE
  5
198
330
F2
100
AcDbEntity
  8
AM_4
100
AcDbLine
 10
3.30422
 20
-46.42897
 30
0.0
 11
3.07098
 21
-46.57698
 31
0.0
  0
LINE
  5
199
330
F2
100
AcDbEntity
  8
AM_4
100
AcDbLine
 10
3.07098
 20
-46.57698
 30
0.0
 11
2.91549
 21
-46.798981
 31
0.0
  0
LINE
  5
19A
330
F2
100
AcDbEntity
  8
AM_4
100
AcDbLine
 10
2.91549
 20
-46.798981
 30
0.0
 11
2.83774
 21
-47.094988
 31
0.0
  0
LINE
  5
19B
330
F2
100
AcDbEntity
  8
AM_4
100
AcDbLine
 10
2.83774
 20
-47.094988
 30
0.0
 11
2.83774
 21
-48.205012
 31
0.0
  0
LINE
  5
19C
330
F2
100
AcDbEntity
  8
AM_4
100
AcDbLine
 10
2.83774
 20
-48.205012
 30
0.0
 11
2.91549
 21
-48.501019
 31
0.0
  0
LINE
  5
19D
330
F2
100
AcDbEntity
  8
AM_4
100
AcDbLine
 10
2.91549
 20
-48.501019
 30
0.0
 11
3.07098
 21
-48.72302
 31
0.0
  0
LINE
  5
19E
330
F2
100
AcDbEntity
  8
AM_4
100
AcDbLine
 10
3.07098
 20
-48.72302
 30
0.0
 11
3.30422
 21
-48.87103
 31
0.0
  0
LINE
  5
19F
330
F2
100
AcDbEntity
  8
AM_4
100
AcDbLine
 10
3.30422
 20
-48.87103
 30
0.0
 11
3.6152
 21
-48.94503
 31
0.0
  0
LINE
  5
1A0
330
F2
100
AcDbEntity
  8
AM_4
100
AcDbLine
 10
3.6152
 20
-48.94503
 30
0.0
 11
4.31492
 21
-48.94503
 31
0.0
  0
LINE
  5
1A1
330
F2
100
AcDbEntity
  8
AM_4
100
AcDbLine
 10
4.31492
 20
-48.94503
 30
0.0
 11
4.6259
 21
-48.87103
 31
0.0
  0
LINE
  5
1A2
330
F2
100
AcDbEntity
  8
AM_4
100
AcDbLine
 10
4.6259
 20
-48.87103
 30
0.0
 11
4.859140000000001
 21
-48.72302
 31
0.0
  0
LINE
  5
1A3
330
F2
100
AcDbEntity
  8
AM_4
100
AcDbLine
 10
4.859140000000001
 20
-48.72302
 30
0.0
 11
4.93689
 21
-48.501019
 31
0.0
  0
LINE
  5
1A4
330
F2
100
AcDbEntity
  8
AM_4
100
AcDbLine
 10
4.93689
 20
-48.501019
 30
0.0
 11
4.93689
 21
-47.909006
 31
0.0
  0
LINE
  5
1A5
330
F2
100
AcDbEntity
  8
AM_4
100
AcDbLine
 10
4.93689
 20
-47.909006
 30
0.0
 11
4.23717
 21
-47.909006
 31
0.0
  0
LINE
  5
1A6
330
F2
100
AcDbEntity
  8
AM_4
100
AcDbLine
 10
4.23717
 20
-47.909006
 30
0.0
 11
4.23717
 21
-47.464996
 31
0.0
  0
LINE
  5
1A7
330
F2
100
AcDbEntity
  8
AM_4
100
AcDbLine
 10
4.23717
 20
-47.464996
 30
0.0
 11
5.40337
 21
-47.464996
 31
0.0
  0
LINE
  5
1A8
330
F2
100
AcDbEntity
  8
AM_4
100
AcDbLine
 10
5.40337
 20
-47.464996
 30
0.0
 11
5.40337
 21
-48.57501999999999
 31
0.0
  0
LINE
  5
1A9
330
F2
100
AcDbEntity
  8
AM_4
100
AcDbLine
 10
5.40337
 20
-48.57501999999999
 30
0.0
 11
5.32562
 21
-48.87103
 31
0.0
  0
LINE
  5
1AA
330
F2
100
AcDbEntity
  8
AM_4
100
AcDbLine
 10
5.32562
 20
-48.87103
 30
0.0
 11
5.01464
 21
-49.16703
 31
0.0
  0
LINE
  5
1AB
330
F2
100
AcDbEntity
  8
AM_4
100
AcDbLine
 10
4.31492
 20
-49.38904
 30
0.0
 11
3.6152
 21
-49.38904
 31
0.0
  0
LINE
  5
1AC
330
F2
100
AcDbEntity
  8
AM_4
100
AcDbLine
 10
3.6152
 20
-49.38904
 30
0.0
 11
3.22647
 21
-49.31504
 31
0.0
  0
LINE
  5
1AD
330
F2
100
AcDbEntity
  8
AM_4
100
AcDbLine
 10
3.22647
 20
-49.31504
 30
0.0
 11
2.91549
 21
-49.16703
 31
0.0
  0
LINE
  5
1AE
330
F2
100
AcDbEntity
  8
AM_4
100
AcDbLine
 10
2.91549
 20
-49.16703
 30
0.0
 11
2.6045
 21
-48.87103
 31
0.0
  0
LINE
  5
1AF
330
F2
100
AcDbEntity
  8
AM_4
100
AcDbLine
 10
2.6045
 20
-48.87103
 30
0.0
 11
2.44901
 21
-48.57501999999999
 31
0.0
  0
LINE
  5
1B0
330
F2
100
AcDbEntity
  8
AM_4
100
AcDbLine
 10
8.8242
 20
-49.38904
 30
0.0
 11
6.02534
 21
-49.38904
 31
0.0
  0
LINE
  5
1B1
330
F2
100
AcDbEntity
  8
AM_4
100
AcDbLine
 10
6.02534
 20
-49.38904
 30
0.0
 11
6.02534
 21
-45.91096
 31
0.0
  0
LINE
  5
1B2
330
F2
100
AcDbEntity
  8
AM_4
100
AcDbLine
 10
6.02534
 20
-45.91096
 30
0.0
 11
8.824199999999998
 21
-45.91096
 31
0.0
  0
LINE
  5
1B3
330
F2
100
AcDbEntity
  8
AM_4
100
AcDbLine
 10
8.824199999999998
 20
-45.91096
 30
0.0
 11
8.8242
 21
-46.35497
 31
0.0
  0
LINE
  5
1B4
330
F2
100
AcDbEntity
  8
AM_4
100
AcDbLine
 10
8.8242
 20
-46.35497
 30
0.0
 11
6.491810000000001
 21
-46.35497
 31
0.0
  0
LINE
  5
1B5
330
F2
100
AcDbEntity
  8
AM_4
100
AcDbLine
 10
6.491810000000001
 20
-46.35497
 30
0.0
 11
6.491810000000001
 21
-47.316993
 31
0.0
  0
LINE
  5
1B6
330
F2
100
AcDbEntity
  8
AM_4
100
AcDbLine
 10
6.491810000000001
 20
-47.316993
 30
0.0
 11
8.51322
 21
-47.316993
 31
0.0
  0
LINE
  5
1B7
330
F2
100
AcDbEntity
  8
AM_4
100
AcDbLine
 10
8.51322
 20
-47.316993
 30
0.0
 11
8.51322
 21
-47.761002
 31
0.0
  0
LINE
  5
1B8
330
F2
100
AcDbEntity
  8
AM_4
100
AcDbLine
 10
8.51322
 20
-47.761002
 30
0.0
 11
6.491810000000001
 21
-47.761002
 31
0.0
  0
LINE
  5
1B9
330
F2
100
AcDbEntity
  8
AM_4
100
AcDbLine
 10
6.491810000000001
 20
-47.761002
 30
0.0
 11
6.491810000000001
 21
-48.94503
 31
0.0
  0
LINE
  5
1BA
330
F2
100
AcDbEntity
  8
AM_4
100
AcDbLine
 10
6.491810000000001
 20
-48.94503
 30
0.0
 11
8.8242
 21
-48.94503
 31
0.0
  0
LINE
  5
1BB
330
F2
100
AcDbEntity
  8
AM_4
100
AcDbLine
 10
8.8242
 20
-48.94503
 30
0.0
 11
8.8242
 21
-49.38904
 31
0.0
  0
ARC
  5
1BC
330
F2
100
AcDbEntity
  8
AM_4
100
AcDbCircle
 10
-0.00000000000004
 20
-0.0000000000006375
 30
0.0
 40
55.65000000000062
100
AcDbArc
 50
104.9999999999998
 51
75.0000000000001
  0
LINE
  5
1BD
330
F2
100
AcDbEntity
  8
AM_4
100
AcDbLine
 10
14.40327985995531
 20
53.75377223298664
 30
0.0
 11
12.35245777107476
 21
46.1
 31
0.0
  0
LINE
  5
1BE
330
F2
100
AcDbEntity
  8
AM_4
100
AcDbLine
 10
-12.35245777107477
 20
46.10000000000001
 30
0.0
 11
-14.40327985995529
 21
53.75377223298666
 31
0.0
  0
LINE
  5
1BF
330
F2
100
AcDbEntity
  8
AM_4
100
AcDbLine
 10
-1.661483519286544
 20
55.1
 30
0.0
 11
1.661483519286544
 21
55.1
 31
0.0
  0
ARC
  5
1C0
330
F2
100
AcDbEntity
  8
AM_4
100
AcDbCircle
 10
1.661483519286539
 20
54.59999999999997
 30
0.0
 40
0.5000000000000228
100
AcDbArc
 50
21.80140948635468
 51
90.0
  0
ARC
  5
1C1
330
F2
100
AcDbEntity
  8
AM_4
100
AcDbCircle
 10
-1.661483519286539
 20
54.59999999999997
 30
0.0
 40
0.5000000000000284
100
AcDbArc
 50
90.0
 51
158.1985905136453
  0
LINE
  5
1C2
330
F2
100
AcDbEntity
  8
AM_4
100
AcDbLine
 10
-2.12572186472918
 20
54.78569533817706
 30
0.0
 11
2.12572186472918
 21
54.78569533817706
 31
0.0
  0
LINE
  5
1C3
330
F2
100
AcDbEntity
  8
AM_4
100
AcDbLine
 10
-2.12572186472918
 20
54.78569533817706
 30
0.0
 11
-2.66389026452834
 21
53.44027433867916
 31
0.0
  0
LINE
  5
1C4
330
F2
100
AcDbEntity
  8
AM_4
100
AcDbLine
 10
2.66389026452834
 20
53.44027433867916
 30
0.0
 11
2.12572186472918
 21
54.78569533817706
 31
0.0
  0
LINE
  5
1C5
330
F2
100
AcDbEntity
  8
AM_4
100
AcDbLine
 10
-2.66389026452834
 20
53.44027433867916
 30
0.0
 11
2.66389026452834
 21
53.44027433867916
 31
0.0
  0
ARC
  5
1C6
330
F2
100
AcDbEntity
  8
AM_4
100
AcDbCircle
 10
2.199651919085715
 20
53.2545790005021
 30
0.0
 40
0.4999999999999957
100
AcDbArc
 50
314.1570851114436
 51
21.80140948635237
  0
ARC
  5
1C7
330
F2
100
AcDbEntity
  8
AM_4
100
AcDbCircle
 10
-2.199651919085715
 20
53.2545790005021
 30
0.0
 40
0.4999999999999966
100
AcDbArc
 50
158.1985905136476
 51
225.8429148885564
  0
LINE
  5
1C8
330
F2
100
AcDbEntity
  8
AM_4
100
AcDbLine
 10
2.8
 20
49.60000000000001
 30
0.0
 11
2.8
 21
50.10000000000001
 31
0.0
  0
LINE
  5
1C9
330
F2
100
AcDbEntity
  8
AM_4
100
AcDbLine
 10
-2.8
 20
50.10000000000001
 30
0.0
 11
-2.8
 21
49.60000000000001
 31
0.0
  0
LINE
  5
1CA
330
F2
100
AcDbEntity
  8
AM_4
100
AcDbLine
 10
-2.547965887548555
 20
52.89586270679123
 30
0.0
 11
2.547965887548555
 21
52.89586270679123
 31
0.0
  0
LINE
  5
1CB
330
F2
100
AcDbEntity
  8
AM_4
100
AcDbLine
 10
-2.8
 20
50.10000000000001
 30
0.0
 11
2.8
 21
50.10000000000001
 31
0.0
  0
ARC
  5
1CC
330
F2
100
AcDbEntity
  8
AM_4
100
AcDbCircle
 10
3.806249999999996
 20
51.60000000000001
 30
0.0
 40
1.806249999999998
100
AcDbArc
 50
134.1570807509947
 51
236.144973871706
  0
ARC
  5
1CD
330
F2
100
AcDbEntity
  8
AM_4
100
AcDbCircle
 10
-3.806249999999996
 20
51.60000000000001
 30
0.0
 40
1.806249999999998
100
AcDbArc
 50
303.855026128294
 51
45.84291924900533
  0
LINE
  5
1CE
330
F2
100
AcDbEntity
  8
AM_4
100
AcDbLine
 10
2.8
 20
46.1
 30
0.0
 11
2.8
 21
46.6
 31
0.0
  0
LINE
  5
1CF
330
F2
100
AcDbEntity
  8
AM_4
100
AcDbLine
 10
-2.8
 20
46.6
 30
0.0
 11
-2.8
 21
46.1
 31
0.0
  0
LINE
  5
1D0
330
F2
100
AcDbEntity
  8
AM_4
100
AcDbLine
 10
-4.0
 20
46.6
 30
0.0
 11
4.0
 21
46.6
 31
0.0
  0
LINE
  5
1D1
330
F2
100
AcDbEntity
  8
AM_4
100
AcDbLine
 10
-4.0
 20
46.6
 30
0.0
 11
-4.0
 21
49.60000000000001
 31
0.0
  0
LINE
  5
1D2
330
F2
100
AcDbEntity
  8
AM_4
100
AcDbLine
 10
-4.0
 20
49.60000000000001
 30
0.0
 11
4.0
 21
49.60000000000001
 31
0.0
  0
LINE
  5
1D3
330
F2
100
AcDbEntity
  8
AM_4
100
AcDbLine
 10
4.0
 20
49.60000000000001
 30
0.0
 11
4.0
 21
46.6
 31
0.0
  0
LWPOLYLINE
  5
1D4
330
F2
100
AcDbEntity
  8
AM_4
100
AcDbPolyline
 90
        3
 70
     0
 43
0.0
 10
1.999999999999999
 20
46.6
 10
3.0
 20
46.64376467721207
 10
4.0
 20
46.76580753730953
  0
LWPOLYLINE
  5
1D5
330
F2
100
AcDbEntity
  8
AM_4
100
AcDbPolyline
 90
        3
 70
     0
 43
0.0
 10
4.0
 20
49.43419246269048
 10
3.004496269272691
 20
49.55584868663553
 10
1.999999999999998
 20
49.60000000000001
  0
LWPOLYLINE
  5
1D6
330
F2
100
AcDbEntity
  8
AM_4
100
AcDbPolyline
 90
        3
 70
     0
 43
0.0
 10
0.0
 20
46.76580753730953
 10
0.9955037307273064
 20
46.64415131336448
 10
1.999999999999999
 20
46.6
  0
LWPOLYLINE
  5
1D7
330
F2
100
AcDbEntity
  8
AM_4
100
AcDbPolyline
 90
        3
 70
     0
 43
0.0
 10
-4.0
 20
46.76580753730953
 10
-3.004496269272694
 20
46.64415131336448
 10
-1.999999999999999
 20
46.6
  0
LWPOLYLINE
  5
1D8
330
F2
100
AcDbEntity
  8
AM_4
100
AcDbPolyline
 90
        3
 70
     0
 43
0.0
 10
-1.999999999999999
 20
46.6
 10
-0.9999999999999998
 20
46.64376467721206
 10
0.0
 20
46.76580753730953
  0
LINE
  5
1D9
330
F2
100
AcDbEntity
  8
AM_4
100
AcDbLine
 10
0.0
 20
46.76580753730953
 30
0.0
 11
0.0
 21
49.43419246269048
 31
0.0
  0
LWPOLYLINE
  5
1DA
330
F2
100
AcDbEntity
  8
AM_4
100
AcDbPolyline
 90
        3
 70
     0
 43
0.0
 10
-1.999999999999998
 20
49.60000000000001
 10
-2.999999999999999
 20
49.55623532278795
 10
-4.0
 20
49.43419246269048
  0
LWPOLYLINE
  5
1DB
330
F2
100
AcDbEntity
  8
AM_4
100
AcDbPolyline
 90
        3
 70
     0
 43
0.0
 10
1.999999999999998
 20
49.60000000000001
 10
0.9999999999999974
 20
49.55623532278795
 10
0.0
 20
49.43419246269048
  0
LWPOLYLINE
  5
1DC
330
F2
100
AcDbEntity
  8
AM_4
100
AcDbPolyline
 90
        3
 70
     0
 43
0.0
 10
0.0
 20
49.43419246269048
 10
-0.9955037307273048
 20
49.55584868663553
 10
-1.999999999999998
 20
49.60000000000001
  0
ARC
  5
1DD
330
F2
100
AcDbEntity
  8
AM_4
100
AcDbCircle
 10
-0.0000000000019451
 20
0.0000000000041069
 30
0.0
 40
40.84999999999547
100
AcDbArc
 50
110.7439809922827
 51
118.8086144194216
  0
LINE
  5
1DE
330
F2
100
AcDbEntity
  8
AM_4
100
AcDbLine
 10
19.68501946213865
 20
-35.79416864204591
 30
0.0
 11
25.84475285236827
 21
-39.35049237303132
 31
0.0
  0
CIRCLE
  5
1DF
330
F2
100
AcDbEntity
  8
AM_4
100
AcDbCircle
 10
32.59762261269984
 20
-32.59762261269984
 30
0.0
 40
5.25
  0
CIRCLE
  5
1E0
330
F2
100
AcDbEntity
  8
AM_4
100
AcDbCircle
 10
-32.59762261269984
 20
-32.59762261269983
 30
0.0
 40
5.25
  0
CIRCLE
  5
1E1
330
F2
100
AcDbEntity
  8
AM_4
100
AcDbCircle
 10
-32.59762261269984
 20
32.59762261269984
 30
0.0
 40
5.25
  0
CIRCLE
  5
1E2
330
F2
100
AcDbEntity
  8
AM_4
100
AcDbCircle
 10
32.59762261269984
 20
32.59762261269984
 30
0.0
 40
5.25
  0
CIRCLE
  5
1E3
330
F2
100
AcDbEntity
  8
AM_4
100
AcDbCircle
 10
0.0
 20
0.0
 30
0.0
 40
31.0
  0
LINE
  5
1E4
330
F2
100
AcDbEntity
  8
AM_4
100
AcDbLine
 10
-19.68501946213865
 20
35.79416864204591
 30
0.0
 11
-25.84475285236826
 21
39.3504923730313
 31
0.0
  0
ARC
  5
1E5
330
F2
100
AcDbEntity
  8
AM_4
100
AcDbCircle
 10
-32.59762273190912
 20
32.59762273190911
 30
0.0
 40
9.549999999999995
100
AcDbArc
 50
44.99999898854975
 51
225.0000010114495
  0
LINE
  5
1E6
330
F2
100
AcDbEntity
  8
AM_4
100
AcDbLine
 10
-39.3504923730314
 20
25.84475285236834
 30
0.0
 11
-35.79416864204594
 21
19.6850194621386
 31
0.0
  0
ARC
  5
1E7
330
F2
100
AcDbEntity
  8
AM_4
100
AcDbCircle
 10
-0.0000000000000355
 20
0.0000000000000018
 30
0.0
 40
40.84999999999997
100
AcDbArc
 50
151.1913855805788
 51
208.8086144194212
  0
LINE
  5
1E8
330
F2
100
AcDbEntity
  8
AM_4
100
AcDbLine
 10
-35.79416864204592
 20
-19.68501946213863
 30
0.0
 11
-39.3504923730313
 21
-25.84475285236826
 31
0.0
  0
ARC
  5
1E9
330
F2
100
AcDbEntity
  8
AM_4
100
AcDbCircle
 10
-32.59762273190911
 20
-32.59762273190912
 30
0.0
 40
9.549999999999995
100
AcDbArc
 50
134.9999989885497
 51
315.0000010114493
  0
LINE
  5
1EA
330
F2
100
AcDbEntity
  8
AM_4
100
AcDbLine
 10
-25.84475285236835
 20
-39.3504923730314
 30
0.0
 11
-19.68501946213861
 21
-35.79416864204593
 31
0.0
  0
ARC
  5
1EB
330
F2
100
AcDbEntity
  8
AM_4
100
AcDbCircle
 10
0.0000000000000036
 20
0.0
 30
0.0
 40
40.85
100
AcDbArc
 50
241.1913855805788
 51
298.8086144194212
  0
ARC
  5
1EC
330
F2
100
AcDbEntity
  8
AM_4
100
AcDbCircle
 10
32.59762261269984
 20
-32.59762261269984
 30
0.0
 40
9.549999999999994
100
AcDbArc
 50
224.9999999999996
 51
44.99999999999987
  0
LINE
  5
1ED
330
F2
100
AcDbEntity
  8
AM_4
100
AcDbLine
 10
39.35049237303139
 20
-25.84475285236833
 30
0.0
 11
35.79416864204593
 21
-19.6850194621386
 31
0.0
  0
ARC
  5
1EE
330
F2
100
AcDbEntity
  8
AM_4
100
AcDbCircle
 10
0.0000000000000355
 20
0.0
 30
0.0
 40
40.84999999999997
100
AcDbArc
 50
331.1913855805788
 51
28.80861441942126
  0
LINE
  5
1EF
330
F2
100
AcDbEntity
  8
AM_4
100
AcDbLine
 10
35.7941686420459
 20
19.68501946213865
 30
0.0
 11
39.35049237303132
 21
25.84475285236827
 31
0.0
  0
ARC
  5
1F0
330
F2
100
AcDbEntity
  8
AM_4
100
AcDbCircle
 10
32.59762261269984
 20
32.59762261269984
 30
0.0
 40
9.549999999999988
100
AcDbArc
 50
314.9999999999997
 51
134.9999999999999
  0
LINE
  5
1F1
330
F2
100
AcDbEntity
  8
AM_4
100
AcDbLine
 10
25.84475285236833
 20
39.35049237303137
 30
0.0
 11
19.6850194621386
 21
35.79416864204593
 31
0.0
  0
ARC
  5
1F2
330
F2
100
AcDbEntity
  8
AM_4
100
AcDbCircle
 10
0.000000000002661
 20
0.000000000005933
 30
0.0
 40
40.84999999999351
100
AcDbArc
 50
61.1913855805781
 51
69.25601900771733
  0
LINE
  5
1F3
330
F2
100
AcDbEntity
  8
AM_4
100
AcDbLine
 10
14.46877582625213
 20
38.20179349310268
 30
0.0
 11
12.35245777107475
 21
46.1
 31
0.0
  0
LINE
  5
1F4
330
F2
100
AcDbEntity
  8
AM_4
100
AcDbLine
 10
12.35245777107475
 20
46.1
 30
0.0
 11
-12.35245777107476
 21
46.1
 31
0.0
  0
LINE
  5
1F5
330
F2
100
AcDbEntity
  8
AM_4
100
AcDbLine
 10
-12.35245777107476
 20
46.1
 30
0.0
 11
-14.46877582625213
 21
38.20179349310267
 31
0.0
  0
ENDBLK
  5
F5
330
F2
100
AcDbEntity
  8
0
100
AcDbBlockEnd
  0
ENDSEC
  0
SECTION
  2
ENTITIES
  0
INSERT
  5
6F
330
1F
100
AcDbEntity
  8
0
100
AcDbBlockReference
  2
1_129750_0
 10
0.0
 20
0.0
 30
0.0
  0
POINT
  5
1F7
330
1F
100
AcDbEntity
  8
ConnectionPoints
100
AcDbPoint
 10
0.0
 20
0.0000000000000035
 30
14.0
  0
POINT
  5
1F8
330
1F
100
AcDbEntity
  8
ConnectionPoints
100
AcDbPoint
 10
0.0
 20
0.0000000000000035
 30
42.7
  0
POINT
  5
1F9
330
1F
100
AcDbEntity
  8
ConnectionPoints
100
AcDbPoint
 10
0.0
 20
0.0
 30
42.7
  0
POINT
  5
1FA
330
1F
100
AcDbEntity
  8
ConnectionPoints
100
AcDbPoint
 10
0.0
 20
0.0
 30
42.7
  0
ENDSEC
  0
SECTION
  2
OBJECTS
  0
DICTIONARY
  5
C
330
0
100
AcDbDictionary
281
     1
  3
ACAD_DETAILVIEWSTYLE
350
202
  3
ACAD_GROUP
350
D
  3
ACAD_LAYOUT
350
1A
  3
ACAD_MATERIAL
350
43
  3
ACAD_MLEADERSTYLE
350
6B
  3
ACAD_MLINESTYLE
350
17
  3
ACAD_PLOTSETTINGS
350
19
  3
ACAD_PLOTSTYLENAME
350
E
  3
ACAD_SCALELIST
350
47
  3
ACAD_SECTIONVIEWSTYLE
350
203
  3
ACAD_TABLESTYLE
350
69
  3
ACAD_VISUALSTYLE
350
2A
  3
ACDB_RECOMPOSE_DATA
350
1FF
  3
AcDbVariableDictionary
350
1FB
  0
SUN
  5
6D
330
29
100
AcDbSun
 90
        1
290
     0
 63
     7
421
 16777215
 40
1.0
291
     1
 91
  2455826
 92
 54000000
292
     0
 70
     2
 71
   256
280
     1
  0
DICTIONARY
  5
202
102
{ACAD_REACTORS
330
C
102
}
330
C
100
AcDbDictionary
281
     1
  0
DICTIONARY
  5
D
102
{ACAD_REACTORS
330
C
102
}
330
C
100
AcDbDictionary
281
     1
  0
DICTIONARY
  5
1A
102
{ACAD_REACTORS
330
C
102
}
330
C
100
AcDbDictionary
281
     1
  3
Layout1
350
1E
  3
Layout2
350
26
  3
Model
350
22
  0
DICTIONARY
  5
43
102
{ACAD_REACTORS
330
C
102
}
330
C
100
AcDbDictionary
281
     1
  3
ByBlock
350
45
  3
ByLayer
350
44
  3
Global
350
46
  0
DICTIONARY
  5
6B
102
{ACAD_REACTORS
330
C
102
}
330
C
100
AcDbDictionary
281
     1
  3
Standard
350
6C
  0
DICTIONARY
  5
17
102
{ACAD_REACTORS
330
C
102
}
330
C
100
AcDbDictionary
281
     1
  3
Standard
350
18
  0
DICTIONARY
  5
19
102
{ACAD_REACTORS
330
C
102
}
330
C
100
AcDbDictionary
281
     1
  0
ACDBDICTIONARYWDFLT
  5
E
102
{ACAD_REACTORS
330
C
102
}
330
C
100
AcDbDictionary
281
     1
  3
Normal
350
F
100
AcDbDictionaryWithDefault
340
F
  0
DICTIONARY
  5
47
102
{ACAD_REACTORS
330
C
102
}
330
C
100
AcDbDictionary
281
     1
  3
A0
350
48
  3
A1
350
49
  3
A2
350
4A
  3
A3
350
4B
  3
A4
350
4C
  3
A5
350
4D
  3
A6
350
4E
  3
A7
350
4F
  3
A8
350
50
  3
A9
350
51
  3
B0
350
52
  3
B1
350
53
  3
B2
350
54
  3
B3
350
55
  3
B4
350
56
  3
B5
350
57
  3
B6
350
58
  3
B7
350
59
  3
B8
350
5A
  3
B9
350
5B
  3
C0
350
5C
  3
C1
350
5D
  3
C2
350
5E
  3
C3
350
5F
  3
C4
350
60
  3
C5
350
61
  3
C6
350
62
  3
C7
350
63
  3
C8
350
64
  3
C9
350
65
  3
D0
350
66
  3
D1
350
67
  3
D2
350
68
  0
DICTIONARY
  5
203
102
{ACAD_REACTORS
330
C
102
}
330
C
100
AcDbDictionary
281
     1
  0
DICTIONARY
  5
69
102
{ACAD_REACTORS
330
C
102
}
330
C
100
AcDbDictionary
281
     1
  3
Standard
350
6A
  0
DICTIONARY
  5
2A
102
{ACAD_REACTORS
330
C
102
}
330
C
100
AcDbDictionary
281
     1
  3
2dWireframe
350
2F
  3
Basic
350
32
  3
Brighten
350
36
  3
ColorChange
350
3A
  3
Conceptual
350
34
  3
Dim
350
35
  3
EdgeColorOff
350
3D
  3
Facepattern
350
39
  3
Flat
350
2B
  3
FlatWithEdges
350
2C
  3
Gouraud
350
2D
  3
GouraudWithEdges
350
2E
  3
Hidden
350
31
  3
JitterOff
350
3B
  3
Linepattern
350
38
  3
OverhangOff
350
3C
  3
Realistic
350
33
  3
Shaded
350
42
  3
Shaded with edges
350
41
  3
Shades of Gray
350
3E
  3
Sketchy
350
3F
  3
Thicken
350
37
  3
Wireframe
350
30
  3
X-Ray
350
40
  0
XRECORD
  5
1FF
102
{ACAD_REACTORS
330
C
102
}
330
C
100
AcDbXrecord
280
     1
 90
        1
330
6A
  0
DICTIONARY
  5
1FB
102
{ACAD_REACTORS
330
C
102
}
330
C
100
AcDbDictionary
281
     1
  3
CANNOSCALE
350
1FC
  3
CMLEADERSTYLE
350
201
  3
CTABLESTYLE
350
200
  0
LAYOUT
  5
1E
102
{ACAD_REACTORS
330
1A
102
}
330
1A
100
AcDbPlotSettings
  1

  2
none_device
  4

  6

 40
0.0
 41
0.0
 42
0.0
 43
0.0
 44
0.0
 45
0.0
 46
0.0
 47
0.0
 48
0.0
 49
0.0
140
0.0
141
0.0
142
1.0
143
1.0
 70
   688
 72
     1
 73
     0
 74
     5
  7

 75
    16
 76
     0
 77
     2
 78
   300
147
1.0
148
0.0
149
0.0
100
AcDbLayout
  1
Layout1
 70
     1
 71
     1
 10
0.0
 20
0.0
 11
420.0
 21
297.0
 12
0.0
 22
0.0
 32
0.0
 14
1.000000000000000E+20
 24
1.000000000000000E+20
 34
1.000000000000000E+20
 15
-1.000000000000000E+20
 25
-1.000000000000000E+20
 35
-1.000000000000000E+20
146
0.0
 13
0.0
 23
0.0
 33
0.0
 16
1.0
 26
0.0
 36
0.0
 17
0.0
 27
1.0
 37
0.0
 76
     0
330
1B
  0
LAYOUT
  5
26
102
{ACAD_REACTORS
330
1A
102
}
330
1A
100
AcDbPlotSettings
  1

  2
none_device
  4

  6

 40
0.0
 41
0.0
 42
0.0
 43
0.0
 44
0.0
 45
0.0
 46
0.0
 47
0.0
 48
0.0
 49
0.0
140
0.0
141
0.0
142
1.0
143
1.0
 70
   688
 72
     1
 73
     0
 74
     5
  7

 75
    16
 76
     0
 77
     2
 78
   300
147
1.0
148
0.0
149
0.0
100
AcDbLayout
  1
Layout2
 70
     1
 71
     2
 10
0.0
 20
0.0
 11
0.0
 21
0.0
 12
0.0
 22
0.0
 32
0.0
 14
0.0
 24
0.0
 34
0.0
 15
0.0
 25
0.0
 35
0.0
146
0.0
 13
0.0
 23
0.0
 33
0.0
 16
1.0
 26
0.0
 36
0.0
 17
0.0
 27
1.0
 37
0.0
 76
     0
330
23
  0
LAYOUT
  5
22
102
{ACAD_REACTORS
330
1A
102
}
330
1A
100
AcDbPlotSettings
  1

  2
none_device
  4
Letter_(8.50_x_11.00_Inches)
  6

 40
6.35
 41
6.35
 42
6.35000508
 43
6.35000508
 44
215.9
 45
279.4
 46
0.0
 47
0.0
 48
0.0
 49
0.0
140
0.0
141
0.0
142
1.0
143
1.0
 70
  1712
 72
     1
 73
     0
 74
     0
  7

 75
     0
 76
     0
 77
     2
 78
   300
147
1.0
148
0.0
149
0.0
100
AcDbLayout
  1
Model
 70
     1
 71
     0
 10
0.0
 20
0.0
 11
420.0
 21
297.0
 12
0.0
 22
0.0
 32
0.0
 14
1.000000000000000E+20
 24
1.000000000000000E+20
 34
1.000000000000000E+20
 15
-1.000000000000000E+20
 25
-1.000000000000000E+20
 35
-1.000000000000000E+20
146
0.0
 13
0.0
 23
0.0
 33
0.0
 16
1.0
 26
0.0
 36
0.0
 17
0.0
 27
1.0
 37
0.0
 76
     0
330
1F
331
29
  0
MATERIAL
  5
45
102
{ACAD_REACTORS
330
43
102
}
330
43
100
AcDbMaterial
  1
ByBlock
 72
     1
 94
      127
  0
MATERIAL
  5
44
102
{ACAD_REACTORS
330
43
102
}
330
43
100
AcDbMaterial
  1
ByLayer
 72
     1
 94
      127
  0
MATERIAL
  5
46
102
{ACAD_REACTORS
330
43
102
}
330
43
100
AcDbMaterial
  1
Global
 72
     1
 94
      127
  0
MLEADERSTYLE
  5
6C
102
{ACAD_REACTORS
330
6B
102
}
330
6B
100
AcDbMLeaderStyle
179
     2
170
     2
171
     1
172
     0
 90
        2
 40
0.0
 41
0.0
173
     1
 91
-1056964608
340
14
 92
       -2
290
     1
 42
2.0
291
     1
 43
8.0
  3
Standard
341
0
 44
4.0
300

342
11
174
     1
178
     6
175
     1
176
     0
 93
-1056964608
 45
4.0
292
     0
297
     0
 46
4.0
343
0
 94
-1056964608
 47
1.0
 49
1.0
140
1.0
293
     1
141
0.0
294
     1
177
     0
142
1.0
295
     0
296
     0
143
3.75
271
     0
272
     9
273
     9
298
     0
  0
MLINESTYLE
  5
18
102
{ACAD_REACTORS
330
17
102
}
330
17
100
AcDbMlineStyle
  2
Standard
 70
     0
  3

 62
   256
 51
90.0
 52
90.0
 71
     2
 49
0.5
 62
   256
  6
BYLAYER
 49
-0.5
 62
   256
  6
BYLAYER
  0
ACDBPLACEHOLDER
  5
F
102
{ACAD_REACTORS
330
E
102
}
330
E
  0
SCALE
  5
48
102
{ACAD_REACTORS
330
47
102
}
330
47
100
AcDbScale
 70
     0
300
1:1
140
1.0
141
1.0
290
     1
  0
SCALE
  5
49
102
{ACAD_REACTORS
330
47
102
}
330
47
100
AcDbScale
 70
     0
300
1:2
140
1.0
141
2.0
290
     0
  0
SCALE
  5
4A
102
{ACAD_REACTORS
330
47
102
}
330
47
100
AcDbScale
 70
     0
300
1:4
140
1.0
141
4.0
290
     0
  0
SCALE
  5
4B
102
{ACAD_REACTORS
330
47
102
}
330
47
100
AcDbScale
 70
     0
300
1:5
140
1.0
141
5.0
290
     0
  0
SCALE
  5
4C
102
{ACAD_REACTORS
330
47
102
}
330
47
100
AcDbScale
 70
     0
300
1:8
140
1.0
141
8.0
290
     0
  0
SCALE
  5
4D
102
{ACAD_REACTORS
330
47
102
}
330
47
100
AcDbScale
 70
     0
300
1:10
140
1.0
141
10.0
290
     0
  0
SCALE
  5
4E
102
{ACAD_REACTORS
330
47
102
}
330
47
100
AcDbScale
 70
     0
300
1:16
140
1.0
141
16.0
290
     0
  0
SCALE
  5
4F
102
{ACAD_REACTORS
330
47
102
}
330
47
100
AcDbScale
 70
     0
300
1:20
140
1.0
141
20.0
290
     0
  0
SCALE
  5
50
102
{ACAD_REACTORS
330
47
102
}
330
47
100
AcDbScale
 70
     0
300
1:30
140
1.0
141
30.0
290
     0
  0
SCALE
  5
51
102
{ACAD_REACTORS
330
47
102
}
330
47
100
AcDbScale
 70
     0
300
1:40
140
1.0
141
40.0
290
     0
  0
SCALE
  5
52
102
{ACAD_REACTORS
330
47
102
}
330
47
100
AcDbScale
 70
     0
300
1:50
140
1.0
141
50.0
290
     0
  0
SCALE
  5
53
102
{ACAD_REACTORS
330
47
102
}
330
47
100
AcDbScale
 70
     0
300
1:100
140
1.0
141
100.0
290
     0
  0
SCALE
  5
54
102
{ACAD_REACTORS
330
47
102
}
330
47
100
AcDbScale
 70
     0
300
2:1
140
2.0
141
1.0
290
     0
  0
SCALE
  5
55
102
{ACAD_REACTORS
330
47
102
}
330
47
100
AcDbScale
 70
     0
300
4:1
140
4.0
141
1.0
290
     0
  0
SCALE
  5
56
102
{ACAD_REACTORS
330
47
102
}
330
47
100
AcDbScale
 70
     0
300
8:1
140
8.0
141
1.0
290
     0
  0
SCALE
  5
57
102
{ACAD_REACTORS
330
47
102
}
330
47
100
AcDbScale
 70
     0
300
10:1
140
10.0
141
1.0
290
     0
  0
SCALE
  5
58
102
{ACAD_REACTORS
330
47
102
}
330
47
100
AcDbScale
 70
     0
300
100:1
140
100.0
141
1.0
290
     0
  0
SCALE
  5
59
102
{ACAD_REACTORS
330
47
102
}
330
47
100
AcDbScale
 70
     0
300
1/128" = 1'-0"
140
0.0078125
141
12.0
290
     0
  0
SCALE
  5
5A
102
{ACAD_REACTORS
330
47
102
}
330
47
100
AcDbScale
 70
     0
300
1/64" = 1'-0"
140
0.015625
141
12.0
290
     0
  0
SCALE
  5
5B
102
{ACAD_REACTORS
330
47
102
}
330
47
100
AcDbScale
 70
     0
300
1/32" = 1'-0"
140
0.03125
141
12.0
290
     0
  0
SCALE
  5
5C
102
{ACAD_REACTORS
330
47
102
}
330
47
100
AcDbScale
 70
     0
300
1/16" = 1'-0"
140
0.0625
141
12.0
290
     0
  0
SCALE
  5
5D
102
{ACAD_REACTORS
330
47
102
}
330
47
100
AcDbScale
 70
     0
300
3/32" = 1'-0"
140
0.09375
141
12.0
290
     0
  0
SCALE
  5
5E
102
{ACAD_REACTORS
330
47
102
}
330
47
100
AcDbScale
 70
     0
300
1/8" = 1'-0"
140
0.125
141
12.0
290
     0
  0
SCALE
  5
5F
102
{ACAD_REACTORS
330
47
102
}
330
47
100
AcDbScale
 70
     0
300
3/16" = 1'-0"
140
0.1875
141
12.0
290
     0
  0
SCALE
  5
60
102
{ACAD_REACTORS
330
47
102
}
330
47
100
AcDbScale
 70
     0
300
1/4" = 1'-0"
140
0.25
141
12.0
290
     0
  0
SCALE
  5
61
102
{ACAD_REACTORS
330
47
102
}
330
47
100
AcDbScale
 70
     0
300
3/8" = 1'-0"
140
0.375
141
12.0
290
     0
  0
SCALE
  5
62
102
{ACAD_REACTORS
330
47
102
}
330
47
100
AcDbScale
 70
     0
300
1/2" = 1'-0"
140
0.5
141
12.0
290
     0
  0
SCALE
  5
63
102
{ACAD_REACTORS
330
47
102
}
330
47
100
AcDbScale
 70
     0
300
3/4" = 1'-0"
140
0.75
141
12.0
290
     0
  0
SCALE
  5
64
102
{ACAD_REACTORS
330
47
102
}
330
47
100
AcDbScale
 70
     0
300
1" = 1'-0"
140
1.0
141
12.0
290
     0
  0
SCALE
  5
65
102
{ACAD_REACTORS
330
47
102
}
330
47
100
AcDbScale
 70
     0
300
1-1/2" = 1'-0"
140
1.5
141
12.0
290
     0
  0
SCALE
  5
66
102
{ACAD_REACTORS
330
47
102
}
330
47
100
AcDbScale
 70
     0
300
3" = 1'-0"
140
3.0
141
12.0
290
     0
  0
SCALE
  5
67
102
{ACAD_REACTORS
330
47
102
}
330
47
100
AcDbScale
 70
     0
300
6" = 1'-0"
140
6.0
141
12.0
290
     0
  0
SCALE
  5
68
102
{ACAD_REACTORS
330
47
102
}
330
47
100
AcDbScale
 70
     0
300
1'-0" = 1'-0"
140
12.0
141
12.0
290
     0
  0
TABLESTYLE
  5
6A
102
{ACAD_REACTORS
330
69
102
}
102
{ACAD_XDICTIONARY
360
1FD
102
}
330
69
100
AcDbTableStyle
  3
Standard
 70
     0
 71
     0
 40
0.06
 41
0.06
280
     0
281
     0
  7
Standard
140
4.5
170
     2
 62
     0
 63
   257
283
     0
 90
        4
 91
        0
  1

274
    -2
284
     1
 64
     0
275
    -2
285
     1
 65
     0
276
    -2
286
     1
 66
     0
277
    -2
287
     1
 67
     0
278
    -2
288
     1
 68
     0
279
    -2
289
     1
 69
     0
  7
Standard
140
6.0
170
     5
 62
     0
 63
   257
283
     0
 90
        4
 91
        0
  1

274
    -2
284
     1
 64
     0
275
    -2
285
     1
 65
     0
276
    -2
286
     1
 66
     0
277
    -2
287
     1
 67
     0
278
    -2
288
     1
 68
     0
279
    -2
289
     1
 69
     0
  7
Standard
140
4.5
170
     5
 62
     0
 63
   257
283
     0
 90
        4
 91
        0
  1

274
    -2
284
     1
 64
     0
275
    -2
285
     1
 65
     0
276
    -2
286
     1
 66
     0
277
    -2
287
     1
 67
     0
278
    -2
288
     1
 68
     0
279
    -2
289
     1
 69
     0
  0
VISUALSTYLE
  5
2F
102
{ACAD_REACTORS
330
2A
102
}
330
2A
100
AcDbVisualStyle
  2
2dWireframe
 70
     4
177
     3
291
     0
 70
    58
 90
        0
176
     1
 90
        2
176
     1
 90
        0
176
     1
 90
        0
176
     1
 40
0.6
176
     1
 40
30.0
176
     1
 62
     7
420
 16777215
176
     1
 90
        1
176
     1
 90
        4
176
     1
 62
     7
176
     1
 62
   257
176
     1
 90
        1
176
     1
 90
        1
176
     1
 40
1.0
176
     1
 90
        0
176
     1
 62
   257
176
     1
 40
1.0
176
     1
 90
        1
176
     1
 90
        6
176
     1
 90
        2
176
     1
 62
     7
176
     1
 90
        5
176
     1
 90
        0
176
     1
 90
        0
176
     1
290
     0
176
     1
 90
        1
176
     1
 40
0.0
176
     1
 90
        0
176
     1
290
     1
176
     1
290
     1
176
     1
290
     0
176
     1
290
     0
176
     1
290
     0
176
     1
290
     0
176
     1
290
     0
176
     1
290
     0
176
     1
290
     0
176
     1
 90
       50
176
     1
 40
0.0
176
     1
 40
1.0
176
     1
 90
        0
176
     1
 62
    18
420
        0
176
     1
 90
       50
176
     1
 90
        3
176
     1
 62
     5
420
      255
176
     1
290
     0
176
     1
 90
       50
176
     1
 90
       50
176
     1
 90
       50
176
     1
290
     0
176
     1
 90
       50
176
     1
 62
   256
176
     0
 40
1.0
176
     0
 90
        2
176
     1
  1
strokes_ogs.tif
176
     1
290
     0
176
     1
 40
1.0
176
     1
 40
1.0
176
     1
  0
VISUALSTYLE
  5
32
102
{ACAD_REACTORS
330
2A
102
}
330
2A
100
AcDbVisualStyle
  2
Basic
 70
     7
177
     3
291
     1
 70
    58
 90
        1
176
     1
 90
        0
176
     1
 90
        1
176
     1
 90
        0
176
     1
 40
0.6
176
     1
 40
30.0
176
     1
 62
     7
420
 16777215
176
     1
 90
        0
176
     1
 90
        4
176
     1
 62
     7
176
     1
 62
   257
176
     1
 90
        1
176
     1
 90
        1
176
     1
 40
1.0
176
     1
 90
        8
176
     1
 62
     7
176
     1
 40
1.0
176
     1
 90
        1
176
     1
 90
        6
176
     1
 90
        2
176
     1
 62
     7
176
     1
 90
        5
176
     1
 90
        0
176
     1
 90
        0
176
     1
290
     0
176
     1
 90
        1
176
     1
 40
0.0
176
     1
 90
        0
176
     1
290
     0
176
     1
290
     1
176
     1
290
     1
176
     1
290
     0
176
     1
290
     0
176
     1
290
     0
176
     1
290
     0
176
     1
290
     0
176
     1
290
     0
176
     1
 90
       50
176
     1
 40
0.0
176
     1
 40
1.0
176
     1
 90
        0
176
     1
 62
    18
420
        0
176
     1
 90
       50
176
     1
 90
        3
176
     1
 62
     5
420
      255
176
     1
290
     0
176
     1
 90
       50
176
     1
 90
       50
176
     1
 90
       50
176
     1
290
     0
176
     1
 90
       50
176
     1
 62
   256
176
     0
 40
1.0
176
     0
 90
        2
176
     1
  1
strokes_ogs.tif
176
     1
290
     0
176
     1
 40
1.0
176
     1
 40
1.0
176
     1
  0
VISUALSTYLE
  5
36
102
{ACAD_REACTORS
330
2A
102
}
330
2A
100
AcDbVisualStyle
  2
Brighten
 70
    12
177
     3
291
     1
 70
    58
 90
        2
176
     1
 90
        2
176
     1
 90
        0
176
     1
 90
        0
176
     1
 40
0.6
176
     1
 40
30.0
176
     1
 62
     7
420
 16777215
176
     1
 90
        1
176
     1
 90
        4
176
     1
 62
     7
176
     1
 62
   257
176
     1
 90
        1
176
     1
 90
        1
176
     1
 40
1.0
176
     1
 90
        8
176
     1
 62
     7
176
     1
 40
1.0
176
     1
 90
        1
176
     1
 90
        6
176
     1
 90
        2
176
     1
 62
     7
176
     1
 90
        5
176
     1
 90
        0
176
     1
 90
        0
176
     1
290
     0
176
     1
 90
        1
176
     1
 40
50.0
176
     1
 90
        0
176
     1
290
     0
176
     1
290
     1
176
     1
290
     1
176
     1
290
     0
176
     1
290
     0
176
     1
290
     0
176
     1
290
     0
176
     1
290
     0
176
     1
290
     0
176
     1
 90
       50
176
     1
 40
0.0
176
     1
 40
1.0
176
     1
 90
        0
176
     1
 62
    18
420
        0
176
     1
 90
       50
176
     1
 90
        3
176
     1
 62
     5
420
      255
176
     1
290
     0
176
     1
 90
       50
176
     1
 90
       50
176
     1
 90
       50
176
     1
290
     0
176
     1
 90
       50
176
     1
 62
   256
176
     0
 40
1.0
176
     0
 90
        2
176
     1
  1
strokes_ogs.tif
176
     1
290
     0
176
     1
 40
1.0
176
     1
 40
1.0
176
     1
  0
VISUALSTYLE
  5
3A
102
{ACAD_REACTORS
330
2A
102
}
330
2A
100
AcDbVisualStyle
  2
ColorChange
 70
    16
177
     3
291
     1
 70
    58
 90
        2
176
     1
 90
        2
176
     1
 90
        3
176
     1
 90
        0
176
     1
 40
0.6
176
     1
 40
30.0
176
     1
 62
     8
420
  8421504
176
     1
 90
        1
176
     1
 90
        4
176
     1
 62
     7
176
     1
 62
   257
176
     1
 90
        1
176
     1
 90
        1
176
     1
 40
1.0
176
     1
 90
        8
176
     1
 62
     8
420
  8421504
176
     1
 40
1.0
176
     1
 90
        1
176
     1
 90
        6
176
     1
 90
        2
176
     1
 62
     7
176
     1
 90
        5
176
     1
 90
        0
176
     1
 90
        0
176
     1
290
     0
176
     1
 90
        1
176
     1
 40
0.0
176
     1
 90
        0
176
     1
290
     0
176
     1
290
     1
176
     1
290
     1
176
     1
290
     0
176
     1
290
     0
176
     1
290
     0
176
     1
290
     0
176
     1
290
     0
176
     1
290
     0
176
     1
 90
       50
176
     1
 40
0.0
176
     1
 40
1.0
176
     1
 90
        0
176
     1
 62
    18
420
        0
176
     1
 90
       50
176
     1
 90
        3
176
     1
 62
     5
420
      255
176
     1
290
     0
176
     1
 90
       50
176
     1
 90
       50
176
     1
 90
       50
176
     1
290
     0
176
     1
 90
       50
176
     1
 62
   256
176
     0
 40
1.0
176
     0
 90
        2
176
     1
  1
strokes_ogs.tif
176
     1
290
     0
176
     1
 40
1.0
176
     1
 40
1.0
176
     1
  0
VISUALSTYLE
  5
34
102
{ACAD_REACTORS
330
2A
102
}
330
2A
100
AcDbVisualStyle
  2
Conceptual
 70
     9
177
     3
291
     0
 70
    58
 90
        3
176
     1
 90
        2
176
     1
 90
        0
176
     1
 90
        0
176
     1
 40
0.6
176
     1
 40
30.0
176
     1
 62
     7
420
 16777215
176
     1
 90
        2
176
     1
 90
        2
176
     1
 62
     7
176
     1
 62
   257
176
     1
 90
        1
176
     1
 90
        1
176
     1
 40
179.0
176
     1
 90
        8
176
     1
 62
     7
176
     1
 40
1.0
176
     1
 90
        1
176
     1
 90
        6
176
     1
 90
        2
176
     1
 62
     7
176
     1
 90
        3
176
     1
 90
        0
176
     1
 90
        0
176
     1
290
     0
176
     1
 90
        1
176
     1
 40
0.0
176
     1
 90
        0
176
     1
290
     0
176
     1
290
     1
176
     1
290
     1
176
     1
290
     0
176
     1
290
     0
176
     1
290
     0
176
     1
290
     0
176
     1
290
     0
176
     1
290
     0
176
     1
 90
       50
176
     1
 40
0.0
176
     1
 40
1.0
176
     1
 90
        0
176
     1
 62
    18
420
        0
176
     1
 90
       50
176
     1
 90
        3
176
     1
 62
     5
420
      255
176
     1
290
     0
176
     1
 90
       50
176
     1
 90
       50
176
     1
 90
       50
176
     1
290
     0
176
     1
 90
       50
176
     1
 62
   256
176
     0
 40
1.0
176
     0
 90
        2
176
     1
  1
strokes_ogs.tif
176
     1
290
     0
176
     1
 40
1.0
176
     1
 40
1.0
176
     1
  0
VISUALSTYLE
  5
35
102
{ACAD_REACTORS
330
2A
102
}
330
2A
100
AcDbVisualStyle
  2
Dim
 70
    11
177
     3
291
     1
 70
    58
 90
        2
176
     1
 90
        2
176
     1
 90
        0
176
     1
 90
        0
176
     1
 40
0.6
176
     1
 40
30.0
176
     1
 62
     7
420
 16777215
176
     1
 90
        1
176
     1
 90
        4
176
     1
 62
     7
176
     1
 62
   257
176
     1
 90
        1
176
     1
 90
        1
176
     1
 40
1.0
176
     1
 90
        8
176
     1
 62
     7
176
     1
 40
1.0
176
     1
 90
        1
176
     1
 90
        6
176
     1
 90
        2
176
     1
 62
     7
176
     1
 90
        5
176
     1
 90
        0
176
     1
 90
        0
176
     1
290
     0
176
     1
 90
        1
176
     1
 40
-50.0
176
     1
 90
        0
176
     1
290
     0
176
     1
290
     1
176
     1
290
     1
176
     1
290
     0
176
     1
290
     0
176
     1
290
     0
176
     1
290
     0
176
     1
290
     0
176
     1
290
     0
176
     1
 90
       50
176
     1
 40
0.0
176
     1
 40
1.0
176
     1
 90
        0
176
     1
 62
    18
420
        0
176
     1
 90
       50
176
     1
 90
        3
176
     1
 62
     5
420
      255
176
     1
290
     0
176
     1
 90
       50
176
     1
 90
       50
176
     1
 90
       50
176
     1
290
     0
176
     1
 90
       50
176
     1
 62
   256
176
     0
 40
1.0
176
     0
 90
        2
176
     1
  1
strokes_ogs.tif
176
     1
290
     0
176
     1
 40
1.0
176
     1
 40
1.0
176
     1
  0
VISUALSTYLE
  5
3D
102
{ACAD_REACTORS
330
2A
102
}
330
2A
100
AcDbVisualStyle
  2
EdgeColorOff
 70
    22
177
     3
291
     1
 70
    58
 90
        2
176
     0
 90
        2
176
     0
 90
        0
176
     0
 90
        0
176
     0
 40
0.6
176
     0
 40
30.0
176
     0
 62
     7
420
 16777215
176
     0
 90
        1
176
     0
 90
        4
176
     0
 62
     7
176
     0
 62
   257
176
     0
 90
        1
176
     0
 90
        1
176
     0
 40
1.0
176
     0
 90
        8
176
     2
 62
     7
176
     0
 40
1.0
176
     0
 90
        1
176
     0
 90
        6
176
     0
 90
        2
176
     0
 62
     7
176
     0
 90
        5
176
     0
 90
        0
176
     0
 90
        0
176
     0
290
     0
176
     0
 90
        1
176
     0
 40
0.0
176
     0
 90
        0
176
     0
290
     0
176
     0
290
     1
176
     0
290
     1
176
     0
290
     0
176
     0
290
     0
176
     0
290
     0
176
     0
290
     0
176
     0
290
     0
176
     0
290
     0
176
     0
 90
       50
176
     0
 40
0.0
176
     0
 40
1.0
176
     0
 90
        0
176
     0
 62
    18
420
        0
176
     0
 90
       50
176
     0
 90
        3
176
     0
 62
     5
420
      255
176
     0
290
     0
176
     0
 90
       50
176
     0
 90
       50
176
     0
 90
       50
176
     0
290
     0
176
     0
 90
       50
176
     0
 62
   256
176
     0
 40
1.0
176
     0
 90
        2
176
     0
  1
strokes_ogs.tif
176
     0
290
     0
176
     0
 40
1.0
176
     0
 40
1.0
176
     0
  0
VISUALSTYLE
  5
39
102
{ACAD_REACTORS
330
2A
102
}
330
2A
100
AcDbVisualStyle
  2
Facepattern
 70
    15
177
     3
291
     1
 70
    58
 90
        2
176
     1
 90
        2
176
     1
 90
        0
176
     1
 90
        0
176
     1
 40
0.6
176
     1
 40
30.0
176
     1
 62
     7
420
 16777215
176
     1
 90
        1
176
     1
 90
        4
176
     1
 62
     7
176
     1
 62
   257
176
     1
 90
        1
176
     1
 90
        1
176
     1
 40
1.0
176
     1
 90
        8
176
     1
 62
     7
176
     1
 40
1.0
176
     1
 90
        1
176
     1
 90
        6
176
     1
 90
        2
176
     1
 62
     7
176
     1
 90
        5
176
     1
 90
        0
176
     1
 90
        0
176
     1
290
     0
176
     1
 90
        1
176
     1
 40
0.0
176
     1
 90
        0
176
     1
290
     0
176
     1
290
     1
176
     1
290
     1
176
     1
290
     0
176
     1
290
     0
176
     1
290
     0
176
     1
290
     0
176
     1
290
     0
176
     1
290
     0
176
     1
 90
       50
176
     1
 40
0.0
176
     1
 40
1.0
176
     1
 90
        0
176
     1
 62
    18
420
        0
176
     1
 90
       50
176
     1
 90
        3
176
     1
 62
     5
420
      255
176
     1
290
     0
176
     1
 90
       50
176
     1
 90
       50
176
     1
 90
       50
176
     1
290
     0
176
     1
 90
       50
176
     1
 62
   256
176
     0
 40
1.0
176
     0
 90
        2
176
     1
  1
strokes_ogs.tif
176
     1
290
     0
176
     1
 40
1.0
176
     1
 40
1.0
176
     1
  0
VISUALSTYLE
  5
2B
102
{ACAD_REACTORS
330
2A
102
}
330
2A
100
AcDbVisualStyle
  2
Flat
 70
     0
177
     3
291
     1
 70
    58
 90
        2
176
     1
 90
        1
176
     1
 90
        1
176
     1
 90
        2
176
     1
 40
0.6
176
     1
 40
30.0
176
     1
 62
     7
420
 16777215
176
     1
 90
        0
176
     1
 90
        0
176
     1
 62
     7
176
     1
 62
   257
176
     1
 90
        1
176
     1
 90
        1
176
     1
 40
1.0
176
     1
 90
        8
176
     1
 62
     7
176
     1
 40
1.0
176
     1
 90
        1
176
     1
 90
        6
176
     1
 90
        2
176
     1
 62
     7
176
     1
 90
        5
176
     1
 90
        0
176
     1
 90
        0
176
     1
290
     0
176
     1
 90
       13
176
     1
 40
0.0
176
     1
 90
        0
176
     1
290
     0
176
     1
290
     1
176
     1
290
     1
176
     1
290
     0
176
     1
290
     0
176
     1
290
     0
176
     1
290
     0
176
     1
290
     0
176
     1
290
     0
176
     1
 90
       50
176
     1
 40
0.0
176
     1
 40
1.0
176
     1
 90
        0
176
     1
 62
    18
420
        0
176
     1
 90
       50
176
     1
 90
        3
176
     1
 62
     5
420
      255
176
     1
290
     0
176
     1
 90
       50
176
     1
 90
       50
176
     1
 90
       50
176
     1
290
     0
176
     1
 90
       50
176
     1
 62
   256
176
     0
 40
1.0
176
     0
 90
        2
176
     1
  1
strokes_ogs.tif
176
     1
290
     0
176
     1
 40
1.0
176
     1
 40
1.0
176
     1
  0
VISUALSTYLE
  5
2C
102
{ACAD_REACTORS
330
2A
102
}
330
2A
100
AcDbVisualStyle
  2
FlatWithEdges
 70
     1
177
     3
291
     1
 70
    58
 90
        2
176
     1
 90
        1
176
     1
 90
        1
176
     1
 90
        2
176
     1
 40
0.6
176
     1
 40
30.0
176
     1
 62
     7
420
 16777215
176
     1
 90
        1
176
     1
 90
        0
176
     1
 62
     7
176
     1
 62
   257
176
     1
 90
        1
176
     1
 90
        1
176
     1
 40
1.0
176
     1
 90
        0
176
     1
 62
   257
176
     1
 40
1.0
176
     1
 90
        1
176
     1
 90
        6
176
     1
 90
        2
176
     1
 62
     7
176
     1
 90
        5
176
     1
 90
        0
176
     1
 90
        0
176
     1
290
     0
176
     1
 90
       13
176
     1
 40
0.0
176
     1
 90
        0
176
     1
290
     0
176
     1
290
     1
176
     1
290
     1
176
     1
290
     0
176
     1
290
     0
176
     1
290
     0
176
     1
290
     0
176
     1
290
     0
176
     1
290
     0
176
     1
 90
       50
176
     1
 40
0.0
176
     1
 40
1.0
176
     1
 90
        0
176
     1
 62
    18
420
        0
176
     1
 90
       50
176
     1
 90
        3
176
     1
 62
     5
420
      255
176
     1
290
     0
176
     1
 90
       50
176
     1
 90
       50
176
     1
 90
       50
176
     1
290
     0
176
     1
 90
       50
176
     1
 62
   256
176
     0
 40
1.0
176
     0
 90
        2
176
     1
  1
strokes_ogs.tif
176
     1
290
     0
176
     1
 40
1.0
176
     1
 40
1.0
176
     1
  0
VISUALSTYLE
  5
2D
102
{ACAD_REACTORS
330
2A
102
}
330
2A
100
AcDbVisualStyle
  2
Gouraud
 70
     2
177
     3
291
     1
 70
    58
 90
        2
176
     1
 90
        2
176
     1
 90
        1
176
     1
 90
        2
176
     1
 40
0.6
176
     1
 40
30.0
176
     1
 62
     7
420
 16777215
176
     1
 90
        0
176
     1
 90
        0
176
     1
 62
     7
176
     1
 62
   257
176
     1
 90
        1
176
     1
 90
        1
176
     1
 40
1.0
176
     1
 90
        0
176
     1
 62
     7
176
     1
 40
1.0
176
     1
 90
        1
176
     1
 90
        6
176
     1
 90
        2
176
     1
 62
     7
176
     1
 90
        5
176
     1
 90
        0
176
     1
 90
        0
176
     1
290
     0
176
     1
 90
       13
176
     1
 40
0.0
176
     1
 90
        0
176
     1
290
     0
176
     1
290
     1
176
     1
290
     1
176
     1
290
     0
176
     1
290
     0
176
     1
290
     0
176
     1
290
     0
176
     1
290
     0
176
     1
290
     0
176
     1
 90
       50
176
     1
 40
0.0
176
     1
 40
1.0
176
     1
 90
        0
176
     1
 62
    18
420
        0
176
     1
 90
       50
176
     1
 90
        3
176
     1
 62
     5
420
      255
176
     1
290
     0
176
     1
 90
       50
176
     1
 90
       50
176
     1
 90
       50
176
     1
290
     0
176
     1
 90
       50
176
     1
 62
   256
176
     0
 40
1.0
176
     0
 90
        2
176
     1
  1
strokes_ogs.tif
176
     1
290
     0
176
     1
 40
1.0
176
     1
 40
1.0
176
     1
  0
VISUALSTYLE
  5
2E
102
{ACAD_REACTORS
330
2A
102
}
330
2A
100
AcDbVisualStyle
  2
GouraudWithEdges
 70
     3
177
     3
291
     1
 70
    58
 90
        2
176
     1
 90
        2
176
     1
 90
        1
176
     1
 90
        2
176
     1
 40
0.6
176
     1
 40
30.0
176
     1
 62
     7
420
 16777215
176
     1
 90
        1
176
     1
 90
        0
176
     1
 62
     7
176
     1
 62
   257
176
     1
 90
        1
176
     1
 90
        1
176
     1
 40
1.0
176
     1
 90
        0
176
     1
 62
   257
176
     1
 40
1.0
176
     1
 90
        1
176
     1
 90
        6
176
     1
 90
        2
176
     1
 62
     7
176
     1
 90
        5
176
     1
 90
        0
176
     1
 90
        0
176
     1
290
     0
176
     1
 90
       13
176
     1
 40
0.0
176
     1
 90
        0
176
     1
290
     0
176
     1
290
     1
176
     1
290
     1
176
     1
290
     0
176
     1
290
     0
176
     1
290
     0
176
     1
290
     0
176
     1
290
     0
176
     1
290
     0
176
     1
 90
       50
176
     1
 40
0.0
176
     1
 40
1.0
176
     1
 90
        0
176
     1
 62
    18
420
        0
176
     1
 90
       50
176
     1
 90
        3
176
     1
 62
     5
420
      255
176
     1
290
     0
176
     1
 90
       50
176
     1
 90
       50
176
     1
 90
       50
176
     1
290
     0
176
     1
 90
       50
176
     1
 62
   256
176
     0
 40
1.0
176
     0
 90
        2
176
     1
  1
strokes_ogs.tif
176
     1
290
     0
176
     1
 40
1.0
176
     1
 40
1.0
176
     1
  0
VISUALSTYLE
  5
31
102
{ACAD_REACTORS
330
2A
102
}
330
2A
100
AcDbVisualStyle
  2
Hidden
 70
     6
177
     3
291
     0
 70
    58
 90
        1
176
     1
 90
        2
176
     1
 90
        2
176
     1
 90
        0
176
     1
 40
0.6
176
     1
 40
30.0
176
     1
 62
     7
420
 16777215
176
     1
 90
        2
176
     1
 90
        2
176
     1
 62
     7
176
     1
 62
   257
176
     1
 90
        2
176
     1
 90
        1
176
     1
 40
40.0
176
     1
 90
        0
176
     1
 62
   257
176
     1
 40
1.0
176
     1
 90
        1
176
     1
 90
        6
176
     1
 90
        2
176
     1
 62
     7
176
     1
 90
        3
176
     1
 90
        0
176
     1
 90
        0
176
     1
290
     0
176
     1
 90
        1
176
     1
 40
0.0
176
     1
 90
        0
176
     1
290
     0
176
     1
290
     1
176
     1
290
     1
176
     1
290
     0
176
     1
290
     0
176
     1
290
     0
176
     1
290
     0
176
     1
290
     0
176
     1
290
     0
176
     1
 90
       50
176
     1
 40
0.0
176
     1
 40
1.0
176
     1
 90
        0
176
     1
 62
    18
420
        0
176
     1
 90
       50
176
     1
 90
        3
176
     1
 62
     5
420
      255
176
     1
290
     0
176
     1
 90
       50
176
     1
 90
       50
176
     1
 90
       50
176
     1
290
     0
176
     1
 90
       50
176
     1
 62
   256
176
     0
 40
1.0
176
     0
 90
        2
176
     1
  1
strokes_ogs.tif
176
     1
290
     0
176
     1
 40
1.0
176
     1
 40
1.0
176
     1
  0
VISUALSTYLE
  5
3B
102
{ACAD_REACTORS
330
2A
102
}
330
2A
100
AcDbVisualStyle
  2
JitterOff
 70
    20
177
     3
291
     1
 70
    58
 90
        2
176
     0
 90
        2
176
     0
 90
        0
176
     0
 90
        0
176
     0
 40
0.6
176
     0
 40
30.0
176
     0
 62
     7
420
 16777215
176
     0
 90
        1
176
     0
 90
        4
176
     0
 62
     7
176
     0
 62
   257
176
     0
 90
        1
176
     0
 90
        1
176
     0
 40
1.0
176
     0
 90
       10
176
     2
 62
     7
176
     0
 40
1.0
176
     0
 90
        1
176
     0
 90
        6
176
     0
 90
        2
176
     0
 62
     7
176
     0
 90
        5
176
     0
 90
        0
176
     0
 90
        0
176
     0
290
     0
176
     0
 90
        1
176
     0
 40
0.0
176
     0
 90
        0
176
     0
290
     0
176
     0
290
     1
176
     0
290
     1
176
     0
290
     0
176
     0
290
     0
176
     0
290
     0
176
     0
290
     0
176
     0
290
     0
176
     0
290
     0
176
     0
 90
       50
176
     0
 40
0.0
176
     0
 40
1.0
176
     0
 90
        0
176
     0
 62
    18
420
        0
176
     0
 90
       50
176
     0
 90
        3
176
     0
 62
     5
420
      255
176
     0
290
     0
176
     0
 90
       50
176
     0
 90
       50
176
     0
 90
       50
176
     0
290
     0
176
     0
 90
       50
176
     0
 62
   256
176
     0
 40
1.0
176
     0
 90
        2
176
     0
  1
strokes_ogs.tif
176
     0
290
     0
176
     0
 40
1.0
176
     0
 40
1.0
176
     0
  0
VISUALSTYLE
  5
38
102
{ACAD_REACTORS
330
2A
102
}
330
2A
100
AcDbVisualStyle
  2
Linepattern
 70
    14
177
     3
291
     1
 70
    58
 90
        2
176
     1
 90
        2
176
     1
 90
        0
176
     1
 90
        0
176
     1
 40
0.6
176
     1
 40
30.0
176
     1
 62
     7
420
 16777215
176
     1
 90
        1
176
     1
 90
        4
176
     1
 62
     7
176
     1
 62
   257
176
     1
 90
        7
176
     1
 90
        7
176
     1
 40
1.0
176
     1
 90
        8
176
     1
 62
     7
176
     1
 40
1.0
176
     1
 90
        1
176
     1
 90
        6
176
     1
 90
        2
176
     1
 62
     7
176
     1
 90
        5
176
     1
 90
        0
176
     1
 90
        0
176
     1
290
     0
176
     1
 90
        1
176
     1
 40
0.0
176
     1
 90
        0
176
     1
290
     0
176
     1
290
     1
176
     1
290
     1
176
     1
290
     0
176
     1
290
     0
176
     1
290
     0
176
     1
290
     0
176
     1
290
     0
176
     1
290
     0
176
     1
 90
       50
176
     1
 40
0.0
176
     1
 40
1.0
176
     1
 90
        0
176
     1
 62
    18
420
        0
176
     1
 90
       50
176
     1
 90
        3
176
     1
 62
     5
420
      255
176
     1
290
     0
176
     1
 90
       50
176
     1
 90
       50
176
     1
 90
       50
176
     1
290
     0
176
     1
 90
       50
176
     1
 62
   256
176
     0
 40
1.0
176
     0
 90
        2
176
     1
  1
strokes_ogs.tif
176
     1
290
     0
176
     1
 40
1.0
176
     1
 40
1.0
176
     1
  0
VISUALSTYLE
  5
3C
102
{ACAD_REACTORS
330
2A
102
}
330
2A
100
AcDbVisualStyle
  2
OverhangOff
 70
    21
177
     3
291
     1
 70
    58
 90
        2
176
     0
 90
        2
176
     0
 90
        0
176
     0
 90
        0
176
     0
 40
0.6
176
     0
 40
30.0
176
     0
 62
     7
420
 16777215
176
     0
 90
        1
176
     0
 90
        4
176
     0
 62
     7
176
     0
 62
   257
176
     0
 90
        1
176
     0
 90
        1
176
     0
 40
1.0
176
     0
 90
        9
176
     2
 62
     7
176
     0
 40
1.0
176
     0
 90
        1
176
     0
 90
        6
176
     0
 90
        2
176
     0
 62
     7
176
     0
 90
        5
176
     0
 90
        0
176
     0
 90
        0
176
     0
290
     0
176
     0
 90
        1
176
     0
 40
0.0
176
     0
 90
        0
176
     0
290
     0
176
     0
290
     1
176
     0
290
     1
176
     0
290
     0
176
     0
290
     0
176
     0
290
     0
176
     0
290
     0
176
     0
290
     0
176
     0
290
     0
176
     0
 90
       50
176
     0
 40
0.0
176
     0
 40
1.0
176
     0
 90
        0
176
     0
 62
    18
420
        0
176
     0
 90
       50
176
     0
 90
        3
176
     0
 62
     5
420
      255
176
     0
290
     0
176
     0
 90
       50
176
     0
 90
       50
176
     0
 90
       50
176
     0
290
     0
176
     0
 90
       50
176
     0
 62
   256
176
     0
 40
1.0
176
     0
 90
        2
176
     0
  1
strokes_ogs.tif
176
     0
290
     0
176
     0
 40
1.0
176
     0
 40
1.0
176
     0
  0
VISUALSTYLE
  5
33
102
{ACAD_REACTORS
330
2A
102
}
330
2A
100
AcDbVisualStyle
  2
Realistic
 70
     8
177
     3
291
     0
 70
    58
 90
        2
176
     1
 90
        3
176
     1
 90
        0
176
     1
 90
        2
176
     1
 40
0.6
176
     1
 40
30.0
176
     1
 62
     7
420
 16777215
176
     1
 90
        0
176
     1
 90
        0
176
     1
 62
     7
176
     1
 62
   257
176
     1
 90
        1
176
     1
 90
        1
176
     1
 40
1.0
176
     1
 90
        8
176
     1
 62
   257
176
     1
 40
1.0
176
     1
 90
        1
176
     1
 90
        6
176
     1
 90
        2
176
     1
 62
     7
176
     1
 90
        3
176
     1
 90
        0
176
     1
 90
        0
176
     1
290
     0
176
     1
 90
       13
176
     1
 40
0.0
176
     1
 90
        0
176
     1
290
     0
176
     1
290
     1
176
     1
290
     1
176
     1
290
     0
176
     1
290
     0
176
     1
290
     0
176
     1
290
     0
176
     1
290
     0
176
     1
290
     0
176
     1
 90
       50
176
     1
 40
0.0
176
     1
 40
1.0
176
     1
 90
        0
176
     1
 62
    18
420
        0
176
     1
 90
       50
176
     1
 90
        3
176
     1
 62
     5
420
      255
176
     1
290
     0
176
     1
 90
       50
176
     1
 90
       50
176
     1
 90
       50
176
     1
290
     0
176
     1
 90
       50
176
     1
 62
   256
176
     0
 40
1.0
176
     0
 90
        2
176
     1
  1
strokes_ogs.tif
176
     1
290
     0
176
     1
 40
1.0
176
     1
 40
1.0
176
     1
  0
VISUALSTYLE
  5
42
102
{ACAD_REACTORS
330
2A
102
}
330
2A
100
AcDbVisualStyle
  2
Shaded
 70
    27
177
     3
291
     0
 70
    58
 90
        2
176
     1
 90
        2
176
     1
 90
        1
176
     1
 90
        2
176
     1
 40
0.6
176
     1
 40
30.0
176
     1
 62
     7
420
 16777215
176
     1
 90
        0
176
     1
 90
        4
176
     1
 62
     7
176
     1
 62
   257
176
     1
 90
        1
176
     1
 90
        1
176
     1
 40
1.0
176
     1
 90
        8
176
     1
 62
   257
176
     1
 40
1.0
176
     1
 90
        1
176
     1
 90
        6
176
     1
 90
        2
176
     1
 62
     8
420
  7895160
176
     1
 90
        3
176
     1
 90
        0
176
     1
 90
        0
176
     1
290
     0
176
     1
 90
        5
176
     1
 40
0.0
176
     1
 90
        0
176
     1
290
     0
176
     1
290
     1
176
     1
290
     1
176
     1
290
     0
176
     1
290
     0
176
     1
290
     0
176
     1
290
     0
176
     1
290
     0
176
     1
290
     0
176
     1
 90
       50
176
     1
 40
0.0
176
     1
 40
1.0
176
     1
 90
        0
176
     1
 62
    18
420
        0
176
     1
 90
       50
176
     1
 90
        3
176
     1
 62
     5
420
      255
176
     1
290
     0
176
     1
 90
       50
176
     1
 90
       50
176
     1
 90
       50
176
     1
290
     0
176
     1
 90
       50
176
     1
 62
   256
176
     0
 40
1.0
176
     0
 90
        2
176
     1
  1
strokes_ogs.tif
176
     1
290
     0
176
     1
 40
1.0
176
     1
 40
1.0
176
     1
  0
VISUALSTYLE
  5
41
102
{ACAD_REACTORS
330
2A
102
}
330
2A
100
AcDbVisualStyle
  2
Shaded with edges
 70
    26
177
     3
291
     0
 70
    58
 90
        2
176
     1
 90
        2
176
     1
 90
        1
176
     1
 90
        2
176
     1
 40
0.6
176
     1
 40
30.0
176
     1
 62
     7
420
 16777215
176
     1
 90
        1
176
     1
 90
       10
176
     1
 62
     7
176
     1
 62
   257
176
     1
 90
        2
176
     1
 90
        1
176
     1
 40
1.0
176
     1
 90
        8
176
     1
 62
   257
176
     1
 40
1.0
176
     1
 90
        1
176
     1
 90
        6
176
     1
 90
        2
176
     1
 62
     7
176
     1
 90
        3
176
     1
 90
        0
176
     1
 90
        0
176
     1
290
     0
176
     1
 90
        5
176
     1
 40
0.0
176
     1
 90
        0
176
     1
290
     0
176
     1
290
     1
176
     1
290
     1
176
     1
290
     0
176
     1
290
     0
176
     1
290
     0
176
     1
290
     0
176
     1
290
     0
176
     1
290
     0
176
     1
 90
       50
176
     1
 40
0.0
176
     1
 40
1.0
176
     1
 90
        0
176
     1
 62
    18
420
        0
176
     1
 90
       50
176
     1
 90
        3
176
     1
 62
     5
420
      255
176
     1
290
     0
176
     1
 90
       50
176
     1
 90
       50
176
     1
 90
       50
176
     1
290
     0
176
     1
 90
       50
176
     1
 62
   256
176
     0
 40
1.0
176
     0
 90
        2
176
     1
  1
strokes_ogs.tif
176
     1
290
     0
176
     1
 40
1.0
176
     1
 40
1.0
176
     1
  0
VISUALSTYLE
  5
3E
102
{ACAD_REACTORS
330
2A
102
}
330
2A
100
AcDbVisualStyle
  2
Shades of Gray
 70
    23
177
     3
291
     0
 70
    58
 90
        2
176
     1
 90
        2
176
     1
 90
        3
176
     1
 90
        0
176
     1
 40
0.6
176
     1
 40
30.0
176
     1
 62
     7
420
 16777215
176
     1
 90
        2
176
     1
 90
        2
176
     1
 62
     7
176
     1
 62
     7
176
     1
 90
        1
176
     1
 90
        1
176
     1
 40
40.0
176
     1
 90
        8
176
     1
 62
     7
176
     1
 40
1.0
176
     1
 90
        1
176
     1
 90
        6
176
     1
 90
        2
176
     1
 62
     7
176
     1
 90
        3
176
     1
 90
        0
176
     1
 90
        0
176
     1
290
     0
176
     1
 90
        1
176
     1
 40
0.0
176
     1
 90
        0
176
     1
290
     0
176
     1
290
     1
176
     1
290
     1
176
     1
290
     0
176
     1
290
     0
176
     1
290
     0
176
     1
290
     0
176
     1
290
     0
176
     1
290
     0
176
     1
 90
       50
176
     1
 40
0.0
176
     1
 40
1.0
176
     1
 90
        0
176
     1
 62
    18
420
        0
176
     1
 90
       50
176
     1
 90
        3
176
     1
 62
     5
420
      255
176
     1
290
     0
176
     1
 90
       50
176
     1
 90
       50
176
     1
 90
       50
176
     1
290
     0
176
     1
 90
       50
176
     1
 62
   256
176
     0
 40
1.0
176
     0
 90
        2
176
     1
  1
strokes_ogs.tif
176
     1
290
     0
176
     1
 40
1.0
176
     1
 40
1.0
176
     1
  0
VISUALSTYLE
  5
3F
102
{ACAD_REACTORS
330
2A
102
}
330
2A
100
AcDbVisualStyle
  2
Sketchy
 70
    24
177
     3
291
     0
 70
    58
 90
        1
176
     1
 90
        2
176
     1
 90
        2
176
     1
 90
        0
176
     1
 40
0.6
176
     1
 40
30.0
176
     1
 62
     7
420
 16777215
176
     1
 90
        2
176
     1
 90
        2
176
     1
 62
     7
176
     1
 62
     7
176
     1
 90
        1
176
     1
 90
        1
176
     1
 40
40.0
176
     1
 90
       11
176
     1
 62
     7
176
     1
 40
1.0
176
     1
 90
        1
176
     1
 90
        6
176
     1
 90
        2
176
     1
 62
     7
176
     1
 90
        6
176
     1
 90
        0
176
     1
 90
        0
176
     1
290
     0
176
     1
 90
        1
176
     1
 40
0.0
176
     1
 90
        0
176
     1
290
     0
176
     1
290
     1
176
     1
290
     1
176
     1
290
     0
176
     1
290
     0
176
     1
290
     0
176
     1
290
     0
176
     1
290
     0
176
     1
290
     0
176
     1
 90
       50
176
     1
 40
0.0
176
     1
 40
1.0
176
     1
 90
        0
176
     1
 62
    18
420
        0
176
     1
 90
       50
176
     1
 90
        3
176
     1
 62
     5
420
      255
176
     1
290
     0
176
     1
 90
       50
176
     1
 90
       50
176
     1
 90
       50
176
     1
290
     0
176
     1
 90
       50
176
     1
 62
   256
176
     0
 40
1.0
176
     0
 90
        2
176
     1
  1
strokes_ogs.tif
176
     1
290
     0
176
     1
 40
1.0
176
     1
 40
1.0
176
     1
  0
VISUALSTYLE
  5
37
102
{ACAD_REACTORS
330
2A
102
}
330
2A
100
AcDbVisualStyle
  2
Thicken
 70
    13
177
     3
291
     1
 70
    58
 90
        2
176
     1
 90
        2
176
     1
 90
        0
176
     1
 90
        0
176
     1
 40
0.6
176
     1
 40
30.0
176
     1
 62
     7
420
 16777215
176
     1
 90
        1
176
     1
 90
        4
176
     1
 62
     7
176
     1
 62
   257
176
     1
 90
        1
176
     1
 90
        1
176
     1
 40
1.0
176
     1
 90
       12
176
     1
 62
     7
176
     1
 40
1.0
176
     1
 90
        1
176
     1
 90
        6
176
     1
 90
        2
176
     1
 62
     7
176
     1
 90
        5
176
     1
 90
        0
176
     1
 90
        0
176
     1
290
     0
176
     1
 90
        1
176
     1
 40
0.0
176
     1
 90
        0
176
     1
290
     0
176
     1
290
     1
176
     1
290
     1
176
     1
290
     0
176
     1
290
     0
176
     1
290
     0
176
     1
290
     0
176
     1
290
     0
176
     1
290
     0
176
     1
 90
       50
176
     1
 40
0.0
176
     1
 40
1.0
176
     1
 90
        0
176
     1
 62
    18
420
        0
176
     1
 90
       50
176
     1
 90
        3
176
     1
 62
     5
420
      255
176
     1
290
     0
176
     1
 90
       50
176
     1
 90
       50
176
     1
 90
       50
176
     1
290
     0
176
     1
 90
       50
176
     1
 62
   256
176
     0
 40
1.0
176
     0
 90
        2
176
     1
  1
strokes_ogs.tif
176
     1
290
     0
176
     1
 40
1.0
176
     1
 40
1.0
176
     1
  0
VISUALSTYLE
  5
30
102
{ACAD_REACTORS
330
2A
102
}
330
2A
100
AcDbVisualStyle
  2
Wireframe
 70
     5
177
     3
291
     0
 70
    58
 90
        0
176
     1
 90
        2
176
     1
 90
        0
176
     1
 90
        0
176
     1
 40
0.6
176
     1
 40
30.0
176
     1
 62
     7
420
 16777215
176
     1
 90
        1
176
     1
 90
        4
176
     1
 62
     7
176
     1
 62
   257
176
     1
 90
        1
176
     1
 90
        1
176
     1
 40
1.0
176
     1
 90
        0
176
     1
 62
   257
176
     1
 40
1.0
176
     1
 90
        1
176
     1
 90
        6
176
     1
 90
        2
176
     1
 62
     7
176
     1
 90
        3
176
     1
 90
        0
176
     1
 90
        0
176
     1
290
     0
176
     1
 90
        1
176
     1
 40
0.0
176
     1
 90
        0
176
     1
290
     0
176
     1
290
     1
176
     1
290
     1
176
     1
290
     0
176
     1
290
     0
176
     1
290
     0
176
     1
290
     0
176
     1
290
     0
176
     1
290
     0
176
     1
 90
       50
176
     1
 40
0.0
176
     1
 40
1.0
176
     1
 90
        0
176
     1
 62
    18
420
        0
176
     1
 90
       50
176
     1
 90
        3
176
     1
 62
     5
420
      255
176
     1
290
     0
176
     1
 90
       50
176
     1
 90
       50
176
     1
 90
       50
176
     1
290
     0
176
     1
 90
       50
176
     1
 62
   256
176
     0
 40
1.0
176
     0
 90
        2
176
     1
  1
strokes_ogs.tif
176
     1
290
     0
176
     1
 40
1.0
176
     1
 40
1.0
176
     1
  0
VISUALSTYLE
  5
40
102
{ACAD_REACTORS
330
2A
102
}
330
2A
100
AcDbVisualStyle
  2
X-Ray
 70
    25
177
     3
291
     0
 70
    58
 90
        2
176
     1
 90
        2
176
     1
 90
        1
176
     1
 90
        1
176
     1
 40
0.5
176
     1
 40
30.0
176
     1
 62
     7
420
 16777215
176
     1
 90
        1
176
     1
 90
        0
176
     1
 62
     7
176
     1
 62
   257
176
     1
 90
        1
176
     1
 90
        1
176
     1
 40
1.0
176
     1
 90
        8
176
     1
 62
     7
176
     1
 40
1.0
176
     1
 90
        1
176
     1
 90
        6
176
     1
 90
        2
176
     1
 62
     7
176
     1
 90
        3
176
     1
 90
        0
176
     1
 90
        0
176
     1
290
     0
176
     1
 90
       13
176
     1
 40
0.0
176
     1
 90
        0
176
     1
290
     0
176
     1
290
     1
176
     1
290
     1
176
     1
290
     0
176
     1
290
     0
176
     1
290
     0
176
     1
290
     0
176
     1
290
     0
176
     1
290
     0
176
     1
 90
       50
176
     1
 40
0.0
176
     1
 40
1.0
176
     1
 90
        0
176
     1
 62
    18
420
        0
176
     1
 90
       50
176
     1
 90
        3
176
     1
 62
     5
420
      255
176
     1
290
     0
176
     1
 90
       50
176
     1
 90
       50
176
     1
 90
       50
176
     1
290
     0
176
     1
 90
       50
176
     1
 62
   256
176
     0
 40
1.0
176
     0
 90
        2
176
     1
  1
strokes_ogs.tif
176
     1
290
     0
176
     1
 40
1.0
176
     1
 40
1.0
176
     1
  0
DICTIONARYVAR
  5
1FC
102
{ACAD_REACTORS
330
1FB
102
}
330
1FB
100
DictionaryVariables
280
     0
  1
1:1
  0
DICTIONARYVAR
  5
201
102
{ACAD_REACTORS
330
1FB
102
}
330
1FB
100
DictionaryVariables
280
     0
  1
Standard
  0
DICTIONARYVAR
  5
200
102
{ACAD_REACTORS
330
1FB
102
}
330
1FB
100
DictionaryVariables
280
     0
  1
Standard
  0
DICTIONARY
  5
1FD
330
6A
100
AcDbDictionary
280
     1
281
     1
  3
ACAD_ROUNDTRIP_2008_TABLESTYLE_CELLSTYLEMAP
360
1FE
  0
CELLSTYLEMAP
  5
1FE
102
{ACAD_REACTORS
330
1FD
102
}
330
1FD
100
AcDbCellStyleMap
 90
        3
300
CELLSTYLE
  1
TABLEFORMAT_BEGIN
 90
        5
170
     1
 91
        0
 92
    32768
 62
   257
 93
        1
300
CONTENTFORMAT
  1
CONTENTFORMAT_BEGIN
 90
        0
 91
        0
 92
        4
 93
        0
300

 40
0.0
140
1.0
 94
        5
 62
     0
340
11
144
6.0
309
CONTENTFORMAT_END
171
     1
301
MARGIN
  1
CELLMARGIN_BEGIN
 40
1.5
 40
1.5
 40
1.5
 40
1.5
 40
1.5
 40
1.5
309
CELLMARGIN_END
 94
        6
 95
        1
302
GRIDFORMAT
  1
GRIDFORMAT_BEGIN
 90
        0
 91
        1
 62
     0
 92
       -2
340
14
 93
        0
 40
0.045
309
GRIDFORMAT_END
 95
        2
302
GRIDFORMAT
  1
GRIDFORMAT_BEGIN
 90
        0
 91
        1
 62
     0
 92
       -2
340
14
 93
        0
 40
0.045
309
GRIDFORMAT_END
 95
        4
302
GRIDFORMAT
  1
GRIDFORMAT_BEGIN
 90
        0
 91
        1
 62
     0
 92
       -2
340
14
 93
        0
 40
0.045
309
GRIDFORMAT_END
 95
        8
302
GRIDFORMAT
  1
GRIDFORMAT_BEGIN
 90
        0
 91
        1
 62
     0
 92
       -2
340
14
 93
        0
 40
0.045
309
GRIDFORMAT_END
 95
       16
302
GRIDFORMAT
  1
GRIDFORMAT_BEGIN
 90
        0
 91
        1
 62
     0
 92
       -2
340
14
 93
        0
 40
0.045
309
GRIDFORMAT_END
 95
       32
302
GRIDFORMAT
  1
GRIDFORMAT_BEGIN
 90
        0
 91
        1
 62
     0
 92
       -2
340
14
 93
        0
 40
0.045
309
GRIDFORMAT_END
309
TABLEFORMAT_END
  1
CELLSTYLE_BEGIN
 90
        1
 91
        1
300
_TITLE
309
CELLSTYLE_END
300
CELLSTYLE
  1
TABLEFORMAT_BEGIN
 90
        5
170
     1
 91
        0
 92
        0
 62
   257
 93
        1
300
CONTENTFORMAT
  1
CONTENTFORMAT_BEGIN
 90
        0
 91
        0
 92
        4
 93
        0
300

 40
0.0
140
1.0
 94
        5
 62
     0
340
11
144
4.5
309
CONTENTFORMAT_END
171
     1
301
MARGIN
  1
CELLMARGIN_BEGIN
 40
1.5
 40
1.5
 40
1.5
 40
1.5
 40
1.5
 40
1.5
309
CELLMARGIN_END
 94
        6
 95
        1
302
GRIDFORMAT
  1
GRIDFORMAT_BEGIN
 90
        0
 91
        1
 62
     0
 92
       -2
340
14
 93
        0
 40
0.045
309
GRIDFORMAT_END
 95
        2
302
GRIDFORMAT
  1
GRIDFORMAT_BEGIN
 90
        0
 91
        1
 62
     0
 92
       -2
340
14
 93
        0
 40
0.045
309
GRIDFORMAT_END
 95
        4
302
GRIDFORMAT
  1
GRIDFORMAT_BEGIN
 90
        0
 91
        1
 62
     0
 92
       -2
340
14
 93
        0
 40
0.045
309
GRIDFORMAT_END
 95
        8
302
GRIDFORMAT
  1
GRIDFORMAT_BEGIN
 90
        0
 91
        1
 62
     0
 92
       -2
340
14
 93
        0
 40
0.045
309
GRIDFORMAT_END
 95
       16
302
GRIDFORMAT
  1
GRIDFORMAT_BEGIN
 90
        0
 91
        1
 62
     0
 92
       -2
340
14
 93
        0
 40
0.045
309
GRIDFORMAT_END
 95
       32
302
GRIDFORMAT
  1
GRIDFORMAT_BEGIN
 90
        0
 91
        1
 62
     0
 92
       -2
340
14
 93
        0
 40
0.045
309
GRIDFORMAT_END
309
TABLEFORMAT_END
  1
CELLSTYLE_BEGIN
 90
        2
 91
        1
300
_HEADER
309
CELLSTYLE_END
300
CELLSTYLE
  1
TABLEFORMAT_BEGIN
 90
        5
170
     1
 91
        0
 92
        0
 62
   257
 93
        1
300
CONTENTFORMAT
  1
CONTENTFORMAT_BEGIN
 90
        0
 91
        0
 92
        4
 93
        0
300

 40
0.0
140
1.0
 94
        2
 62
     0
340
11
144
4.5
309
CONTENTFORMAT_END
171
     1
301
MARGIN
  1
CELLMARGIN_BEGIN
 40
1.5
 40
1.5
 40
1.5
 40
1.5
 40
1.5
 40
1.5
309
CELLMARGIN_END
 94
        6
 95
        1
302
GRIDFORMAT
  1
GRIDFORMAT_BEGIN
 90
        0
 91
        1
 62
     0
 92
       -2
340
14
 93
        0
 40
0.045
309
GRIDFORMAT_END
 95
        2
302
GRIDFORMAT
  1
GRIDFORMAT_BEGIN
 90
        0
 91
        1
 62
     0
 92
       -2
340
14
 93
        0
 40
0.045
309
GRIDFORMAT_END
 95
        4
302
GRIDFORMAT
  1
GRIDFORMAT_BEGIN
 90
        0
 91
        1
 62
     0
 92
       -2
340
14
 93
        0
 40
0.045
309
GRIDFORMAT_END
 95
        8
302
GRIDFORMAT
  1
GRIDFORMAT_BEGIN
 90
        0
 91
        1
 62
     0
 92
       -2
340
14
 93
        0
 40
0.045
309
GRIDFORMAT_END
 95
       16
302
GRIDFORMAT
  1
GRIDFORMAT_BEGIN
 90
        0
 91
        1
 62
     0
 92
       -2
340
14
 93
        0
 40
0.045
309
GRIDFORMAT_END
 95
       32
302
GRIDFORMAT
  1
GRIDFORMAT_BEGIN
 90
        0
 91
        1
 62
     0
 92
       -2
340
14
 93
        0
 40
0.045
309
GRIDFORMAT_END
309
TABLEFORMAT_END
  1
CELLSTYLE_BEGIN
 90
        3
 91
        2
300
_DATA
309
CELLSTYLE_END
  0
ENDSEC
  0
EOF