0
SECTION
  2
HEADER
  9
$ACADVER
  1
AC1027
  9
$ACADMAINTVER
 70
     8
  9
$DWGCODEPAGE
  3
ANSI_1252
  9
$REQUIREDVERSIONS
160
                 0
  9
$COMMENTS
  1
File was created by Cadenas
  9
$CUSTOMPROPERTYTAG
  1
NN
  9
$CUSTOMPROPERTY
  1
Grip Tight Flange Cartridge Metric Bore
  9
$CUSTOMPROPERTYTAG
  1
NT
  9
$CUSTOMPROPERTY
  1
GT Normal Duty Piloted Flange Bearings
  9
$CUSTOMPROPERTYTAG
  1
NB
  9
$CUSTOMPROPERTY
  1
129741
  9
$CUSTOMPROPERTYTAG
  1
NBSYN
  9
$CUSTOMPROPERTY
  1
$PN.
  9
$CUSTOMPROPERTYTAG
  1
LINA
  9
$CUSTOMPROPERTY
  1
129741
  9
$CUSTOMPROPERTYTAG
  1
SERIES
  9
$CUSTOMPROPERTY
  1
208
  9
$CUSTOMPROPERTYTAG
  1
SS
  9
$CUSTOMPROPERTY
  1
1-1/2
  9
$CUSTOMPROPERTYTAG
  1
PN
  9
$CUSTOMPROPERTY
  1
129741
  9
$CUSTOMPROPERTYTAG
  1
DESCRIPTION
  9
$CUSTOMPROPERTY
  1
FC-GT-108
  9
$CUSTOMPROPERTYTAG
  1
PNSL
  9
$CUSTOMPROPERTY
  1
129503
  9
$CUSTOMPROPERTYTAG
  1
DESCRIPTIONSL
  9
$CUSTOMPROPERTY
  1
FC-GT-08
  9
$CUSTOMPROPERTYTAG
  1
PNA
  9
$CUSTOMPROPERTY
  1
136530
  9
$CUSTOMPROPERTYTAG
  1
DESCRIPTIONA
  9
$CUSTOMPROPERTY
  1
AN-GT-08-108-D
  9
$CUSTOMPROPERTYTAG
  1
W
  9
$CUSTOMPROPERTY
  1
4.9
  9
$CUSTOMPROPERTYTAG
  1
A
  9
$CUSTOMPROPERTY
  1
1.84
  9
$CUSTOMPROPERTYTAG
  1
B
  9
$CUSTOMPROPERTY
  1
5.25
  9
$CUSTOMPROPERTYTAG
  1
C
  9
$CUSTOMPROPERTY
  1
2.01
  9
$CUSTOMPROPERTYTAG
  1
D
  9
$CUSTOMPROPERTY
  1
4.38
  9
$CUSTOMPROPERTYTAG
  1
E
  9
$CUSTOMPROPERTY
  1
0.44
  9
$CUSTOMPROPERTYTAG
  1
F
  9
$CUSTOMPROPERTY
  1
7/16
  9
$CUSTOMPROPERTYTAG
  1
G
  9
$CUSTOMPROPERTY
  1
1.58
  9
$CUSTOMPROPERTYTAG
  1
H
  9
$CUSTOMPROPERTY
  1
0.89
  9
$CUSTOMPROPERTYTAG
  1
K
  9
$CUSTOMPROPERTY
  1
3.625/3.623
  9
$CUSTOMPROPERTYTAG
  1
L
  9
$CUSTOMPROPERTY
  1
2.62
  9
$CUSTOMPROPERTYTAG
  1
Z
  9
$CUSTOMPROPERTY
  1
1.58
  9
$CUSTOMPROPERTYTAG
  1
CAPS
  9
$CUSTOMPROPERTY
  1
4005
  9
$CUSTOMPROPERTYTAG
  1
CAPD
  9
$CUSTOMPROPERTY
  1
7332
  9
$CUSTOMPROPERTYTAG
  1
COMPANY
  9
$CUSTOMPROPERTY
  1
baldor
  9
$INSBASE
 10
0.0
 20
0.0
 30
0.0
  9
$EXTMIN
 10
1.000000000000000E+20
 20
1.000000000000000E+20
 30
1.000000000000000E+20
  9
$EXTMAX
 10
-1.000000000000000E+20
 20
-1.000000000000000E+20
 30
-1.000000000000000E+20
  9
$LIMMIN
 10
0.0
 20
0.0
  9
$LIMMAX
 10
12.0
 20
9.0
  9
$ORTHOMODE
 70
     0
  9
$REGENMODE
 70
     1
  9
$FILLMODE
 70
     1
  9
$QTEXTMODE
 70
     0
  9
$MIRRTEXT
 70
     1
  9
$LTSCALE
 40
1.0
  9
$ATTMODE
 70
     1
  9
$TEXTSIZE
 40
0.2
  9
$TRACEWID
 40
0.05
  9
$TEXTSTYLE
  7
Standard
  9
$CLAYER
  8
0
  9
$CELTYPE
  6
ByLayer
  9
$CECOLOR
 62
   256
  9
$CELTSCALE
 40
1.0
  9
$DISPSILH
 70
     0
  9
$DIMSCALE
 40
1.0
  9
$DIMASZ
 40
0.18
  9
$DIMEXO
 40
0.0625
  9
$DIMDLI
 40
0.38
  9
$DIMRND
 40
0.0
  9
$DIMDLE
 40
0.0
  9
$DIMEXE
 40
0.18
  9
$DIMTP
 40
0.0
  9
$DIMTM
 40
0.0
  9
$DIMTXT
 40
0.18
  9
$DIMCEN
 40
0.09
  9
$DIMTSZ
 40
0.0
  9
$DIMTOL
 70
     0
  9
$DIMLIM
 70
     0
  9
$DIMTIH
 70
     1
  9
$DIMTOH
 70
     1
  9
$DIMSE1
 70
     0
  9
$DIMSE2
 70
     0
  9
$DIMTAD
 70
     0
  9
$DIMZIN
 70
     0
  9
$DIMBLK
  1

  9
$DIMASO
 70
     1
  9
$DIMSHO
 70
     1
  9
$DIMPOST
  1

  9
$DIMAPOST
  1

  9
$DIMALT
 70
     0
  9
$DIMALTD
 70
     2
  9
$DIMALTF
 40
25.4
  9
$DIMLFAC
 40
1.0
  9
$DIMTOFL
 70
     0
  9
$DIMTVP
 40
0.0
  9
$DIMTIX
 70
     0
  9
$DIMSOXD
 70
     0
  9
$DIMSAH
 70
     0
  9
$DIMBLK1
  1

  9
$DIMBLK2
  1

  9
$DIMSTYLE
  2
Standard
  9
$DIMCLRD
 70
     0
  9
$DIMCLRE
 70
     0
  9
$DIMCLRT
 70
     0
  9
$DIMTFAC
 40
1.0
  9
$DIMGAP
 40
0.09
  9
$DIMJUST
 70
     0
  9
$DIMSD1
 70
     0
  9
$DIMSD2
 70
     0
  9
$DIMTOLJ
 70
     1
  9
$DIMTZIN
 70
     0
  9
$DIMALTZ
 70
     0
  9
$DIMALTTZ
 70
     0
  9
$DIMUPT
 70
     0
  9
$DIMDEC
 70
     4
  9
$DIMTDEC
 70
     4
  9
$DIMALTU
 70
     2
  9
$DIMALTTD
 70
     2
  9
$DIMTXSTY
  7
Standard
  9
$DIMAUNIT
 70
     0
  9
$DIMADEC
 70
     0
  9
$DIMALTRND
 40
0.0
  9
$DIMAZIN
 70
     0
  9
$DIMDSEP
 70
    46
  9
$DIMATFIT
 70
     3
  9
$DIMFRAC
 70
     0
  9
$DIMLDRBLK
  1

  9
$DIMLUNIT
 70
     2
  9
$DIMLWD
 70
    -2
  9
$DIMLWE
 70
    -2
  9
$DIMTMOVE
 70
     0
  9
$DIMFXL
 40
1.0
  9
$DIMFXLON
 70
     0
  9
$DIMJOGANG
 40
0.7853981633974483
  9
$DIMTFILL
 70
     0
  9
$DIMTFILLCLR
 70
     0
  9
$DIMARCSYM
 70
     0
  9
$DIMLTYPE
  6

  9
$DIMLTEX1
  6

  9
$DIMLTEX2
  6

  9
$DIMTXTDIRECTION
 70
     0
  9
$LUNITS
 70
     2
  9
$LUPREC
 70
     4
  9
$SKETCHINC
 40
0.1
  9
$FILLETRAD
 40
0.5
  9
$AUNITS
 70
     0
  9
$AUPREC
 70
     0
  9
$MENU
  1
.
  9
$ELEVATION
 40
0.0
  9
$PELEVATION
 40
0.0
  9
$THICKNESS
 40
0.0
  9
$LIMCHECK
 70
     0
  9
$CHAMFERA
 40
0.0
  9
$CHAMFERB
 40
0.0
  9
$CHAMFERC
 40
0.0
  9
$CHAMFERD
 40
0.0
  9
$SKPOLY
 70
     0
  9
$TDCREATE
 40
2458168.99577169
  9
$TDUCREATE
 40
2458168.954105023
  9
$TDUPDATE
 40
2458168.99577169
  9
$TDUUPDATE
 40
2458168.954105023
  9
$TDINDWG
 40
0.0000000116
  9
$TDUSRTIMER
 40
0.0000000116
  9
$USRTIMER
 70
     1
  9
$ANGBASE
 50
0.0
  9
$ANGDIR
 70
     0
  9
$PDMODE
 70
     0
  9
$PDSIZE
 40
0.0
  9
$PLINEWID
 40
0.0
  9
$SPLFRAME
 70
     0
  9
$SPLINETYPE
 70
     6
  9
$SPLINESEGS
 70
     8
  9
$HANDSEED
  5
1FF
  9
$SURFTAB1
 70
     6
  9
$SURFTAB2
 70
     6
  9
$SURFTYPE
 70
     6
  9
$SURFU
 70
     6
  9
$SURFV
 70
     6
  9
$UCSBASE
  2

  9
$UCSNAME
  2

  9
$UCSORG
 10
0.0
 20
0.0
 30
0.0
  9
$UCSXDIR
 10
1.0
 20
0.0
 30
0.0
  9
$UCSYDIR
 10
0.0
 20
1.0
 30
0.0
  9
$UCSORTHOREF
  2

  9
$UCSORTHOVIEW
 70
     0
  9
$UCSORGTOP
 10
0.0
 20
0.0
 30
0.0
  9
$UCSORGBOTTOM
 10
0.0
 20
0.0
 30
0.0
  9
$UCSORGLEFT
 10
0.0
 20
0.0
 30
0.0
  9
$UCSORGRIGHT
 10
0.0
 20
0.0
 30
0.0
  9
$UCSORGFRONT
 10
0.0
 20
0.0
 30
0.0
  9
$UCSORGBACK
 10
0.0
 20
0.0
 30
0.0
  9
$PUCSBASE
  2

  9
$PUCSNAME
  2

  9
$PUCSORG
 10
0.0
 20
0.0
 30
0.0
  9
$PUCSXDIR
 10
1.0
 20
0.0
 30
0.0
  9
$PUCSYDIR
 10
0.0
 20
1.0
 30
0.0
  9
$PUCSORTHOREF
  2

  9
$PUCSORTHOVIEW
 70
     0
  9
$PUCSORGTOP
 10
0.0
 20
0.0
 30
0.0
  9
$PUCSORGBOTTOM
 10
0.0
 20
0.0
 30
0.0
  9
$PUCSORGLEFT
 10
0.0
 20
0.0
 30
0.0
  9
$PUCSORGRIGHT
 10
0.0
 20
0.0
 30
0.0
  9
$PUCSORGFRONT
 10
0.0
 20
0.0
 30
0.0
  9
$PUCSORGBACK
 10
0.0
 20
0.0
 30
0.0
  9
$USERI1
 70
     0
  9
$USERI2
 70
     0
  9
$USERI3
 70
     0
  9
$USERI4
 70
     0
  9
$USERI5
 70
     0
  9
$USERR1
 40
0.0
  9
$USERR2
 40
0.0
  9
$USERR3
 40
0.0
  9
$USERR4
 40
0.0
  9
$USERR5
 40
0.0
  9
$WORLDVIEW
 70
     1
  9
$SHADEDGE
 70
     3
  9
$SHADEDIF
 70
    70
  9
$TILEMODE
 70
     1
  9
$MAXACTVP
 70
    64
  9
$PINSBASE
 10
0.0
 20
0.0
 30
0.0
  9
$PLIMCHECK
 70
     0
  9
$PEXTMIN
 10
1.000000000000000E+20
 20
1.000000000000000E+20
 30
1.000000000000000E+20
  9
$PEXTMAX
 10
-1.000000000000000E+20
 20
-1.000000000000000E+20
 30
-1.000000000000000E+20
  9
$PLIMMIN
 10
0.0
 20
0.0
  9
$PLIMMAX
 10
12.0
 20
9.0
  9
$UNITMODE
 70
     0
  9
$VISRETAIN
 70
     1
  9
$PLINEGEN
 70
     0
  9
$PSLTSCALE
 70
     1
  9
$TREEDEPTH
 70
  3020
  9
$CMLSTYLE
  2
Standard
  9
$CMLJUST
 70
     0
  9
$CMLSCALE
 40
1.0
  9
$PROXYGRAPHICS
 70
     1
  9
$MEASUREMENT
 70
     0
  9
$CELWEIGHT
370
    -1
  9
$ENDCAPS
280
     0
  9
$JOINSTYLE
280
     0
  9
$LWDISPLAY
290
     0
  9
$INSUNITS
 70
     1
  9
$HYPERLINKBASE
  1

  9
$STYLESHEET
  1

  9
$XEDIT
290
     1
  9
$CEPSNTYPE
380
     0
  9
$PSTYLEMODE
290
     1
  9
$FINGERPRINTGUID
  2
{1FD57A89-C198-428C-9F19-D1B6159623D7}
  9
$VERSIONGUID
  2
{FAEB1C32-E019-11D5-929B-00C0DF256EC4}
  9
$EXTNAMES
290
     1
  9
$PSVPSCALE
 40
0.0
  9
$OLESTARTUP
290
     0
  9
$SORTENTS
280
   127
  9
$INDEXCTL
280
     0
  9
$HIDETEXT
280
     1
  9
$XCLIPFRAME
280
     2
  9
$HALOGAP
280
     0
  9
$OBSCOLOR
 70
   257
  9
$OBSLTYPE
280
     0
  9
$INTERSECTIONDISPLAY
280
     0
  9
$INTERSECTIONCOLOR
 70
   257
  9
$DIMASSOC
280
     2
  9
$PROJECTNAME
  1

  9
$CAMERADISPLAY
290
     0
  9
$LENSLENGTH
 40
50.0
  9
$CAMERAHEIGHT
 40
0.0
  9
$STEPSPERSEC
 40
2.0
  9
$STEPSIZE
 40
6.0
  9
$3DDWFPREC
 40
2.0
  9
$PSOLWIDTH
 40
0.25
  9
$PSOLHEIGHT
 40
4.0
  9
$LOFTANG1
 40
1.570796326794897
  9
$LOFTANG2
 40
1.570796326794897
  9
$LOFTMAG1
 40
0.0
  9
$LOFTMAG2
 40
0.0
  9
$LOFTPARAM
 70
     7
  9
$LOFTNORMALS
280
     1
  9
$LATITUDE
 40
37.795
  9
$LONGITUDE
 40
-122.394
  9
$NORTHDIRECTION
 40
0.0
  9
$TIMEZONE
 70
 -8000
  9
$LIGHTGLYPHDISPLAY
280
     1
  9
$TILEMODELIGHTSYNCH
280
     1
  9
$CMATERIAL
347
44
  9
$SOLIDHIST
280
     0
  9
$SHOWHIST
280
     1
  9
$DWFFRAME
280
     2
  9
$DGNFRAME
280
     2
  9
$REALWORLDSCALE
290
     1
  9
$INTERFERECOLOR
 62
   256
  9
$CSHADOW
280
     0
  9
$SHADOWPLANELOCATION
 40
0.0
  0
ENDSEC
  0
SECTION
  2
CLASSES
  0
CLASS
  1
ACDBDICTIONARYWDFLT
  2
AcDbDictionaryWithDefault
  3
ObjectDBX Classes
 90
        0
 91
        4
280
     0
281
     0
  0
CLASS
  1
VISUALSTYLE
  2
AcDbVisualStyle
  3
ObjectDBX Classes
 90
     4095
 91
        4
280
     0
281
     0
  0
CLASS
  1
MATERIAL
  2
AcDbMaterial
  3
ObjectDBX Classes
 90
     1153
 91
        4
280
     0
281
     0
  0
CLASS
  1
SCALE
  2
AcDbScale
  3
ObjectDBX Classes
 90
     1153
 91
        4
280
     0
281
     0
  0
CLASS
  1
TABLESTYLE
  2
AcDbTableStyle
  3
ObjectDBX Classes
 90
     4095
 91
        4
280
     0
281
     0
  0
CLASS
  1
MLEADERSTYLE
  2
AcDbMLeaderStyle
  3
ACDB_MLEADERSTYLE_CLASS
 90
     4095
 91
        4
280
     0
281
     0
  0
CLASS
  1
SUN
  2
AcDbSun
  3
SCENEOE
 90
     1153
 91
        4
280
     0
281
     0
  0
CLASS
  1
DICTIONARYVAR
  2
AcDbDictionaryVar
  3
ObjectDBX Classes
 90
        0
 91
        4
280
     0
281
     0
  0
CLASS
  1
CELLSTYLEMAP
  2
AcDbCellStyleMap
  3
ObjectDBX Classes
 90
     1152
 91
        4
280
     0
281
     0
  0
ENDSEC
  0
SECTION
  2
TABLES
  0
TABLE
  2
VPORT
  5
8
330
0
100
AcDbSymbolTable
 70
     1
  0
VPORT
  5
29
330
8
100
AcDbSymbolTableRecord
100
AcDbViewportTableRecord
  2
*Active
 70
     0
 10
0.0
 20
0.0
 11
1.0
 21
1.0
 12
0.0
 22
0.0
 13
0.0
 23
0.0
 14
0.5
 24
0.5
 15
0.5
 25
0.5
 16
0.0
 26
0.0
 36
1.0
 17
0.0000000000000036
 27
0.0
 37
0.0
 40
5.622749999999995
 41
0.9999999999999999
 42
50.0
 43
0.0
 44
0.0
 50
0.0
 51
0.0
 71
     0
 72
   100
 73
     1
 74
     3
 75
     0
 76
     0
 77
     0
 78
     0
281
     0
 65
     1
110
0.0
120
0.0
130
0.0
111
1.0
121
0.0
131
0.0
112
0.0
122
1.0
132
0.0
 79
     0
146
0.0
348
2F
 60
     3
 61
     5
292
     1
282
     1
141
0.0
142
0.0
 63
   250
361
6D
  0
ENDTAB
  0
TABLE
  2
LTYPE
  5
5
330
0
100
AcDbSymbolTable
 70
     3
  0
LTYPE
  5
14
330
5
100
AcDbSymbolTableRecord
100
AcDbLinetypeTableRecord
  2
ByBlock
 70
     0
  3

 72
    65
 73
     0
 40
0.0
  0
LTYPE
  5
15
330
5
100
AcDbSymbolTableRecord
100
AcDbLinetypeTableRecord
  2
ByLayer
 70
     0
  3

 72
    65
 73
     0
 40
0.0
  0
LTYPE
  5
16
330
5
100
AcDbSymbolTableRecord
100
AcDbLinetypeTableRecord
  2
Continuous
 70
     0
  3
Solid line
 72
    65
 73
     0
 40
0.0
  0
LTYPE
  5
A5
330
5
100
AcDbSymbolTableRecord
100
AcDbLinetypeTableRecord
  2
Dashed
 70
     0
  3

 72
    65
 73
     2
 40
2.0
 49
1.0
 74
     0
 49
-1.0
 74
     0
  0
LTYPE
  5
118
330
5
100
AcDbSymbolTableRecord
100
AcDbLinetypeTableRecord
  2
Center
 70
     0
  3

 72
    65
 73
     4
 40
1.5
 49
0.45
 74
     0
 49
-0.5
 74
     0
 49
0.05
 74
     0
 49
-0.5
 74
     0
  0
ENDTAB
  0
TABLE
  2
LAYER
  5
2
330
0
100
AcDbSymbolTable
 70
     7
  0
LAYER
  5
10
330
2
100
AcDbSymbolTableRecord
100
AcDbLayerTableRecord
  2
0
 70
     0
 62
     7
  6
Continuous
370
    -3
390
F
347
46
348
0
  0
LAYER
  5
72
330
2
100
AcDbSymbolTableRecord
100
AcDbLayerTableRecord
  2
AM_6
 70
     0
 62
    -2
  6
Continuous
370
    35
390
F
347
46
348
0
  0
LAYER
  5
A6
330
2
100
AcDbSymbolTableRecord
100
AcDbLayerTableRecord
  2
AM_9
 70
     0
 62
     6
  6
Dashed
370
    25
390
F
347
46
348
0
  0
LAYER
  5
AB
330
2
100
AcDbSymbolTableRecord
100
AcDbLayerTableRecord
  2
AM_4
 70
     0
 62
     3
  6
Continuous
370
    25
390
F
347
46
348
0
  0
LAYER
  5
DA
330
2
100
AcDbSymbolTableRecord
100
AcDbLayerTableRecord
  2
AM_5
 70
     0
 62
     3
  6
Continuous
370
    25
390
F
347
46
348
0
  0
LAYER
  5
119
330
2
100
AcDbSymbolTableRecord
100
AcDbLayerTableRecord
  2
AM_7
 70
     0
 62
     7
  6
Center
370
    25
390
F
347
46
348
0
  0
LAYER
  5
1F1
330
2
100
AcDbSymbolTableRecord
100
AcDbLayerTableRecord
  2
ConnectionPoints
 70
     0
 62
     7
  6
Continuous
370
    50
390
F
347
46
348
0
  0
ENDTAB
  0
TABLE
  2
STYLE
  5
3
330
0
100
AcDbSymbolTable
 70
     1
  0
STYLE
  5
11
330
3
100
AcDbSymbolTableRecord
100
AcDbTextStyleTableRecord
  2
Standard
 70
     0
 40
0.0
 41
1.0
 50
0.0
 71
     0
 42
0.2
  3
txt
  4

  0
ENDTAB
  0
TABLE
  2
VIEW
  5
6
330
0
100
AcDbSymbolTable
 70
     0
  0
ENDTAB
  0
TABLE
  2
UCS
  5
7
330
0
100
AcDbSymbolTable
 70
     0
  0
ENDTAB
  0
TABLE
  2
APPID
  5
9
330
0
100
AcDbSymbolTable
 70
     1
  0
APPID
  5
12
330
9
100
AcDbSymbolTableRecord
100
AcDbRegAppTableRecord
  2
ACAD
 70
     0
  0
ENDTAB
  0
TABLE
  2
DIMSTYLE
  5
A
330
0
100
AcDbSymbolTable
 70
     1
100
AcDbDimStyleTable
  0
DIMSTYLE
105
27
330
A
100
AcDbSymbolTableRecord
100
AcDbDimStyleTableRecord
  2
Standard
 70
     0
178
     0
340
11
  0
ENDTAB
  0
TABLE
  2
BLOCK_RECORD
  5
1
330
0
100
AcDbSymbolTable
 70
     5
  0
BLOCK_RECORD
  5
1F
330
1
100
AcDbSymbolTableRecord
100
AcDbBlockTableRecord
  2
*Model_Space
340
22
 70
     0
280
     1
281
     0
  0
BLOCK_RECORD
  5
1B
330
1
100
AcDbSymbolTableRecord
100
AcDbBlockTableRecord
  2
*Paper_Space
340
1E
 70
     0
280
     1
281
     0
  0
BLOCK_RECORD
  5
23
330
1
100
AcDbSymbolTableRecord
100
AcDbBlockTableRecord
  2
*Paper_Space0
340
26
 70
     0
280
     1
281
     0
  0
BLOCK_RECORD
  5
6E
330
1
100
AcDbSymbolTableRecord
100
AcDbBlockTableRecord
  2
1_129741_0
340
0
102
{BLKREFS
331
6F
102
}
 70
     0
280
     1
281
     0
  0
BLOCK_RECORD
  5
8F
330
1
100
AcDbSymbolTableRecord
100
AcDbBlockTableRecord
  2
2_129521I_0_in_129741_0
340
0
102
{BLKREFS
331
90
102
}
 70
     0
280
     1
281
     0
  0
BLOCK_RECORD
  5
B2
330
1
100
AcDbSymbolTableRecord
100
AcDbBlockTableRecord
  2
3_136530_0_in_129741_0
340
0
102
{BLKREFS
331
B3
102
}
 70
     0
280
     1
281
     0
  0
BLOCK_RECORD
  5
F2
330
1
100
AcDbSymbolTableRecord
100
AcDbBlockTableRecord
  2
4_129741h_0_in_129741_0
340
0
102
{BLKREFS
331
F3
102
}
 70
     0
280
     1
281
     0
  0
ENDTAB
  0
ENDSEC
  0
SECTION
  2
BLOCKS
  0
BLOCK
  5
20
330
1F
100
AcDbEntity
  8
0
100
AcDbBlockBegin
  2
*Model_Space
 70
     0
 10
0.0
 20
0.0
 30
0.0
  3
*Model_Space
  1

  0
ENDBLK
  5
21
330
1F
100
AcDbEntity
  8
0
100
AcDbBlockEnd
  0
BLOCK
  5
1C
330
1B
100
AcDbEntity
 67
     1
  8
0
100
AcDbBlockBegin
  2
*Paper_Space
 70
     0
 10
0.0
 20
0.0
 30
0.0
  3
*Paper_Space
  1

  0
ENDBLK
  5
1D
330
1B
100
AcDbEntity
 67
     1
  8
0
100
AcDbBlockEnd
  0
BLOCK
  5
24
330
23
100
AcDbEntity
  8
0
100
AcDbBlockBegin
  2
*Paper_Space0
 70
     0
 10
0.0
 20
0.0
 30
0.0
  3
*Paper_Space0
  1

  0
ENDBLK
  5
25
330
23
100
AcDbEntity
  8
0
100
AcDbBlockEnd
  0
BLOCK
  5
70
330
6E
100
AcDbEntity
  8
0
100
AcDbBlockBegin
  2
1_129741_0
 70
     2
 10
0.0
 20
0.0
 30
0.0
  3
1_129741_0
  1

  0
ATTDEF
  5
73
330
6E
100
AcDbEntity
  8
AM_6
100
AcDbText
 10
7.75625
 20
2.756249999999998
 30
0.0
 40
0.5
  1
Grip Tight Flange Cartridge Metric Bore
100
AcDbAttributeDefinition
  3

  2
NN
 70
     8
280
     0
  0
ATTDEF
  5
74
330
6E
100
AcDbEntity
  8
AM_6
100
AcDbText
 10
7.75625
 20
2.256249999999998
 30
0.0
 40
0.5
  1
GT Normal Duty Piloted Flange Bearings
100
AcDbAttributeDefinition
  3

  2
NT
 70
     8
280
     0
  0
ATTDEF
  5
75
330
6E
100
AcDbEntity
  8
AM_6
100
AcDbText
 10
7.75625
 20
1.756249999999998
 30
0.0
 40
0.5
  1
129741
100
AcDbAttributeDefinition
  3

  2
NB
 70
     8
280
     0
  0
ATTDEF
  5
76
330
6E
100
AcDbEntity
  8
AM_6
100
AcDbText
 10
7.75625
 20
1.256249999999998
 30
0.0
 40
0.5
  1
$PN.
100
AcDbAttributeDefinition
  3

  2
NBSYN
 70
     8
280
     0
  0
ATTDEF
  5
77
330
6E
100
AcDbEntity
  8
AM_6
100
AcDbText
 10
7.75625
 20
0.7562499999999979
 30
0.0
 40
0.5
  1
129741
100
AcDbAttributeDefinition
  3

  2
LINA
 70
     8
280
     0
  0
ATTDEF
  5
78
330
6E
100
AcDbEntity
  8
AM_6
100
AcDbText
 10
7.75625
 20
0.2562499999999979
 30
0.0
 40
0.5
  1
208
100
AcDbAttributeDefinition
  3

  2
SERIES
 70
     8
280
     0
  0
ATTDEF
  5
79
330
6E
100
AcDbEntity
  8
AM_6
100
AcDbText
 10
7.75625
 20
-0.2437500000000021
 30
0.0
 40
0.5
  1
1-1/2
100
AcDbAttributeDefinition
  3

  2
SS
 70
     8
280
     0
  0
ATTDEF
  5
7A
330
6E
100
AcDbEntity
  8
AM_6
100
AcDbText
 10
7.75625
 20
-0.7437500000000021
 30
0.0
 40
0.5
  1
129741
100
AcDbAttributeDefinition
  3

  2
PN
 70
     8
280
     0
  0
ATTDEF
  5
7B
330
6E
100
AcDbEntity
  8
AM_6
100
AcDbText
 10
7.75625
 20
-1.243750000000002
 30
0.0
 40
0.5
  1
FC-GT-108
100
AcDbAttributeDefinition
  3

  2
DESCRIPTION
 70
     8
280
     0
  0
ATTDEF
  5
7C
330
6E
100
AcDbEntity
  8
AM_6
100
AcDbText
 10
7.75625
 20
-1.743750000000002
 30
0.0
 40
0.5
  1
129503
100
AcDbAttributeDefinition
  3

  2
PNSL
 70
     8
280
     0
  0
ATTDEF
  5
7D
330
6E
100
AcDbEntity
  8
AM_6
100
AcDbText
 10
7.75625
 20
-2.243750000000002
 30
0.0
 40
0.5
  1
FC-GT-08
100
AcDbAttributeDefinition
  3

  2
DESCRIPTIONSL
 70
     8
280
     0
  0
ATTDEF
  5
7E
330
6E
100
AcDbEntity
  8
AM_6
100
AcDbText
 10
7.75625
 20
-2.743750000000002
 30
0.0
 40
0.5
  1
136530
100
AcDbAttributeDefinition
  3

  2
PNA
 70
     8
280
     0
  0
ATTDEF
  5
7F
330
6E
100
AcDbEntity
  8
AM_6
100
AcDbText
 10
7.75625
 20
-3.243750000000002
 30
0.0
 40
0.5
  1
AN-GT-08-108-D
100
AcDbAttributeDefinition
  3

  2
DESCRIPTIONA
 70
     8
280
     0
  0
ATTDEF
  5
80
330
6E
100
AcDbEntity
  8
AM_6
100
AcDbText
 10
7.75625
 20
-3.743750000000002
 30
0.0
 40
0.5
  1
4.9
100
AcDbAttributeDefinition
  3

  2
W
 70
     8
280
     0
  0
ATTDEF
  5
81
330
6E
100
AcDbEntity
  8
AM_6
100
AcDbText
 10
7.75625
 20
-4.243750000000002
 30
0.0
 40
0.5
  1
1.84
100
AcDbAttributeDefinition
  3

  2
A
 70
     8
280
     0
  0
ATTDEF
  5
82
330
6E
100
AcDbEntity
  8
AM_6
100
AcDbText
 10
7.75625
 20
-4.743750000000002
 30
0.0
 40
0.5
  1
5.25
100
AcDbAttributeDefinition
  3

  2
B
 70
     8
280
     0
  0
ATTDEF
  5
83
330
6E
100
AcDbEntity
  8
AM_6
100
AcDbText
 10
7.75625
 20
-5.243750000000002
 30
0.0
 40
0.5
  1
2.01
100
AcDbAttributeDefinition
  3

  2
C
 70
     8
280
     0
  0
ATTDEF
  5
84
330
6E
100
AcDbEntity
  8
AM_6
100
AcDbText
 10
7.75625
 20
-5.743750000000002
 30
0.0
 40
0.5
  1
4.38
100
AcDbAttributeDefinition
  3

  2
D
 70
     8
280
     0
  0
ATTDEF
  5
85
330
6E
100
AcDbEntity
  8
AM_6
100
AcDbText
 10
7.75625
 20
-6.243750000000002
 30
0.0
 40
0.5
  1
0.44
100
AcDbAttributeDefinition
  3

  2
E
 70
     8
280
     0
  0
ATTDEF
  5
86
330
6E
100
AcDbEntity
  8
AM_6
100
AcDbText
 10
7.75625
 20
-6.743750000000002
 30
0.0
 40
0.5
  1
7/16
100
AcDbAttributeDefinition
  3

  2
F
 70
     8
280
     0
  0
ATTDEF
  5
87
330
6E
100
AcDbEntity
  8
AM_6
100
AcDbText
 10
7.75625
 20
-7.243750000000002
 30
0.0
 40
0.5
  1
1.58
100
AcDbAttributeDefinition
  3

  2
G
 70
     8
280
     0
  0
ATTDEF
  5
88
330
6E
100
AcDbEntity
  8
AM_6
100
AcDbText
 10
7.75625
 20
-7.743750000000002
 30
0.0
 40
0.5
  1
0.89
100
AcDbAttributeDefinition
  3

  2
H
 70
     8
280
     0
  0
ATTDEF
  5
89
330
6E
100
AcDbEntity
  8
AM_6
100
AcDbText
 10
7.75625
 20
-8.243750000000002
 30
0.0
 40
0.5
  1
3.625/3.623
100
AcDbAttributeDefinition
  3

  2
K
 70
     8
280
     0
  0
ATTDEF
  5
8A
330
6E
100
AcDbEntity
  8
AM_6
100
AcDbText
 10
7.75625
 20
-8.743750000000002
 30
0.0
 40
0.5
  1
2.62
100
AcDbAttributeDefinition
  3

  2
L
 70
     8
280
     0
  0
ATTDEF
  5
8B
330
6E
100
AcDbEntity
  8
AM_6
100
AcDbText
 10
7.75625
 20
-9.243750000000002
 30
0.0
 40
0.5
  1
1.58
100
AcDbAttributeDefinition
  3

  2
Z
 70
     8
280
     0
  0
ATTDEF
  5
8C
330
6E
100
AcDbEntity
  8
AM_6
100
AcDbText
 10
7.75625
 20
-9.743750000000002
 30
0.0
 40
0.5
  1
4005
100
AcDbAttributeDefinition
  3

  2
CAPS
 70
     8
280
     0
  0
ATTDEF
  5
8D
330
6E
100
AcDbEntity
  8
AM_6
100
AcDbText
 10
7.75625
 20
-10.24375
 30
0.0
 40
0.5
  1
7332
100
AcDbAttributeDefinition
  3

  2
CAPD
 70
     8
280
     0
  0
ATTDEF
  5
8E
330
6E
100
AcDbEntity
  8
AM_6
100
AcDbText
 10
7.75625
 20
-10.74375
 30
0.0
 40
0.5
  1
baldor
100
AcDbAttributeDefinition
  3

  2
COMPANY
 70
     8
280
     0
  0
INSERT
  5
90
330
6E
100
AcDbEntity
  8
0
100
AcDbBlockReference
  2
2_129521I_0_in_129741_0
 10
0.0
 20
0.0
 30
0.0
  0
INSERT
  5
B3
330
6E
100
AcDbEntity
  8
0
100
AcDbBlockReference
  2
3_136530_0_in_129741_0
 10
0.0
 20
0.0
 30
0.0
  0
INSERT
  5
F3
330
6E
100
AcDbEntity
  8
0
100
AcDbBlockReference
  2
4_129741h_0_in_129741_0
 10
0.0
 20
0.0
 30
0.0
  0
ENDBLK
  5
71
330
6E
100
AcDbEntity
  8
0
100
AcDbBlockEnd
  0
BLOCK
  5
91
330
8F
100
AcDbEntity
  8
0
100
AcDbBlockBegin
  2
2_129521I_0_in_129741_0
 70
     2
 10
0.0
 20
0.0
 30
0.0
  3
2_129521I_0_in_129741_0
  1

  0
ATTDEF
  5
93
330
8F
100
AcDbEntity
  8
AM_6
100
AcDbText
 10
6.56216312777728
 20
1.562163127777281
 30
0.0
 40
0.5
  1
INS-GT B
100
AcDbAttributeDefinition
  3

  2
NN
 70
     8
280
     0
  0
ATTDEF
  5
94
330
8F
100
AcDbEntity
  8
AM_6
100
AcDbText
 10
6.56216312777728
 20
1.062163127777281
 30
0.0
 40
0.5
  1
GT Normal Duty Bearing Inserts
100
AcDbAttributeDefinition
  3

  2
NT
 70
     8
280
     0
  0
ATTDEF
  5
95
330
8F
100
AcDbEntity
  8
AM_6
100
AcDbText
 10
6.56216312777728
 20
0.5621631277772805
 30
0.0
 40
0.5
  1
129521I
100
AcDbAttributeDefinition
  3

  2
NB
 70
     8
280
     0
  0
ATTDEF
  5
96
330
8F
100
AcDbEntity
  8
AM_6
100
AcDbText
 10
6.56216312777728
 20
0.0621631277772805
 30
0.0
 40
0.5
  1
$PN.I
100
AcDbAttributeDefinition
  3

  2
NBSYN
 70
     8
280
     0
  0
ATTDEF
  5
97
330
8F
100
AcDbEntity
  8
AM_6
100
AcDbText
 10
6.56216312777728
 20
-0.4378368722227195
 30
0.0
 40
0.5
  1
129521
100
AcDbAttributeDefinition
  3

  2
LINA
 70
     8
280
     0
  0
ATTDEF
  5
98
330
8F
100
AcDbEntity
  8
AM_6
100
AcDbText
 10
6.56216312777728
 20
-0.9378368722227195
 30
0.0
 40
0.5
  1
208
100
AcDbAttributeDefinition
  3

  2
SERIES
 70
     8
280
     0
  0
ATTDEF
  5
99
330
8F
100
AcDbEntity
  8
AM_6
100
AcDbText
 10
6.56216312777728
 20
-1.437836872222719
 30
0.0
 40
0.5
  1
129521
100
AcDbAttributeDefinition
  3

  2
PN
 70
     8
280
     0
  0
ATTDEF
  5
9A
330
8F
100
AcDbEntity
  8
AM_6
100
AcDbText
 10
6.56216312777728
 20
-1.937836872222719
 30
0.0
 40
0.5
  1
INS-GT-08
100
AcDbAttributeDefinition
  3

  2
DESCRIPTION
 70
     8
280
     0
  0
ATTDEF
  5
9B
330
8F
100
AcDbEntity
  8
AM_6
100
AcDbText
 10
6.56216312777728
 20
-2.43783687222272
 30
0.0
 40
0.5
  1
1.84
100
AcDbAttributeDefinition
  3

  2
A
 70
     8
280
     0
  0
ATTDEF
  5
9C
330
8F
100
AcDbEntity
  8
AM_6
100
AcDbText
 10
6.56216312777728
 20
-2.93783687222272
 30
0.0
 40
0.5
  1
0.87
100
AcDbAttributeDefinition
  3

  2
C
 70
     8
280
     0
  0
ATTDEF
  5
9D
330
8F
100
AcDbEntity
  8
AM_6
100
AcDbText
 10
6.56216312777728
 20
-3.43783687222272
 30
0.0
 40
0.5
  1
3.1496
100
AcDbAttributeDefinition
  3

  2
D
 70
     8
280
     0
  0
ATTDEF
  5
9E
330
8F
100
AcDbEntity
  8
AM_6
100
AcDbText
 10
6.56216312777728
 20
-3.93783687222272
 30
0.0
 40
0.5
  1
0.22
100
AcDbAttributeDefinition
  3

  2
J
 70
     8
280
     0
  0
ATTDEF
  5
9F
330
8F
100
AcDbEntity
  8
AM_6
100
AcDbText
 10
6.56216312777728
 20
-4.43783687222272
 30
0.0
 40
0.5
  1
2.62
100
AcDbAttributeDefinition
  3

  2
L
 70
     8
280
     0
  0
ATTDEF
  5
A0
330
8F
100
AcDbEntity
  8
AM_6
100
AcDbText
 10
6.56216312777728
 20
-4.93783687222272
 30
0.0
 40
0.5
  1
#10 - 32 x 1/4
100
AcDbAttributeDefinition
  3

  2
N
 70
     8
280
     0
  0
ATTDEF
  5
A1
330
8F
100
AcDbEntity
  8
AM_6
100
AcDbText
 10
6.56216312777728
 20
-5.43783687222272
 30
0.0
 40
0.5
  1
0.61000
100
AcDbAttributeDefinition
  3

  2
W
 70
     8
280
     0
  0
ATTDEF
  5
A2
330
8F
100
AcDbEntity
  8
AM_6
100
AcDbText
 10
6.56216312777728
 20
-5.93783687222272
 30
0.0
 40
0.5
  1
1.23
100
AcDbAttributeDefinition
  3

  2
X
 70
     8
280
     0
  0
ATTDEF
  5
A3
330
8F
100
AcDbEntity
  8
AM_6
100
AcDbText
 10
6.56216312777728
 20
-6.43783687222272
 30
0.0
 40
0.5
  1
1.23
100
AcDbAttributeDefinition
  3

  2
Y
 70
     8
280
     0
  0
ATTDEF
  5
A4
330
8F
100
AcDbEntity
  8
AM_6
100
AcDbText
 10
6.56216312777728
 20
-6.93783687222272
 30
0.0
 40
0.5
  1
baldor
100
AcDbAttributeDefinition
  3

  2
COMPANY
 70
     8
280
     0
  0
CIRCLE
  5
A7
330
8F
100
AcDbEntity
  8
AM_9
100
AcDbCircle
 10
0.0
 20
0.0000000000000002
 30
0.0
 40
1.012580192548561
  0
CIRCLE
  5
A8
330
8F
100
AcDbEntity
  8
AM_9
100
AcDbCircle
 10
0.0
 20
0.0000000000000002
 30
0.0
 40
1.4878
  0
CIRCLE
  5
A9
330
8F
100
AcDbEntity
  8
AM_9
100
AcDbCircle
 10
0.0
 20
0.0000000000000002
 30
0.0
 40
1.532465237802696
  0
CIRCLE
  5
AA
330
8F
100
AcDbEntity
  8
AM_9
100
AcDbCircle
 10
0.0
 20
0.0000000000000002
 30
0.0
 40
1.129644444444444
  0
CIRCLE
  5
AC
330
8F
100
AcDbEntity
  8
AM_4
100
AcDbCircle
 10
0.0
 20
0.0000000000000002
 30
0.0
 40
1.56216312777728
  0
CIRCLE
  5
AD
330
8F
100
AcDbEntity
  8
AM_4
100
AcDbCircle
 10
0.0
 20
0.0000000000000002
 30
0.0
 40
1.553560334486685
  0
CIRCLE
  5
AE
330
8F
100
AcDbEntity
  8
AM_4
100
AcDbCircle
 10
0.0
 20
0.0000000000000002
 30
0.0
 40
1.540904503212019
  0
CIRCLE
  5
AF
330
8F
100
AcDbEntity
  8
AM_4
100
AcDbCircle
 10
0.0
 20
0.0000000000000002
 30
0.0
 40
1.496734308300556
  0
CIRCLE
  5
B0
330
8F
100
AcDbEntity
  8
AM_4
100
AcDbCircle
 10
0.0
 20
0.0000000000000002
 30
0.0
 40
1.464336329583616
  0
ARC
  5
B1
330
8F
100
AcDbEntity
  8
AM_4
100
AcDbCircle
 10
0.0000000000000475
 20
0.0000000000000002
 30
0.0
 40
0.9773015124443969
100
AcDbArc
 50
357.067394302611
 51
2.932605697389022
  0
ENDBLK
  5
92
330
8F
100
AcDbEntity
  8
0
100
AcDbBlockEnd
  0
BLOCK
  5
B4
330
B2
100
AcDbEntity
  8
0
100
AcDbBlockBegin
  2
3_136530_0_in_129741_0
 70
     2
 10
0.0
 20
0.0
 30
0.0
  3
3_136530_0_in_129741_0
  1

  0
ATTDEF
  5
B6
330
B2
100
AcDbEntity
  8
AM_6
100
AcDbText
 10
6.309717215445776
 20
1.309764397794354
 30
0.0
 40
0.5
  1
Grip Tight Normal Duty Adapter and Nut Inch Bore D
100
AcDbAttributeDefinition
  3

  2
NN
 70
     8
280
     0
  0
ATTDEF
  5
B7
330
B2
100
AcDbEntity
  8
AM_6
100
AcDbText
 10
6.309717215445776
 20
0.809764397794354
 30
0.0
 40
0.5
  1
GT and GTM Adapter & Lock Nut Assemblies
100
AcDbAttributeDefinition
  3

  2
NT
 70
     8
280
     0
  0
ATTDEF
  5
B8
330
B2
100
AcDbEntity
  8
AM_6
100
AcDbText
 10
6.309717215445776
 20
0.3097643977943541
 30
0.0
 40
0.5
  1
136530
100
AcDbAttributeDefinition
  3

  2
NB
 70
     8
280
     0
  0
ATTDEF
  5
B9
330
B2
100
AcDbEntity
  8
AM_6
100
AcDbText
 10
6.309717215445776
 20
-0.1902356022056459
 30
0.0
 40
0.5
  1
$PN.
100
AcDbAttributeDefinition
  3

  2
NBSYN
 70
     8
280
     0
  0
ATTDEF
  5
BA
330
B2
100
AcDbEntity
  8
AM_6
100
AcDbText
 10
6.309717215445776
 20
-0.690235602205646
 30
0.0
 40
0.5
  1
136530
100
AcDbAttributeDefinition
  3

  2
LINA
 70
     8
280
     0
  0
ATTDEF
  5
BB
330
B2
100
AcDbEntity
  8
AM_6
100
AcDbText
 10
6.309717215445776
 20
-1.190235602205646
 30
0.0
 40
0.5
  1
208
100
AcDbAttributeDefinition
  3

  2
SERIES
 70
     8
280
     0
  0
ATTDEF
  5
BC
330
B2
100
AcDbEntity
  8
AM_6
100
AcDbText
 10
6.309717215445776
 20
-1.690235602205646
 30
0.0
 40
0.5
  1
1-1/2
100
AcDbAttributeDefinition
  3

  2
SS
 70
     8
280
     0
  0
ATTDEF
  5
BD
330
B2
100
AcDbEntity
  8
AM_6
100
AcDbText
 10
6.309717215445776
 20
-2.190235602205646
 30
0.0
 40
0.5
  1
136530
100
AcDbAttributeDefinition
  3

  2
PN
 70
     8
280
     0
  0
ATTDEF
  5
BE
330
B2
100
AcDbEntity
  8
AM_6
100
AcDbText
 10
6.309717215445776
 20
-2.690235602205646
 30
0.0
 40
0.5
  1
AN-GT-08-108-D
100
AcDbAttributeDefinition
  3

  2
DESCRIPTION
 70
     8
280
     0
  0
ATTDEF
  5
BF
330
B2
100
AcDbEntity
  8
AM_6
100
AcDbText
 10
6.309717215445776
 20
-3.190235602205646
 30
0.0
 40
0.5
  1
1.84
100
AcDbAttributeDefinition
  3

  2
A
 70
     8
280
     0
  0
ATTDEF
  5
C0
330
B2
100
AcDbEntity
  8
AM_6
100
AcDbText
 10
6.309717215445776
 20
-3.690235602205646
 30
0.0
 40
0.5
  1
0.87
100
AcDbAttributeDefinition
  3

  2
C
 70
     8
280
     0
  0
ATTDEF
  5
C1
330
B2
100
AcDbEntity
  8
AM_6
100
AcDbText
 10
6.309717215445776
 20
-4.190235602205646
 30
0.0
 40
0.5
  1
3.1496
100
AcDbAttributeDefinition
  3

  2
D
 70
     8
280
     0
  0
ATTDEF
  5
C2
330
B2
100
AcDbEntity
  8
AM_6
100
AcDbText
 10
6.309717215445776
 20
-4.690235602205646
 30
0.0
 40
0.5
  1
0.22
100
AcDbAttributeDefinition
  3

  2
J
 70
     8
280
     0
  0
ATTDEF
  5
C3
330
B2
100
AcDbEntity
  8
AM_6
100
AcDbText
 10
6.309717215445776
 20
-5.190235602205646
 30
0.0
 40
0.5
  1
2.62
100
AcDbAttributeDefinition
  3

  2
L
 70
     8
280
     0
  0
ATTDEF
  5
C4
330
B2
100
AcDbEntity
  8
AM_6
100
AcDbText
 10
6.309717215445776
 20
-5.690235602205646
 30
0.0
 40
0.5
  1
10 - 32 x 1/4
100
AcDbAttributeDefinition
  3

  2
N
 70
     8
280
     0
  0
ATTDEF
  5
C5
330
B2
100
AcDbEntity
  8
AM_6
100
AcDbText
 10
6.309717215445776
 20
-6.190235602205646
 30
0.0
 40
0.5
  1
0.61
100
AcDbAttributeDefinition
  3

  2
W
 70
     8
280
     0
  0
ATTDEF
  5
C6
330
B2
100
AcDbEntity
  8
AM_6
100
AcDbText
 10
6.309717215445776
 20
-6.690235602205646
 30
0.0
 40
0.5
  1
1.23
100
AcDbAttributeDefinition
  3

  2
X
 70
     8
280
     0
  0
ATTDEF
  5
C7
330
B2
100
AcDbEntity
  8
AM_6
100
AcDbText
 10
6.309717215445776
 20
-7.190235602205646
 30
0.0
 40
0.5
  1
1.23
100
AcDbAttributeDefinition
  3

  2
Y
 70
     8
280
     0
  0
ATTDEF
  5
C8
330
B2
100
AcDbEntity
  8
AM_6
100
AcDbText
 10
6.309717215445776
 20
-7.690235602205646
 30
0.0
 40
0.5
  1
baldor
100
AcDbAttributeDefinition
  3

  2
COMPANY
 70
     8
280
     0
  0
LINE
  5
C9
330
B2
100
AcDbEntity
  8
AM_9
100
AcDbLine
 10
0.9773086701258421
 20
-0.0499999999999999
 30
0.0
 11
1.01347783444943
 21
-0.0499999999999999
 31
0.0
  0
LINE
  5
CA
330
B2
100
AcDbEntity
  8
AM_9
100
AcDbLine
 10
0.9773086701258421
 20
0.0500000000000002
 30
0.0
 11
1.01347783444943
 21
0.0500000000000002
 31
0.0
  0
ARC
  5
CB
330
B2
100
AcDbEntity
  8
AM_9
100
AcDbCircle
 10
-0.0000000000000001
 20
0.0000000000000002
 30
0.0
 40
1.014710461619622
100
AcDbArc
 50
2.824401300656963
 51
357.175598699343
  0
CIRCLE
  5
CC
330
B2
100
AcDbEntity
  8
AM_9
100
AcDbCircle
 10
0.0
 20
0.0000000000000002
 30
0.0
 40
1.070873015873018
  0
CIRCLE
  5
CD
330
B2
100
AcDbEntity
  8
AM_9
100
AcDbCircle
 10
0.0
 20
0.0000000000000002
 30
0.0
 40
1.164444444444445
  0
ARC
  5
CE
330
B2
100
AcDbEntity
  8
AM_9
100
AcDbCircle
 10
0.0
 20
0.0000000000000002
 30
0.0
 40
0.9773015873015869
100
AcDbArc
 50
2.932605697388897
 51
357.0673943026111
  0
LINE
  5
CF
330
B2
100
AcDbEntity
  8
AM_9
100
AcDbLine
 10
-0.0724499999999999
 20
1.28745
 30
0.0
 11
-0.0724499999999999
 21
1.00505
 31
0.0
  0
LINE
  5
D0
330
B2
100
AcDbEntity
  8
AM_9
100
AcDbLine
 10
0.0724499999999999
 20
1.00505
 30
0.0
 11
0.0724499999999999
 21
1.28745
 31
0.0
  0
LINE
  5
D1
330
B2
100
AcDbEntity
  8
AM_9
100
AcDbLine
 10
-0.0724499999999999
 20
1.00505
 30
0.0
 11
-0.0949999999999999
 21
0.9825000000000004
 31
0.0
  0
LINE
  5
D2
330
B2
100
AcDbEntity
  8
AM_9
100
AcDbLine
 10
0.0949999999999999
 20
0.9825000000000004
 30
0.0
 11
0.0724499999999999
 21
1.00505
 31
0.0
  0
LINE
  5
D3
330
B2
100
AcDbEntity
  8
AM_9
100
AcDbLine
 10
0.0949999999999999
 20
0.9825000000000004
 30
0.0
 11
-0.0949999999999999
 21
0.9825000000000004
 31
0.0
  0
LINE
  5
D4
330
B2
100
AcDbEntity
  8
AM_9
100
AcDbLine
 10
0.0724499999999999
 20
1.00505
 30
0.0
 11
-0.0724499999999999
 21
1.00505
 31
0.0
  0
LINE
  5
D5
330
B2
100
AcDbEntity
  8
AM_9
100
AcDbLine
 10
0.0724499999999999
 20
1.28745
 30
0.0
 11
0.0912034316509571
 21
1.306203431650958
 31
0.0
  0
LINE
  5
D6
330
B2
100
AcDbEntity
  8
AM_9
100
AcDbLine
 10
-0.0912210837491955
 20
1.306221083749196
 30
0.0
 11
-0.0724499999999999
 21
1.28745
 31
0.0
  0
LINE
  5
D7
330
B2
100
AcDbEntity
  8
AM_9
100
AcDbLine
 10
0.0724499999999999
 20
1.28745
 30
0.0
 11
-0.0724499999999999
 21
1.28745
 31
0.0
  0
LWPOLYLINE
  5
D8
330
B2
100
AcDbEntity
  8
AM_9
100
AcDbPolyline
 90
        6
 70
     0
 43
0.0
 10
0.0261259482440441
 20
1.309739453031919
 10
0.0325280922487114
 20
1.309596091630797
 10
0.0581158304584191
 20
1.308710262147481
 10
0.0778989590533092
 20
1.307681823754697
 10
0.0895447865853553
 20
1.306936008837228
 10
0.0917808746406287
 20
1.306780881039435
  0
LINE
  5
D9
330
B2
100
AcDbEntity
  8
AM_9
100
AcDbLine
 10
-0.0917808723037252
 20
1.306780881203566
 30
0.0
 11
-0.0853661469062619
 21
1.307215598500255
 31
0.0
  0
LINE
  5
DB
330
B2
100
AcDbEntity
  8
AM_5
100
AcDbLine
 10
0.0949999999999999
 20
1.306550802686218
 30
0.0
 11
0.0949999999999999
 21
0.9825000000000004
 31
0.0
  0
LINE
  5
DC
330
B2
100
AcDbEntity
  8
AM_5
100
AcDbLine
 10
-0.0949999999999999
 20
1.306550802686218
 30
0.0
 11
-0.0949999999999999
 21
0.9825000000000004
 31
0.0
  0
LINE
  5
DD
330
B2
100
AcDbEntity
  8
AM_4
100
AcDbLine
 10
0.11
 20
-1.305373509766457
 30
0.0
 11
0.11
 21
-1.222666444839556
 31
0.0
  0
LINE
  5
DE
330
B2
100
AcDbEntity
  8
AM_4
100
AcDbLine
 10
0.11
 20
-1.222666444839556
 30
0.0
 11
-0.11
 21
-1.222666444839556
 31
0.0
  0
LINE
  5
DF
330
B2
100
AcDbEntity
  8
AM_4
100
AcDbLine
 10
-1.003860201585861
 20
0.7065960168360664
 30
0.0
 11
-1.075486620885006
 21
0.747949549299517
 31
0.0
  0
LINE
  5
E0
330
B2
100
AcDbEntity
  8
AM_4
100
AcDbLine
 10
-1.113860201585861
 20
0.5160704280034899
 30
0.0
 11
-1.003860201585861
 21
0.7065960168360664
 31
0.0
  0
LINE
  5
E1
330
B2
100
AcDbEntity
  8
AM_4
100
AcDbLine
 10
-1.185486620885006
 20
0.5574239604669403
 30
0.0
 11
-1.113860201585861
 21
0.5160704280034899
 31
0.0
  0
LINE
  5
E2
330
B2
100
AcDbEntity
  8
AM_4
100
AcDbLine
 10
1.113860201585861
 20
0.5160704280034906
 30
0.0
 11
1.185486620885006
 21
0.5574239604669412
 31
0.0
  0
LINE
  5
E3
330
B2
100
AcDbEntity
  8
AM_4
100
AcDbLine
 10
1.003860201585861
 20
0.7065960168360669
 30
0.0
 11
1.113860201585861
 21
0.5160704280034906
 31
0.0
  0
LINE
  5
E4
330
B2
100
AcDbEntity
  8
AM_4
100
AcDbLine
 10
-0.11
 20
-1.222666444839556
 30
0.0
 11
-0.11
 21
-1.305373509766457
 31
0.0
  0
LINE
  5
E5
330
B2
100
AcDbEntity
  8
AM_4
100
AcDbLine
 10
0.9773015873015872
 20
-0.0499999999999999
 30
0.0
 11
0.9773015873015872
 21
0.0500000000000002
 31
0.0
  0
LINE
  5
E6
330
B2
100
AcDbEntity
  8
AM_4
100
AcDbLine
 10
0.9773015873015872
 20
-0.0499999999999999
 30
0.0
 11
0.7483314773547882
 21
-0.0499999999999999
 31
0.0
  0
LINE
  5
E7
330
B2
100
AcDbEntity
  8
AM_4
100
AcDbLine
 10
0.9773015873015872
 20
0.0500000000000002
 30
0.0
 11
0.7483314773547882
 21
0.0500000000000002
 31
0.0
  0
LINE
  5
E8
330
B2
100
AcDbEntity
  8
AM_4
100
AcDbLine
 10
1.075486620885006
 20
0.7479495492995177
 30
0.0
 11
1.003860201585861
 21
0.7065960168360669
 31
0.0
  0
ARC
  5
E9
330
B2
100
AcDbEntity
  8
AM_4
100
AcDbCircle
 10
0.0000000000000001
 20
0.0000000000000001
 30
0.0
 40
0.7499999999999998
100
AcDbArc
 50
3.822553729274312
 51
356.1774462707257
  0
ARC
  5
EA
330
B2
100
AcDbEntity
  8
AM_4
100
AcDbCircle
 10
-0.0000000000000009
 20
-0.0000000000000003
 30
0.0
 40
1.309999999999999
100
AcDbArc
 50
154.8167677403219
 51
265.1832322596781
  0
ARC
  5
EB
330
B2
100
AcDbEntity
  8
AM_4
100
AcDbCircle
 10
-0.0000000000000004
 20
0.0000000000000003
 30
0.0
 40
1.2752
100
AcDbArc
 50
154.9485399810006
 51
265.0514600189995
  0
ARC
  5
EC
330
B2
100
AcDbEntity
  8
AM_4
100
AcDbCircle
 10
0.0000000000000001
 20
0.0
 30
0.0
 40
1.31
100
AcDbArc
 50
34.81676774032196
 51
88.9133287739813
  0
LWPOLYLINE
  5
ED
330
B2
100
AcDbEntity
  8
AM_4
100
AcDbPolyline
 90
        3
 70
     0
 43
0.0
 10
0.0248439584284506
 20
1.309764397794354
 10
0.000444866053959
 20
1.308225400826893
 10
-0.0248439584284566
 20
1.309764397794354
  0
ARC
  5
EE
330
B2
100
AcDbEntity
  8
AM_4
100
AcDbCircle
 10
0.0000000000000024
 20
-0.0000000000000033
 30
0.0
 40
1.310000000000004
100
AcDbArc
 50
91.08667122601909
 51
145.183232259678
  0
ARC
  5
EF
330
B2
100
AcDbEntity
  8
AM_4
100
AcDbCircle
 10
-0.0000000000000001
 20
0.0
 30
0.0
 40
1.275200000000001
100
AcDbArc
 50
34.94853998100055
 51
145.0514600189995
  0
ARC
  5
F0
330
B2
100
AcDbEntity
  8
AM_4
100
AcDbCircle
 10
-0.0000000000000001
 20
0.0000000000000002
 30
0.0
 40
1.31
100
AcDbArc
 50
274.8167677403219
 51
25.18323225967811
  0
ARC
  5
F1
330
B2
100
AcDbEntity
  8
AM_4
100
AcDbCircle
 10
-0.0000000000000003
 20
0.0000000000000006
 30
0.0
 40
1.275200000000001
100
AcDbArc
 50
274.9485399810006
 51
25.05146001899947
  0
ENDBLK
  5
B5
330
B2
100
AcDbEntity
  8
0
100
AcDbBlockEnd
  0
BLOCK
  5
F4
330
F2
100
AcDbEntity
  8
0
100
AcDbBlockBegin
  2
4_129741h_0_in_129741_0
 70
     2
 10
0.0
 20
0.0
 30
0.0
  3
4_129741h_0_in_129741_0
  1

  0
ATTDEF
  5
F6
330
F2
100
AcDbEntity
  8
AM_6
100
AcDbText
 10
7.75625
 20
2.756249999999998
 30
0.0
 40
0.5
  1
FC-GT - Inch - Housing
100
AcDbAttributeDefinition
  3

  2
NN
 70
     8
280
     0
  0
ATTDEF
  5
F7
330
F2
100
AcDbEntity
  8
AM_6
100
AcDbText
 10
7.75625
 20
2.256249999999998
 30
0.0
 40
0.5
  1
GT Normal Duty Piloted Flange Bearings
100
AcDbAttributeDefinition
  3

  2
NT
 70
     8
280
     0
  0
ATTDEF
  5
F8
330
F2
100
AcDbEntity
  8
AM_6
100
AcDbText
 10
7.75625
 20
1.756249999999998
 30
0.0
 40
0.5
  1
129741h
100
AcDbAttributeDefinition
  3

  2
NB
 70
     8
280
     0
  0
ATTDEF
  5
F9
330
F2
100
AcDbEntity
  8
AM_6
100
AcDbText
 10
7.75625
 20
1.256249999999998
 30
0.0
 40
0.5
  1
$PN.h
100
AcDbAttributeDefinition
  3

  2
NBSYN
 70
     8
280
     0
  0
ATTDEF
  5
FA
330
F2
100
AcDbEntity
  8
AM_6
100
AcDbText
 10
7.75625
 20
0.7562499999999979
 30
0.0
 40
0.5
  1
129741
100
AcDbAttributeDefinition
  3

  2
LINA
 70
     8
280
     0
  0
ATTDEF
  5
FB
330
F2
100
AcDbEntity
  8
AM_6
100
AcDbText
 10
7.75625
 20
0.2562499999999979
 30
0.0
 40
0.5
  1
208
100
AcDbAttributeDefinition
  3

  2
SERIES
 70
     8
280
     0
  0
ATTDEF
  5
FC
330
F2
100
AcDbEntity
  8
AM_6
100
AcDbText
 10
7.75625
 20
-0.2437500000000021
 30
0.0
 40
0.5
  1
1-1/2
100
AcDbAttributeDefinition
  3

  2
SS
 70
     8
280
     0
  0
ATTDEF
  5
FD
330
F2
100
AcDbEntity
  8
AM_6
100
AcDbText
 10
7.75625
 20
-0.7437500000000021
 30
0.0
 40
0.5
  1
129741
100
AcDbAttributeDefinition
  3

  2
PN
 70
     8
280
     0
  0
ATTDEF
  5
FE
330
F2
100
AcDbEntity
  8
AM_6
100
AcDbText
 10
7.75625
 20
-1.243750000000002
 30
0.0
 40
0.5
  1
FC-GT-108
100
AcDbAttributeDefinition
  3

  2
DESCRIPTION
 70
     8
280
     0
  0
ATTDEF
  5
FF
330
F2
100
AcDbEntity
  8
AM_6
100
AcDbText
 10
7.75625
 20
-1.743750000000002
 30
0.0
 40
0.5
  1
129503
100
AcDbAttributeDefinition
  3

  2
PNSL
 70
     8
280
     0
  0
ATTDEF
  5
100
330
F2
100
AcDbEntity
  8
AM_6
100
AcDbText
 10
7.75625
 20
-2.243750000000002
 30
0.0
 40
0.5
  1
FC-GT-08
100
AcDbAttributeDefinition
  3

  2
DESCRIPTIONSL
 70
     8
280
     0
  0
ATTDEF
  5
101
330
F2
100
AcDbEntity
  8
AM_6
100
AcDbText
 10
7.75625
 20
-2.743750000000002
 30
0.0
 40
0.5
  1
136530
100
AcDbAttributeDefinition
  3

  2
PNA
 70
     8
280
     0
  0
ATTDEF
  5
102
330
F2
100
AcDbEntity
  8
AM_6
100
AcDbText
 10
7.75625
 20
-3.243750000000002
 30
0.0
 40
0.5
  1
AN-GT-08-108-D
100
AcDbAttributeDefinition
  3

  2
DESCRIPTIONA
 70
     8
280
     0
  0
ATTDEF
  5
103
330
F2
100
AcDbEntity
  8
AM_6
100
AcDbText
 10
7.75625
 20
-3.743750000000002
 30
0.0
 40
0.5
  1
4.9
100
AcDbAttributeDefinition
  3

  2
W
 70
     8
280
     0
  0
ATTDEF
  5
104
330
F2
100
AcDbEntity
  8
AM_6
100
AcDbText
 10
7.75625
 20
-4.243750000000002
 30
0.0
 40
0.5
  1
1.84
100
AcDbAttributeDefinition
  3

  2
A
 70
     8
280
     0
  0
ATTDEF
  5
105
330
F2
100
AcDbEntity
  8
AM_6
100
AcDbText
 10
7.75625
 20
-4.743750000000002
 30
0.0
 40
0.5
  1
5.25
100
AcDbAttributeDefinition
  3

  2
B
 70
     8
280
     0
  0
ATTDEF
  5
106
330
F2
100
AcDbEntity
  8
AM_6
100
AcDbText
 10
7.75625
 20
-5.243750000000002
 30
0.0
 40
0.5
  1
2.01
100
AcDbAttributeDefinition
  3

  2
C
 70
     8
280
     0
  0
ATTDEF
  5
107
330
F2
100
AcDbEntity
  8
AM_6
100
AcDbText
 10
7.75625
 20
-5.743750000000002
 30
0.0
 40
0.5
  1
4.38
100
AcDbAttributeDefinition
  3

  2
D
 70
     8
280
     0
  0
ATTDEF
  5
108
330
F2
100
AcDbEntity
  8
AM_6
100
AcDbText
 10
7.75625
 20
-6.243750000000002
 30
0.0
 40
0.5
  1
0.44
100
AcDbAttributeDefinition
  3

  2
E
 70
     8
280
     0
  0
ATTDEF
  5
109
330
F2
100
AcDbEntity
  8
AM_6
100
AcDbText
 10
7.75625
 20
-6.743750000000002
 30
0.0
 40
0.5
  1
7/16
100
AcDbAttributeDefinition
  3

  2
F
 70
     8
280
     0
  0
ATTDEF
  5
10A
330
F2
100
AcDbEntity
  8
AM_6
100
AcDbText
 10
7.75625
 20
-7.243750000000002
 30
0.0
 40
0.5
  1
1.58
100
AcDbAttributeDefinition
  3

  2
G
 70
     8
280
     0
  0
ATTDEF
  5
10B
330
F2
100
AcDbEntity
  8
AM_6
100
AcDbText
 10
7.75625
 20
-7.743750000000002
 30
0.0
 40
0.5
  1
0.89
100
AcDbAttributeDefinition
  3

  2
H
 70
     8
280
     0
  0
ATTDEF
  5
10C
330
F2
100
AcDbEntity
  8
AM_6
100
AcDbText
 10
7.75625
 20
-8.243750000000002
 30
0.0
 40
0.5
  1
3.625/3.623
100
AcDbAttributeDefinition
  3

  2
K
 70
     8
280
     0
  0
ATTDEF
  5
10D
330
F2
100
AcDbEntity
  8
AM_6
100
AcDbText
 10
7.75625
 20
-8.743750000000002
 30
0.0
 40
0.5
  1
2.62
100
AcDbAttributeDefinition
  3

  2
L
 70
     8
280
     0
  0
ATTDEF
  5
10E
330
F2
100
AcDbEntity
  8
AM_6
100
AcDbText
 10
7.75625
 20
-9.243750000000002
 30
0.0
 40
0.5
  1
1.58
100
AcDbAttributeDefinition
  3

  2
Z
 70
     8
280
     0
  0
ATTDEF
  5
10F
330
F2
100
AcDbEntity
  8
AM_6
100
AcDbText
 10
7.75625
 20
-9.743750000000002
 30
0.0
 40
0.5
  1
108
100
AcDbAttributeDefinition
  3

  2
SSM
 70
     8
280
     0
  0
ATTDEF
  5
110
330
F2
100
AcDbEntity
  8
AM_6
100
AcDbText
 10
7.75625
 20
-10.24375
 30
0.0
 40
0.5
  1
fc_gi_templ.prj
100
AcDbAttributeDefinition
  3

  2
PPATH
 70
     8
280
     0
  0
ATTDEF
  5
111
330
F2
100
AcDbEntity
  8
AM_6
100
AcDbText
 10
7.75625
 20
-10.74375
 30
0.0
 40
0.5
  1
Infotex
100
AcDbAttributeDefinition
  3

  2
INFO
 70
     8
280
     0
  0
ATTDEF
  5
112
330
F2
100
AcDbEntity
  8
AM_6
100
AcDbText
 10
7.75625
 20
-11.24375
 30
0.0
 40
0.5
  1
4005
100
AcDbAttributeDefinition
  3

  2
CAPS
 70
     8
280
     0
  0
ATTDEF
  5
113
330
F2
100
AcDbEntity
  8
AM_6
100
AcDbText
 10
7.75625
 20
-11.74375
 30
0.0
 40
0.5
  1
7332
100
AcDbAttributeDefinition
  3

  2
CAPD
 70
     8
280
     0
  0
ATTDEF
  5
114
330
F2
100
AcDbEntity
  8
AM_6
100
AcDbText
 10
7.75625
 20
-12.24375
 30
0.0
 40
0.5
  1
baldor
100
AcDbAttributeDefinition
  3

  2
COMPANY
 70
     8
280
     0
  0
CIRCLE
  5
115
330
F2
100
AcDbEntity
  8
AM_9
100
AcDbCircle
 10
0.0
 20
0.0
 30
0.0
 40
1.60954
  0
CIRCLE
  5
116
330
F2
100
AcDbEntity
  8
AM_9
100
AcDbCircle
 10
0.0
 20
0.0
 30
0.0
 40
1.8125
  0
CIRCLE
  5
117
330
F2
100
AcDbEntity
  8
AM_9
100
AcDbCircle
 10
0.0
 20
0.0
 30
0.0
 40
1.65354
  0
LINE
  5
11A
330
F2
100
AcDbEntity
  8
AM_7
100
AcDbLine
 10
-2.005313850798539
 20
-1.548563850798539
 30
0.0
 11
-1.091813850798538
 21
-1.548563850798539
 31
0.0
  0
LINE
  5
11B
330
F2
100
AcDbEntity
  8
AM_7
100
AcDbLine
 10
-1.548563850798539
 20
-2.005313850798539
 30
0.0
 11
-1.548563850798539
 21
-1.091813850798539
 31
0.0
  0
LINE
  5
11C
330
F2
100
AcDbEntity
  8
AM_7
100
AcDbLine
 10
-2.756249999999995
 20
0.0000000000000004
 30
0.0
 11
2.75625
 21
0.0000000000000004
 31
0.0
  0
LINE
  5
11D
330
F2
100
AcDbEntity
  8
AM_7
100
AcDbLine
 10
0.0000000000000027
 20
-2.756249999999997
 30
0.0
 11
0.0000000000000027
 21
2.756249999999998
 31
0.0
  0
LINE
  5
11E
330
F2
100
AcDbEntity
  8
AM_7
100
AcDbLine
 10
-2.005313850798539
 20
1.548563850798539
 30
0.0
 11
-1.091813850798539
 21
1.548563850798539
 31
0.0
  0
LINE
  5
11F
330
F2
100
AcDbEntity
  8
AM_7
100
AcDbLine
 10
-1.548563850798539
 20
1.091813850798539
 30
0.0
 11
-1.548563850798539
 21
2.005313850798539
 31
0.0
  0
LINE
  5
120
330
F2
100
AcDbEntity
  8
AM_7
100
AcDbLine
 10
1.091813850798538
 20
-1.548563850798539
 30
0.0
 11
2.005313850798539
 21
-1.548563850798539
 31
0.0
  0
LINE
  5
121
330
F2
100
AcDbEntity
  8
AM_7
100
AcDbLine
 10
1.548563850798539
 20
-2.005313850798539
 30
0.0
 11
1.548563850798539
 21
-1.091813850798538
 31
0.0
  0
LINE
  5
122
330
F2
100
AcDbEntity
  8
AM_7
100
AcDbLine
 10
1.091813850798538
 20
1.548563850798539
 30
0.0
 11
2.005313850798538
 21
1.548563850798539
 31
0.0
  0
LINE
  5
123
330
F2
100
AcDbEntity
  8
AM_7
100
AcDbLine
 10
1.548563850798538
 20
1.091813850798539
 30
0.0
 11
1.548563850798538
 21
2.005313850798539
 31
0.0
  0
LINE
  5
124
330
F2
100
AcDbEntity
  8
AM_4
100
AcDbLine
 10
-0.114783132849
 20
-2.358111273203
 30
0.0
 11
-0.127026446547
 21
-2.361024660603
 31
0.0
  0
LINE
  5
125
330
F2
100
AcDbEntity
  8
AM_4
100
AcDbLine
 10
-0.127026446547
 20
-2.361024660603
 30
0.0
 11
-0.151513467644
 21
-2.361024660603
 31
0.0
  0
LINE
  5
126
330
F2
100
AcDbEntity
  8
AM_4
100
AcDbLine
 10
-0.179061514016
 20
-2.3435439031319
 30
0.0
 11
-0.18212214559
 21
-2.3318900779412
 31
0.0
  0
LINE
  5
127
330
F2
100
AcDbEntity
  8
AM_4
100
AcDbLine
 10
-0.18212214559
 20
-2.3318900779412
 30
0.0
 11
-0.18212214559
 21
-2.2881883
 31
0.0
  0
LINE
  5
128
330
F2
100
AcDbEntity
  8
AM_4
100
AcDbLine
 10
-0.151513467644
 20
-2.2590538
 30
0.0
 11
-0.127026446547
 21
-2.2590538
 31
0.0
  0
LINE
  5
129
330
F2
100
AcDbEntity
  8
AM_4
100
AcDbLine
 10
-0.18212214559
 20
-2.2881883
 30
0.0
 11
-0.179061514016
 21
-2.2765345
 31
0.0
  0
LINE
  5
12A
330
F2
100
AcDbEntity
  8
AM_4
100
AcDbLine
 10
-0.179061514016
 20
-2.2765345
 30
0.0
 11
-0.172939463466
 21
-2.2677943
 31
0.0
  0
LINE
  5
12B
330
F2
100
AcDbEntity
  8
AM_4
100
AcDbLine
 10
-0.172939463466
 20
-2.2677943
 30
0.0
 11
-0.163757175043
 21
-2.2619672
 31
0.0
  0
LINE
  5
12C
330
F2
100
AcDbEntity
  8
AM_4
100
AcDbLine
 10
-0.163757175043
 20
-2.2619672
 30
0.0
 11
-0.151513467644
 21
-2.2590538
 31
0.0
  0
LINE
  5
12D
330
F2
100
AcDbEntity
  8
AM_4
100
AcDbLine
 10
-0.105600450725
 20
-2.352284104702
 30
0.0
 11
-0.114783132849
 21
-2.358111273203
 31
0.0
  0
LINE
  5
12E
330
F2
100
AcDbEntity
  8
AM_4
100
AcDbLine
 10
-0.127026446547
 20
-2.2590538
 30
0.0
 11
-0.114783132849
 21
-2.2619672
 31
0.0
  0
LINE
  5
12F
330
F2
100
AcDbEntity
  8
AM_4
100
AcDbLine
 10
-0.114783132849
 20
-2.2619672
 30
0.0
 11
-0.105600450725
 21
-2.2677943
 31
0.0
  0
LINE
  5
130
330
F2
100
AcDbEntity
  8
AM_4
100
AcDbLine
 10
-0.105600450725
 20
-2.2677943
 30
0.0
 11
-0.099478400175
 21
-2.2765345
 31
0.0
  0
LINE
  5
131
330
F2
100
AcDbEntity
  8
AM_4
100
AcDbLine
 10
-0.099478400175
 20
-2.2765345
 30
0.0
 11
-0.096417768601
 21
-2.2881883
 31
0.0
  0
LINE
  5
132
330
F2
100
AcDbEntity
  8
AM_4
100
AcDbLine
 10
-0.096417768601
 20
-2.2881883
 30
0.0
 11
-0.096417768601
 21
-2.3318900779412
 31
0.0
  0
LINE
  5
133
330
F2
100
AcDbEntity
  8
AM_4
100
AcDbLine
 10
-0.096417768601
 20
-2.3318900779412
 30
0.0
 11
-0.099478400175
 21
-2.3435439031319
 31
0.0
  0
LINE
  5
134
330
F2
100
AcDbEntity
  8
AM_4
100
AcDbLine
 10
-0.099478400175
 20
-2.3435439031319
 30
0.0
 11
-0.105600450725
 21
-2.352284104702
 31
0.0
  0
LINE
  5
135
330
F2
100
AcDbEntity
  8
AM_4
100
AcDbLine
 10
-0.172939463466
 20
-2.352284104702
 30
0.0
 11
-0.179061514016
 21
-2.3435439031319
 31
0.0
  0
LINE
  5
136
330
F2
100
AcDbEntity
  8
AM_4
100
AcDbLine
 10
-0.163757175043
 20
-2.358111273203
 30
0.0
 11
-0.172939463466
 21
-2.352284104702
 31
0.0
  0
LINE
  5
137
330
F2
100
AcDbEntity
  8
AM_4
100
AcDbLine
 10
-0.151513467644
 20
-2.361024660603
 30
0.0
 11
-0.163757175043
 21
-2.358111273203
 31
0.0
  0
LINE
  5
138
330
F2
100
AcDbEntity
  8
AM_4
100
AcDbLine
 10
-0.3290446658729999
 20
-2.2590538
 30
0.0
 11
-0.273948573129
 21
-2.2590538
 31
0.0
  0
LINE
  5
139
330
F2
100
AcDbEntity
  8
AM_4
100
AcDbLine
 10
-0.3290446658729999
 20
-2.361024660603
 30
0.0
 11
-0.3290446658729999
 21
-2.2590538
 31
0.0
  0
LINE
  5
13A
330
F2
100
AcDbEntity
  8
AM_4
100
AcDbLine
 10
-0.273948573129
 20
-2.2590538
 30
0.0
 11
-0.261705259431
 21
-2.2619672
 31
0.0
  0
LINE
  5
13B
330
F2
100
AcDbEntity
  8
AM_4
100
AcDbLine
 10
-0.261705259431
 20
-2.2619672
 30
0.0
 11
-0.252522577307
 21
-2.2677943
 31
0.0
  0
LINE
  5
13C
330
F2
100
AcDbEntity
  8
AM_4
100
AcDbLine
 10
-0.252522577307
 20
-2.2677943
 30
0.0
 11
-0.246400920458
 21
-2.2765345
 31
0.0
  0
LINE
  5
13D
330
F2
100
AcDbEntity
  8
AM_4
100
AcDbLine
 10
-0.246400920458
 20
-2.2765345
 30
0.0
 11
-0.243339895183
 21
-2.2881883
 31
0.0
  0
LINE
  5
13E
330
F2
100
AcDbEntity
  8
AM_4
100
AcDbLine
 10
-0.243339895183
 20
-2.2881883
 30
0.0
 11
-0.243339895183
 21
-2.3318900779412
 31
0.0
  0
LINE
  5
13F
330
F2
100
AcDbEntity
  8
AM_4
100
AcDbLine
 10
-0.243339895183
 20
-2.3318900779412
 30
0.0
 11
-0.246400920458
 21
-2.3435439031319
 31
0.0
  0
LINE
  5
140
330
F2
100
AcDbEntity
  8
AM_4
100
AcDbLine
 10
-0.246400920458
 20
-2.3435439031319
 30
0.0
 11
-0.252522577307
 21
-2.352284104702
 31
0.0
  0
LINE
  5
141
330
F2
100
AcDbEntity
  8
AM_4
100
AcDbLine
 10
-0.252522577307
 20
-2.352284104702
 30
0.0
 11
-0.261705259431
 21
-2.358111273203
 31
0.0
  0
LINE
  5
142
330
F2
100
AcDbEntity
  8
AM_4
100
AcDbLine
 10
-0.261705259431
 20
-2.358111273203
 30
0.0
 11
-0.273948573129
 21
-2.361024660603
 31
0.0
  0
LINE
  5
143
330
F2
100
AcDbEntity
  8
AM_4
100
AcDbLine
 10
-0.273948573129
 20
-2.361024660603
 30
0.0
 11
-0.3290446658729999
 21
-2.361024660603
 31
0.0
  0
LINE
  5
144
330
F2
100
AcDbEntity
  8
AM_4
100
AcDbLine
 10
0.0198957
 20
-2.361024660603
 30
0.0
 11
-0.0352000977482
 21
-2.361024660603
 31
0.0
  0
LINE
  5
145
330
F2
100
AcDbEntity
  8
AM_4
100
AcDbLine
 10
-0.0352000977482
 20
-2.361024660603
 30
0.0
 11
-0.0352000977482
 21
-2.2590538
 31
0.0
  0
LINE
  5
146
330
F2
100
AcDbEntity
  8
AM_4
100
AcDbLine
 10
0.0321392
 20
-2.358111273203
 30
0.0
 11
0.0198957
 21
-2.361024660603
 31
0.0
  0
LINE
  5
147
330
F2
100
AcDbEntity
  8
AM_4
100
AcDbLine
 10
0.0413217
 20
-2.352284104702
 30
0.0
 11
0.0321392
 21
-2.358111273203
 31
0.0
  0
LINE
  5
148
330
F2
100
AcDbEntity
  8
AM_4
100
AcDbLine
 10
0.0474437
 20
-2.3435439031319
 30
0.0
 11
0.0413217
 21
-2.352284104702
 31
0.0
  0
LINE
  5
149
330
F2
100
AcDbEntity
  8
AM_4
100
AcDbLine
 10
0.0505043
 20
-2.3318900779412
 30
0.0
 11
0.0474437
 21
-2.3435439031319
 31
0.0
  0
LINE
  5
14A
330
F2
100
AcDbEntity
  8
AM_4
100
AcDbLine
 10
0.0505043
 20
-2.2881883
 30
0.0
 11
0.0505043
 21
-2.3318900779412
 31
0.0
  0
LINE
  5
14B
330
F2
100
AcDbEntity
  8
AM_4
100
AcDbLine
 10
0.0474437
 20
-2.2765345
 30
0.0
 11
0.0505043
 21
-2.2881883
 31
0.0
  0
LINE
  5
14C
330
F2
100
AcDbEntity
  8
AM_4
100
AcDbLine
 10
0.0413217
 20
-2.2677943
 30
0.0
 11
0.0474437
 21
-2.2765345
 31
0.0
  0
LINE
  5
14D
330
F2
100
AcDbEntity
  8
AM_4
100
AcDbLine
 10
0.0321392
 20
-2.2619672
 30
0.0
 11
0.0413217
 21
-2.2677943
 31
0.0
  0
LINE
  5
14E
330
F2
100
AcDbEntity
  8
AM_4
100
AcDbLine
 10
0.0198957
 20
-2.2590538
 30
0.0
 11
0.0321392
 21
-2.2619672
 31
0.0
  0
LINE
  5
14F
330
F2
100
AcDbEntity
  8
AM_4
100
AcDbLine
 10
-0.0352000977482
 20
-2.2590538
 30
0.0
 11
0.0198957
 21
-2.2590538
 31
0.0
  0
ARC
  5
150
330
F2
100
AcDbEntity
  8
AM_4
100
AcDbCircle
 10
-0.0000000000000011
 20
0.0000000000000018
 30
0.0
 40
2.624999999999999
100
AcDbArc
 50
105.0
 51
74.99999999999994
  0
LINE
  5
151
330
F2
100
AcDbEntity
  8
AM_4
100
AcDbLine
 10
-0.586808731424159
 20
2.19
 30
0.0
 11
-0.6793999933941174
 21
2.535555294008805
 31
0.0
  0
LINE
  5
152
330
F2
100
AcDbEntity
  8
AM_4
100
AcDbLine
 10
0.6793999933941185
 20
2.535555294008804
 30
0.0
 11
0.5868087314241586
 21
2.19
 31
0.0
  0
LINE
  5
153
330
F2
100
AcDbEntity
  8
AM_4
100
AcDbLine
 10
-0.1913048277139999
 20
-2.2619672
 30
0.0
 11
-0.179061514016
 21
-2.2503136
 31
0.0
  0
LINE
  5
154
330
F2
100
AcDbEntity
  8
AM_4
100
AcDbLine
 10
-0.3474096364199999
 20
-2.378505378704
 30
0.0
 11
-0.3474096364199999
 21
-2.2415731
 31
0.0
  0
LINE
  5
155
330
F2
100
AcDbEntity
  8
AM_4
100
AcDbLine
 10
-0.3474096364199999
 20
-2.2415731
 30
0.0
 11
-0.273948573129
 21
-2.2415731
 31
0.0
  0
LINE
  5
156
330
F2
100
AcDbEntity
  8
AM_4
100
AcDbLine
 10
-0.273948573129
 20
-2.2415731
 30
0.0
 11
-0.258644234156
 21
-2.2444864
 31
0.0
  0
LINE
  5
157
330
F2
100
AcDbEntity
  8
AM_4
100
AcDbLine
 10
-0.258644234156
 20
-2.2444864
 30
0.0
 11
-0.246400920458
 21
-2.2503136
 31
0.0
  0
LINE
  5
158
330
F2
100
AcDbEntity
  8
AM_4
100
AcDbLine
 10
-0.246400920458
 20
-2.2503136
 30
0.0
 11
-0.234157213059
 21
-2.2619672
 31
0.0
  0
LINE
  5
159
330
F2
100
AcDbEntity
  8
AM_4
100
AcDbLine
 10
-0.234157213059
 20
-2.2619672
 30
0.0
 11
-0.22803555621
 21
-2.2736211
 31
0.0
  0
LINE
  5
15A
330
F2
100
AcDbEntity
  8
AM_4
100
AcDbLine
 10
-0.22803555621
 20
-2.2736211
 30
0.0
 11
-0.224974530935
 21
-2.2881883
 31
0.0
  0
LINE
  5
15B
330
F2
100
AcDbEntity
  8
AM_4
100
AcDbLine
 10
-0.224974530935
 20
-2.2881883
 30
0.0
 11
-0.224974530935
 21
-2.3318900779412
 31
0.0
  0
LINE
  5
15C
330
F2
100
AcDbEntity
  8
AM_4
100
AcDbLine
 10
-0.224974530935
 20
-2.3318900779412
 30
0.0
 11
-0.22803555621
 21
-2.346457329902
 31
0.0
  0
LINE
  5
15D
330
F2
100
AcDbEntity
  8
AM_4
100
AcDbLine
 10
-0.22803555621
 20
-2.346457329902
 30
0.0
 11
-0.234157213059
 21
-2.358111273203
 31
0.0
  0
LINE
  5
15E
330
F2
100
AcDbEntity
  8
AM_4
100
AcDbLine
 10
-0.234157213059
 20
-2.358111273203
 30
0.0
 11
-0.246400920458
 21
-2.369764822803
 31
0.0
  0
LINE
  5
15F
330
F2
100
AcDbEntity
  8
AM_4
100
AcDbLine
 10
-0.246400920458
 20
-2.369764822803
 30
0.0
 11
-0.258644234156
 21
-2.375591991304
 31
0.0
  0
LINE
  5
160
330
F2
100
AcDbEntity
  8
AM_4
100
AcDbLine
 10
-0.258644234156
 20
-2.375591991304
 30
0.0
 11
-0.273948573129
 21
-2.378505378704
 31
0.0
  0
LINE
  5
161
330
F2
100
AcDbEntity
  8
AM_4
100
AcDbLine
 10
-0.273948573129
 20
-2.378505378704
 30
0.0
 11
-0.3474096364199999
 21
-2.378505378704
 31
0.0
  0
LINE
  5
162
330
F2
100
AcDbEntity
  8
AM_4
100
AcDbLine
 10
-0.200487509838
 20
-2.3318900779412
 30
0.0
 11
-0.200487509838
 21
-2.2881883
 31
0.0
  0
LINE
  5
163
330
F2
100
AcDbEntity
  8
AM_4
100
AcDbLine
 10
-0.200487509838
 20
-2.2881883
 30
0.0
 11
-0.197426878264
 21
-2.2736211
 31
0.0
  0
LINE
  5
164
330
F2
100
AcDbEntity
  8
AM_4
100
AcDbLine
 10
-0.197426878264
 20
-2.2736211
 30
0.0
 11
-0.1913048277139999
 21
-2.2619672
 31
0.0
  0
LINE
  5
165
330
F2
100
AcDbEntity
  8
AM_4
100
AcDbLine
 10
-0.179061514016
 20
-2.2503136
 30
0.0
 11
-0.166817806617
 21
-2.2444864
 31
0.0
  0
LINE
  5
166
330
F2
100
AcDbEntity
  8
AM_4
100
AcDbLine
 10
-0.166817806617
 20
-2.2444864
 30
0.0
 11
-0.151513467644
 21
-2.2415731
 31
0.0
  0
LINE
  5
167
330
F2
100
AcDbEntity
  8
AM_4
100
AcDbLine
 10
-0.151513467644
 20
-2.2415731
 30
0.0
 11
-0.127026446547
 21
-2.2415731
 31
0.0
  0
LINE
  5
168
330
F2
100
AcDbEntity
  8
AM_4
100
AcDbLine
 10
-0.127026446547
 20
-2.2415731
 30
0.0
 11
-0.111722107574
 21
-2.2444864
 31
0.0
  0
LINE
  5
169
330
F2
100
AcDbEntity
  8
AM_4
100
AcDbLine
 10
-0.111722107574
 20
-2.2444864
 30
0.0
 11
-0.099478400175
 21
-2.2503136
 31
0.0
  0
LINE
  5
16A
330
F2
100
AcDbEntity
  8
AM_4
100
AcDbLine
 10
-0.099478400175
 20
-2.2503136
 30
0.0
 11
-0.087235086477
 21
-2.2619672
 31
0.0
  0
LINE
  5
16B
330
F2
100
AcDbEntity
  8
AM_4
100
AcDbLine
 10
-0.087235086477
 20
-2.2619672
 30
0.0
 11
-0.081113429628
 21
-2.2736211
 31
0.0
  0
LINE
  5
16C
330
F2
100
AcDbEntity
  8
AM_4
100
AcDbLine
 10
-0.081113429628
 20
-2.2736211
 30
0.0
 11
-0.078052404353
 21
-2.2881883
 31
0.0
  0
LINE
  5
16D
330
F2
100
AcDbEntity
  8
AM_4
100
AcDbLine
 10
-0.078052404353
 20
-2.2881883
 30
0.0
 11
-0.078052404353
 21
-2.3318900779412
 31
0.0
  0
LINE
  5
16E
330
F2
100
AcDbEntity
  8
AM_4
100
AcDbLine
 10
-0.078052404353
 20
-2.3318900779412
 30
0.0
 11
-0.081113429628
 21
-2.346457329902
 31
0.0
  0
LINE
  5
16F
330
F2
100
AcDbEntity
  8
AM_4
100
AcDbLine
 10
-0.081113429628
 20
-2.346457329902
 30
0.0
 11
-0.087235086477
 21
-2.358111273203
 31
0.0
  0
LINE
  5
170
330
F2
100
AcDbEntity
  8
AM_4
100
AcDbLine
 10
-0.087235086477
 20
-2.358111273203
 30
0.0
 11
-0.099478400175
 21
-2.369764822803
 31
0.0
  0
LINE
  5
171
330
F2
100
AcDbEntity
  8
AM_4
100
AcDbLine
 10
-0.099478400175
 20
-2.369764822803
 30
0.0
 11
-0.111722107574
 21
-2.375591991304
 31
0.0
  0
LINE
  5
172
330
F2
100
AcDbEntity
  8
AM_4
100
AcDbLine
 10
-0.111722107574
 20
-2.375591991304
 30
0.0
 11
-0.127026446547
 21
-2.378505378704
 31
0.0
  0
LINE
  5
173
330
F2
100
AcDbEntity
  8
AM_4
100
AcDbLine
 10
-0.127026446547
 20
-2.378505378704
 30
0.0
 11
-0.151513467644
 21
-2.378505378704
 31
0.0
  0
LINE
  5
174
330
F2
100
AcDbEntity
  8
AM_4
100
AcDbLine
 10
-0.151513467644
 20
-2.378505378704
 30
0.0
 11
-0.166817806617
 21
-2.375591991304
 31
0.0
  0
LINE
  5
175
330
F2
100
AcDbEntity
  8
AM_4
100
AcDbLine
 10
-0.166817806617
 20
-2.375591991304
 30
0.0
 11
-0.179061514016
 21
-2.369764822803
 31
0.0
  0
LINE
  5
176
330
F2
100
AcDbEntity
  8
AM_4
100
AcDbLine
 10
-0.179061514016
 20
-2.369764822803
 30
0.0
 11
-0.191304827714
 21
-2.358111273203
 31
0.0
  0
LINE
  5
177
330
F2
100
AcDbEntity
  8
AM_4
100
AcDbLine
 10
-0.191304827714
 20
-2.358111273203
 30
0.0
 11
-0.197426878264
 21
-2.346457329902
 31
0.0
  0
LINE
  5
178
330
F2
100
AcDbEntity
  8
AM_4
100
AcDbLine
 10
-0.197426878264
 20
-2.346457329902
 30
0.0
 11
-0.200487509838
 21
-2.3318900779412
 31
0.0
  0
LINE
  5
179
330
F2
100
AcDbEntity
  8
AM_4
100
AcDbLine
 10
0.0198957
 20
-2.378505378704
 30
0.0
 11
-0.053565383256
 21
-2.378505378704
 31
0.0
  0
LINE
  5
17A
330
F2
100
AcDbEntity
  8
AM_4
100
AcDbLine
 10
-0.053565383256
 20
-2.378505378704
 30
0.0
 11
-0.053565383256
 21
-2.2415731
 31
0.0
  0
LINE
  5
17B
330
F2
100
AcDbEntity
  8
AM_4
100
AcDbLine
 10
-0.053565383256
 20
-2.2415731
 30
0.0
 11
0.0198957
 21
-2.2415731
 31
0.0
  0
LINE
  5
17C
330
F2
100
AcDbEntity
  8
AM_4
100
AcDbLine
 10
0.0198957
 20
-2.2415731
 30
0.0
 11
0.0352001
 21
-2.2444864
 31
0.0
  0
LINE
  5
17D
330
F2
100
AcDbEntity
  8
AM_4
100
AcDbLine
 10
0.0352001
 20
-2.2444864
 30
0.0
 11
0.0474437
 21
-2.2503136
 31
0.0
  0
LINE
  5
17E
330
F2
100
AcDbEntity
  8
AM_4
100
AcDbLine
 10
0.0474437
 20
-2.2503136
 30
0.0
 11
0.059687
 21
-2.2619672
 31
0.0
  0
LINE
  5
17F
330
F2
100
AcDbEntity
  8
AM_4
100
AcDbLine
 10
0.059687
 20
-2.2619672
 30
0.0
 11
0.0658091
 21
-2.2736211
 31
0.0
  0
LINE
  5
180
330
F2
100
AcDbEntity
  8
AM_4
100
AcDbLine
 10
0.0658091
 20
-2.2736211
 30
0.0
 11
0.0688697
 21
-2.2881883
 31
0.0
  0
LINE
  5
181
330
F2
100
AcDbEntity
  8
AM_4
100
AcDbLine
 10
0.0688697
 20
-2.2881883
 30
0.0
 11
0.0688697
 21
-2.3318900779412
 31
0.0
  0
LINE
  5
182
330
F2
100
AcDbEntity
  8
AM_4
100
AcDbLine
 10
0.0688697
 20
-2.3318900779412
 30
0.0
 11
0.0658091
 21
-2.346457329902
 31
0.0
  0
LINE
  5
183
330
F2
100
AcDbEntity
  8
AM_4
100
AcDbLine
 10
0.0658091
 20
-2.346457329902
 30
0.0
 11
0.059687
 21
-2.358111273203
 31
0.0
  0
LINE
  5
184
330
F2
100
AcDbEntity
  8
AM_4
100
AcDbLine
 10
0.059687
 20
-2.358111273203
 30
0.0
 11
0.0474437
 21
-2.369764822803
 31
0.0
  0
LINE
  5
185
330
F2
100
AcDbEntity
  8
AM_4
100
AcDbLine
 10
0.0474437
 20
-2.369764822803
 30
0.0
 11
0.0352001
 21
-2.375591991304
 31
0.0
  0
LINE
  5
186
330
F2
100
AcDbEntity
  8
AM_4
100
AcDbLine
 10
0.0352001
 20
-2.375591991304
 30
0.0
 11
0.0198957
 21
-2.378505378704
 31
0.0
  0
LINE
  5
187
330
F2
100
AcDbEntity
  8
AM_4
100
AcDbLine
 10
0.0933567
 20
-2.3318900779412
 30
0.0
 11
0.0933567
 21
-2.2881883
 31
0.0
  0
LINE
  5
188
330
F2
100
AcDbEntity
  8
AM_4
100
AcDbLine
 10
0.0933567
 20
-2.2881883
 30
0.0
 11
0.0964177
 21
-2.2736211
 31
0.0
  0
LINE
  5
189
330
F2
100
AcDbEntity
  8
AM_4
100
AcDbLine
 10
0.0964177
 20
-2.2736211
 30
0.0
 11
0.1025390000000002
 21
-2.2619672
 31
0.0
  0
LINE
  5
18A
330
F2
100
AcDbEntity
  8
AM_4
100
AcDbLine
 10
0.1025390000000002
 20
-2.2619672
 30
0.0
 11
0.114783
 21
-2.2503136
 31
0.0
  0
LINE
  5
18B
330
F2
100
AcDbEntity
  8
AM_4
100
AcDbLine
 10
0.114783
 20
-2.2503136
 30
0.0
 11
0.127026
 21
-2.2444864
 31
0.0
  0
LINE
  5
18C
330
F2
100
AcDbEntity
  8
AM_4
100
AcDbLine
 10
0.127026
 20
-2.2444864
 30
0.0
 11
0.142331
 21
-2.2415731
 31
0.0
  0
LINE
  5
18D
330
F2
100
AcDbEntity
  8
AM_4
100
AcDbLine
 10
0.142331
 20
-2.2415731
 30
0.0
 11
0.169879
 21
-2.2415731
 31
0.0
  0
LINE
  5
18E
330
F2
100
AcDbEntity
  8
AM_4
100
AcDbLine
 10
0.169879
 20
-2.2415731
 30
0.0
 11
0.185183
 21
-2.2444864
 31
0.0
  0
LINE
  5
18F
330
F2
100
AcDbEntity
  8
AM_4
100
AcDbLine
 10
0.185183
 20
-2.2444864
 30
0.0
 11
0.197427
 21
-2.2503136
 31
0.0
  0
LINE
  5
190
330
F2
100
AcDbEntity
  8
AM_4
100
AcDbLine
 10
0.197427
 20
-2.2503136
 30
0.0
 11
0.20967
 21
-2.2619672
 31
0.0
  0
LINE
  5
191
330
F2
100
AcDbEntity
  8
AM_4
100
AcDbLine
 10
0.20967
 20
-2.2619672
 30
0.0
 11
0.212731
 21
-2.2765345
 31
0.0
  0
LINE
  5
192
330
F2
100
AcDbEntity
  8
AM_4
100
AcDbLine
 10
0.212731
 20
-2.2765345
 30
0.0
 11
0.194366
 21
-2.2765345
 31
0.0
  0
LINE
  5
193
330
F2
100
AcDbEntity
  8
AM_4
100
AcDbLine
 10
0.194366
 20
-2.2765345
 30
0.0
 11
0.191305
 21
-2.2677943
 31
0.0
  0
LINE
  5
194
330
F2
100
AcDbEntity
  8
AM_4
100
AcDbLine
 10
0.191305
 20
-2.2677943
 30
0.0
 11
0.182122
 21
-2.2619672
 31
0.0
  0
LINE
  5
195
330
F2
100
AcDbEntity
  8
AM_4
100
AcDbLine
 10
0.182122
 20
-2.2619672
 30
0.0
 11
0.169879
 21
-2.2590538
 31
0.0
  0
LINE
  5
196
330
F2
100
AcDbEntity
  8
AM_4
100
AcDbLine
 10
0.169879
 20
-2.2590538
 30
0.0
 11
0.142331
 21
-2.2590538
 31
0.0
  0
LINE
  5
197
330
F2
100
AcDbEntity
  8
AM_4
100
AcDbLine
 10
0.142331
 20
-2.2590538
 30
0.0
 11
0.130087
 21
-2.2619672
 31
0.0
  0
LINE
  5
198
330
F2
100
AcDbEntity
  8
AM_4
100
AcDbLine
 10
0.130087
 20
-2.2619672
 30
0.0
 11
0.120905
 21
-2.2677943
 31
0.0
  0
LINE
  5
199
330
F2
100
AcDbEntity
  8
AM_4
100
AcDbLine
 10
0.120905
 20
-2.2677943
 30
0.0
 11
0.114783
 21
-2.2765345
 31
0.0
  0
LINE
  5
19A
330
F2
100
AcDbEntity
  8
AM_4
100
AcDbLine
 10
0.114783
 20
-2.2765345
 30
0.0
 11
0.111722
 21
-2.2881883
 31
0.0
  0
LINE
  5
19B
330
F2
100
AcDbEntity
  8
AM_4
100
AcDbLine
 10
0.111722
 20
-2.2881883
 30
0.0
 11
0.111722
 21
-2.3318900779412
 31
0.0
  0
LINE
  5
19C
330
F2
100
AcDbEntity
  8
AM_4
100
AcDbLine
 10
0.111722
 20
-2.3318900779412
 30
0.0
 11
0.114783
 21
-2.3435439031319
 31
0.0
  0
LINE
  5
19D
330
F2
100
AcDbEntity
  8
AM_4
100
AcDbLine
 10
0.114783
 20
-2.3435439031319
 30
0.0
 11
0.120905
 21
-2.352284104702
 31
0.0
  0
LINE
  5
19E
330
F2
100
AcDbEntity
  8
AM_4
100
AcDbLine
 10
0.120905
 20
-2.352284104702
 30
0.0
 11
0.130087
 21
-2.358111273203
 31
0.0
  0
LINE
  5
19F
330
F2
100
AcDbEntity
  8
AM_4
100
AcDbLine
 10
0.130087
 20
-2.358111273203
 30
0.0
 11
0.142331
 21
-2.361024660603
 31
0.0
  0
LINE
  5
1A0
330
F2
100
AcDbEntity
  8
AM_4
100
AcDbLine
 10
0.142331
 20
-2.361024660603
 30
0.0
 11
0.169879
 21
-2.361024660603
 31
0.0
  0
LINE
  5
1A1
330
F2
100
AcDbEntity
  8
AM_4
100
AcDbLine
 10
0.169879
 20
-2.361024660603
 30
0.0
 11
0.182122
 21
-2.358111273203
 31
0.0
  0
LINE
  5
1A2
330
F2
100
AcDbEntity
  8
AM_4
100
AcDbLine
 10
0.182122
 20
-2.358111273203
 30
0.0
 11
0.191305
 21
-2.352284104702
 31
0.0
  0
LINE
  5
1A3
330
F2
100
AcDbEntity
  8
AM_4
100
AcDbLine
 10
0.191305
 20
-2.352284104702
 30
0.0
 11
0.194366
 21
-2.3435439031319
 31
0.0
  0
LINE
  5
1A4
330
F2
100
AcDbEntity
  8
AM_4
100
AcDbLine
 10
0.194366
 20
-2.3435439031319
 30
0.0
 11
0.194366
 21
-2.3202362921206
 31
0.0
  0
LINE
  5
1A5
330
F2
100
AcDbEntity
  8
AM_4
100
AcDbLine
 10
0.194366
 20
-2.3202362921206
 30
0.0
 11
0.166818
 21
-2.3202362921206
 31
0.0
  0
LINE
  5
1A6
330
F2
100
AcDbEntity
  8
AM_4
100
AcDbLine
 10
0.166818
 20
-2.3202362921206
 30
0.0
 11
0.166818
 21
-2.30275558
 31
0.0
  0
LINE
  5
1A7
330
F2
100
AcDbEntity
  8
AM_4
100
AcDbLine
 10
0.166818
 20
-2.30275558
 30
0.0
 11
0.212731
 21
-2.30275558
 31
0.0
  0
LINE
  5
1A8
330
F2
100
AcDbEntity
  8
AM_4
100
AcDbLine
 10
0.212731
 20
-2.30275558
 30
0.0
 11
0.212731
 21
-2.346457329902
 31
0.0
  0
LINE
  5
1A9
330
F2
100
AcDbEntity
  8
AM_4
100
AcDbLine
 10
0.212731
 20
-2.346457329902
 30
0.0
 11
0.20967
 21
-2.358111273203
 31
0.0
  0
LINE
  5
1AA
330
F2
100
AcDbEntity
  8
AM_4
100
AcDbLine
 10
0.20967
 20
-2.358111273203
 30
0.0
 11
0.197427
 21
-2.369764822803
 31
0.0
  0
LINE
  5
1AB
330
F2
100
AcDbEntity
  8
AM_4
100
AcDbLine
 10
0.197427
 20
-2.369764822803
 30
0.0
 11
0.185183
 21
-2.375591991304
 31
0.0
  0
LINE
  5
1AC
330
F2
100
AcDbEntity
  8
AM_4
100
AcDbLine
 10
0.185183
 20
-2.375591991304
 30
0.0
 11
0.169879
 21
-2.378505378704
 31
0.0
  0
LINE
  5
1AD
330
F2
100
AcDbEntity
  8
AM_4
100
AcDbLine
 10
0.169879
 20
-2.378505378704
 30
0.0
 11
0.142331
 21
-2.378505378704
 31
0.0
  0
LINE
  5
1AE
330
F2
100
AcDbEntity
  8
AM_4
100
AcDbLine
 10
0.142331
 20
-2.378505378704
 30
0.0
 11
0.127026
 21
-2.375591991304
 31
0.0
  0
LINE
  5
1AF
330
F2
100
AcDbEntity
  8
AM_4
100
AcDbLine
 10
0.127026
 20
-2.375591991304
 30
0.0
 11
0.114783
 21
-2.369764822803
 31
0.0
  0
LINE
  5
1B0
330
F2
100
AcDbEntity
  8
AM_4
100
AcDbLine
 10
0.114783
 20
-2.369764822803
 30
0.0
 11
0.102539
 21
-2.358111273203
 31
0.0
  0
LINE
  5
1B1
330
F2
100
AcDbEntity
  8
AM_4
100
AcDbLine
 10
0.102539
 20
-2.358111273203
 30
0.0
 11
0.0964177
 21
-2.346457329902
 31
0.0
  0
LINE
  5
1B2
330
F2
100
AcDbEntity
  8
AM_4
100
AcDbLine
 10
0.0964177
 20
-2.346457329902
 30
0.0
 11
0.0933567
 21
-2.3318900779412
 31
0.0
  0
LINE
  5
1B3
330
F2
100
AcDbEntity
  8
AM_4
100
AcDbLine
 10
0.347409
 20
-2.378505378704
 30
0.0
 11
0.237218
 21
-2.378505378704
 31
0.0
  0
LINE
  5
1B4
330
F2
100
AcDbEntity
  8
AM_4
100
AcDbLine
 10
0.237218
 20
-2.378505378704
 30
0.0
 11
0.237218
 21
-2.2415731
 31
0.0
  0
LINE
  5
1B5
330
F2
100
AcDbEntity
  8
AM_4
100
AcDbLine
 10
0.237218
 20
-2.2415731
 30
0.0
 11
0.347409
 21
-2.2415731
 31
0.0
  0
LINE
  5
1B6
330
F2
100
AcDbEntity
  8
AM_4
100
AcDbLine
 10
0.347409
 20
-2.2415731
 30
0.0
 11
0.347409
 21
-2.2590538
 31
0.0
  0
LINE
  5
1B7
330
F2
100
AcDbEntity
  8
AM_4
100
AcDbLine
 10
0.347409
 20
-2.2590538
 30
0.0
 11
0.255583
 21
-2.2590538
 31
0.0
  0
LINE
  5
1B8
330
F2
100
AcDbEntity
  8
AM_4
100
AcDbLine
 10
0.255583
 20
-2.2590538
 30
0.0
 11
0.255583
 21
-2.2969287
 31
0.0
  0
LINE
  5
1B9
330
F2
100
AcDbEntity
  8
AM_4
100
AcDbLine
 10
0.255583
 20
-2.2969287
 30
0.0
 11
0.335166
 21
-2.2969287
 31
0.0
  0
LINE
  5
1BA
330
F2
100
AcDbEntity
  8
AM_4
100
AcDbLine
 10
0.335166
 20
-2.2969287
 30
0.0
 11
0.335166
 21
-2.3144093598402
 31
0.0
  0
LINE
  5
1BB
330
F2
100
AcDbEntity
  8
AM_4
100
AcDbLine
 10
0.335166
 20
-2.3144093598402
 30
0.0
 11
0.255583
 21
-2.3144093598402
 31
0.0
  0
LINE
  5
1BC
330
F2
100
AcDbEntity
  8
AM_4
100
AcDbLine
 10
0.255583
 20
-2.3144093598402
 30
0.0
 11
0.255583
 21
-2.361024660603
 31
0.0
  0
LINE
  5
1BD
330
F2
100
AcDbEntity
  8
AM_4
100
AcDbLine
 10
0.255583
 20
-2.361024660603
 30
0.0
 11
0.347409
 21
-2.361024660603
 31
0.0
  0
LINE
  5
1BE
330
F2
100
AcDbEntity
  8
AM_4
100
AcDbLine
 10
0.347409
 20
-2.361024660603
 30
0.0
 11
0.347409
 21
-2.378505378704
 31
0.0
  0
LINE
  5
1BF
330
F2
100
AcDbEntity
  8
AM_4
100
AcDbLine
 10
-0.0654127621516703
 20
2.544331
 30
0.0
 11
0.0654127621516703
 21
2.544331
 31
0.0
  0
ARC
  5
1C0
330
F2
100
AcDbEntity
  8
AM_4
100
AcDbCircle
 10
0.0654127621516717
 20
2.524646000000002
 30
0.0
 40
0.0196849999999987
100
AcDbArc
 50
21.80123384502826
 51
90.0
  0
ARC
  5
1C1
330
F2
100
AcDbEntity
  8
AM_4
100
AcDbCircle
 10
-0.0654127621516717
 20
2.524646000000002
 30
0.0
 40
0.0196849999999986
100
AcDbArc
 50
90.0
 51
158.1987661549717
  0
LINE
  5
1C2
330
F2
100
AcDbEntity
  8
AM_4
100
AcDbLine
 10
-0.0836898482231382
 20
2.531956769435304
 30
0.0
 11
0.0836898482231382
 21
2.531956769435304
 31
0.0
  0
LINE
  5
1C3
330
F2
100
AcDbEntity
  8
AM_4
100
AcDbLine
 10
-0.0836898482231382
 20
2.531956769435304
 30
0.0
 11
-0.1048774357720923
 21
2.478987329664854
 31
0.0
  0
LINE
  5
1C4
330
F2
100
AcDbEntity
  8
AM_4
100
AcDbLine
 10
0.1048774357720923
 20
2.478987329664854
 30
0.0
 11
0.0836898482231382
 21
2.531956769435304
 31
0.0
  0
LINE
  5
1C5
330
F2
100
AcDbEntity
  8
AM_4
100
AcDbLine
 10
-0.1048774357720923
 20
2.478987329664854
 30
0.0
 11
0.1048774357720923
 21
2.478987329664854
 31
0.0
  0
ARC
  5
1C6
330
F2
100
AcDbEntity
  8
AM_4
100
AcDbCircle
 10
0.0866003497006264
 20
2.471676560229549
 30
0.0
 40
0.0196849999999989
100
AcDbArc
 50
314.15722282393
 51
21.80123384503385
  0
ARC
  5
1C7
330
F2
100
AcDbEntity
  8
AM_4
100
AcDbCircle
 10
-0.0866003497006264
 20
2.471676560229549
 30
0.0
 40
0.0196849999999987
100
AcDbArc
 50
158.1987661549662
 51
225.84277717607
  0
LINE
  5
1C8
330
F2
100
AcDbEntity
  8
AM_4
100
AcDbLine
 10
-0.1003135045832954
 20
2.457553932706178
 30
0.0
 11
0.1003135045832954
 21
2.457553932706178
 31
0.0
  0
ARC
  5
1C9
330
F2
100
AcDbEntity
  8
AM_4
100
AcDbCircle
 10
0.1498523265635419
 20
2.4065359
 30
0.0
 40
0.0711121265636121
100
AcDbArc
 50
134.1572288187566
 51
236.1447523006504
  0
ARC
  5
1CA
330
F2
100
AcDbEntity
  8
AM_4
100
AcDbCircle
 10
-0.1498523265635419
 20
2.4065359
 30
0.0
 40
0.0711121265636122
100
AcDbArc
 50
303.8552476993496
 51
45.84277118124339
  0
LINE
  5
1CB
330
F2
100
AcDbEntity
  8
AM_4
100
AcDbLine
 10
0.110236
 20
2.19
 30
0.0
 11
0.110236
 21
2.209685
 31
0.0
  0
LINE
  5
1CC
330
F2
100
AcDbEntity
  8
AM_4
100
AcDbLine
 10
-0.110236
 20
2.209685
 30
0.0
 11
-0.110236
 21
2.19
 31
0.0
  0
LINE
  5
1CD
330
F2
100
AcDbEntity
  8
AM_4
100
AcDbLine
 10
-0.110236
 20
2.347481
 30
0.0
 11
0.110236
 21
2.347481
 31
0.0
  0
LINE
  5
1CE
330
F2
100
AcDbEntity
  8
AM_4
100
AcDbLine
 10
0.110236
 20
2.327796
 30
0.0
 11
0.110236
 21
2.347481
 31
0.0
  0
LINE
  5
1CF
330
F2
100
AcDbEntity
  8
AM_4
100
AcDbLine
 10
-0.110236
 20
2.347481
 30
0.0
 11
-0.110236
 21
2.327796
 31
0.0
  0
LINE
  5
1D0
330
F2
100
AcDbEntity
  8
AM_4
100
AcDbLine
 10
-0.15748
 20
2.209685
 30
0.0
 11
0.0
 21
2.209685
 31
0.0
  0
LWPOLYLINE
  5
1D1
330
F2
100
AcDbEntity
  8
AM_4
100
AcDbPolyline
 90
        5
 70
     0
 43
0.0
 10
0.0
 20
2.216212997444414
 10
0.0778664735408017
 20
2.209686
 10
0.0796140264591983
 20
2.209686
 10
0.1273207991350541
 20
2.212282276099683
 10
0.1574805
 20
2.216212997444414
  0
LWPOLYLINE
  5
1D2
330
F2
100
AcDbEntity
  8
AM_4
100
AcDbPolyline
 90
        5
 70
     0
 43
0.0
 10
-0.1574805
 20
2.216212997444414
 10
-0.0796140264591982
 20
2.209686
 10
-0.0778664735408017
 20
2.209686
 10
-0.0301597008649459
 20
2.212282276099683
 10
0.0
 20
2.216212997444414
  0
LINE
  5
1D3
330
F2
100
AcDbEntity
  8
AM_4
100
AcDbLine
 10
0.0
 20
2.216212997444414
 30
0.0
 11
0.0
 21
2.321268002555586
 31
0.0
  0
LINE
  5
1D4
330
F2
100
AcDbEntity
  8
AM_4
100
AcDbLine
 10
-0.1574805
 20
2.209686
 30
0.0
 11
-0.1574805
 21
2.327795865227378
 31
0.0
  0
LWPOLYLINE
  5
1D5
330
F2
100
AcDbEntity
  8
AM_4
100
AcDbPolyline
 90
        3
 70
     0
 43
0.0
 10
0.0
 20
2.321268002555586
 10
-0.0779829274874965
 20
2.327795215457258
 10
-0.1574805
 20
2.321268002555586
  0
LWPOLYLINE
  5
1D6
330
F2
100
AcDbEntity
  8
AM_4
100
AcDbPolyline
 90
        3
 70
     0
 43
0.0
 10
0.1574805
 20
2.321268002555586
 10
0.0794975725125035
 20
2.327795215457258
 10
0.0
 20
2.321268002555586
  0
LINE
  5
1D7
330
F2
100
AcDbEntity
  8
AM_4
100
AcDbLine
 10
0.1574805
 20
2.327795865359485
 30
0.0
 11
0.1574805
 21
2.209686
 31
0.0
  0
CIRCLE
  5
1D8
330
F2
100
AcDbEntity
  8
AM_4
100
AcDbCircle
 10
0.0
 20
0.0
 30
0.0
 40
1.5748
  0
LINE
  5
1D9
330
F2
100
AcDbEntity
  8
AM_4
100
AcDbLine
 10
0.9842579250313016
 20
-1.707941128819456
 30
0.0
 11
1.240972400982393
 21
-1.856155300614689
 31
0.0
  0
ARC
  5
1DA
330
F2
100
AcDbEntity
  8
AM_4
100
AcDbCircle
 10
0.0000000000000018
 20
-0.0000000000000005
 30
0.0
 40
1.971249999999998
100
AcDbArc
 50
330.0458714334322
 51
29.95412856656779
  0
LINE
  5
1DB
330
F2
100
AcDbEntity
  8
AM_4
100
AcDbLine
 10
-1.707941128819454
 20
-0.9842579250313049
 30
0.0
 11
-1.856155300614689
 21
-1.240972400982392
 31
0.0
  0
ARC
  5
1DC
330
F2
100
AcDbEntity
  8
AM_4
100
AcDbCircle
 10
0.0000000000000004
 20
-0.0000000000000016
 30
0.0
 40
1.971249999999999
100
AcDbArc
 50
240.0458714334321
 51
299.9541285665678
  0
CIRCLE
  5
1DD
330
F2
100
AcDbEntity
  8
AM_4
100
AcDbCircle
 10
-1.548563850798539
 20
1.548563850798539
 30
0.0
 40
0.21875
  0
CIRCLE
  5
1DE
330
F2
100
AcDbEntity
  8
AM_4
100
AcDbCircle
 10
-1.548563850798539
 20
-1.548563850798539
 30
0.0
 40
0.21875
  0
LINE
  5
1DF
330
F2
100
AcDbEntity
  8
AM_4
100
AcDbLine
 10
1.707941128819455
 20
0.9842579250313024
 30
0.0
 11
1.856155300614689
 21
1.240972400982393
 31
0.0
  0
CIRCLE
  5
1E0
330
F2
100
AcDbEntity
  8
AM_4
100
AcDbCircle
 10
1.548563850798539
 20
1.548563850798539
 30
0.0
 40
0.21875
  0
LINE
  5
1E1
330
F2
100
AcDbEntity
  8
AM_4
100
AcDbLine
 10
1.856155300614688
 20
-1.240972400982391
 30
0.0
 11
1.707941128819454
 21
-0.9842579250313047
 31
0.0
  0
LINE
  5
1E2
330
F2
100
AcDbEntity
  8
AM_4
100
AcDbLine
 10
-1.856155300614688
 20
1.240972400982391
 30
0.0
 11
-1.707941128819454
 21
0.9842579250313047
 31
0.0
  0
ARC
  5
1E3
330
F2
100
AcDbEntity
  8
AM_4
100
AcDbCircle
 10
-0.000000000000002
 20
-0.0000000000000002
 30
0.0
 40
1.971249999999998
100
AcDbArc
 50
150.0458714334321
 51
209.9541285665679
  0
ARC
  5
1E4
330
F2
100
AcDbEntity
  8
AM_4
100
AcDbCircle
 10
1.548563850798539
 20
-1.548563850798539
 30
0.0
 40
0.4350000000000002
100
AcDbArc
 50
225.0000000000003
 51
44.99999999999989
  0
ARC
  5
1E5
330
F2
100
AcDbEntity
  8
AM_4
100
AcDbCircle
 10
-1.548563850798539
 20
-1.548563850798539
 30
0.0
 40
0.435
100
AcDbArc
 50
135.0000000000004
 51
314.9999999999998
  0
LINE
  5
1E6
330
F2
100
AcDbEntity
  8
AM_4
100
AcDbLine
 10
-1.240972400982392
 20
-1.856155300614689
 30
0.0
 11
-0.9842579250313046
 21
-1.707941128819454
 31
0.0
  0
CIRCLE
  5
1E7
330
F2
100
AcDbEntity
  8
AM_4
100
AcDbCircle
 10
1.548563850798539
 20
-1.548563850798539
 30
0.0
 40
0.21875
  0
ARC
  5
1E8
330
F2
100
AcDbEntity
  8
AM_4
100
AcDbCircle
 10
-0.0000000000000258
 20
-0.0000000000000591
 30
0.0
 40
1.971250000000064
100
AcDbArc
 50
60.04587143343237
 51
69.89473078804534
  0
LINE
  5
1E9
330
F2
100
AcDbEntity
  8
AM_4
100
AcDbLine
 10
-0.9842579250313045
 20
1.707941128819454
 30
0.0
 11
-1.240972400982392
 21
1.856155300614688
 31
0.0
  0
ARC
  5
1EA
330
F2
100
AcDbEntity
  8
AM_4
100
AcDbCircle
 10
-1.548563850798539
 20
1.548563850798539
 30
0.0
 40
0.435
100
AcDbArc
 50
45.00000000000023
 51
224.9999999999998
  0
ARC
  5
1EB
330
F2
100
AcDbEntity
  8
AM_4
100
AcDbCircle
 10
1.548563850798538
 20
1.548563850798539
 30
0.0
 40
0.4350000000000003
100
AcDbArc
 50
315.0000000000004
 51
134.9999999999999
  0
LINE
  5
1EC
330
F2
100
AcDbEntity
  8
AM_4
100
AcDbLine
 10
1.240972400982391
 20
1.856155300614688
 30
0.0
 11
0.984257925031305
 21
1.707941128819454
 31
0.0
  0
LINE
  5
1ED
330
F2
100
AcDbEntity
  8
AM_4
100
AcDbLine
 10
0.6776094149140245
 20
1.851127235853838
 30
0.0
 11
0.5868087314241588
 21
2.19
 31
0.0
  0
LINE
  5
1EE
330
F2
100
AcDbEntity
  8
AM_4
100
AcDbLine
 10
0.5868087314241588
 20
2.19
 30
0.0
 11
-0.5868087314241588
 21
2.19
 31
0.0
  0
LINE
  5
1EF
330
F2
100
AcDbEntity
  8
AM_4
100
AcDbLine
 10
-0.5868087314241588
 20
2.19
 30
0.0
 11
-0.6776094149140254
 21
1.851127235853838
 31
0.0
  0
ARC
  5
1F0
330
F2
100
AcDbEntity
  8
AM_4
100
AcDbCircle
 10
0.0000000000000313
 20
-0.0000000000000759
 30
0.0
 40
1.971250000000082
100
AcDbArc
 50
110.1052692119547
 51
119.9541285665675
  0
ENDBLK
  5
F5
330
F2
100
AcDbEntity
  8
0
100
AcDbBlockEnd
  0
ENDSEC
  0
SECTION
  2
ENTITIES
  0
INSERT
  5
6F
330
1F
100
AcDbEntity
  8
0
100
AcDbBlockReference
  2
1_129741_0
 10
0.0
 20
0.0
 30
0.0
  0
POINT
  5
1F2
330
1F
100
AcDbEntity
  8
ConnectionPoints
100
AcDbPoint
 10
0.0
 20
0.0000000000000002
 30
0.7799999999999998
  0
POINT
  5
1F3
330
1F
100
AcDbEntity
  8
ConnectionPoints
100
AcDbPoint
 10
0.0
 20
0.0000000000000002
 30
2.01
  0
POINT
  5
1F4
330
1F
100
AcDbEntity
  8
ConnectionPoints
100
AcDbPoint
 10
0.0
 20
0.0
 30
2.01
  0
POINT
  5
1F5
330
1F
100
AcDbEntity
  8
ConnectionPoints
100
AcDbPoint
 10
0.0
 20
0.0
 30
2.01
  0
ENDSEC
  0
SECTION
  2
OBJECTS
  0
DICTIONARY
  5
C
330
0
100
AcDbDictionary
281
     1
  3
ACAD_DETAILVIEWSTYLE
350
1FD
  3
ACAD_GROUP
350
D
  3
ACAD_LAYOUT
350
1A
  3
ACAD_MATERIAL
350
43
  3
ACAD_MLEADERSTYLE
350
6B
  3
ACAD_MLINESTYLE
350
17
  3
ACAD_PLOTSETTINGS
350
19
  3
ACAD_PLOTSTYLENAME
350
E
  3
ACAD_SCALELIST
350
47
  3
ACAD_SECTIONVIEWSTYLE
350
1FE
  3
ACAD_TABLESTYLE
350
69
  3
ACAD_VISUALSTYLE
350
2A
  3
ACDB_RECOMPOSE_DATA
350
1FA
  3
AcDbVariableDictionary
350
1F6
  0
SUN
  5
6D
330
29
100
AcDbSun
 90
        1
290
     0
 63
     7
421
 16777215
 40
1.0
291
     1
 91
  2455826
 92
 54000000
292
     0
 70
     2
 71
   256
280
     1
  0
DICTIONARY
  5
1FD
102
{ACAD_REACTORS
330
C
102
}
330
C
100
AcDbDictionary
281
     1
  0
DICTIONARY
  5
D
102
{ACAD_REACTORS
330
C
102
}
330
C
100
AcDbDictionary
281
     1
  0
DICTIONARY
  5
1A
102
{ACAD_REACTORS
330
C
102
}
330
C
100
AcDbDictionary
281
     1
  3
Layout1
350
1E
  3
Layout2
350
26
  3
Model
350
22
  0
DICTIONARY
  5
43
102
{ACAD_REACTORS
330
C
102
}
330
C
100
AcDbDictionary
281
     1
  3
ByBlock
350
45
  3
ByLayer
350
44
  3
Global
350
46
  0
DICTIONARY
  5
6B
102
{ACAD_REACTORS
330
C
102
}
330
C
100
AcDbDictionary
281
     1
  3
Standard
350
6C
  0
DICTIONARY
  5
17
102
{ACAD_REACTORS
330
C
102
}
330
C
100
AcDbDictionary
281
     1
  3
Standard
350
18
  0
DICTIONARY
  5
19
102
{ACAD_REACTORS
330
C
102
}
330
C
100
AcDbDictionary
281
     1
  0
ACDBDICTIONARYWDFLT
  5
E
102
{ACAD_REACTORS
330
C
102
}
330
C
100
AcDbDictionary
281
     1
  3
Normal
350
F
100
AcDbDictionaryWithDefault
340
F
  0
DICTIONARY
  5
47
102
{ACAD_REACTORS
330
C
102
}
330
C
100
AcDbDictionary
281
     1
  3
A0
350
48
  3
A1
350
49
  3
A2
350
4A
  3
A3
350
4B
  3
A4
350
4C
  3
A5
350
4D
  3
A6
350
4E
  3
A7
350
4F
  3
A8
350
50
  3
A9
350
51
  3
B0
350
52
  3
B1
350
53
  3
B2
350
54
  3
B3
350
55
  3
B4
350
56
  3
B5
350
57
  3
B6
350
58
  3
B7
350
59
  3
B8
350
5A
  3
B9
350
5B
  3
C0
350
5C
  3
C1
350
5D
  3
C2
350
5E
  3
C3
350
5F
  3
C4
350
60
  3
C5
350
61
  3
C6
350
62
  3
C7
350
63
  3
C8
350
64
  3
C9
350
65
  3
D0
350
66
  3
D1
350
67
  3
D2
350
68
  0
DICTIONARY
  5
1FE
102
{ACAD_REACTORS
330
C
102
}
330
C
100
AcDbDictionary
281
     1
  0
DICTIONARY
  5
69
102
{ACAD_REACTORS
330
C
102
}
330
C
100
AcDbDictionary
281
     1
  3
Standard
350
6A
  0
DICTIONARY
  5
2A
102
{ACAD_REACTORS
330
C
102
}
330
C
100
AcDbDictionary
281
     1
  3
2dWireframe
350
2F
  3
Basic
350
32
  3
Brighten
350
36
  3
ColorChange
350
3A
  3
Conceptual
350
34
  3
Dim
350
35
  3
EdgeColorOff
350
3D
  3
Facepattern
350
39
  3
Flat
350
2B
  3
FlatWithEdges
350
2C
  3
Gouraud
350
2D
  3
GouraudWithEdges
350
2E
  3
Hidden
350
31
  3
JitterOff
350
3B
  3
Linepattern
350
38
  3
OverhangOff
350
3C
  3
Realistic
350
33
  3
Shaded
350
42
  3
Shaded with edges
350
41
  3
Shades of Gray
350
3E
  3
Sketchy
350
3F
  3
Thicken
350
37
  3
Wireframe
350
30
  3
X-Ray
350
40
  0
XRECORD
  5
1FA
102
{ACAD_REACTORS
330
C
102
}
330
C
100
AcDbXrecord
280
     1
 90
        1
330
6A
  0
DICTIONARY
  5
1F6
102
{ACAD_REACTORS
330
C
102
}
330
C
100
AcDbDictionary
281
     1
  3
CANNOSCALE
350
1F7
  3
CMLEADERSTYLE
350
1FC
  3
CTABLESTYLE
350
1FB
  0
LAYOUT
  5
1E
102
{ACAD_REACTORS
330
1A
102
}
330
1A
100
AcDbPlotSettings
  1

  2
none_device
  4

  6

 40
0.0
 41
0.0
 42
0.0
 43
0.0
 44
0.0
 45
0.0
 46
0.0
 47
0.0
 48
0.0
 49
0.0
140
0.0
141
0.0
142
1.0
143
1.0
 70
   688
 72
     0
 73
     0
 74
     5
  7

 75
    16
 76
     0
 77
     2
 78
   300
147
1.0
148
0.0
149
0.0
100
AcDbLayout
  1
Layout1
 70
     1
 71
     1
 10
0.0
 20
0.0
 11
12.0
 21
9.0
 12
0.0
 22
0.0
 32
0.0
 14
1.000000000000000E+20
 24
1.000000000000000E+20
 34
1.000000000000000E+20
 15
-1.000000000000000E+20
 25
-1.000000000000000E+20
 35
-1.000000000000000E+20
146
0.0
 13
0.0
 23
0.0
 33
0.0
 16
1.0
 26
0.0
 36
0.0
 17
0.0
 27
1.0
 37
0.0
 76
     0
330
1B
  0
LAYOUT
  5
26
102
{ACAD_REACTORS
330
1A
102
}
330
1A
100
AcDbPlotSettings
  1

  2
none_device
  4

  6

 40
0.0
 41
0.0
 42
0.0
 43
0.0
 44
0.0
 45
0.0
 46
0.0
 47
0.0
 48
0.0
 49
0.0
140
0.0
141
0.0
142
1.0
143
1.0
 70
   688
 72
     0
 73
     0
 74
     5
  7

 75
    16
 76
     0
 77
     2
 78
   300
147
1.0
148
0.0
149
0.0
100
AcDbLayout
  1
Layout2
 70
     1
 71
     2
 10
0.0
 20
0.0
 11
0.0
 21
0.0
 12
0.0
 22
0.0
 32
0.0
 14
0.0
 24
0.0
 34
0.0
 15
0.0
 25
0.0
 35
0.0
146
0.0
 13
0.0
 23
0.0
 33
0.0
 16
1.0
 26
0.0
 36
0.0
 17
0.0
 27
1.0
 37
0.0
 76
     0
330
23
  0
LAYOUT
  5
22
102
{ACAD_REACTORS
330
1A
102
}
330
1A
100
AcDbPlotSettings
  1

  2
none_device
  4
Letter_(8.50_x_11.00_Inches)
  6

 40
6.35
 41
6.35
 42
6.35000508
 43
6.35000508
 44
215.9
 45
279.4
 46
0.0
 47
0.0
 48
0.0
 49
0.0
140
0.0
141
0.0
142
1.0
143
1.0
 70
  1712
 72
     0
 73
     0
 74
     0
  7

 75
     0
 76
     0
 77
     2
 78
   300
147
1.0
148
0.0
149
0.0
100
AcDbLayout
  1
Model
 70
     1
 71
     0
 10
0.0
 20
0.0
 11
12.0
 21
9.0
 12
0.0
 22
0.0
 32
0.0
 14
1.000000000000000E+20
 24
1.000000000000000E+20
 34
1.000000000000000E+20
 15
-1.000000000000000E+20
 25
-1.000000000000000E+20
 35
-1.000000000000000E+20
146
0.0
 13
0.0
 23
0.0
 33
0.0
 16
1.0
 26
0.0
 36
0.0
 17
0.0
 27
1.0
 37
0.0
 76
     0
330
1F
331
29
  0
MATERIAL
  5
45
102
{ACAD_REACTORS
330
43
102
}
330
43
100
AcDbMaterial
  1
ByBlock
 72
     1
 94
      127
  0
MATERIAL
  5
44
102
{ACAD_REACTORS
330
43
102
}
330
43
100
AcDbMaterial
  1
ByLayer
 72
     1
 94
      127
  0
MATERIAL
  5
46
102
{ACAD_REACTORS
330
43
102
}
330
43
100
AcDbMaterial
  1
Global
 72
     1
 94
      127
  0
MLEADERSTYLE
  5
6C
102
{ACAD_REACTORS
330
6B
102
}
330
6B
100
AcDbMLeaderStyle
179
     2
170
     2
171
     1
172
     0
 90
        2
 40
0.0
 41
0.0
173
     1
 91
-1056964608
340
14
 92
       -2
290
     1
 42
0.09
291
     1
 43
0.36
  3
Standard
341
0
 44
0.18
300

342
11
174
     1
178
     6
175
     1
176
     0
 93
-1056964608
 45
0.18
292
     0
297
     0
 46
0.18
343
0
 94
-1056964608
 47
1.0
 49
1.0
140
1.0
293
     1
141
0.0
294
     1
177
     0
142
1.0
295
     0
296
     0
143
0.125
271
     0
272
     9
273
     9
298
     0
  0
MLINESTYLE
  5
18
102
{ACAD_REACTORS
330
17
102
}
330
17
100
AcDbMlineStyle
  2
Standard
 70
     0
  3

 62
   256
 51
90.0
 52
90.0
 71
     2
 49
0.5
 62
   256
  6
BYLAYER
 49
-0.5
 62
   256
  6
BYLAYER
  0
ACDBPLACEHOLDER
  5
F
102
{ACAD_REACTORS
330
E
102
}
330
E
  0
SCALE
  5
48
102
{ACAD_REACTORS
330
47
102
}
330
47
100
AcDbScale
 70
     0
300
1:1
140
1.0
141
1.0
290
     1
  0
SCALE
  5
49
102
{ACAD_REACTORS
330
47
102
}
330
47
100
AcDbScale
 70
     0
300
1:2
140
1.0
141
2.0
290
     0
  0
SCALE
  5
4A
102
{ACAD_REACTORS
330
47
102
}
330
47
100
AcDbScale
 70
     0
300
1:4
140
1.0
141
4.0
290
     0
  0
SCALE
  5
4B
102
{ACAD_REACTORS
330
47
102
}
330
47
100
AcDbScale
 70
     0
300
1:5
140
1.0
141
5.0
290
     0
  0
SCALE
  5
4C
102
{ACAD_REACTORS
330
47
102
}
330
47
100
AcDbScale
 70
     0
300
1:8
140
1.0
141
8.0
290
     0
  0
SCALE
  5
4D
102
{ACAD_REACTORS
330
47
102
}
330
47
100
AcDbScale
 70
     0
300
1:10
140
1.0
141
10.0
290
     0
  0
SCALE
  5
4E
102
{ACAD_REACTORS
330
47
102
}
330
47
100
AcDbScale
 70
     0
300
1:16
140
1.0
141
16.0
290
     0
  0
SCALE
  5
4F
102
{ACAD_REACTORS
330
47
102
}
330
47
100
AcDbScale
 70
     0
300
1:20
140
1.0
141
20.0
290
     0
  0
SCALE
  5
50
102
{ACAD_REACTORS
330
47
102
}
330
47
100
AcDbScale
 70
     0
300
1:30
140
1.0
141
30.0
290
     0
  0
SCALE
  5
51
102
{ACAD_REACTORS
330
47
102
}
330
47
100
AcDbScale
 70
     0
300
1:40
140
1.0
141
40.0
290
     0
  0
SCALE
  5
52
102
{ACAD_REACTORS
330
47
102
}
330
47
100
AcDbScale
 70
     0
300
1:50
140
1.0
141
50.0
290
     0
  0
SCALE
  5
53
102
{ACAD_REACTORS
330
47
102
}
330
47
100
AcDbScale
 70
     0
300
1:100
140
1.0
141
100.0
290
     0
  0
SCALE
  5
54
102
{ACAD_REACTORS
330
47
102
}
330
47
100
AcDbScale
 70
     0
300
2:1
140
2.0
141
1.0
290
     0
  0
SCALE
  5
55
102
{ACAD_REACTORS
330
47
102
}
330
47
100
AcDbScale
 70
     0
300
4:1
140
4.0
141
1.0
290
     0
  0
SCALE
  5
56
102
{ACAD_REACTORS
330
47
102
}
330
47
100
AcDbScale
 70
     0
300
8:1
140
8.0
141
1.0
290
     0
  0
SCALE
  5
57
102
{ACAD_REACTORS
330
47
102
}
330
47
100
AcDbScale
 70
     0
300
10:1
140
10.0
141
1.0
290
     0
  0
SCALE
  5
58
102
{ACAD_REACTORS
330
47
102
}
330
47
100
AcDbScale
 70
     0
300
100:1
140
100.0
141
1.0
290
     0
  0
SCALE
  5
59
102
{ACAD_REACTORS
330
47
102
}
330
47
100
AcDbScale
 70
     0
300
1/128" = 1'-0"
140
0.0078125
141
12.0
290
     0
  0
SCALE
  5
5A
102
{ACAD_REACTORS
330
47
102
}
330
47
100
AcDbScale
 70
     0
300
1/64" = 1'-0"
140
0.015625
141
12.0
290
     0
  0
SCALE
  5
5B
102
{ACAD_REACTORS
330
47
102
}
330
47
100
AcDbScale
 70
     0
300
1/32" = 1'-0"
140
0.03125
141
12.0
290
     0
  0
SCALE
  5
5C
102
{ACAD_REACTORS
330
47
102
}
330
47
100
AcDbScale
 70
     0
300
1/16" = 1'-0"
140
0.0625
141
12.0
290
     0
  0
SCALE
  5
5D
102
{ACAD_REACTORS
330
47
102
}
330
47
100
AcDbScale
 70
     0
300
3/32" = 1'-0"
140
0.09375
141
12.0
290
     0
  0
SCALE
  5
5E
102
{ACAD_REACTORS
330
47
102
}
330
47
100
AcDbScale
 70
     0
300
1/8" = 1'-0"
140
0.125
141
12.0
290
     0
  0
SCALE
  5
5F
102
{ACAD_REACTORS
330
47
102
}
330
47
100
AcDbScale
 70
     0
300
3/16" = 1'-0"
140
0.1875
141
12.0
290
     0
  0
SCALE
  5
60
102
{ACAD_REACTORS
330
47
102
}
330
47
100
AcDbScale
 70
     0
300
1/4" = 1'-0"
140
0.25
141
12.0
290
     0
  0
SCALE
  5
61
102
{ACAD_REACTORS
330
47
102
}
330
47
100
AcDbScale
 70
     0
300
3/8" = 1'-0"
140
0.375
141
12.0
290
     0
  0
SCALE
  5
62
102
{ACAD_REACTORS
330
47
102
}
330
47
100
AcDbScale
 70
     0
300
1/2" = 1'-0"
140
0.5
141
12.0
290
     0
  0
SCALE
  5
63
102
{ACAD_REACTORS
330
47
102
}
330
47
100
AcDbScale
 70
     0
300
3/4" = 1'-0"
140
0.75
141
12.0
290
     0
  0
SCALE
  5
64
102
{ACAD_REACTORS
330
47
102
}
330
47
100
AcDbScale
 70
     0
300
1" = 1'-0"
140
1.0
141
12.0
290
     0
  0
SCALE
  5
65
102
{ACAD_REACTORS
330
47
102
}
330
47
100
AcDbScale
 70
     0
300
1-1/2" = 1'-0"
140
1.5
141
12.0
290
     0
  0
SCALE
  5
66
102
{ACAD_REACTORS
330
47
102
}
330
47
100
AcDbScale
 70
     0
300
3" = 1'-0"
140
3.0
141
12.0
290
     0
  0
SCALE
  5
67
102
{ACAD_REACTORS
330
47
102
}
330
47
100
AcDbScale
 70
     0
300
6" = 1'-0"
140
6.0
141
12.0
290
     0
  0
SCALE
  5
68
102
{ACAD_REACTORS
330
47
102
}
330
47
100
AcDbScale
 70
     0
300
1'-0" = 1'-0"
140
12.0
141
12.0
290
     0
  0
TABLESTYLE
  5
6A
102
{ACAD_REACTORS
330
69
102
}
102
{ACAD_XDICTIONARY
360
1F8
102
}
330
69
100
AcDbTableStyle
  3
Standard
 70
     0
 71
     0
 40
0.06
 41
0.06
280
     0
281
     0
  7
Standard
140
0.18
170
     2
 62
     0
 63
   257
283
     0
 90
        4
 91
        0
  1

274
    -2
284
     1
 64
     0
275
    -2
285
     1
 65
     0
276
    -2
286
     1
 66
     0
277
    -2
287
     1
 67
     0
278
    -2
288
     1
 68
     0
279
    -2
289
     1
 69
     0
  7
Standard
140
0.25
170
     5
 62
     0
 63
   257
283
     0
 90
        4
 91
        0
  1

274
    -2
284
     1
 64
     0
275
    -2
285
     1
 65
     0
276
    -2
286
     1
 66
     0
277
    -2
287
     1
 67
     0
278
    -2
288
     1
 68
     0
279
    -2
289
     1
 69
     0
  7
Standard
140
0.18
170
     5
 62
     0
 63
   257
283
     0
 90
        4
 91
        0
  1

274
    -2
284
     1
 64
     0
275
    -2
285
     1
 65
     0
276
    -2
286
     1
 66
     0
277
    -2
287
     1
 67
     0
278
    -2
288
     1
 68
     0
279
    -2
289
     1
 69
     0
  0
VISUALSTYLE
  5
2F
102
{ACAD_REACTORS
330
2A
102
}
330
2A
100
AcDbVisualStyle
  2
2dWireframe
 70
     4
177
     3
291
     0
 70
    58
 90
        0
176
     1
 90
        2
176
     1
 90
        0
176
     1
 90
        0
176
     1
 40
0.6
176
     1
 40
30.0
176
     1
 62
     7
420
 16777215
176
     1
 90
        1
176
     1
 90
        4
176
     1
 62
     7
176
     1
 62
   257
176
     1
 90
        1
176
     1
 90
        1
176
     1
 40
1.0
176
     1
 90
        0
176
     1
 62
   257
176
     1
 40
1.0
176
     1
 90
        1
176
     1
 90
        6
176
     1
 90
        2
176
     1
 62
     7
176
     1
 90
        5
176
     1
 90
        0
176
     1
 90
        0
176
     1
290
     0
176
     1
 90
        1
176
     1
 40
0.0
176
     1
 90
        0
176
     1
290
     1
176
     1
290
     1
176
     1
290
     0
176
     1
290
     0
176
     1
290
     0
176
     1
290
     0
176
     1
290
     0
176
     1
290
     0
176
     1
290
     0
176
     1
 90
       50
176
     1
 40
0.0
176
     1
 40
1.0
176
     1
 90
        0
176
     1
 62
    18
420
        0
176
     1
 90
       50
176
     1
 90
        3
176
     1
 62
     5
420
      255
176
     1
290
     0
176
     1
 90
       50
176
     1
 90
       50
176
     1
 90
       50
176
     1
290
     0
176
     1
 90
       50
176
     1
 62
   256
176
     0
 40
1.0
176
     0
 90
        2
176
     1
  1
strokes_ogs.tif
176
     1
290
     0
176
     1
 40
1.0
176
     1
 40
1.0
176
     1
  0
VISUALSTYLE
  5
32
102
{ACAD_REACTORS
330
2A
102
}
330
2A
100
AcDbVisualStyle
  2
Basic
 70
     7
177
     3
291
     1
 70
    58
 90
        1
176
     1
 90
        0
176
     1
 90
        1
176
     1
 90
        0
176
     1
 40
0.6
176
     1
 40
30.0
176
     1
 62
     7
420
 16777215
176
     1
 90
        0
176
     1
 90
        4
176
     1
 62
     7
176
     1
 62
   257
176
     1
 90
        1
176
     1
 90
        1
176
     1
 40
1.0
176
     1
 90
        8
176
     1
 62
     7
176
     1
 40
1.0
176
     1
 90
        1
176
     1
 90
        6
176
     1
 90
        2
176
     1
 62
     7
176
     1
 90
        5
176
     1
 90
        0
176
     1
 90
        0
176
     1
290
     0
176
     1
 90
        1
176
     1
 40
0.0
176
     1
 90
        0
176
     1
290
     0
176
     1
290
     1
176
     1
290
     1
176
     1
290
     0
176
     1
290
     0
176
     1
290
     0
176
     1
290
     0
176
     1
290
     0
176
     1
290
     0
176
     1
 90
       50
176
     1
 40
0.0
176
     1
 40
1.0
176
     1
 90
        0
176
     1
 62
    18
420
        0
176
     1
 90
       50
176
     1
 90
        3
176
     1
 62
     5
420
      255
176
     1
290
     0
176
     1
 90
       50
176
     1
 90
       50
176
     1
 90
       50
176
     1
290
     0
176
     1
 90
       50
176
     1
 62
   256
176
     0
 40
1.0
176
     0
 90
        2
176
     1
  1
strokes_ogs.tif
176
     1
290
     0
176
     1
 40
1.0
176
     1
 40
1.0
176
     1
  0
VISUALSTYLE
  5
36
102
{ACAD_REACTORS
330
2A
102
}
330
2A
100
AcDbVisualStyle
  2
Brighten
 70
    12
177
     3
291
     1
 70
    58
 90
        2
176
     1
 90
        2
176
     1
 90
        0
176
     1
 90
        0
176
     1
 40
0.6
176
     1
 40
30.0
176
     1
 62
     7
420
 16777215
176
     1
 90
        1
176
     1
 90
        4
176
     1
 62
     7
176
     1
 62
   257
176
     1
 90
        1
176
     1
 90
        1
176
     1
 40
1.0
176
     1
 90
        8
176
     1
 62
     7
176
     1
 40
1.0
176
     1
 90
        1
176
     1
 90
        6
176
     1
 90
        2
176
     1
 62
     7
176
     1
 90
        5
176
     1
 90
        0
176
     1
 90
        0
176
     1
290
     0
176
     1
 90
        1
176
     1
 40
50.0
176
     1
 90
        0
176
     1
290
     0
176
     1
290
     1
176
     1
290
     1
176
     1
290
     0
176
     1
290
     0
176
     1
290
     0
176
     1
290
     0
176
     1
290
     0
176
     1
290
     0
176
     1
 90
       50
176
     1
 40
0.0
176
     1
 40
1.0
176
     1
 90
        0
176
     1
 62
    18
420
        0
176
     1
 90
       50
176
     1
 90
        3
176
     1
 62
     5
420
      255
176
     1
290
     0
176
     1
 90
       50
176
     1
 90
       50
176
     1
 90
       50
176
     1
290
     0
176
     1
 90
       50
176
     1
 62
   256
176
     0
 40
1.0
176
     0
 90
        2
176
     1
  1
strokes_ogs.tif
176
     1
290
     0
176
     1
 40
1.0
176
     1
 40
1.0
176
     1
  0
VISUALSTYLE
  5
3A
102
{ACAD_REACTORS
330
2A
102
}
330
2A
100
AcDbVisualStyle
  2
ColorChange
 70
    16
177
     3
291
     1
 70
    58
 90
        2
176
     1
 90
        2
176
     1
 90
        3
176
     1
 90
        0
176
     1
 40
0.6
176
     1
 40
30.0
176
     1
 62
     8
420
  8421504
176
     1
 90
        1
176
     1
 90
        4
176
     1
 62
     7
176
     1
 62
   257
176
     1
 90
        1
176
     1
 90
        1
176
     1
 40
1.0
176
     1
 90
        8
176
     1
 62
     8
420
  8421504
176
     1
 40
1.0
176
     1
 90
        1
176
     1
 90
        6
176
     1
 90
        2
176
     1
 62
     7
176
     1
 90
        5
176
     1
 90
        0
176
     1
 90
        0
176
     1
290
     0
176
     1
 90
        1
176
     1
 40
0.0
176
     1
 90
        0
176
     1
290
     0
176
     1
290
     1
176
     1
290
     1
176
     1
290
     0
176
     1
290
     0
176
     1
290
     0
176
     1
290
     0
176
     1
290
     0
176
     1
290
     0
176
     1
 90
       50
176
     1
 40
0.0
176
     1
 40
1.0
176
     1
 90
        0
176
     1
 62
    18
420
        0
176
     1
 90
       50
176
     1
 90
        3
176
     1
 62
     5
420
      255
176
     1
290
     0
176
     1
 90
       50
176
     1
 90
       50
176
     1
 90
       50
176
     1
290
     0
176
     1
 90
       50
176
     1
 62
   256
176
     0
 40
1.0
176
     0
 90
        2
176
     1
  1
strokes_ogs.tif
176
     1
290
     0
176
     1
 40
1.0
176
     1
 40
1.0
176
     1
  0
VISUALSTYLE
  5
34
102
{ACAD_REACTORS
330
2A
102
}
330
2A
100
AcDbVisualStyle
  2
Conceptual
 70
     9
177
     3
291
     0
 70
    58
 90
        3
176
     1
 90
        2
176
     1
 90
        0
176
     1
 90
        0
176
     1
 40
0.6
176
     1
 40
30.0
176
     1
 62
     7
420
 16777215
176
     1
 90
        2
176
     1
 90
        2
176
     1
 62
     7
176
     1
 62
   257
176
     1
 90
        1
176
     1
 90
        1
176
     1
 40
179.0
176
     1
 90
        8
176
     1
 62
     7
176
     1
 40
1.0
176
     1
 90
        1
176
     1
 90
        6
176
     1
 90
        2
176
     1
 62
     7
176
     1
 90
        3
176
     1
 90
        0
176
     1
 90
        0
176
     1
290
     0
176
     1
 90
        1
176
     1
 40
0.0
176
     1
 90
        0
176
     1
290
     0
176
     1
290
     1
176
     1
290
     1
176
     1
290
     0
176
     1
290
     0
176
     1
290
     0
176
     1
290
     0
176
     1
290
     0
176
     1
290
     0
176
     1
 90
       50
176
     1
 40
0.0
176
     1
 40
1.0
176
     1
 90
        0
176
     1
 62
    18
420
        0
176
     1
 90
       50
176
     1
 90
        3
176
     1
 62
     5
420
      255
176
     1
290
     0
176
     1
 90
       50
176
     1
 90
       50
176
     1
 90
       50
176
     1
290
     0
176
     1
 90
       50
176
     1
 62
   256
176
     0
 40
1.0
176
     0
 90
        2
176
     1
  1
strokes_ogs.tif
176
     1
290
     0
176
     1
 40
1.0
176
     1
 40
1.0
176
     1
  0
VISUALSTYLE
  5
35
102
{ACAD_REACTORS
330
2A
102
}
330
2A
100
AcDbVisualStyle
  2
Dim
 70
    11
177
     3
291
     1
 70
    58
 90
        2
176
     1
 90
        2
176
     1
 90
        0
176
     1
 90
        0
176
     1
 40
0.6
176
     1
 40
30.0
176
     1
 62
     7
420
 16777215
176
     1
 90
        1
176
     1
 90
        4
176
     1
 62
     7
176
     1
 62
   257
176
     1
 90
        1
176
     1
 90
        1
176
     1
 40
1.0
176
     1
 90
        8
176
     1
 62
     7
176
     1
 40
1.0
176
     1
 90
        1
176
     1
 90
        6
176
     1
 90
        2
176
     1
 62
     7
176
     1
 90
        5
176
     1
 90
        0
176
     1
 90
        0
176
     1
290
     0
176
     1
 90
        1
176
     1
 40
-50.0
176
     1
 90
        0
176
     1
290
     0
176
     1
290
     1
176
     1
290
     1
176
     1
290
     0
176
     1
290
     0
176
     1
290
     0
176
     1
290
     0
176
     1
290
     0
176
     1
290
     0
176
     1
 90
       50
176
     1
 40
0.0
176
     1
 40
1.0
176
     1
 90
        0
176
     1
 62
    18
420
        0
176
     1
 90
       50
176
     1
 90
        3
176
     1
 62
     5
420
      255
176
     1
290
     0
176
     1
 90
       50
176
     1
 90
       50
176
     1
 90
       50
176
     1
290
     0
176
     1
 90
       50
176
     1
 62
   256
176
     0
 40
1.0
176
     0
 90
        2
176
     1
  1
strokes_ogs.tif
176
     1
290
     0
176
     1
 40
1.0
176
     1
 40
1.0
176
     1
  0
VISUALSTYLE
  5
3D
102
{ACAD_REACTORS
330
2A
102
}
330
2A
100
AcDbVisualStyle
  2
EdgeColorOff
 70
    22
177
     3
291
     1
 70
    58
 90
        2
176
     0
 90
        2
176
     0
 90
        0
176
     0
 90
        0
176
     0
 40
0.6
176
     0
 40
30.0
176
     0
 62
     7
420
 16777215
176
     0
 90
        1
176
     0
 90
        4
176
     0
 62
     7
176
     0
 62
   257
176
     0
 90
        1
176
     0
 90
        1
176
     0
 40
1.0
176
     0
 90
        8
176
     2
 62
     7
176
     0
 40
1.0
176
     0
 90
        1
176
     0
 90
        6
176
     0
 90
        2
176
     0
 62
     7
176
     0
 90
        5
176
     0
 90
        0
176
     0
 90
        0
176
     0
290
     0
176
     0
 90
        1
176
     0
 40
0.0
176
     0
 90
        0
176
     0
290
     0
176
     0
290
     1
176
     0
290
     1
176
     0
290
     0
176
     0
290
     0
176
     0
290
     0
176
     0
290
     0
176
     0
290
     0
176
     0
290
     0
176
     0
 90
       50
176
     0
 40
0.0
176
     0
 40
1.0
176
     0
 90
        0
176
     0
 62
    18
420
        0
176
     0
 90
       50
176
     0
 90
        3
176
     0
 62
     5
420
      255
176
     0
290
     0
176
     0
 90
       50
176
     0
 90
       50
176
     0
 90
       50
176
     0
290
     0
176
     0
 90
       50
176
     0
 62
   256
176
     0
 40
1.0
176
     0
 90
        2
176
     0
  1
strokes_ogs.tif
176
     0
290
     0
176
     0
 40
1.0
176
     0
 40
1.0
176
     0
  0
VISUALSTYLE
  5
39
102
{ACAD_REACTORS
330
2A
102
}
330
2A
100
AcDbVisualStyle
  2
Facepattern
 70
    15
177
     3
291
     1
 70
    58
 90
        2
176
     1
 90
        2
176
     1
 90
        0
176
     1
 90
        0
176
     1
 40
0.6
176
     1
 40
30.0
176
     1
 62
     7
420
 16777215
176
     1
 90
        1
176
     1
 90
        4
176
     1
 62
     7
176
     1
 62
   257
176
     1
 90
        1
176
     1
 90
        1
176
     1
 40
1.0
176
     1
 90
        8
176
     1
 62
     7
176
     1
 40
1.0
176
     1
 90
        1
176
     1
 90
        6
176
     1
 90
        2
176
     1
 62
     7
176
     1
 90
        5
176
     1
 90
        0
176
     1
 90
        0
176
     1
290
     0
176
     1
 90
        1
176
     1
 40
0.0
176
     1
 90
        0
176
     1
290
     0
176
     1
290
     1
176
     1
290
     1
176
     1
290
     0
176
     1
290
     0
176
     1
290
     0
176
     1
290
     0
176
     1
290
     0
176
     1
290
     0
176
     1
 90
       50
176
     1
 40
0.0
176
     1
 40
1.0
176
     1
 90
        0
176
     1
 62
    18
420
        0
176
     1
 90
       50
176
     1
 90
        3
176
     1
 62
     5
420
      255
176
     1
290
     0
176
     1
 90
       50
176
     1
 90
       50
176
     1
 90
       50
176
     1
290
     0
176
     1
 90
       50
176
     1
 62
   256
176
     0
 40
1.0
176
     0
 90
        2
176
     1
  1
strokes_ogs.tif
176
     1
290
     0
176
     1
 40
1.0
176
     1
 40
1.0
176
     1
  0
VISUALSTYLE
  5
2B
102
{ACAD_REACTORS
330
2A
102
}
330
2A
100
AcDbVisualStyle
  2
Flat
 70
     0
177
     3
291
     1
 70
    58
 90
        2
176
     1
 90
        1
176
     1
 90
        1
176
     1
 90
        2
176
     1
 40
0.6
176
     1
 40
30.0
176
     1
 62
     7
420
 16777215
176
     1
 90
        0
176
     1
 90
        0
176
     1
 62
     7
176
     1
 62
   257
176
     1
 90
        1
176
     1
 90
        1
176
     1
 40
1.0
176
     1
 90
        8
176
     1
 62
     7
176
     1
 40
1.0
176
     1
 90
        1
176
     1
 90
        6
176
     1
 90
        2
176
     1
 62
     7
176
     1
 90
        5
176
     1
 90
        0
176
     1
 90
        0
176
     1
290
     0
176
     1
 90
       13
176
     1
 40
0.0
176
     1
 90
        0
176
     1
290
     0
176
     1
290
     1
176
     1
290
     1
176
     1
290
     0
176
     1
290
     0
176
     1
290
     0
176
     1
290
     0
176
     1
290
     0
176
     1
290
     0
176
     1
 90
       50
176
     1
 40
0.0
176
     1
 40
1.0
176
     1
 90
        0
176
     1
 62
    18
420
        0
176
     1
 90
       50
176
     1
 90
        3
176
     1
 62
     5
420
      255
176
     1
290
     0
176
     1
 90
       50
176
     1
 90
       50
176
     1
 90
       50
176
     1
290
     0
176
     1
 90
       50
176
     1
 62
   256
176
     0
 40
1.0
176
     0
 90
        2
176
     1
  1
strokes_ogs.tif
176
     1
290
     0
176
     1
 40
1.0
176
     1
 40
1.0
176
     1
  0
VISUALSTYLE
  5
2C
102
{ACAD_REACTORS
330
2A
102
}
330
2A
100
AcDbVisualStyle
  2
FlatWithEdges
 70
     1
177
     3
291
     1
 70
    58
 90
        2
176
     1
 90
        1
176
     1
 90
        1
176
     1
 90
        2
176
     1
 40
0.6
176
     1
 40
30.0
176
     1
 62
     7
420
 16777215
176
     1
 90
        1
176
     1
 90
        0
176
     1
 62
     7
176
     1
 62
   257
176
     1
 90
        1
176
     1
 90
        1
176
     1
 40
1.0
176
     1
 90
        0
176
     1
 62
   257
176
     1
 40
1.0
176
     1
 90
        1
176
     1
 90
        6
176
     1
 90
        2
176
     1
 62
     7
176
     1
 90
        5
176
     1
 90
        0
176
     1
 90
        0
176
     1
290
     0
176
     1
 90
       13
176
     1
 40
0.0
176
     1
 90
        0
176
     1
290
     0
176
     1
290
     1
176
     1
290
     1
176
     1
290
     0
176
     1
290
     0
176
     1
290
     0
176
     1
290
     0
176
     1
290
     0
176
     1
290
     0
176
     1
 90
       50
176
     1
 40
0.0
176
     1
 40
1.0
176
     1
 90
        0
176
     1
 62
    18
420
        0
176
     1
 90
       50
176
     1
 90
        3
176
     1
 62
     5
420
      255
176
     1
290
     0
176
     1
 90
       50
176
     1
 90
       50
176
     1
 90
       50
176
     1
290
     0
176
     1
 90
       50
176
     1
 62
   256
176
     0
 40
1.0
176
     0
 90
        2
176
     1
  1
strokes_ogs.tif
176
     1
290
     0
176
     1
 40
1.0
176
     1
 40
1.0
176
     1
  0
VISUALSTYLE
  5
2D
102
{ACAD_REACTORS
330
2A
102
}
330
2A
100
AcDbVisualStyle
  2
Gouraud
 70
     2
177
     3
291
     1
 70
    58
 90
        2
176
     1
 90
        2
176
     1
 90
        1
176
     1
 90
        2
176
     1
 40
0.6
176
     1
 40
30.0
176
     1
 62
     7
420
 16777215
176
     1
 90
        0
176
     1
 90
        0
176
     1
 62
     7
176
     1
 62
   257
176
     1
 90
        1
176
     1
 90
        1
176
     1
 40
1.0
176
     1
 90
        0
176
     1
 62
     7
176
     1
 40
1.0
176
     1
 90
        1
176
     1
 90
        6
176
     1
 90
        2
176
     1
 62
     7
176
     1
 90
        5
176
     1
 90
        0
176
     1
 90
        0
176
     1
290
     0
176
     1
 90
       13
176
     1
 40
0.0
176
     1
 90
        0
176
     1
290
     0
176
     1
290
     1
176
     1
290
     1
176
     1
290
     0
176
     1
290
     0
176
     1
290
     0
176
     1
290
     0
176
     1
290
     0
176
     1
290
     0
176
     1
 90
       50
176
     1
 40
0.0
176
     1
 40
1.0
176
     1
 90
        0
176
     1
 62
    18
420
        0
176
     1
 90
       50
176
     1
 90
        3
176
     1
 62
     5
420
      255
176
     1
290
     0
176
     1
 90
       50
176
     1
 90
       50
176
     1
 90
       50
176
     1
290
     0
176
     1
 90
       50
176
     1
 62
   256
176
     0
 40
1.0
176
     0
 90
        2
176
     1
  1
strokes_ogs.tif
176
     1
290
     0
176
     1
 40
1.0
176
     1
 40
1.0
176
     1
  0
VISUALSTYLE
  5
2E
102
{ACAD_REACTORS
330
2A
102
}
330
2A
100
AcDbVisualStyle
  2
GouraudWithEdges
 70
     3
177
     3
291
     1
 70
    58
 90
        2
176
     1
 90
        2
176
     1
 90
        1
176
     1
 90
        2
176
     1
 40
0.6
176
     1
 40
30.0
176
     1
 62
     7
420
 16777215
176
     1
 90
        1
176
     1
 90
        0
176
     1
 62
     7
176
     1
 62
   257
176
     1
 90
        1
176
     1
 90
        1
176
     1
 40
1.0
176
     1
 90
        0
176
     1
 62
   257
176
     1
 40
1.0
176
     1
 90
        1
176
     1
 90
        6
176
     1
 90
        2
176
     1
 62
     7
176
     1
 90
        5
176
     1
 90
        0
176
     1
 90
        0
176
     1
290
     0
176
     1
 90
       13
176
     1
 40
0.0
176
     1
 90
        0
176
     1
290
     0
176
     1
290
     1
176
     1
290
     1
176
     1
290
     0
176
     1
290
     0
176
     1
290
     0
176
     1
290
     0
176
     1
290
     0
176
     1
290
     0
176
     1
 90
       50
176
     1
 40
0.0
176
     1
 40
1.0
176
     1
 90
        0
176
     1
 62
    18
420
        0
176
     1
 90
       50
176
     1
 90
        3
176
     1
 62
     5
420
      255
176
     1
290
     0
176
     1
 90
       50
176
     1
 90
       50
176
     1
 90
       50
176
     1
290
     0
176
     1
 90
       50
176
     1
 62
   256
176
     0
 40
1.0
176
     0
 90
        2
176
     1
  1
strokes_ogs.tif
176
     1
290
     0
176
     1
 40
1.0
176
     1
 40
1.0
176
     1
  0
VISUALSTYLE
  5
31
102
{ACAD_REACTORS
330
2A
102
}
330
2A
100
AcDbVisualStyle
  2
Hidden
 70
     6
177
     3
291
     0
 70
    58
 90
        1
176
     1
 90
        2
176
     1
 90
        2
176
     1
 90
        0
176
     1
 40
0.6
176
     1
 40
30.0
176
     1
 62
     7
420
 16777215
176
     1
 90
        2
176
     1
 90
        2
176
     1
 62
     7
176
     1
 62
   257
176
     1
 90
        2
176
     1
 90
        1
176
     1
 40
40.0
176
     1
 90
        0
176
     1
 62
   257
176
     1
 40
1.0
176
     1
 90
        1
176
     1
 90
        6
176
     1
 90
        2
176
     1
 62
     7
176
     1
 90
        3
176
     1
 90
        0
176
     1
 90
        0
176
     1
290
     0
176
     1
 90
        1
176
     1
 40
0.0
176
     1
 90
        0
176
     1
290
     0
176
     1
290
     1
176
     1
290
     1
176
     1
290
     0
176
     1
290
     0
176
     1
290
     0
176
     1
290
     0
176
     1
290
     0
176
     1
290
     0
176
     1
 90
       50
176
     1
 40
0.0
176
     1
 40
1.0
176
     1
 90
        0
176
     1
 62
    18
420
        0
176
     1
 90
       50
176
     1
 90
        3
176
     1
 62
     5
420
      255
176
     1
290
     0
176
     1
 90
       50
176
     1
 90
       50
176
     1
 90
       50
176
     1
290
     0
176
     1
 90
       50
176
     1
 62
   256
176
     0
 40
1.0
176
     0
 90
        2
176
     1
  1
strokes_ogs.tif
176
     1
290
     0
176
     1
 40
1.0
176
     1
 40
1.0
176
     1
  0
VISUALSTYLE
  5
3B
102
{ACAD_REACTORS
330
2A
102
}
330
2A
100
AcDbVisualStyle
  2
JitterOff
 70
    20
177
     3
291
     1
 70
    58
 90
        2
176
     0
 90
        2
176
     0
 90
        0
176
     0
 90
        0
176
     0
 40
0.6
176
     0
 40
30.0
176
     0
 62
     7
420
 16777215
176
     0
 90
        1
176
     0
 90
        4
176
     0
 62
     7
176
     0
 62
   257
176
     0
 90
        1
176
     0
 90
        1
176
     0
 40
1.0
176
     0
 90
       10
176
     2
 62
     7
176
     0
 40
1.0
176
     0
 90
        1
176
     0
 90
        6
176
     0
 90
        2
176
     0
 62
     7
176
     0
 90
        5
176
     0
 90
        0
176
     0
 90
        0
176
     0
290
     0
176
     0
 90
        1
176
     0
 40
0.0
176
     0
 90
        0
176
     0
290
     0
176
     0
290
     1
176
     0
290
     1
176
     0
290
     0
176
     0
290
     0
176
     0
290
     0
176
     0
290
     0
176
     0
290
     0
176
     0
290
     0
176
     0
 90
       50
176
     0
 40
0.0
176
     0
 40
1.0
176
     0
 90
        0
176
     0
 62
    18
420
        0
176
     0
 90
       50
176
     0
 90
        3
176
     0
 62
     5
420
      255
176
     0
290
     0
176
     0
 90
       50
176
     0
 90
       50
176
     0
 90
       50
176
     0
290
     0
176
     0
 90
       50
176
     0
 62
   256
176
     0
 40
1.0
176
     0
 90
        2
176
     0
  1
strokes_ogs.tif
176
     0
290
     0
176
     0
 40
1.0
176
     0
 40
1.0
176
     0
  0
VISUALSTYLE
  5
38
102
{ACAD_REACTORS
330
2A
102
}
330
2A
100
AcDbVisualStyle
  2
Linepattern
 70
    14
177
     3
291
     1
 70
    58
 90
        2
176
     1
 90
        2
176
     1
 90
        0
176
     1
 90
        0
176
     1
 40
0.6
176
     1
 40
30.0
176
     1
 62
     7
420
 16777215
176
     1
 90
        1
176
     1
 90
        4
176
     1
 62
     7
176
     1
 62
   257
176
     1
 90
        7
176
     1
 90
        7
176
     1
 40
1.0
176
     1
 90
        8
176
     1
 62
     7
176
     1
 40
1.0
176
     1
 90
        1
176
     1
 90
        6
176
     1
 90
        2
176
     1
 62
     7
176
     1
 90
        5
176
     1
 90
        0
176
     1
 90
        0
176
     1
290
     0
176
     1
 90
        1
176
     1
 40
0.0
176
     1
 90
        0
176
     1
290
     0
176
     1
290
     1
176
     1
290
     1
176
     1
290
     0
176
     1
290
     0
176
     1
290
     0
176
     1
290
     0
176
     1
290
     0
176
     1
290
     0
176
     1
 90
       50
176
     1
 40
0.0
176
     1
 40
1.0
176
     1
 90
        0
176
     1
 62
    18
420
        0
176
     1
 90
       50
176
     1
 90
        3
176
     1
 62
     5
420
      255
176
     1
290
     0
176
     1
 90
       50
176
     1
 90
       50
176
     1
 90
       50
176
     1
290
     0
176
     1
 90
       50
176
     1
 62
   256
176
     0
 40
1.0
176
     0
 90
        2
176
     1
  1
strokes_ogs.tif
176
     1
290
     0
176
     1
 40
1.0
176
     1
 40
1.0
176
     1
  0
VISUALSTYLE
  5
3C
102
{ACAD_REACTORS
330
2A
102
}
330
2A
100
AcDbVisualStyle
  2
OverhangOff
 70
    21
177
     3
291
     1
 70
    58
 90
        2
176
     0
 90
        2
176
     0
 90
        0
176
     0
 90
        0
176
     0
 40
0.6
176
     0
 40
30.0
176
     0
 62
     7
420
 16777215
176
     0
 90
        1
176
     0
 90
        4
176
     0
 62
     7
176
     0
 62
   257
176
     0
 90
        1
176
     0
 90
        1
176
     0
 40
1.0
176
     0
 90
        9
176
     2
 62
     7
176
     0
 40
1.0
176
     0
 90
        1
176
     0
 90
        6
176
     0
 90
        2
176
     0
 62
     7
176
     0
 90
        5
176
     0
 90
        0
176
     0
 90
        0
176
     0
290
     0
176
     0
 90
        1
176
     0
 40
0.0
176
     0
 90
        0
176
     0
290
     0
176
     0
290
     1
176
     0
290
     1
176
     0
290
     0
176
     0
290
     0
176
     0
290
     0
176
     0
290
     0
176
     0
290
     0
176
     0
290
     0
176
     0
 90
       50
176
     0
 40
0.0
176
     0
 40
1.0
176
     0
 90
        0
176
     0
 62
    18
420
        0
176
     0
 90
       50
176
     0
 90
        3
176
     0
 62
     5
420
      255
176
     0
290
     0
176
     0
 90
       50
176
     0
 90
       50
176
     0
 90
       50
176
     0
290
     0
176
     0
 90
       50
176
     0
 62
   256
176
     0
 40
1.0
176
     0
 90
        2
176
     0
  1
strokes_ogs.tif
176
     0
290
     0
176
     0
 40
1.0
176
     0
 40
1.0
176
     0
  0
VISUALSTYLE
  5
33
102
{ACAD_REACTORS
330
2A
102
}
330
2A
100
AcDbVisualStyle
  2
Realistic
 70
     8
177
     3
291
     0
 70
    58
 90
        2
176
     1
 90
        3
176
     1
 90
        0
176
     1
 90
        2
176
     1
 40
0.6
176
     1
 40
30.0
176
     1
 62
     7
420
 16777215
176
     1
 90
        0
176
     1
 90
        0
176
     1
 62
     7
176
     1
 62
   257
176
     1
 90
        1
176
     1
 90
        1
176
     1
 40
1.0
176
     1
 90
        8
176
     1
 62
   257
176
     1
 40
1.0
176
     1
 90
        1
176
     1
 90
        6
176
     1
 90
        2
176
     1
 62
     7
176
     1
 90
        3
176
     1
 90
        0
176
     1
 90
        0
176
     1
290
     0
176
     1
 90
       13
176
     1
 40
0.0
176
     1
 90
        0
176
     1
290
     0
176
     1
290
     1
176
     1
290
     1
176
     1
290
     0
176
     1
290
     0
176
     1
290
     0
176
     1
290
     0
176
     1
290
     0
176
     1
290
     0
176
     1
 90
       50
176
     1
 40
0.0
176
     1
 40
1.0
176
     1
 90
        0
176
     1
 62
    18
420
        0
176
     1
 90
       50
176
     1
 90
        3
176
     1
 62
     5
420
      255
176
     1
290
     0
176
     1
 90
       50
176
     1
 90
       50
176
     1
 90
       50
176
     1
290
     0
176
     1
 90
       50
176
     1
 62
   256
176
     0
 40
1.0
176
     0
 90
        2
176
     1
  1
strokes_ogs.tif
176
     1
290
     0
176
     1
 40
1.0
176
     1
 40
1.0
176
     1
  0
VISUALSTYLE
  5
42
102
{ACAD_REACTORS
330
2A
102
}
330
2A
100
AcDbVisualStyle
  2
Shaded
 70
    27
177
     3
291
     0
 70
    58
 90
        2
176
     1
 90
        2
176
     1
 90
        1
176
     1
 90
        2
176
     1
 40
0.6
176
     1
 40
30.0
176
     1
 62
     7
420
 16777215
176
     1
 90
        0
176
     1
 90
        4
176
     1
 62
     7
176
     1
 62
   257
176
     1
 90
        1
176
     1
 90
        1
176
     1
 40
1.0
176
     1
 90
        8
176
     1
 62
   257
176
     1
 40
1.0
176
     1
 90
        1
176
     1
 90
        6
176
     1
 90
        2
176
     1
 62
     8
420
  7895160
176
     1
 90
        3
176
     1
 90
        0
176
     1
 90
        0
176
     1
290
     0
176
     1
 90
        5
176
     1
 40
0.0
176
     1
 90
        0
176
     1
290
     0
176
     1
290
     1
176
     1
290
     1
176
     1
290
     0
176
     1
290
     0
176
     1
290
     0
176
     1
290
     0
176
     1
290
     0
176
     1
290
     0
176
     1
 90
       50
176
     1
 40
0.0
176
     1
 40
1.0
176
     1
 90
        0
176
     1
 62
    18
420
        0
176
     1
 90
       50
176
     1
 90
        3
176
     1
 62
     5
420
      255
176
     1
290
     0
176
     1
 90
       50
176
     1
 90
       50
176
     1
 90
       50
176
     1
290
     0
176
     1
 90
       50
176
     1
 62
   256
176
     0
 40
1.0
176
     0
 90
        2
176
     1
  1
strokes_ogs.tif
176
     1
290
     0
176
     1
 40
1.0
176
     1
 40
1.0
176
     1
  0
VISUALSTYLE
  5
41
102
{ACAD_REACTORS
330
2A
102
}
330
2A
100
AcDbVisualStyle
  2
Shaded with edges
 70
    26
177
     3
291
     0
 70
    58
 90
        2
176
     1
 90
        2
176
     1
 90
        1
176
     1
 90
        2
176
     1
 40
0.6
176
     1
 40
30.0
176
     1
 62
     7
420
 16777215
176
     1
 90
        1
176
     1
 90
       10
176
     1
 62
     7
176
     1
 62
   257
176
     1
 90
        2
176
     1
 90
        1
176
     1
 40
1.0
176
     1
 90
        8
176
     1
 62
   257
176
     1
 40
1.0
176
     1
 90
        1
176
     1
 90
        6
176
     1
 90
        2
176
     1
 62
     7
176
     1
 90
        3
176
     1
 90
        0
176
     1
 90
        0
176
     1
290
     0
176
     1
 90
        5
176
     1
 40
0.0
176
     1
 90
        0
176
     1
290
     0
176
     1
290
     1
176
     1
290
     1
176
     1
290
     0
176
     1
290
     0
176
     1
290
     0
176
     1
290
     0
176
     1
290
     0
176
     1
290
     0
176
     1
 90
       50
176
     1
 40
0.0
176
     1
 40
1.0
176
     1
 90
        0
176
     1
 62
    18
420
        0
176
     1
 90
       50
176
     1
 90
        3
176
     1
 62
     5
420
      255
176
     1
290
     0
176
     1
 90
       50
176
     1
 90
       50
176
     1
 90
       50
176
     1
290
     0
176
     1
 90
       50
176
     1
 62
   256
176
     0
 40
1.0
176
     0
 90
        2
176
     1
  1
strokes_ogs.tif
176
     1
290
     0
176
     1
 40
1.0
176
     1
 40
1.0
176
     1
  0
VISUALSTYLE
  5
3E
102
{ACAD_REACTORS
330
2A
102
}
330
2A
100
AcDbVisualStyle
  2
Shades of Gray
 70
    23
177
     3
291
     0
 70
    58
 90
        2
176
     1
 90
        2
176
     1
 90
        3
176
     1
 90
        0
176
     1
 40
0.6
176
     1
 40
30.0
176
     1
 62
     7
420
 16777215
176
     1
 90
        2
176
     1
 90
        2
176
     1
 62
     7
176
     1
 62
     7
176
     1
 90
        1
176
     1
 90
        1
176
     1
 40
40.0
176
     1
 90
        8
176
     1
 62
     7
176
     1
 40
1.0
176
     1
 90
        1
176
     1
 90
        6
176
     1
 90
        2
176
     1
 62
     7
176
     1
 90
        3
176
     1
 90
        0
176
     1
 90
        0
176
     1
290
     0
176
     1
 90
        1
176
     1
 40
0.0
176
     1
 90
        0
176
     1
290
     0
176
     1
290
     1
176
     1
290
     1
176
     1
290
     0
176
     1
290
     0
176
     1
290
     0
176
     1
290
     0
176
     1
290
     0
176
     1
290
     0
176
     1
 90
       50
176
     1
 40
0.0
176
     1
 40
1.0
176
     1
 90
        0
176
     1
 62
    18
420
        0
176
     1
 90
       50
176
     1
 90
        3
176
     1
 62
     5
420
      255
176
     1
290
     0
176
     1
 90
       50
176
     1
 90
       50
176
     1
 90
       50
176
     1
290
     0
176
     1
 90
       50
176
     1
 62
   256
176
     0
 40
1.0
176
     0
 90
        2
176
     1
  1
strokes_ogs.tif
176
     1
290
     0
176
     1
 40
1.0
176
     1
 40
1.0
176
     1
  0
VISUALSTYLE
  5
3F
102
{ACAD_REACTORS
330
2A
102
}
330
2A
100
AcDbVisualStyle
  2
Sketchy
 70
    24
177
     3
291
     0
 70
    58
 90
        1
176
     1
 90
        2
176
     1
 90
        2
176
     1
 90
        0
176
     1
 40
0.6
176
     1
 40
30.0
176
     1
 62
     7
420
 16777215
176
     1
 90
        2
176
     1
 90
        2
176
     1
 62
     7
176
     1
 62
     7
176
     1
 90
        1
176
     1
 90
        1
176
     1
 40
40.0
176
     1
 90
       11
176
     1
 62
     7
176
     1
 40
1.0
176
     1
 90
        1
176
     1
 90
        6
176
     1
 90
        2
176
     1
 62
     7
176
     1
 90
        6
176
     1
 90
        0
176
     1
 90
        0
176
     1
290
     0
176
     1
 90
        1
176
     1
 40
0.0
176
     1
 90
        0
176
     1
290
     0
176
     1
290
     1
176
     1
290
     1
176
     1
290
     0
176
     1
290
     0
176
     1
290
     0
176
     1
290
     0
176
     1
290
     0
176
     1
290
     0
176
     1
 90
       50
176
     1
 40
0.0
176
     1
 40
1.0
176
     1
 90
        0
176
     1
 62
    18
420
        0
176
     1
 90
       50
176
     1
 90
        3
176
     1
 62
     5
420
      255
176
     1
290
     0
176
     1
 90
       50
176
     1
 90
       50
176
     1
 90
       50
176
     1
290
     0
176
     1
 90
       50
176
     1
 62
   256
176
     0
 40
1.0
176
     0
 90
        2
176
     1
  1
strokes_ogs.tif
176
     1
290
     0
176
     1
 40
1.0
176
     1
 40
1.0
176
     1
  0
VISUALSTYLE
  5
37
102
{ACAD_REACTORS
330
2A
102
}
330
2A
100
AcDbVisualStyle
  2
Thicken
 70
    13
177
     3
291
     1
 70
    58
 90
        2
176
     1
 90
        2
176
     1
 90
        0
176
     1
 90
        0
176
     1
 40
0.6
176
     1
 40
30.0
176
     1
 62
     7
420
 16777215
176
     1
 90
        1
176
     1
 90
        4
176
     1
 62
     7
176
     1
 62
   257
176
     1
 90
        1
176
     1
 90
        1
176
     1
 40
1.0
176
     1
 90
       12
176
     1
 62
     7
176
     1
 40
1.0
176
     1
 90
        1
176
     1
 90
        6
176
     1
 90
        2
176
     1
 62
     7
176
     1
 90
        5
176
     1
 90
        0
176
     1
 90
        0
176
     1
290
     0
176
     1
 90
        1
176
     1
 40
0.0
176
     1
 90
        0
176
     1
290
     0
176
     1
290
     1
176
     1
290
     1
176
     1
290
     0
176
     1
290
     0
176
     1
290
     0
176
     1
290
     0
176
     1
290
     0
176
     1
290
     0
176
     1
 90
       50
176
     1
 40
0.0
176
     1
 40
1.0
176
     1
 90
        0
176
     1
 62
    18
420
        0
176
     1
 90
       50
176
     1
 90
        3
176
     1
 62
     5
420
      255
176
     1
290
     0
176
     1
 90
       50
176
     1
 90
       50
176
     1
 90
       50
176
     1
290
     0
176
     1
 90
       50
176
     1
 62
   256
176
     0
 40
1.0
176
     0
 90
        2
176
     1
  1
strokes_ogs.tif
176
     1
290
     0
176
     1
 40
1.0
176
     1
 40
1.0
176
     1
  0
VISUALSTYLE
  5
30
102
{ACAD_REACTORS
330
2A
102
}
330
2A
100
AcDbVisualStyle
  2
Wireframe
 70
     5
177
     3
291
     0
 70
    58
 90
        0
176
     1
 90
        2
176
     1
 90
        0
176
     1
 90
        0
176
     1
 40
0.6
176
     1
 40
30.0
176
     1
 62
     7
420
 16777215
176
     1
 90
        1
176
     1
 90
        4
176
     1
 62
     7
176
     1
 62
   257
176
     1
 90
        1
176
     1
 90
        1
176
     1
 40
1.0
176
     1
 90
        0
176
     1
 62
   257
176
     1
 40
1.0
176
     1
 90
        1
176
     1
 90
        6
176
     1
 90
        2
176
     1
 62
     7
176
     1
 90
        3
176
     1
 90
        0
176
     1
 90
        0
176
     1
290
     0
176
     1
 90
        1
176
     1
 40
0.0
176
     1
 90
        0
176
     1
290
     0
176
     1
290
     1
176
     1
290
     1
176
     1
290
     0
176
     1
290
     0
176
     1
290
     0
176
     1
290
     0
176
     1
290
     0
176
     1
290
     0
176
     1
 90
       50
176
     1
 40
0.0
176
     1
 40
1.0
176
     1
 90
        0
176
     1
 62
    18
420
        0
176
     1
 90
       50
176
     1
 90
        3
176
     1
 62
     5
420
      255
176
     1
290
     0
176
     1
 90
       50
176
     1
 90
       50
176
     1
 90
       50
176
     1
290
     0
176
     1
 90
       50
176
     1
 62
   256
176
     0
 40
1.0
176
     0
 90
        2
176
     1
  1
strokes_ogs.tif
176
     1
290
     0
176
     1
 40
1.0
176
     1
 40
1.0
176
     1
  0
VISUALSTYLE
  5
40
102
{ACAD_REACTORS
330
2A
102
}
330
2A
100
AcDbVisualStyle
  2
X-Ray
 70
    25
177
     3
291
     0
 70
    58
 90
        2
176
     1
 90
        2
176
     1
 90
        1
176
     1
 90
        1
176
     1
 40
0.5
176
     1
 40
30.0
176
     1
 62
     7
420
 16777215
176
     1
 90
        1
176
     1
 90
        0
176
     1
 62
     7
176
     1
 62
   257
176
     1
 90
        1
176
     1
 90
        1
176
     1
 40
1.0
176
     1
 90
        8
176
     1
 62
     7
176
     1
 40
1.0
176
     1
 90
        1
176
     1
 90
        6
176
     1
 90
        2
176
     1
 62
     7
176
     1
 90
        3
176
     1
 90
        0
176
     1
 90
        0
176
     1
290
     0
176
     1
 90
       13
176
     1
 40
0.0
176
     1
 90
        0
176
     1
290
     0
176
     1
290
     1
176
     1
290
     1
176
     1
290
     0
176
     1
290
     0
176
     1
290
     0
176
     1
290
     0
176
     1
290
     0
176
     1
290
     0
176
     1
 90
       50
176
     1
 40
0.0
176
     1
 40
1.0
176
     1
 90
        0
176
     1
 62
    18
420
        0
176
     1
 90
       50
176
     1
 90
        3
176
     1
 62
     5
420
      255
176
     1
290
     0
176
     1
 90
       50
176
     1
 90
       50
176
     1
 90
       50
176
     1
290
     0
176
     1
 90
       50
176
     1
 62
   256
176
     0
 40
1.0
176
     0
 90
        2
176
     1
  1
strokes_ogs.tif
176
     1
290
     0
176
     1
 40
1.0
176
     1
 40
1.0
176
     1
  0
DICTIONARYVAR
  5
1F7
102
{ACAD_REACTORS
330
1F6
102
}
330
1F6
100
DictionaryVariables
280
     0
  1
1:1
  0
DICTIONARYVAR
  5
1FC
102
{ACAD_REACTORS
330
1F6
102
}
330
1F6
100
DictionaryVariables
280
     0
  1
Standard
  0
DICTIONARYVAR
  5
1FB
102
{ACAD_REACTORS
330
1F6
102
}
330
1F6
100
DictionaryVariables
280
     0
  1
Standard
  0
DICTIONARY
  5
1F8
330
6A
100
AcDbDictionary
280
     1
281
     1
  3
ACAD_ROUNDTRIP_2008_TABLESTYLE_CELLSTYLEMAP
360
1F9
  0
CELLSTYLEMAP
  5
1F9
102
{ACAD_REACTORS
330
1F8
102
}
330
1F8
100
AcDbCellStyleMap
 90
        3
300
CELLSTYLE
  1
TABLEFORMAT_BEGIN
 90
        5
170
     1
 91
        0
 92
    32768
 62
   257
 93
        1
300
CONTENTFORMAT
  1
CONTENTFORMAT_BEGIN
 90
        0
 91
        0
 92
        4
 93
        0
300

 40
0.0
140
1.0
 94
        5
 62
     0
340
11
144
0.25
309
CONTENTFORMAT_END
171
     1
301
MARGIN
  1
CELLMARGIN_BEGIN
 40
0.06
 40
0.06
 40
0.06
 40
0.06
 40
0.06
 40
0.06
309
CELLMARGIN_END
 94
        6
 95
        1
302
GRIDFORMAT
  1
GRIDFORMAT_BEGIN
 90
        0
 91
        1
 62
     0
 92
       -2
340
14
 93
        0
 40
0.045
309
GRIDFORMAT_END
 95
        2
302
GRIDFORMAT
  1
GRIDFORMAT_BEGIN
 90
        0
 91
        1
 62
     0
 92
       -2
340
14
 93
        0
 40
0.045
309
GRIDFORMAT_END
 95
        4
302
GRIDFORMAT
  1
GRIDFORMAT_BEGIN
 90
        0
 91
        1
 62
     0
 92
       -2
340
14
 93
        0
 40
0.045
309
GRIDFORMAT_END
 95
        8
302
GRIDFORMAT
  1
GRIDFORMAT_BEGIN
 90
        0
 91
        1
 62
     0
 92
       -2
340
14
 93
        0
 40
0.045
309
GRIDFORMAT_END
 95
       16
302
GRIDFORMAT
  1
GRIDFORMAT_BEGIN
 90
        0
 91
        1
 62
     0
 92
       -2
340
14
 93
        0
 40
0.045
309
GRIDFORMAT_END
 95
       32
302
GRIDFORMAT
  1
GRIDFORMAT_BEGIN
 90
        0
 91
        1
 62
     0
 92
       -2
340
14
 93
        0
 40
0.045
309
GRIDFORMAT_END
309
TABLEFORMAT_END
  1
CELLSTYLE_BEGIN
 90
        1
 91
        1
300
_TITLE
309
CELLSTYLE_END
300
CELLSTYLE
  1
TABLEFORMAT_BEGIN
 90
        5
170
     1
 91
        0
 92
        0
 62
   257
 93
        1
300
CONTENTFORMAT
  1
CONTENTFORMAT_BEGIN
 90
        0
 91
        0
 92
        4
 93
        0
300

 40
0.0
140
1.0
 94
        5
 62
     0
340
11
144
0.18
309
CONTENTFORMAT_END
171
     1
301
MARGIN
  1
CELLMARGIN_BEGIN
 40
0.06
 40
0.06
 40
0.06
 40
0.06
 40
0.06
 40
0.06
309
CELLMARGIN_END
 94
        6
 95
        1
302
GRIDFORMAT
  1
GRIDFORMAT_BEGIN
 90
        0
 91
        1
 62
     0
 92
       -2
340
14
 93
        0
 40
0.045
309
GRIDFORMAT_END
 95
        2
302
GRIDFORMAT
  1
GRIDFORMAT_BEGIN
 90
        0
 91
        1
 62
     0
 92
       -2
340
14
 93
        0
 40
0.045
309
GRIDFORMAT_END
 95
        4
302
GRIDFORMAT
  1
GRIDFORMAT_BEGIN
 90
        0
 91
        1
 62
     0
 92
       -2
340
14
 93
        0
 40
0.045
309
GRIDFORMAT_END
 95
        8
302
GRIDFORMAT
  1
GRIDFORMAT_BEGIN
 90
        0
 91
        1
 62
     0
 92
       -2
340
14
 93
        0
 40
0.045
309
GRIDFORMAT_END
 95
       16
302
GRIDFORMAT
  1
GRIDFORMAT_BEGIN
 90
        0
 91
        1
 62
     0
 92
       -2
340
14
 93
        0
 40
0.045
309
GRIDFORMAT_END
 95
       32
302
GRIDFORMAT
  1
GRIDFORMAT_BEGIN
 90
        0
 91
        1
 62
     0
 92
       -2
340
14
 93
        0
 40
0.045
309
GRIDFORMAT_END
309
TABLEFORMAT_END
  1
CELLSTYLE_BEGIN
 90
        2
 91
        1
300
_HEADER
309
CELLSTYLE_END
300
CELLSTYLE
  1
TABLEFORMAT_BEGIN
 90
        5
170
     1
 91
        0
 92
        0
 62
   257
 93
        1
300
CONTENTFORMAT
  1
CONTENTFORMAT_BEGIN
 90
        0
 91
        0
 92
        4
 93
        0
300

 40
0.0
140
1.0
 94
        2
 62
     0
340
11
144
0.18
309
CONTENTFORMAT_END
171
     1
301
MARGIN
  1
CELLMARGIN_BEGIN
 40
0.06
 40
0.06
 40
0.06
 40
0.06
 40
0.06
 40
0.06
309
CELLMARGIN_END
 94
        6
 95
        1
302
GRIDFORMAT
  1
GRIDFORMAT_BEGIN
 90
        0
 91
        1
 62
     0
 92
       -2
340
14
 93
        0
 40
0.045
309
GRIDFORMAT_END
 95
        2
302
GRIDFORMAT
  1
GRIDFORMAT_BEGIN
 90
        0
 91
        1
 62
     0
 92
       -2
340
14
 93
        0
 40
0.045
309
GRIDFORMAT_END
 95
        4
302
GRIDFORMAT
  1
GRIDFORMAT_BEGIN
 90
        0
 91
        1
 62
     0
 92
       -2
340
14
 93
        0
 40
0.045
309
GRIDFORMAT_END
 95
        8
302
GRIDFORMAT
  1
GRIDFORMAT_BEGIN
 90
        0
 91
        1
 62
     0
 92
       -2
340
14
 93
        0
 40
0.045
309
GRIDFORMAT_END
 95
       16
302
GRIDFORMAT
  1
GRIDFORMAT_BEGIN
 90
        0
 91
        1
 62
     0
 92
       -2
340
14
 93
        0
 40
0.045
309
GRIDFORMAT_END
 95
       32
302
GRIDFORMAT
  1
GRIDFORMAT_BEGIN
 90
        0
 91
        1
 62
     0
 92
       -2
340
14
 93
        0
 40
0.045
309
GRIDFORMAT_END
309
TABLEFORMAT_END
  1
CELLSTYLE_BEGIN
 90
        3
 91
        2
300
_DATA
309
CELLSTYLE_END
  0
ENDSEC
  0
EOF