0
SECTION
  2
HEADER
  9
$ACADVER
  1
AC1027
  9
$ACADMAINTVER
 70
   105
  9
$DWGCODEPAGE
  3
ANSI_1252
  9
$REQUIREDVERSIONS
160
                 0
  9
$COMMENTS
  1
File was created by Cadenas
  9
$CUSTOMPROPERTYTAG
  1
NN
  9
$CUSTOMPROPERTY
  1
Grip Tight Flange Cartridge Metric Bore
  9
$CUSTOMPROPERTYTAG
  1
NT
  9
$CUSTOMPROPERTY
  1
GT Normal Duty Piloted Flange Bearings
  9
$CUSTOMPROPERTYTAG
  1
NB
  9
$CUSTOMPROPERTY
  1
129738
  9
$CUSTOMPROPERTYTAG
  1
NBSYN
  9
$CUSTOMPROPERTY
  1
$PN.
  9
$CUSTOMPROPERTYTAG
  1
LINA
  9
$CUSTOMPROPERTY
  1
129738
  9
$CUSTOMPROPERTYTAG
  1
SERIES
  9
$CUSTOMPROPERTY
  1
207
  9
$CUSTOMPROPERTYTAG
  1
SS
  9
$CUSTOMPROPERTY
  1
1-1/4
  9
$CUSTOMPROPERTYTAG
  1
PN
  9
$CUSTOMPROPERTY
  1
129738
  9
$CUSTOMPROPERTYTAG
  1
DESCRIPTION
  9
$CUSTOMPROPERTY
  1
FC-GT-104
  9
$CUSTOMPROPERTYTAG
  1
PNSL
  9
$CUSTOMPROPERTY
  1
129502
  9
$CUSTOMPROPERTYTAG
  1
DESCRIPTIONSL
  9
$CUSTOMPROPERTY
  1
FC-GT-07
  9
$CUSTOMPROPERTYTAG
  1
PNA
  9
$CUSTOMPROPERTY
  1
136528
  9
$CUSTOMPROPERTYTAG
  1
DESCRIPTIONA
  9
$CUSTOMPROPERTY
  1
AN-GT-07-104-D
  9
$CUSTOMPROPERTYTAG
  1
W
  9
$CUSTOMPROPERTY
  1
4.1
  9
$CUSTOMPROPERTYTAG
  1
A
  9
$CUSTOMPROPERTY
  1
1.62
  9
$CUSTOMPROPERTYTAG
  1
B
  9
$CUSTOMPROPERTY
  1
5.00
  9
$CUSTOMPROPERTYTAG
  1
C
  9
$CUSTOMPROPERTY
  1
1.81
  9
$CUSTOMPROPERTYTAG
  1
D
  9
$CUSTOMPROPERTY
  1
4.13
  9
$CUSTOMPROPERTYTAG
  1
E
  9
$CUSTOMPROPERTY
  1
0.38
  9
$CUSTOMPROPERTYTAG
  1
F
  9
$CUSTOMPROPERTY
  1
3/8
  9
$CUSTOMPROPERTYTAG
  1
G
  9
$CUSTOMPROPERTY
  1
1.44
  9
$CUSTOMPROPERTYTAG
  1
H
  9
$CUSTOMPROPERTY
  1
0.84
  9
$CUSTOMPROPERTYTAG
  1
K
  9
$CUSTOMPROPERTY
  1
3.375/3.373
  9
$CUSTOMPROPERTYTAG
  1
L
  9
$CUSTOMPROPERTY
  1
2.38
  9
$CUSTOMPROPERTYTAG
  1
Z
  9
$CUSTOMPROPERTY
  1
1.49
  9
$CUSTOMPROPERTYTAG
  1
CAPS
  9
$CUSTOMPROPERTY
  1
3065
  9
$CUSTOMPROPERTYTAG
  1
CAPD
  9
$CUSTOMPROPERTY
  1
5759
  9
$CUSTOMPROPERTYTAG
  1
COMPANY
  9
$CUSTOMPROPERTY
  1
baldor
  9
$INSBASE
 10
0.0
 20
0.0
 30
0.0
  9
$EXTMIN
 10
1.000000000000000E+20
 20
1.000000000000000E+20
 30
1.000000000000000E+20
  9
$EXTMAX
 10
-1.000000000000000E+20
 20
-1.000000000000000E+20
 30
-1.000000000000000E+20
  9
$LIMMIN
 10
0.0
 20
0.0
  9
$LIMMAX
 10
12.0
 20
9.0
  9
$ORTHOMODE
 70
     0
  9
$REGENMODE
 70
     1
  9
$FILLMODE
 70
     1
  9
$QTEXTMODE
 70
     0
  9
$MIRRTEXT
 70
     1
  9
$LTSCALE
 40
1.0
  9
$ATTMODE
 70
     1
  9
$TEXTSIZE
 40
0.2
  9
$TRACEWID
 40
0.05
  9
$TEXTSTYLE
  7
Standard
  9
$CLAYER
  8
0
  9
$CELTYPE
  6
ByLayer
  9
$CECOLOR
 62
   256
  9
$CELTSCALE
 40
1.0
  9
$DISPSILH
 70
     0
  9
$DIMSCALE
 40
1.0
  9
$DIMASZ
 40
0.18
  9
$DIMEXO
 40
0.0625
  9
$DIMDLI
 40
0.38
  9
$DIMRND
 40
0.0
  9
$DIMDLE
 40
0.0
  9
$DIMEXE
 40
0.18
  9
$DIMTP
 40
0.0
  9
$DIMTM
 40
0.0
  9
$DIMTXT
 40
0.18
  9
$DIMCEN
 40
0.09
  9
$DIMTSZ
 40
0.0
  9
$DIMTOL
 70
     0
  9
$DIMLIM
 70
     0
  9
$DIMTIH
 70
     1
  9
$DIMTOH
 70
     1
  9
$DIMSE1
 70
     0
  9
$DIMSE2
 70
     0
  9
$DIMTAD
 70
     0
  9
$DIMZIN
 70
     0
  9
$DIMBLK
  1

  9
$DIMASO
 70
     1
  9
$DIMSHO
 70
     1
  9
$DIMPOST
  1

  9
$DIMAPOST
  1

  9
$DIMALT
 70
     0
  9
$DIMALTD
 70
     2
  9
$DIMALTF
 40
25.4
  9
$DIMLFAC
 40
1.0
  9
$DIMTOFL
 70
     0
  9
$DIMTVP
 40
0.0
  9
$DIMTIX
 70
     0
  9
$DIMSOXD
 70
     0
  9
$DIMSAH
 70
     0
  9
$DIMBLK1
  1

  9
$DIMBLK2
  1

  9
$DIMSTYLE
  2
Standard
  9
$DIMCLRD
 70
     0
  9
$DIMCLRE
 70
     0
  9
$DIMCLRT
 70
     0
  9
$DIMTFAC
 40
1.0
  9
$DIMGAP
 40
0.09
  9
$DIMJUST
 70
     0
  9
$DIMSD1
 70
     0
  9
$DIMSD2
 70
     0
  9
$DIMTOLJ
 70
     1
  9
$DIMTZIN
 70
     0
  9
$DIMALTZ
 70
     0
  9
$DIMALTTZ
 70
     0
  9
$DIMUPT
 70
     0
  9
$DIMDEC
 70
     4
  9
$DIMTDEC
 70
     4
  9
$DIMALTU
 70
     2
  9
$DIMALTTD
 70
     2
  9
$DIMTXSTY
  7
Standard
  9
$DIMAUNIT
 70
     0
  9
$DIMADEC
 70
     0
  9
$DIMALTRND
 40
0.0
  9
$DIMAZIN
 70
     0
  9
$DIMDSEP
 70
    46
  9
$DIMATFIT
 70
     3
  9
$DIMFRAC
 70
     0
  9
$DIMLDRBLK
  1

  9
$DIMLUNIT
 70
     2
  9
$DIMLWD
 70
    -2
  9
$DIMLWE
 70
    -2
  9
$DIMTMOVE
 70
     0
  9
$DIMFXL
 40
1.0
  9
$DIMFXLON
 70
     0
  9
$DIMJOGANG
 40
0.7853981633974483
  9
$DIMTFILL
 70
     0
  9
$DIMTFILLCLR
 70
     0
  9
$DIMARCSYM
 70
     0
  9
$DIMLTYPE
  6

  9
$DIMLTEX1
  6

  9
$DIMLTEX2
  6

  9
$DIMTXTDIRECTION
 70
     0
  9
$LUNITS
 70
     2
  9
$LUPREC
 70
     4
  9
$SKETCHINC
 40
0.1
  9
$FILLETRAD
 40
0.5
  9
$AUNITS
 70
     0
  9
$AUPREC
 70
     0
  9
$MENU
  1
.
  9
$ELEVATION
 40
0.0
  9
$PELEVATION
 40
0.0
  9
$THICKNESS
 40
0.0
  9
$LIMCHECK
 70
     0
  9
$CHAMFERA
 40
0.0
  9
$CHAMFERB
 40
0.0
  9
$CHAMFERC
 40
0.0
  9
$CHAMFERD
 40
0.0
  9
$SKPOLY
 70
     0
  9
$TDCREATE
 40
2458168.99575037
  9
$TDUCREATE
 40
2458168.954083704
  9
$TDUPDATE
 40
2458168.995750556
  9
$TDUUPDATE
 40
2458168.954083889
  9
$TDINDWG
 40
0.0000000116
  9
$TDUSRTIMER
 40
0.0000000116
  9
$USRTIMER
 70
     1
  9
$ANGBASE
 50
0.0
  9
$ANGDIR
 70
     0
  9
$PDMODE
 70
     0
  9
$PDSIZE
 40
0.0
  9
$PLINEWID
 40
0.0
  9
$SPLFRAME
 70
     0
  9
$SPLINETYPE
 70
     6
  9
$SPLINESEGS
 70
     8
  9
$HANDSEED
  5
1FB
  9
$SURFTAB1
 70
     6
  9
$SURFTAB2
 70
     6
  9
$SURFTYPE
 70
     6
  9
$SURFU
 70
     6
  9
$SURFV
 70
     6
  9
$UCSBASE
  2

  9
$UCSNAME
  2

  9
$UCSORG
 10
0.0
 20
0.0
 30
0.0
  9
$UCSXDIR
 10
1.0
 20
0.0
 30
0.0
  9
$UCSYDIR
 10
0.0
 20
1.0
 30
0.0
  9
$UCSORTHOREF
  2

  9
$UCSORTHOVIEW
 70
     0
  9
$UCSORGTOP
 10
0.0
 20
0.0
 30
0.0
  9
$UCSORGBOTTOM
 10
0.0
 20
0.0
 30
0.0
  9
$UCSORGLEFT
 10
0.0
 20
0.0
 30
0.0
  9
$UCSORGRIGHT
 10
0.0
 20
0.0
 30
0.0
  9
$UCSORGFRONT
 10
0.0
 20
0.0
 30
0.0
  9
$UCSORGBACK
 10
0.0
 20
0.0
 30
0.0
  9
$PUCSBASE
  2

  9
$PUCSNAME
  2

  9
$PUCSORG
 10
0.0
 20
0.0
 30
0.0
  9
$PUCSXDIR
 10
1.0
 20
0.0
 30
0.0
  9
$PUCSYDIR
 10
0.0
 20
1.0
 30
0.0
  9
$PUCSORTHOREF
  2

  9
$PUCSORTHOVIEW
 70
     0
  9
$PUCSORGTOP
 10
0.0
 20
0.0
 30
0.0
  9
$PUCSORGBOTTOM
 10
0.0
 20
0.0
 30
0.0
  9
$PUCSORGLEFT
 10
0.0
 20
0.0
 30
0.0
  9
$PUCSORGRIGHT
 10
0.0
 20
0.0
 30
0.0
  9
$PUCSORGFRONT
 10
0.0
 20
0.0
 30
0.0
  9
$PUCSORGBACK
 10
0.0
 20
0.0
 30
0.0
  9
$USERI1
 70
     0
  9
$USERI2
 70
     0
  9
$USERI3
 70
     0
  9
$USERI4
 70
     0
  9
$USERI5
 70
     0
  9
$USERR1
 40
0.0
  9
$USERR2
 40
0.0
  9
$USERR3
 40
0.0
  9
$USERR4
 40
0.0
  9
$USERR5
 40
0.0
  9
$WORLDVIEW
 70
     1
  9
$SHADEDGE
 70
     3
  9
$SHADEDIF
 70
    70
  9
$TILEMODE
 70
     1
  9
$MAXACTVP
 70
    64
  9
$PINSBASE
 10
0.0
 20
0.0
 30
0.0
  9
$PLIMCHECK
 70
     0
  9
$PEXTMIN
 10
1.000000000000000E+20
 20
1.000000000000000E+20
 30
1.000000000000000E+20
  9
$PEXTMAX
 10
-1.000000000000000E+20
 20
-1.000000000000000E+20
 30
-1.000000000000000E+20
  9
$PLIMMIN
 10
0.0
 20
0.0
  9
$PLIMMAX
 10
12.0
 20
9.0
  9
$UNITMODE
 70
     0
  9
$VISRETAIN
 70
     1
  9
$PLINEGEN
 70
     0
  9
$PSLTSCALE
 70
     1
  9
$TREEDEPTH
 70
  3020
  9
$CMLSTYLE
  2
Standard
  9
$CMLJUST
 70
     0
  9
$CMLSCALE
 40
1.0
  9
$PROXYGRAPHICS
 70
     1
  9
$MEASUREMENT
 70
     0
  9
$CELWEIGHT
370
    -1
  9
$ENDCAPS
280
     0
  9
$JOINSTYLE
280
     0
  9
$LWDISPLAY
290
     0
  9
$INSUNITS
 70
     1
  9
$HYPERLINKBASE
  1

  9
$STYLESHEET
  1

  9
$XEDIT
290
     1
  9
$CEPSNTYPE
380
     0
  9
$PSTYLEMODE
290
     1
  9
$FINGERPRINTGUID
  2
{CB6FA65C-3E94-4F1B-BD0F-A3A8D9DD996B}
  9
$VERSIONGUID
  2
{FAEB1C32-E019-11D5-929B-00C0DF256EC4}
  9
$EXTNAMES
290
     1
  9
$PSVPSCALE
 40
0.0
  9
$OLESTARTUP
290
     0
  9
$SORTENTS
280
   127
  9
$INDEXCTL
280
     0
  9
$HIDETEXT
280
     1
  9
$XCLIPFRAME
280
     2
  9
$HALOGAP
280
     0
  9
$OBSCOLOR
 70
   257
  9
$OBSLTYPE
280
     0
  9
$INTERSECTIONDISPLAY
280
     0
  9
$INTERSECTIONCOLOR
 70
   257
  9
$DIMASSOC
280
     2
  9
$PROJECTNAME
  1

  9
$CAMERADISPLAY
290
     0
  9
$LENSLENGTH
 40
50.0
  9
$CAMERAHEIGHT
 40
0.0
  9
$STEPSPERSEC
 40
2.0
  9
$STEPSIZE
 40
6.0
  9
$3DDWFPREC
 40
2.0
  9
$PSOLWIDTH
 40
0.25
  9
$PSOLHEIGHT
 40
4.0
  9
$LOFTANG1
 40
1.570796326794897
  9
$LOFTANG2
 40
1.570796326794897
  9
$LOFTMAG1
 40
0.0
  9
$LOFTMAG2
 40
0.0
  9
$LOFTPARAM
 70
     7
  9
$LOFTNORMALS
280
     1
  9
$LATITUDE
 40
37.795
  9
$LONGITUDE
 40
-122.394
  9
$NORTHDIRECTION
 40
0.0
  9
$TIMEZONE
 70
 -8000
  9
$LIGHTGLYPHDISPLAY
280
     1
  9
$TILEMODELIGHTSYNCH
280
     1
  9
$CMATERIAL
347
44
  9
$SOLIDHIST
280
     0
  9
$SHOWHIST
280
     1
  9
$DWFFRAME
280
     2
  9
$DGNFRAME
280
     2
  9
$REALWORLDSCALE
290
     1
  9
$INTERFERECOLOR
 62
   256
  9
$CSHADOW
280
     0
  9
$SHADOWPLANELOCATION
 40
0.0
  0
ENDSEC
  0
SECTION
  2
CLASSES
  0
CLASS
  1
ACDBDICTIONARYWDFLT
  2
AcDbDictionaryWithDefault
  3
ObjectDBX Classes
 90
        0
 91
        4
280
     0
281
     0
  0
CLASS
  1
VISUALSTYLE
  2
AcDbVisualStyle
  3
ObjectDBX Classes
 90
     4095
 91
        4
280
     0
281
     0
  0
CLASS
  1
MATERIAL
  2
AcDbMaterial
  3
ObjectDBX Classes
 90
     1153
 91
        4
280
     0
281
     0
  0
CLASS
  1
SCALE
  2
AcDbScale
  3
ObjectDBX Classes
 90
     1153
 91
        4
280
     0
281
     0
  0
CLASS
  1
TABLESTYLE
  2
AcDbTableStyle
  3
ObjectDBX Classes
 90
     4095
 91
        4
280
     0
281
     0
  0
CLASS
  1
MLEADERSTYLE
  2
AcDbMLeaderStyle
  3
ACDB_MLEADERSTYLE_CLASS
 90
     4095
 91
        4
280
     0
281
     0
  0
CLASS
  1
SUN
  2
AcDbSun
  3
SCENEOE
 90
     1153
 91
        4
280
     0
281
     0
  0
CLASS
  1
DICTIONARYVAR
  2
AcDbDictionaryVar
  3
ObjectDBX Classes
 90
        0
 91
        4
280
     0
281
     0
  0
CLASS
  1
CELLSTYLEMAP
  2
AcDbCellStyleMap
  3
ObjectDBX Classes
 90
     1152
 91
        4
280
     0
281
     0
  0
ENDSEC
  0
SECTION
  2
TABLES
  0
TABLE
  2
VPORT
  5
8
330
0
100
AcDbSymbolTable
 70
     1
  0
VPORT
  5
29
330
8
100
AcDbSymbolTableRecord
100
AcDbViewportTableRecord
  2
*Active
 70
     0
 10
0.0
 20
0.0
 11
1.0
 21
1.0
 12
5.297619047619049
 22
-3.874999999999998
 13
0.0
 23
0.0
 14
0.5
 24
0.5
 15
0.5
 25
0.5
 16
0.0
 26
0.0
 36
1.0
 17
0.0
 27
0.0
 37
0.0
 40
14.28
 41
1.131802721088436
 42
50.0
 43
0.0
 44
0.0
 50
0.0
 51
0.0
 71
     0
 72
   100
 73
     1
 74
     3
 75
     0
 76
     0
 77
     0
 78
     0
281
     0
 65
     1
110
0.0
120
0.0
130
0.0
111
1.0
121
0.0
131
0.0
112
0.0
122
1.0
132
0.0
 79
     0
146
0.0
348
2F
 60
     3
 61
     5
292
     1
282
     1
141
0.0
142
0.0
 63
   250
361
6D
  0
ENDTAB
  0
TABLE
  2
LTYPE
  5
5
330
0
100
AcDbSymbolTable
 70
     3
  0
LTYPE
  5
14
330
5
100
AcDbSymbolTableRecord
100
AcDbLinetypeTableRecord
  2
ByBlock
 70
     0
  3

 72
    65
 73
     0
 40
0.0
  0
LTYPE
  5
15
330
5
100
AcDbSymbolTableRecord
100
AcDbLinetypeTableRecord
  2
ByLayer
 70
     0
  3

 72
    65
 73
     0
 40
0.0
  0
LTYPE
  5
16
330
5
100
AcDbSymbolTableRecord
100
AcDbLinetypeTableRecord
  2
Continuous
 70
     0
  3
Solid line
 72
    65
 73
     0
 40
0.0
  0
LTYPE
  5
A1
330
5
100
AcDbSymbolTableRecord
100
AcDbLinetypeTableRecord
  2
Dashed
 70
     0
  3

 72
    65
 73
     2
 40
2.0
 49
1.0
 74
     0
 49
-1.0
 74
     0
  0
LTYPE
  5
114
330
5
100
AcDbSymbolTableRecord
100
AcDbLinetypeTableRecord
  2
Center
 70
     0
  3

 72
    65
 73
     4
 40
1.5
 49
0.45
 74
     0
 49
-0.5
 74
     0
 49
0.05
 74
     0
 49
-0.5
 74
     0
  0
ENDTAB
  0
TABLE
  2
LAYER
  5
2
330
0
100
AcDbSymbolTable
 70
     8
  0
LAYER
  5
10
330
2
100
AcDbSymbolTableRecord
100
AcDbLayerTableRecord
  2
0
 70
     0
 62
     7
  6
Continuous
370
    -3
390
F
347
46
348
0
  0
LAYER
  5
6E
330
2
100
AcDbSymbolTableRecord
100
AcDbLayerTableRecord
  2
AM_6
 70
     0
 62
    -2
  6
Continuous
370
    35
390
F
347
46
348
0
  0
LAYER
  5
A2
330
2
100
AcDbSymbolTableRecord
100
AcDbLayerTableRecord
  2
AM_9
 70
     0
 62
     6
  6
Dashed
370
    25
390
F
347
46
348
0
  0
LAYER
  5
A7
330
2
100
AcDbSymbolTableRecord
100
AcDbLayerTableRecord
  2
AM_4
 70
     0
 62
     3
  6
Continuous
370
    25
390
F
347
46
348
0
  0
LAYER
  5
D5
330
2
100
AcDbSymbolTableRecord
100
AcDbLayerTableRecord
  2
AM_5
 70
     0
 62
     3
  6
Continuous
370
    25
390
F
347
46
348
0
  0
LAYER
  5
D8
330
2
100
AcDbSymbolTableRecord
100
AcDbLayerTableRecord
  2
AM_0
 70
     0
 62
     7
  6
Continuous
370
    50
390
F
347
46
348
0
  0
LAYER
  5
115
330
2
100
AcDbSymbolTableRecord
100
AcDbLayerTableRecord
  2
AM_7
 70
     0
 62
     7
  6
Center
370
    25
390
F
347
46
348
0
  0
LAYER
  5
1ED
330
2
100
AcDbSymbolTableRecord
100
AcDbLayerTableRecord
  2
ConnectionPoints
 70
     0
 62
     7
  6
Continuous
370
    50
390
F
347
46
348
0
  0
ENDTAB
  0
TABLE
  2
STYLE
  5
3
330
0
100
AcDbSymbolTable
 70
     1
  0
STYLE
  5
11
330
3
100
AcDbSymbolTableRecord
100
AcDbTextStyleTableRecord
  2
Standard
 70
     0
 40
0.0
 41
1.0
 50
0.0
 71
     0
 42
0.2
  3
txt
  4

  0
ENDTAB
  0
TABLE
  2
VIEW
  5
6
330
0
100
AcDbSymbolTable
 70
     0
  0
ENDTAB
  0
TABLE
  2
UCS
  5
7
330
0
100
AcDbSymbolTable
 70
     0
  0
ENDTAB
  0
TABLE
  2
APPID
  5
9
330
0
100
AcDbSymbolTable
 70
     1
  0
APPID
  5
12
330
9
100
AcDbSymbolTableRecord
100
AcDbRegAppTableRecord
  2
ACAD
 70
     0
  0
ENDTAB
  0
TABLE
  2
DIMSTYLE
  5
A
330
0
100
AcDbSymbolTable
 70
     1
100
AcDbDimStyleTable
  0
DIMSTYLE
105
27
330
A
100
AcDbSymbolTableRecord
100
AcDbDimStyleTableRecord
  2
Standard
 70
     0
178
     0
340
11
  0
ENDTAB
  0
TABLE
  2
BLOCK_RECORD
  5
1
330
0
100
AcDbSymbolTable
 70
     4
  0
BLOCK_RECORD
  5
1F
330
1
100
AcDbSymbolTableRecord
100
AcDbBlockTableRecord
  2
*Model_Space
340
22
 70
     0
280
     1
281
     0
  0
BLOCK_RECORD
  5
1B
330
1
100
AcDbSymbolTableRecord
100
AcDbBlockTableRecord
  2
*Paper_Space
340
1E
 70
     0
280
     1
281
     0
  0
BLOCK_RECORD
  5
23
330
1
100
AcDbSymbolTableRecord
100
AcDbBlockTableRecord
  2
*Paper_Space0
340
26
 70
     0
280
     1
281
     0
  0
BLOCK_RECORD
  5
8B
330
1
100
AcDbSymbolTableRecord
100
AcDbBlockTableRecord
  2
1_129520I_0_in_129738_0
340
0
102
{BLKREFS
331
8C
102
}
 70
     0
280
     1
281
     0
  0
BLOCK_RECORD
  5
AD
330
1
100
AcDbSymbolTableRecord
100
AcDbBlockTableRecord
  2
2_136528_0_in_129738_0
340
0
102
{BLKREFS
331
AE
102
}
 70
     0
280
     1
281
     0
  0
BLOCK_RECORD
  5
EE
330
1
100
AcDbSymbolTableRecord
100
AcDbBlockTableRecord
  2
3_129738h_0_in_129738_0
340
0
102
{BLKREFS
331
EF
102
}
 70
     0
280
     1
281
     0
  0
ENDTAB
  0
ENDSEC
  0
SECTION
  2
BLOCKS
  0
BLOCK
  5
20
330
1F
100
AcDbEntity
  8
0
100
AcDbBlockBegin
  2
*Model_Space
 70
     0
 10
0.0
 20
0.0
 30
0.0
  3
*Model_Space
  1

  0
ENDBLK
  5
21
330
1F
100
AcDbEntity
  8
0
100
AcDbBlockEnd
  0
BLOCK
  5
1C
330
1B
100
AcDbEntity
 67
     1
  8
0
100
AcDbBlockBegin
  2
*Paper_Space
 70
     0
 10
0.0
 20
0.0
 30
0.0
  3
*Paper_Space
  1

  0
ENDBLK
  5
1D
330
1B
100
AcDbEntity
 67
     1
  8
0
100
AcDbBlockEnd
  0
BLOCK
  5
24
330
23
100
AcDbEntity
  8
0
100
AcDbBlockBegin
  2
*Paper_Space0
 70
     0
 10
0.0
 20
0.0
 30
0.0
  3
*Paper_Space0
  1

  0
ENDBLK
  5
25
330
23
100
AcDbEntity
  8
0
100
AcDbBlockEnd
  0
BLOCK
  5
8D
330
8B
100
AcDbEntity
  8
0
100
AcDbBlockBegin
  2
1_129520I_0_in_129738_0
 70
     2
 10
0.0
 20
0.0
 30
0.0
  3
1_129520I_0_in_129738_0
  1

  0
ATTDEF
  5
8F
330
8B
100
AcDbEntity
  8
AM_6
100
AcDbText
 10
6.405111920875586
 20
1.405111920875586
 30
0.0
 40
0.5
  1
INS-GT B
100
AcDbAttributeDefinition
  3

  2
NN
 70
     8
280
     0
  0
ATTDEF
  5
90
330
8B
100
AcDbEntity
  8
AM_6
100
AcDbText
 10
6.405111920875586
 20
0.9051119208755865
 30
0.0
 40
0.5
  1
GT Normal Duty Bearing Inserts
100
AcDbAttributeDefinition
  3

  2
NT
 70
     8
280
     0
  0
ATTDEF
  5
91
330
8B
100
AcDbEntity
  8
AM_6
100
AcDbText
 10
6.405111920875586
 20
0.4051119208755865
 30
0.0
 40
0.5
  1
129520I
100
AcDbAttributeDefinition
  3

  2
NB
 70
     8
280
     0
  0
ATTDEF
  5
92
330
8B
100
AcDbEntity
  8
AM_6
100
AcDbText
 10
6.405111920875586
 20
-0.0948880791244135
 30
0.0
 40
0.5
  1
$PN.I
100
AcDbAttributeDefinition
  3

  2
NBSYN
 70
     8
280
     0
  0
ATTDEF
  5
93
330
8B
100
AcDbEntity
  8
AM_6
100
AcDbText
 10
6.405111920875586
 20
-0.5948880791244135
 30
0.0
 40
0.5
  1
129520
100
AcDbAttributeDefinition
  3

  2
LINA
 70
     8
280
     0
  0
ATTDEF
  5
94
330
8B
100
AcDbEntity
  8
AM_6
100
AcDbText
 10
6.405111920875586
 20
-1.094888079124414
 30
0.0
 40
0.5
  1
207
100
AcDbAttributeDefinition
  3

  2
SERIES
 70
     8
280
     0
  0
ATTDEF
  5
95
330
8B
100
AcDbEntity
  8
AM_6
100
AcDbText
 10
6.405111920875586
 20
-1.594888079124414
 30
0.0
 40
0.5
  1
129520
100
AcDbAttributeDefinition
  3

  2
PN
 70
     8
280
     0
  0
ATTDEF
  5
96
330
8B
100
AcDbEntity
  8
AM_6
100
AcDbText
 10
6.405111920875586
 20
-2.094888079124414
 30
0.0
 40
0.5
  1
INS-GT-07
100
AcDbAttributeDefinition
  3

  2
DESCRIPTION
 70
     8
280
     0
  0
ATTDEF
  5
97
330
8B
100
AcDbEntity
  8
AM_6
100
AcDbText
 10
6.405111920875586
 20
-2.594888079124414
 30
0.0
 40
0.5
  1
1.62
100
AcDbAttributeDefinition
  3

  2
A
 70
     8
280
     0
  0
ATTDEF
  5
98
330
8B
100
AcDbEntity
  8
AM_6
100
AcDbText
 10
6.405111920875586
 20
-3.094888079124414
 30
0.0
 40
0.5
  1
0.75
100
AcDbAttributeDefinition
  3

  2
C
 70
     8
280
     0
  0
ATTDEF
  5
99
330
8B
100
AcDbEntity
  8
AM_6
100
AcDbText
 10
6.405111920875586
 20
-3.594888079124414
 30
0.0
 40
0.5
  1
2.8346
100
AcDbAttributeDefinition
  3

  2
D
 70
     8
280
     0
  0
ATTDEF
  5
9A
330
8B
100
AcDbEntity
  8
AM_6
100
AcDbText
 10
6.405111920875586
 20
-4.094888079124414
 30
0.0
 40
0.5
  1
0.20
100
AcDbAttributeDefinition
  3

  2
J
 70
     8
280
     0
  0
ATTDEF
  5
9B
330
8B
100
AcDbEntity
  8
AM_6
100
AcDbText
 10
6.405111920875586
 20
-4.594888079124414
 30
0.0
 40
0.5
  1
2.38
100
AcDbAttributeDefinition
  3

  2
L
 70
     8
280
     0
  0
ATTDEF
  5
9C
330
8B
100
AcDbEntity
  8
AM_6
100
AcDbText
 10
6.405111920875586
 20
-5.094888079124414
 30
0.0
 40
0.5
  1
#10 - 32 x 1/4
100
AcDbAttributeDefinition
  3

  2
N
 70
     8
280
     0
  0
ATTDEF
  5
9D
330
8B
100
AcDbEntity
  8
AM_6
100
AcDbText
 10
6.405111920875586
 20
-5.594888079124414
 30
0.0
 40
0.5
  1
0.54000
100
AcDbAttributeDefinition
  3

  2
W
 70
     8
280
     0
  0
ATTDEF
  5
9E
330
8B
100
AcDbEntity
  8
AM_6
100
AcDbText
 10
6.405111920875586
 20
-6.094888079124414
 30
0.0
 40
0.5
  1
1.14
100
AcDbAttributeDefinition
  3

  2
X
 70
     8
280
     0
  0
ATTDEF
  5
9F
330
8B
100
AcDbEntity
  8
AM_6
100
AcDbText
 10
6.405111920875586
 20
-6.594888079124414
 30
0.0
 40
0.5
  1
1.08
100
AcDbAttributeDefinition
  3

  2
Y
 70
     8
280
     0
  0
ATTDEF
  5
A0
330
8B
100
AcDbEntity
  8
AM_6
100
AcDbText
 10
6.405111920875586
 20
-7.094888079124414
 30
0.0
 40
0.5
  1
baldor
100
AcDbAttributeDefinition
  3

  2
COMPANY
 70
     8
280
     0
  0
CIRCLE
  5
A3
330
8B
100
AcDbEntity
  8
AM_9
 48
0.0092120906271369
100
AcDbCircle
 10
0.0
 20
0.0000000000000001
 30
0.0
 40
0.9196778074292936
  0
CIRCLE
  5
A4
330
8B
100
AcDbEntity
  8
AM_9
 48
0.0092120906271369
100
AcDbCircle
 10
0.0
 20
0.0000000000000001
 30
0.0
 40
1.3423
  0
CIRCLE
  5
A5
330
8B
100
AcDbEntity
  8
AM_9
 48
0.0092120906271369
100
AcDbCircle
 10
0.0
 20
0.0000000000000001
 30
0.0
 40
1.377607436087194
  0
CIRCLE
  5
A6
330
8B
100
AcDbEntity
  8
AM_9
 48
0.0092120906271369
100
AcDbCircle
 10
0.0
 20
0.0000000000000001
 30
0.0
 40
1.027777777777778
  0
CIRCLE
  5
A8
330
8B
100
AcDbEntity
  8
AM_4
 48
0.0092120906271369
100
AcDbCircle
 10
0.0
 20
0.0000000000000001
 30
0.0
 40
1.405111920875586
  0
CIRCLE
  5
A9
330
8B
100
AcDbEntity
  8
AM_4
 48
0.0092120906271369
100
AcDbCircle
 10
0.0
 20
0.0000000000000001
 30
0.0
 40
1.397705672999695
  0
CIRCLE
  5
AA
330
8B
100
AcDbEntity
  8
AM_4
 48
0.0092120906271369
100
AcDbCircle
 10
0.0
 20
0.0000000000000001
 30
0.0
 40
1.384857880930857
  0
CIRCLE
  5
AB
330
8B
100
AcDbEntity
  8
AM_4
 48
0.0092120906271369
100
AcDbCircle
 10
0.0
 20
0.0000000000000001
 30
0.0
 40
1.350001989914274
  0
CIRCLE
  5
AC
330
8B
100
AcDbEntity
  8
AM_4
 48
0.0092120906271369
100
AcDbCircle
 10
0.0
 20
0.0000000000000001
 30
0.0
 40
1.322072697916912
  0
ENDBLK
  5
8E
330
8B
100
AcDbEntity
  8
0
100
AcDbBlockEnd
  0
BLOCK
  5
AF
330
AD
100
AcDbEntity
  8
0
100
AcDbBlockBegin
  2
2_136528_0_in_129738_0
 70
     2
 10
0.0
 20
0.0
 30
0.0
  3
2_136528_0_in_129738_0
  1

  0
ATTDEF
  5
B1
330
AD
100
AcDbEntity
  8
AM_6
100
AcDbText
 10
6.189744018220399
 20
1.189217046644916
 30
0.0
 40
0.5
  1
Grip Tight Normal Duty Adapter and Nut Inch Bore D
100
AcDbAttributeDefinition
  3

  2
NN
 70
     8
280
     0
  0
ATTDEF
  5
B2
330
AD
100
AcDbEntity
  8
AM_6
100
AcDbText
 10
6.189744018220399
 20
0.6892170466449163
 30
0.0
 40
0.5
  1
GT and GTM Adapter & Lock Nut Assemblies
100
AcDbAttributeDefinition
  3

  2
NT
 70
     8
280
     0
  0
ATTDEF
  5
B3
330
AD
100
AcDbEntity
  8
AM_6
100
AcDbText
 10
6.189744018220399
 20
0.1892170466449163
 30
0.0
 40
0.5
  1
136528
100
AcDbAttributeDefinition
  3

  2
NB
 70
     8
280
     0
  0
ATTDEF
  5
B4
330
AD
100
AcDbEntity
  8
AM_6
100
AcDbText
 10
6.189744018220399
 20
-0.3107829533550837
 30
0.0
 40
0.5
  1
$PN.
100
AcDbAttributeDefinition
  3

  2
NBSYN
 70
     8
280
     0
  0
ATTDEF
  5
B5
330
AD
100
AcDbEntity
  8
AM_6
100
AcDbText
 10
6.189744018220399
 20
-0.8107829533550837
 30
0.0
 40
0.5
  1
136528
100
AcDbAttributeDefinition
  3

  2
LINA
 70
     8
280
     0
  0
ATTDEF
  5
B6
330
AD
100
AcDbEntity
  8
AM_6
100
AcDbText
 10
6.189744018220399
 20
-1.310782953355084
 30
0.0
 40
0.5
  1
207
100
AcDbAttributeDefinition
  3

  2
SERIES
 70
     8
280
     0
  0
ATTDEF
  5
B7
330
AD
100
AcDbEntity
  8
AM_6
100
AcDbText
 10
6.189744018220399
 20
-1.810782953355084
 30
0.0
 40
0.5
  1
1-1/4
100
AcDbAttributeDefinition
  3

  2
SS
 70
     8
280
     0
  0
ATTDEF
  5
B8
330
AD
100
AcDbEntity
  8
AM_6
100
AcDbText
 10
6.189744018220399
 20
-2.310782953355083
 30
0.0
 40
0.5
  1
136528
100
AcDbAttributeDefinition
  3

  2
PN
 70
     8
280
     0
  0
ATTDEF
  5
B9
330
AD
100
AcDbEntity
  8
AM_6
100
AcDbText
 10
6.189744018220399
 20
-2.810782953355083
 30
0.0
 40
0.5
  1
AN-GT-07-104-D
100
AcDbAttributeDefinition
  3

  2
DESCRIPTION
 70
     8
280
     0
  0
ATTDEF
  5
BA
330
AD
100
AcDbEntity
  8
AM_6
100
AcDbText
 10
6.189744018220399
 20
-3.310782953355083
 30
0.0
 40
0.5
  1
1.62
100
AcDbAttributeDefinition
  3

  2
A
 70
     8
280
     0
  0
ATTDEF
  5
BB
330
AD
100
AcDbEntity
  8
AM_6
100
AcDbText
 10
6.189744018220399
 20
-3.810782953355083
 30
0.0
 40
0.5
  1
0.75
100
AcDbAttributeDefinition
  3

  2
C
 70
     8
280
     0
  0
ATTDEF
  5
BC
330
AD
100
AcDbEntity
  8
AM_6
100
AcDbText
 10
6.189744018220399
 20
-4.310782953355083
 30
0.0
 40
0.5
  1
2.8346
100
AcDbAttributeDefinition
  3

  2
D
 70
     8
280
     0
  0
ATTDEF
  5
BD
330
AD
100
AcDbEntity
  8
AM_6
100
AcDbText
 10
6.189744018220399
 20
-4.810782953355083
 30
0.0
 40
0.5
  1
0.20
100
AcDbAttributeDefinition
  3

  2
J
 70
     8
280
     0
  0
ATTDEF
  5
BE
330
AD
100
AcDbEntity
  8
AM_6
100
AcDbText
 10
6.189744018220399
 20
-5.310782953355083
 30
0.0
 40
0.5
  1
2.38
100
AcDbAttributeDefinition
  3

  2
L
 70
     8
280
     0
  0
ATTDEF
  5
BF
330
AD
100
AcDbEntity
  8
AM_6
100
AcDbText
 10
6.189744018220399
 20
-5.810782953355083
 30
0.0
 40
0.5
  1
10 - 32 x 1/4
100
AcDbAttributeDefinition
  3

  2
N
 70
     8
280
     0
  0
ATTDEF
  5
C0
330
AD
100
AcDbEntity
  8
AM_6
100
AcDbText
 10
6.189744018220399
 20
-6.310782953355083
 30
0.0
 40
0.5
  1
0.54
100
AcDbAttributeDefinition
  3

  2
W
 70
     8
280
     0
  0
ATTDEF
  5
C1
330
AD
100
AcDbEntity
  8
AM_6
100
AcDbText
 10
6.189744018220399
 20
-6.810782953355083
 30
0.0
 40
0.5
  1
1.14
100
AcDbAttributeDefinition
  3

  2
X
 70
     8
280
     0
  0
ATTDEF
  5
C2
330
AD
100
AcDbEntity
  8
AM_6
100
AcDbText
 10
6.189744018220399
 20
-7.310782953355083
 30
0.0
 40
0.5
  1
1.08
100
AcDbAttributeDefinition
  3

  2
Y
 70
     8
280
     0
  0
ATTDEF
  5
C3
330
AD
100
AcDbEntity
  8
AM_6
100
AcDbText
 10
6.189744018220399
 20
-7.810782953355083
 30
0.0
 40
0.5
  1
baldor
100
AcDbAttributeDefinition
  3

  2
COMPANY
 70
     8
280
     0
  0
LINE
  5
C4
330
AD
100
AcDbEntity
  8
AM_9
 48
0.0076280857273266
100
AcDbLine
 10
0.886368649443362
 20
0.0500000000000001
 30
0.0
 11
0.920206232251714
 21
0.0500000000000001
 31
0.0
  0
LINE
  5
C5
330
AD
100
AcDbEntity
  8
AM_9
 48
0.0076280857273266
100
AcDbLine
 10
0.886368649443362
 20
-0.0499999999999999
 30
0.0
 11
0.920206232251714
 21
-0.0499999999999999
 31
0.0
  0
ARC
  5
C6
330
AD
100
AcDbEntity
  8
AM_9
 48
0.0076280857273266
100
AcDbCircle
 10
0.0
 20
0.0000000000000001
 30
0.0
 40
0.9215636222610436
100
AcDbArc
 50
3.110144835536937
 51
356.8898551644631
  0
CIRCLE
  5
C7
330
AD
100
AcDbEntity
  8
AM_9
 48
0.0076280857273266
100
AcDbCircle
 10
0.0
 20
0.0000000000000001
 30
0.0
 40
0.9727777777777784
  0
CIRCLE
  5
C8
330
AD
100
AcDbEntity
  8
AM_9
 48
0.0076280857273266
100
AcDbCircle
 10
0.0
 20
0.0000000000000001
 30
0.0
 40
1.057777777777778
  0
LINE
  5
C9
330
AD
100
AcDbEntity
  8
AM_9
 48
0.0076280857273266
100
AcDbLine
 10
0.8877777777777778
 20
-0.0499999999999999
 30
0.0
 11
0.8877777777777778
 21
0.0500000000000001
 31
0.0
  0
LINE
  5
CA
330
AD
100
AcDbEntity
  8
AM_9
 48
0.0076280857273266
100
AcDbLine
 10
-0.0724499999999999
 20
1.16745
 30
0.0
 11
-0.0724499999999999
 21
0.9150500000000001
 31
0.0
  0
LINE
  5
CB
330
AD
100
AcDbEntity
  8
AM_9
 48
0.0076280857273266
100
AcDbLine
 10
0.0724499999999999
 20
0.9150500000000001
 30
0.0
 11
0.0724499999999999
 21
1.16745
 31
0.0
  0
LINE
  5
CC
330
AD
100
AcDbEntity
  8
AM_9
 48
0.0076280857273266
100
AcDbLine
 10
-0.0724499999999999
 20
0.9150500000000001
 30
0.0
 11
-0.0949999999999999
 21
0.8925000000000001
 31
0.0
  0
LINE
  5
CD
330
AD
100
AcDbEntity
  8
AM_9
 48
0.0076280857273266
100
AcDbLine
 10
0.0949999999999999
 20
0.8925000000000001
 30
0.0
 11
0.0724499999999999
 21
0.9150500000000001
 31
0.0
  0
LINE
  5
CE
330
AD
100
AcDbEntity
  8
AM_9
 48
0.0076280857273266
100
AcDbLine
 10
0.0949999999999999
 20
0.8925000000000001
 30
0.0
 11
-0.0949999999999999
 21
0.8925000000000001
 31
0.0
  0
LINE
  5
CF
330
AD
100
AcDbEntity
  8
AM_9
 48
0.0076280857273266
100
AcDbLine
 10
0.0724499999999999
 20
0.9150500000000001
 30
0.0
 11
-0.0724499999999999
 21
0.9150500000000001
 31
0.0
  0
LINE
  5
D0
330
AD
100
AcDbEntity
  8
AM_9
 48
0.0076280857273266
100
AcDbLine
 10
0.0724499999999999
 20
1.16745
 30
0.0
 11
0.0909947056163152
 21
1.185994705616315
 31
0.0
  0
LINE
  5
D1
330
AD
100
AcDbEntity
  8
AM_9
 48
0.0076280857273266
100
AcDbLine
 10
-0.0913395369710241
 20
1.186339536971024
 30
0.0
 11
-0.0724499999999999
 21
1.16745
 31
0.0
  0
LINE
  5
D2
330
AD
100
AcDbEntity
  8
AM_9
 48
0.0076280857273266
100
AcDbLine
 10
0.0724499999999999
 20
1.16745
 30
0.0
 11
-0.0724499999999999
 21
1.16745
 31
0.0
  0
LWPOLYLINE
  5
D3
330
AD
100
AcDbEntity
  8
AM_9
 48
0.0076280857273266
100
AcDbPolyline
 90
        5
 70
     0
 43
0.0
 10
0.0432322112747479
 20
1.189214436469847
 10
0.0663746748632063
 20
1.188147466662621
 10
0.0832040024364509
 20
1.187087652188563
 10
0.0911155140423048
 20
1.186506621600067
 10
0.0914786646119579
 20
1.186478678241127
  0
LWPOLYLINE
  5
D4
330
AD
100
AcDbEntity
  8
AM_9
 48
0.0076280857273266
100
AcDbPolyline
 90
        5
 70
     0
 43
0.0
 10
-0.0914786739672304
 20
1.186478677519827
 10
-0.0914593336681015
 20
1.186480168517361
 10
-0.0853135555387447
 20
1.186937907913189
 10
-0.0687534818977856
 20
1.188012187953865
 10
-0.0526376442349489
 20
1.188835261257587
  0
LINE
  5
D6
330
AD
100
AcDbEntity
  8
AM_5
 48
0.0076280857273266
100
AcDbLine
 10
0.0949999999999999
 20
1.186201922102641
 30
0.0
 11
0.0949999999999999
 21
0.8925000000000001
 31
0.0
  0
LINE
  5
D7
330
AD
100
AcDbEntity
  8
AM_5
 48
0.0076280857273266
100
AcDbLine
 10
-0.0949999999999999
 20
1.186201922102641
 30
0.0
 11
-0.0949999999999999
 21
0.8925000000000001
 31
0.0
  0
ARC
  5
D9
330
AD
100
AcDbEntity
  8
AM_0
 48
0.0076280857273266
100
AcDbCircle
 10
0.0
 20
0.0000000000000001
 30
0.0
 40
0.625
100
AcDbArc
 50
4.588565735785835
 51
355.4114342642142
  0
LINE
  5
DA
330
AD
100
AcDbEntity
  8
AM_0
 48
0.0076280857273266
100
AcDbLine
 10
0.886368649443362
 20
-0.0499999999999999
 30
0.0
 11
0.6229967897188556
 21
-0.0499999999999999
 31
0.0
  0
LINE
  5
DB
330
AD
100
AcDbEntity
  8
AM_0
 48
0.0076280857273266
100
AcDbLine
 10
0.886368649443362
 20
0.0500000000000001
 30
0.0
 11
0.6229967897188556
 21
0.0500000000000001
 31
0.0
  0
LINE
  5
DC
330
AD
100
AcDbEntity
  8
AM_0
 48
0.0076280857273266
100
AcDbLine
 10
-0.9118653739596753
 20
0.6419357729582422
 30
0.0
 11
-0.9769250216057643
 21
0.679497978040094
 31
0.0
  0
LINE
  5
DD
330
AD
100
AcDbEntity
  8
AM_0
 48
0.0076280857273266
100
AcDbLine
 10
0.9769250216057639
 20
0.6794979780400948
 30
0.0
 11
0.9118653739596745
 21
0.6419357729582429
 31
0.0
  0
ARC
  5
DE
330
AD
100
AcDbEntity
  8
AM_0
 48
0.0076280857273266
100
AcDbCircle
 10
0.0000000000000014
 20
0.0000000000000031
 30
0.0
 40
1.189999999999997
100
AcDbArc
 50
34.82045617463925
 51
87.92147185810398
  0
LWPOLYLINE
  5
DF
330
AD
100
AcDbEntity
  8
AM_0
 48
0.0076280857273266
100
AcDbPolyline
 90
        4
 70
     0
 43
0.0
 10
0.0431603518190457
 20
1.189217046644916
 10
0.021356203844321
 20
1.185555896983373
 10
-0.0017646656556829
 20
1.18438297399829
 10
-0.0431603518190403
 20
1.189217046644916
  0
ARC
  5
E0
330
AD
100
AcDbEntity
  8
AM_0
 48
0.0076280857273266
100
AcDbCircle
 10
0.0000000000000003
 20
0.0000000000000007
 30
0.0
 40
1.19
100
AcDbArc
 50
92.0785281418958
 51
145.1795438253608
  0
LINE
  5
E1
330
AD
100
AcDbEntity
  8
AM_0
 48
0.0076280857273266
100
AcDbLine
 10
-1.011865373959675
 20
0.4687306922013545
 30
0.0
 11
-0.9118653739596753
 21
0.6419357729582422
 31
0.0
  0
LINE
  5
E2
330
AD
100
AcDbEntity
  8
AM_0
 48
0.0076280857273266
100
AcDbLine
 10
-1.076925021605764
 20
0.5062928972832064
 30
0.0
 11
-1.011865373959675
 21
0.4687306922013545
 31
0.0
  0
LINE
  5
E3
330
AD
100
AcDbEntity
  8
AM_0
 48
0.0076280857273266
100
AcDbLine
 10
1.011865373959675
 20
0.4687306922013553
 30
0.0
 11
1.076925021605764
 21
0.5062928972832071
 31
0.0
  0
LINE
  5
E4
330
AD
100
AcDbEntity
  8
AM_0
 48
0.0076280857273266
100
AcDbLine
 10
0.9118653739596745
 20
0.6419357729582429
 30
0.0
 11
1.011865373959675
 21
0.4687306922013553
 31
0.0
  0
CIRCLE
  5
E5
330
AD
100
AcDbEntity
  8
AM_0
 48
0.0076280857273266
100
AcDbCircle
 10
0.0
 20
0.0000000000000001
 30
0.0
 40
0.8877777777777779
  0
LINE
  5
E6
330
AD
100
AcDbEntity
  8
AM_0
 48
0.0076280857273266
100
AcDbLine
 10
-0.1
 20
-1.110666465159597
 30
0.0
 11
-0.1
 21
-1.1857908753233
 31
0.0
  0
LINE
  5
E7
330
AD
100
AcDbEntity
  8
AM_0
 48
0.0076280857273266
100
AcDbLine
 10
0.1
 20
-1.110666465159597
 30
0.0
 11
-0.1
 21
-1.110666465159597
 31
0.0
  0
LINE
  5
E8
330
AD
100
AcDbEntity
  8
AM_0
 48
0.0076280857273266
100
AcDbLine
 10
0.1
 20
-1.1857908753233
 30
0.0
 11
0.1
 21
-1.110666465159597
 31
0.0
  0
ARC
  5
E9
330
AD
100
AcDbEntity
  8
AM_0
 48
0.0076280857273266
100
AcDbCircle
 10
-0.0000000000000001
 20
0.0000000000000004
 30
0.0
 40
1.16
100
AcDbArc
 50
34.94542971788336
 51
145.0545702821167
  0
ARC
  5
EA
330
AD
100
AcDbEntity
  8
AM_0
 48
0.0076280857273266
100
AcDbCircle
 10
-0.0000000000000004
 20
0.0
 30
0.0
 40
1.189999999999999
100
AcDbArc
 50
154.8204561746393
 51
265.1795438253607
  0
ARC
  5
EB
330
AD
100
AcDbEntity
  8
AM_0
 48
0.0076280857273266
100
AcDbCircle
 10
-0.0000000000000004
 20
-0.0000000000000001
 30
0.0
 40
1.159999999999999
100
AcDbArc
 50
154.9454297178833
 51
265.0545702821167
  0
ARC
  5
EC
330
AD
100
AcDbEntity
  8
AM_0
 48
0.0076280857273266
100
AcDbCircle
 10
0.0000000000000001
 20
0.0000000000000001
 30
0.0
 40
1.19
100
AcDbArc
 50
274.8204561746393
 51
25.17954382536074
  0
ARC
  5
ED
330
AD
100
AcDbEntity
  8
AM_0
 48
0.0076280857273266
100
AcDbCircle
 10
0.0000000000000002
 20
0.0000000000000001
 30
0.0
 40
1.16
100
AcDbArc
 50
274.9454297178833
 51
25.05457028211671
  0
ENDBLK
  5
B0
330
AD
100
AcDbEntity
  8
0
100
AcDbBlockEnd
  0
BLOCK
  5
F0
330
EE
100
AcDbEntity
  8
0
100
AcDbBlockBegin
  2
3_129738h_0_in_129738_0
 70
     2
 10
0.0
 20
0.0
 30
0.0
  3
3_129738h_0_in_129738_0
  1

  0
ATTDEF
  5
F2
330
EE
100
AcDbEntity
  8
AM_6
100
AcDbText
 10
7.625000000000005
 20
2.625000000000002
 30
0.0
 40
0.5
  1
FC-GT - Inch - Housing
100
AcDbAttributeDefinition
  3

  2
NN
 70
     8
280
     0
  0
ATTDEF
  5
F3
330
EE
100
AcDbEntity
  8
AM_6
100
AcDbText
 10
7.625000000000005
 20
2.125000000000002
 30
0.0
 40
0.5
  1
GT Normal Duty Piloted Flange Bearings
100
AcDbAttributeDefinition
  3

  2
NT
 70
     8
280
     0
  0
ATTDEF
  5
F4
330
EE
100
AcDbEntity
  8
AM_6
100
AcDbText
 10
7.625000000000005
 20
1.625000000000002
 30
0.0
 40
0.5
  1
129738h
100
AcDbAttributeDefinition
  3

  2
NB
 70
     8
280
     0
  0
ATTDEF
  5
F5
330
EE
100
AcDbEntity
  8
AM_6
100
AcDbText
 10
7.625000000000005
 20
1.125000000000002
 30
0.0
 40
0.5
  1
$PN.h
100
AcDbAttributeDefinition
  3

  2
NBSYN
 70
     8
280
     0
  0
ATTDEF
  5
F6
330
EE
100
AcDbEntity
  8
AM_6
100
AcDbText
 10
7.625000000000005
 20
0.6250000000000018
 30
0.0
 40
0.5
  1
129738
100
AcDbAttributeDefinition
  3

  2
LINA
 70
     8
280
     0
  0
ATTDEF
  5
F7
330
EE
100
AcDbEntity
  8
AM_6
100
AcDbText
 10
7.625000000000005
 20
0.1250000000000018
 30
0.0
 40
0.5
  1
207
100
AcDbAttributeDefinition
  3

  2
SERIES
 70
     8
280
     0
  0
ATTDEF
  5
F8
330
EE
100
AcDbEntity
  8
AM_6
100
AcDbText
 10
7.625000000000005
 20
-0.3749999999999982
 30
0.0
 40
0.5
  1
1-1/4
100
AcDbAttributeDefinition
  3

  2
SS
 70
     8
280
     0
  0
ATTDEF
  5
F9
330
EE
100
AcDbEntity
  8
AM_6
100
AcDbText
 10
7.625000000000005
 20
-0.8749999999999982
 30
0.0
 40
0.5
  1
129738
100
AcDbAttributeDefinition
  3

  2
PN
 70
     8
280
     0
  0
ATTDEF
  5
FA
330
EE
100
AcDbEntity
  8
AM_6
100
AcDbText
 10
7.625000000000005
 20
-1.374999999999998
 30
0.0
 40
0.5
  1
FC-GT-104
100
AcDbAttributeDefinition
  3

  2
DESCRIPTION
 70
     8
280
     0
  0
ATTDEF
  5
FB
330
EE
100
AcDbEntity
  8
AM_6
100
AcDbText
 10
7.625000000000005
 20
-1.874999999999998
 30
0.0
 40
0.5
  1
129502
100
AcDbAttributeDefinition
  3

  2
PNSL
 70
     8
280
     0
  0
ATTDEF
  5
FC
330
EE
100
AcDbEntity
  8
AM_6
100
AcDbText
 10
7.625000000000005
 20
-2.374999999999998
 30
0.0
 40
0.5
  1
FC-GT-07
100
AcDbAttributeDefinition
  3

  2
DESCRIPTIONSL
 70
     8
280
     0
  0
ATTDEF
  5
FD
330
EE
100
AcDbEntity
  8
AM_6
100
AcDbText
 10
7.625000000000005
 20
-2.874999999999998
 30
0.0
 40
0.5
  1
136528
100
AcDbAttributeDefinition
  3

  2
PNA
 70
     8
280
     0
  0
ATTDEF
  5
FE
330
EE
100
AcDbEntity
  8
AM_6
100
AcDbText
 10
7.625000000000005
 20
-3.374999999999998
 30
0.0
 40
0.5
  1
AN-GT-07-104-D
100
AcDbAttributeDefinition
  3

  2
DESCRIPTIONA
 70
     8
280
     0
  0
ATTDEF
  5
FF
330
EE
100
AcDbEntity
  8
AM_6
100
AcDbText
 10
7.625000000000005
 20
-3.874999999999998
 30
0.0
 40
0.5
  1
4.1
100
AcDbAttributeDefinition
  3

  2
W
 70
     8
280
     0
  0
ATTDEF
  5
100
330
EE
100
AcDbEntity
  8
AM_6
100
AcDbText
 10
7.625000000000005
 20
-4.374999999999998
 30
0.0
 40
0.5
  1
1.62
100
AcDbAttributeDefinition
  3

  2
A
 70
     8
280
     0
  0
ATTDEF
  5
101
330
EE
100
AcDbEntity
  8
AM_6
100
AcDbText
 10
7.625000000000005
 20
-4.874999999999998
 30
0.0
 40
0.5
  1
5.00
100
AcDbAttributeDefinition
  3

  2
B
 70
     8
280
     0
  0
ATTDEF
  5
102
330
EE
100
AcDbEntity
  8
AM_6
100
AcDbText
 10
7.625000000000005
 20
-5.374999999999998
 30
0.0
 40
0.5
  1
1.81
100
AcDbAttributeDefinition
  3

  2
C
 70
     8
280
     0
  0
ATTDEF
  5
103
330
EE
100
AcDbEntity
  8
AM_6
100
AcDbText
 10
7.625000000000005
 20
-5.874999999999998
 30
0.0
 40
0.5
  1
4.13
100
AcDbAttributeDefinition
  3

  2
D
 70
     8
280
     0
  0
ATTDEF
  5
104
330
EE
100
AcDbEntity
  8
AM_6
100
AcDbText
 10
7.625000000000005
 20
-6.374999999999998
 30
0.0
 40
0.5
  1
0.38
100
AcDbAttributeDefinition
  3

  2
E
 70
     8
280
     0
  0
ATTDEF
  5
105
330
EE
100
AcDbEntity
  8
AM_6
100
AcDbText
 10
7.625000000000005
 20
-6.874999999999998
 30
0.0
 40
0.5
  1
3/8
100
AcDbAttributeDefinition
  3

  2
F
 70
     8
280
     0
  0
ATTDEF
  5
106
330
EE
100
AcDbEntity
  8
AM_6
100
AcDbText
 10
7.625000000000005
 20
-7.374999999999998
 30
0.0
 40
0.5
  1
1.44
100
AcDbAttributeDefinition
  3

  2
G
 70
     8
280
     0
  0
ATTDEF
  5
107
330
EE
100
AcDbEntity
  8
AM_6
100
AcDbText
 10
7.625000000000005
 20
-7.874999999999998
 30
0.0
 40
0.5
  1
0.84
100
AcDbAttributeDefinition
  3

  2
H
 70
     8
280
     0
  0
ATTDEF
  5
108
330
EE
100
AcDbEntity
  8
AM_6
100
AcDbText
 10
7.625000000000005
 20
-8.374999999999998
 30
0.0
 40
0.5
  1
3.375/3.373
100
AcDbAttributeDefinition
  3

  2
K
 70
     8
280
     0
  0
ATTDEF
  5
109
330
EE
100
AcDbEntity
  8
AM_6
100
AcDbText
 10
7.625000000000005
 20
-8.874999999999998
 30
0.0
 40
0.5
  1
2.38
100
AcDbAttributeDefinition
  3

  2
L
 70
     8
280
     0
  0
ATTDEF
  5
10A
330
EE
100
AcDbEntity
  8
AM_6
100
AcDbText
 10
7.625000000000005
 20
-9.374999999999998
 30
0.0
 40
0.5
  1
1.49
100
AcDbAttributeDefinition
  3

  2
Z
 70
     8
280
     0
  0
ATTDEF
  5
10B
330
EE
100
AcDbEntity
  8
AM_6
100
AcDbText
 10
7.625000000000005
 20
-9.874999999999998
 30
0.0
 40
0.5
  1
104
100
AcDbAttributeDefinition
  3

  2
SSM
 70
     8
280
     0
  0
ATTDEF
  5
10C
330
EE
100
AcDbEntity
  8
AM_6
100
AcDbText
 10
7.625000000000005
 20
-10.375
 30
0.0
 40
0.5
  1
fc_gi_templ.prj
100
AcDbAttributeDefinition
  3

  2
PPATH
 70
     8
280
     0
  0
ATTDEF
  5
10D
330
EE
100
AcDbEntity
  8
AM_6
100
AcDbText
 10
7.625000000000005
 20
-10.875
 30
0.0
 40
0.5
  1
Infotex
100
AcDbAttributeDefinition
  3

  2
INFO
 70
     8
280
     0
  0
ATTDEF
  5
10E
330
EE
100
AcDbEntity
  8
AM_6
100
AcDbText
 10
7.625000000000005
 20
-11.375
 30
0.0
 40
0.5
  1
3065
100
AcDbAttributeDefinition
  3

  2
CAPS
 70
     8
280
     0
  0
ATTDEF
  5
10F
330
EE
100
AcDbEntity
  8
AM_6
100
AcDbText
 10
7.625000000000005
 20
-11.875
 30
0.0
 40
0.5
  1
5759
100
AcDbAttributeDefinition
  3

  2
CAPD
 70
     8
280
     0
  0
ATTDEF
  5
110
330
EE
100
AcDbEntity
  8
AM_6
100
AcDbText
 10
7.625000000000005
 20
-12.375
 30
0.0
 40
0.5
  1
baldor
100
AcDbAttributeDefinition
  3

  2
COMPANY
 70
     8
280
     0
  0
CIRCLE
  5
111
330
EE
100
AcDbEntity
  8
AM_9
 48
0.0192592424049175
100
AcDbCircle
 10
0.0
 20
0.0
 30
0.0
 40
1.450164999999999
  0
CIRCLE
  5
112
330
EE
100
AcDbEntity
  8
AM_9
 48
0.0192592424049175
100
AcDbCircle
 10
0.0
 20
0.0
 30
0.0
 40
1.6875
  0
CIRCLE
  5
113
330
EE
100
AcDbEntity
  8
AM_9
 48
0.0192592424049175
100
AcDbCircle
 10
-0.0000000000000001
 20
-0.0000000000000001
 30
0.0
 40
1.488165
  0
LINE
  5
116
330
EE
100
AcDbEntity
  8
AM_7
 48
0.0192592424049175
100
AcDbLine
 10
-1.916925503150221
 20
-1.46017550315022
 30
0.0
 11
-1.003425503150221
 21
-1.46017550315022
 31
0.0
  0
LINE
  5
117
330
EE
100
AcDbEntity
  8
AM_7
 48
0.0192592424049175
100
AcDbLine
 10
-1.460175503150221
 20
-1.91692550315022
 30
0.0
 11
-1.460175503150221
 21
-1.00342550315022
 31
0.0
  0
LINE
  5
118
330
EE
100
AcDbEntity
  8
AM_7
 48
0.0192592424049175
100
AcDbLine
 10
-1.91692550315022
 20
1.460175503150221
 30
0.0
 11
-1.00342550315022
 21
1.460175503150221
 31
0.0
  0
LINE
  5
119
330
EE
100
AcDbEntity
  8
AM_7
 48
0.0192592424049175
100
AcDbLine
 10
-1.46017550315022
 20
1.003425503150221
 30
0.0
 11
-1.46017550315022
 21
1.916925503150221
 31
0.0
  0
LINE
  5
11A
330
EE
100
AcDbEntity
  8
AM_7
 48
0.0192592424049175
100
AcDbLine
 10
1.003425497881866
 20
-1.460175497881866
 30
0.0
 11
1.916925497881866
 21
-1.460175497881866
 31
0.0
  0
LINE
  5
11B
330
EE
100
AcDbEntity
  8
AM_7
 48
0.0192592424049175
100
AcDbLine
 10
1.460175497881866
 20
-1.916925497881866
 30
0.0
 11
1.460175497881866
 21
-1.003425497881866
 31
0.0
  0
LINE
  5
11C
330
EE
100
AcDbEntity
  8
AM_7
 48
0.0192592424049175
100
AcDbLine
 10
-2.625000000000002
 20
-0.000000000000002
 30
0.0
 11
2.625000000000005
 21
-0.000000000000002
 31
0.0
  0
LINE
  5
11D
330
EE
100
AcDbEntity
  8
AM_7
 48
0.0192592424049175
100
AcDbLine
 10
0.000000000000002
 20
-2.625000000000005
 30
0.0
 11
0.000000000000002
 21
2.625000000000002
 31
0.0
  0
LINE
  5
11E
330
EE
100
AcDbEntity
  8
AM_7
 48
0.0192592424049175
100
AcDbLine
 10
1.003425503150221
 20
1.460175503150221
 30
0.0
 11
1.91692550315022
 21
1.460175503150221
 31
0.0
  0
LINE
  5
11F
330
EE
100
AcDbEntity
  8
AM_7
 48
0.0192592424049175
100
AcDbLine
 10
1.460175503150221
 20
1.003425503150221
 30
0.0
 11
1.460175503150221
 21
1.91692550315022
 31
0.0
  0
LINE
  5
120
330
EE
100
AcDbEntity
  8
AM_0
 48
0.0192592424049175
100
AcDbLine
 10
-0.127026446547
 20
-2.236024660603
 30
0.0
 11
-0.151513467644
 21
-2.236024660603
 31
0.0
  0
LINE
  5
121
330
EE
100
AcDbEntity
  8
AM_0
 48
0.0192592424049175
100
AcDbLine
 10
-0.163757175043
 20
-2.1369672
 30
0.0
 11
-0.151513467644
 21
-2.1340538
 31
0.0
  0
LINE
  5
122
330
EE
100
AcDbEntity
  8
AM_0
 48
0.0192592424049175
100
AcDbLine
 10
-0.18212214559
 20
-2.1631883
 30
0.0
 11
-0.179061514016
 21
-2.1515345
 31
0.0
  0
LINE
  5
123
330
EE
100
AcDbEntity
  8
AM_0
 48
0.0192592424049175
100
AcDbLine
 10
-0.18212214559
 20
-2.2068900779412
 30
0.0
 11
-0.18212214559
 21
-2.1631883
 31
0.0
  0
LINE
  5
124
330
EE
100
AcDbEntity
  8
AM_0
 48
0.0192592424049175
100
AcDbLine
 10
-0.179061514016
 20
-2.2185439031319
 30
0.0
 11
-0.18212214559
 21
-2.2068900779412
 31
0.0
  0
LINE
  5
125
330
EE
100
AcDbEntity
  8
AM_0
 48
0.0192592424049175
100
AcDbLine
 10
-0.172939463466
 20
-2.227284104702
 30
0.0
 11
-0.179061514016
 21
-2.2185439031319
 31
0.0
  0
LINE
  5
126
330
EE
100
AcDbEntity
  8
AM_0
 48
0.0192592424049175
100
AcDbLine
 10
-0.163757175043
 20
-2.233111273203
 30
0.0
 11
-0.172939463466
 21
-2.227284104702
 31
0.0
  0
LINE
  5
127
330
EE
100
AcDbEntity
  8
AM_0
 48
0.0192592424049175
100
AcDbLine
 10
-0.151513467644
 20
-2.236024660603
 30
0.0
 11
-0.163757175043
 21
-2.233111273203
 31
0.0
  0
LINE
  5
128
330
EE
100
AcDbEntity
  8
AM_0
 48
0.0192592424049175
100
AcDbLine
 10
-0.114783132849
 20
-2.233111273203
 30
0.0
 11
-0.127026446547
 21
-2.236024660603
 31
0.0
  0
LINE
  5
129
330
EE
100
AcDbEntity
  8
AM_0
 48
0.0192592424049175
100
AcDbLine
 10
-0.105600450725
 20
-2.227284104702
 30
0.0
 11
-0.114783132849
 21
-2.233111273203
 31
0.0
  0
LINE
  5
12A
330
EE
100
AcDbEntity
  8
AM_0
 48
0.0192592424049175
100
AcDbLine
 10
-0.099478400175
 20
-2.2185439031319
 30
0.0
 11
-0.105600450725
 21
-2.227284104702
 31
0.0
  0
LINE
  5
12B
330
EE
100
AcDbEntity
  8
AM_0
 48
0.0192592424049175
100
AcDbLine
 10
-0.096417768601
 20
-2.2068900779412
 30
0.0
 11
-0.099478400175
 21
-2.2185439031319
 31
0.0
  0
LINE
  5
12C
330
EE
100
AcDbEntity
  8
AM_0
 48
0.0192592424049175
100
AcDbLine
 10
-0.096417768601
 20
-2.1631883
 30
0.0
 11
-0.096417768601
 21
-2.2068900779412
 31
0.0
  0
LINE
  5
12D
330
EE
100
AcDbEntity
  8
AM_0
 48
0.0192592424049175
100
AcDbLine
 10
-0.099478400175
 20
-2.1515345
 30
0.0
 11
-0.096417768601
 21
-2.1631883
 31
0.0
  0
LINE
  5
12E
330
EE
100
AcDbEntity
  8
AM_0
 48
0.0192592424049175
100
AcDbLine
 10
-0.105600450725
 20
-2.1427943
 30
0.0
 11
-0.099478400175
 21
-2.1515345
 31
0.0
  0
LINE
  5
12F
330
EE
100
AcDbEntity
  8
AM_0
 48
0.0192592424049175
100
AcDbLine
 10
-0.114783132849
 20
-2.1369672
 30
0.0
 11
-0.105600450725
 21
-2.1427943
 31
0.0
  0
LINE
  5
130
330
EE
100
AcDbEntity
  8
AM_0
 48
0.0192592424049175
100
AcDbLine
 10
-0.127026446547
 20
-2.1340538
 30
0.0
 11
-0.114783132849
 21
-2.1369672
 31
0.0
  0
LINE
  5
131
330
EE
100
AcDbEntity
  8
AM_0
 48
0.0192592424049175
100
AcDbLine
 10
-0.151513467644
 20
-2.1340538
 30
0.0
 11
-0.127026446547
 21
-2.1340538
 31
0.0
  0
LINE
  5
132
330
EE
100
AcDbEntity
  8
AM_0
 48
0.0192592424049175
100
AcDbLine
 10
-0.172939463466
 20
-2.1427943
 30
0.0
 11
-0.163757175043
 21
-2.1369672
 31
0.0
  0
LINE
  5
133
330
EE
100
AcDbEntity
  8
AM_0
 48
0.0192592424049175
100
AcDbLine
 10
-0.179061514016
 20
-2.1515345
 30
0.0
 11
-0.172939463466
 21
-2.1427943
 31
0.0
  0
LINE
  5
134
330
EE
100
AcDbEntity
  8
AM_0
 48
0.0192592424049175
100
AcDbLine
 10
-0.273948573129
 20
-2.1340538
 30
0.0
 11
-0.261705259431
 21
-2.1369672
 31
0.0
  0
LINE
  5
135
330
EE
100
AcDbEntity
  8
AM_0
 48
0.0192592424049175
100
AcDbLine
 10
-0.3290446658729999
 20
-2.236024660603
 30
0.0
 11
-0.3290446658729999
 21
-2.1340538
 31
0.0
  0
LINE
  5
136
330
EE
100
AcDbEntity
  8
AM_0
 48
0.0192592424049175
100
AcDbLine
 10
-0.3290446658729999
 20
-2.1340538
 30
0.0
 11
-0.273948573129
 21
-2.1340538
 31
0.0
  0
LINE
  5
137
330
EE
100
AcDbEntity
  8
AM_0
 48
0.0192592424049175
100
AcDbLine
 10
-0.261705259431
 20
-2.1369672
 30
0.0
 11
-0.252522577307
 21
-2.1427943
 31
0.0
  0
LINE
  5
138
330
EE
100
AcDbEntity
  8
AM_0
 48
0.0192592424049175
100
AcDbLine
 10
-0.252522577307
 20
-2.1427943
 30
0.0
 11
-0.246400920458
 21
-2.1515345
 31
0.0
  0
LINE
  5
139
330
EE
100
AcDbEntity
  8
AM_0
 48
0.0192592424049175
100
AcDbLine
 10
-0.246400920458
 20
-2.1515345
 30
0.0
 11
-0.243339895183
 21
-2.1631883
 31
0.0
  0
LINE
  5
13A
330
EE
100
AcDbEntity
  8
AM_0
 48
0.0192592424049175
100
AcDbLine
 10
-0.243339895183
 20
-2.1631883
 30
0.0
 11
-0.243339895183
 21
-2.2068900779412
 31
0.0
  0
LINE
  5
13B
330
EE
100
AcDbEntity
  8
AM_0
 48
0.0192592424049175
100
AcDbLine
 10
-0.243339895183
 20
-2.2068900779412
 30
0.0
 11
-0.246400920458
 21
-2.2185439031319
 31
0.0
  0
LINE
  5
13C
330
EE
100
AcDbEntity
  8
AM_0
 48
0.0192592424049175
100
AcDbLine
 10
-0.246400920458
 20
-2.2185439031319
 30
0.0
 11
-0.252522577307
 21
-2.227284104702
 31
0.0
  0
LINE
  5
13D
330
EE
100
AcDbEntity
  8
AM_0
 48
0.0192592424049175
100
AcDbLine
 10
-0.252522577307
 20
-2.227284104702
 30
0.0
 11
-0.261705259431
 21
-2.233111273203
 31
0.0
  0
LINE
  5
13E
330
EE
100
AcDbEntity
  8
AM_0
 48
0.0192592424049175
100
AcDbLine
 10
-0.261705259431
 20
-2.233111273203
 30
0.0
 11
-0.273948573129
 21
-2.236024660603
 31
0.0
  0
LINE
  5
13F
330
EE
100
AcDbEntity
  8
AM_0
 48
0.0192592424049175
100
AcDbLine
 10
-0.273948573129
 20
-2.236024660603
 30
0.0
 11
-0.3290446658729999
 21
-2.236024660603
 31
0.0
  0
LINE
  5
140
330
EE
100
AcDbEntity
  8
AM_0
 48
0.0192592424049175
100
AcDbLine
 10
-0.0352000977482
 20
-2.236024660603
 30
0.0
 11
-0.0352000977482
 21
-2.1340538
 31
0.0
  0
LINE
  5
141
330
EE
100
AcDbEntity
  8
AM_0
 48
0.0192592424049175
100
AcDbLine
 10
0.0198957
 20
-2.236024660603
 30
0.0
 11
-0.0352000977482
 21
-2.236024660603
 31
0.0
  0
LINE
  5
142
330
EE
100
AcDbEntity
  8
AM_0
 48
0.0192592424049175
100
AcDbLine
 10
0.0321392
 20
-2.233111273203
 30
0.0
 11
0.0198957
 21
-2.236024660603
 31
0.0
  0
LINE
  5
143
330
EE
100
AcDbEntity
  8
AM_0
 48
0.0192592424049175
100
AcDbLine
 10
0.0413217
 20
-2.227284104702
 30
0.0
 11
0.0321392
 21
-2.233111273203
 31
0.0
  0
LINE
  5
144
330
EE
100
AcDbEntity
  8
AM_0
 48
0.0192592424049175
100
AcDbLine
 10
0.0474437
 20
-2.2185439031319
 30
0.0
 11
0.0413217
 21
-2.227284104702
 31
0.0
  0
LINE
  5
145
330
EE
100
AcDbEntity
  8
AM_0
 48
0.0192592424049175
100
AcDbLine
 10
0.0505043
 20
-2.2068900779412
 30
0.0
 11
0.0474437
 21
-2.2185439031319
 31
0.0
  0
LINE
  5
146
330
EE
100
AcDbEntity
  8
AM_0
 48
0.0192592424049175
100
AcDbLine
 10
0.0505043
 20
-2.1631883
 30
0.0
 11
0.0505043
 21
-2.2068900779412
 31
0.0
  0
LINE
  5
147
330
EE
100
AcDbEntity
  8
AM_0
 48
0.0192592424049175
100
AcDbLine
 10
0.0474437
 20
-2.1515345
 30
0.0
 11
0.0505043
 21
-2.1631883
 31
0.0
  0
LINE
  5
148
330
EE
100
AcDbEntity
  8
AM_0
 48
0.0192592424049175
100
AcDbLine
 10
0.0413217
 20
-2.1427943
 30
0.0
 11
0.0474437
 21
-2.1515345
 31
0.0
  0
LINE
  5
149
330
EE
100
AcDbEntity
  8
AM_0
 48
0.0192592424049175
100
AcDbLine
 10
0.0321392
 20
-2.1369672
 30
0.0
 11
0.0413217
 21
-2.1427943
 31
0.0
  0
LINE
  5
14A
330
EE
100
AcDbEntity
  8
AM_0
 48
0.0192592424049175
100
AcDbLine
 10
0.0198957
 20
-2.1340538
 30
0.0
 11
0.0321392
 21
-2.1369672
 31
0.0
  0
LINE
  5
14B
330
EE
100
AcDbEntity
  8
AM_0
 48
0.0192592424049175
100
AcDbLine
 10
-0.0352000977482
 20
-2.1340538
 30
0.0
 11
0.0198957
 21
-2.1340538
 31
0.0
  0
LINE
  5
14C
330
EE
100
AcDbEntity
  8
AM_0
 48
0.0192592424049175
100
AcDbLine
 10
-0.5533150823702686
 20
2.065
 30
0.0
 11
-0.6470476127563024
 21
2.414814565722671
 31
0.0
  0
LINE
  5
14D
330
EE
100
AcDbEntity
  8
AM_0
 48
0.0192592424049175
100
AcDbLine
 10
0.6470476127563034
 20
2.41481456572267
 30
0.0
 11
0.5533150823702683
 21
2.065
 31
0.0
  0
LINE
  5
14E
330
EE
100
AcDbEntity
  8
AM_0
 48
0.0192592424049175
100
AcDbLine
 10
-0.1913048277139998
 20
-2.1369672
 30
0.0
 11
-0.179061514016
 21
-2.1253136
 31
0.0
  0
ARC
  5
14F
330
EE
100
AcDbEntity
  8
AM_0
 48
0.0192592424049175
100
AcDbCircle
 10
-0.0000000000000012
 20
0.0000000000000001
 30
0.0
 40
2.5
100
AcDbArc
 50
105.0
 51
74.99999999999994
  0
LINE
  5
150
330
EE
100
AcDbEntity
  8
AM_0
 48
0.0192592424049175
100
AcDbLine
 10
-0.258644234156
 20
-2.1194864
 30
0.0
 11
-0.246400920458
 21
-2.1253136
 31
0.0
  0
LINE
  5
151
330
EE
100
AcDbEntity
  8
AM_0
 48
0.0192592424049175
100
AcDbLine
 10
-0.3474096364199999
 20
-2.253505378704
 30
0.0
 11
-0.3474096364199999
 21
-2.1165731
 31
0.0
  0
LINE
  5
152
330
EE
100
AcDbEntity
  8
AM_0
 48
0.0192592424049175
100
AcDbLine
 10
-0.3474096364199999
 20
-2.1165731
 30
0.0
 11
-0.273948573129
 21
-2.1165731
 31
0.0
  0
LINE
  5
153
330
EE
100
AcDbEntity
  8
AM_0
 48
0.0192592424049175
100
AcDbLine
 10
-0.273948573129
 20
-2.1165731
 30
0.0
 11
-0.258644234156
 21
-2.1194864
 31
0.0
  0
LINE
  5
154
330
EE
100
AcDbEntity
  8
AM_0
 48
0.0192592424049175
100
AcDbLine
 10
-0.246400920458
 20
-2.1253136
 30
0.0
 11
-0.234157213059
 21
-2.1369672
 31
0.0
  0
LINE
  5
155
330
EE
100
AcDbEntity
  8
AM_0
 48
0.0192592424049175
100
AcDbLine
 10
-0.234157213059
 20
-2.1369672
 30
0.0
 11
-0.22803555621
 21
-2.1486211
 31
0.0
  0
LINE
  5
156
330
EE
100
AcDbEntity
  8
AM_0
 48
0.0192592424049175
100
AcDbLine
 10
-0.22803555621
 20
-2.1486211
 30
0.0
 11
-0.224974530935
 21
-2.1631883
 31
0.0
  0
LINE
  5
157
330
EE
100
AcDbEntity
  8
AM_0
 48
0.0192592424049175
100
AcDbLine
 10
-0.224974530935
 20
-2.1631883
 30
0.0
 11
-0.224974530935
 21
-2.2068900779412
 31
0.0
  0
LINE
  5
158
330
EE
100
AcDbEntity
  8
AM_0
 48
0.0192592424049175
100
AcDbLine
 10
-0.224974530935
 20
-2.2068900779412
 30
0.0
 11
-0.22803555621
 21
-2.221457329902
 31
0.0
  0
LINE
  5
159
330
EE
100
AcDbEntity
  8
AM_0
 48
0.0192592424049175
100
AcDbLine
 10
-0.22803555621
 20
-2.221457329902
 30
0.0
 11
-0.234157213059
 21
-2.233111273203
 31
0.0
  0
LINE
  5
15A
330
EE
100
AcDbEntity
  8
AM_0
 48
0.0192592424049175
100
AcDbLine
 10
-0.234157213059
 20
-2.233111273203
 30
0.0
 11
-0.246400920458
 21
-2.244764822803
 31
0.0
  0
LINE
  5
15B
330
EE
100
AcDbEntity
  8
AM_0
 48
0.0192592424049175
100
AcDbLine
 10
-0.246400920458
 20
-2.244764822803
 30
0.0
 11
-0.258644234156
 21
-2.250591991304
 31
0.0
  0
LINE
  5
15C
330
EE
100
AcDbEntity
  8
AM_0
 48
0.0192592424049175
100
AcDbLine
 10
-0.258644234156
 20
-2.250591991304
 30
0.0
 11
-0.273948573129
 21
-2.253505378704
 31
0.0
  0
LINE
  5
15D
330
EE
100
AcDbEntity
  8
AM_0
 48
0.0192592424049175
100
AcDbLine
 10
-0.273948573129
 20
-2.253505378704
 30
0.0
 11
-0.3474096364199999
 21
-2.253505378704
 31
0.0
  0
LINE
  5
15E
330
EE
100
AcDbEntity
  8
AM_0
 48
0.0192592424049175
100
AcDbLine
 10
-0.200487509838
 20
-2.2068900779412
 30
0.0
 11
-0.200487509838
 21
-2.1631883
 31
0.0
  0
LINE
  5
15F
330
EE
100
AcDbEntity
  8
AM_0
 48
0.0192592424049175
100
AcDbLine
 10
-0.200487509838
 20
-2.1631883
 30
0.0
 11
-0.197426878264
 21
-2.1486211
 31
0.0
  0
LINE
  5
160
330
EE
100
AcDbEntity
  8
AM_0
 48
0.0192592424049175
100
AcDbLine
 10
-0.197426878264
 20
-2.1486211
 30
0.0
 11
-0.1913048277139998
 21
-2.1369672
 31
0.0
  0
LINE
  5
161
330
EE
100
AcDbEntity
  8
AM_0
 48
0.0192592424049175
100
AcDbLine
 10
-0.179061514016
 20
-2.1253136
 30
0.0
 11
-0.166817806617
 21
-2.1194864
 31
0.0
  0
LINE
  5
162
330
EE
100
AcDbEntity
  8
AM_0
 48
0.0192592424049175
100
AcDbLine
 10
-0.166817806617
 20
-2.1194864
 30
0.0
 11
-0.151513467644
 21
-2.1165731
 31
0.0
  0
LINE
  5
163
330
EE
100
AcDbEntity
  8
AM_0
 48
0.0192592424049175
100
AcDbLine
 10
-0.151513467644
 20
-2.1165731
 30
0.0
 11
-0.127026446547
 21
-2.1165731
 31
0.0
  0
LINE
  5
164
330
EE
100
AcDbEntity
  8
AM_0
 48
0.0192592424049175
100
AcDbLine
 10
-0.127026446547
 20
-2.1165731
 30
0.0
 11
-0.111722107574
 21
-2.1194864
 31
0.0
  0
LINE
  5
165
330
EE
100
AcDbEntity
  8
AM_0
 48
0.0192592424049175
100
AcDbLine
 10
-0.111722107574
 20
-2.1194864
 30
0.0
 11
-0.099478400175
 21
-2.1253136
 31
0.0
  0
LINE
  5
166
330
EE
100
AcDbEntity
  8
AM_0
 48
0.0192592424049175
100
AcDbLine
 10
-0.099478400175
 20
-2.1253136
 30
0.0
 11
-0.087235086477
 21
-2.1369672
 31
0.0
  0
LINE
  5
167
330
EE
100
AcDbEntity
  8
AM_0
 48
0.0192592424049175
100
AcDbLine
 10
-0.087235086477
 20
-2.1369672
 30
0.0
 11
-0.081113429628
 21
-2.1486211
 31
0.0
  0
LINE
  5
168
330
EE
100
AcDbEntity
  8
AM_0
 48
0.0192592424049175
100
AcDbLine
 10
-0.081113429628
 20
-2.1486211
 30
0.0
 11
-0.078052404353
 21
-2.1631883
 31
0.0
  0
LINE
  5
169
330
EE
100
AcDbEntity
  8
AM_0
 48
0.0192592424049175
100
AcDbLine
 10
-0.078052404353
 20
-2.1631883
 30
0.0
 11
-0.078052404353
 21
-2.2068900779412
 31
0.0
  0
LINE
  5
16A
330
EE
100
AcDbEntity
  8
AM_0
 48
0.0192592424049175
100
AcDbLine
 10
-0.078052404353
 20
-2.2068900779412
 30
0.0
 11
-0.081113429628
 21
-2.221457329902
 31
0.0
  0
LINE
  5
16B
330
EE
100
AcDbEntity
  8
AM_0
 48
0.0192592424049175
100
AcDbLine
 10
-0.081113429628
 20
-2.221457329902
 30
0.0
 11
-0.087235086477
 21
-2.233111273203
 31
0.0
  0
LINE
  5
16C
330
EE
100
AcDbEntity
  8
AM_0
 48
0.0192592424049175
100
AcDbLine
 10
-0.087235086477
 20
-2.233111273203
 30
0.0
 11
-0.099478400175
 21
-2.244764822803
 31
0.0
  0
LINE
  5
16D
330
EE
100
AcDbEntity
  8
AM_0
 48
0.0192592424049175
100
AcDbLine
 10
-0.099478400175
 20
-2.244764822803
 30
0.0
 11
-0.111722107574
 21
-2.250591991304
 31
0.0
  0
LINE
  5
16E
330
EE
100
AcDbEntity
  8
AM_0
 48
0.0192592424049175
100
AcDbLine
 10
-0.111722107574
 20
-2.250591991304
 30
0.0
 11
-0.127026446547
 21
-2.253505378704
 31
0.0
  0
LINE
  5
16F
330
EE
100
AcDbEntity
  8
AM_0
 48
0.0192592424049175
100
AcDbLine
 10
-0.127026446547
 20
-2.253505378704
 30
0.0
 11
-0.151513467644
 21
-2.253505378704
 31
0.0
  0
LINE
  5
170
330
EE
100
AcDbEntity
  8
AM_0
 48
0.0192592424049175
100
AcDbLine
 10
-0.151513467644
 20
-2.253505378704
 30
0.0
 11
-0.166817806617
 21
-2.250591991304
 31
0.0
  0
LINE
  5
171
330
EE
100
AcDbEntity
  8
AM_0
 48
0.0192592424049175
100
AcDbLine
 10
-0.166817806617
 20
-2.250591991304
 30
0.0
 11
-0.179061514016
 21
-2.244764822803
 31
0.0
  0
LINE
  5
172
330
EE
100
AcDbEntity
  8
AM_0
 48
0.0192592424049175
100
AcDbLine
 10
-0.179061514016
 20
-2.244764822803
 30
0.0
 11
-0.191304827714
 21
-2.233111273203
 31
0.0
  0
LINE
  5
173
330
EE
100
AcDbEntity
  8
AM_0
 48
0.0192592424049175
100
AcDbLine
 10
-0.191304827714
 20
-2.233111273203
 30
0.0
 11
-0.197426878264
 21
-2.221457329902
 31
0.0
  0
LINE
  5
174
330
EE
100
AcDbEntity
  8
AM_0
 48
0.0192592424049175
100
AcDbLine
 10
-0.197426878264
 20
-2.221457329902
 30
0.0
 11
-0.200487509838
 21
-2.2068900779412
 31
0.0
  0
LINE
  5
175
330
EE
100
AcDbEntity
  8
AM_0
 48
0.0192592424049175
100
AcDbLine
 10
0.0198957
 20
-2.253505378704
 30
0.0
 11
-0.053565383256
 21
-2.253505378704
 31
0.0
  0
LINE
  5
176
330
EE
100
AcDbEntity
  8
AM_0
 48
0.0192592424049175
100
AcDbLine
 10
-0.053565383256
 20
-2.253505378704
 30
0.0
 11
-0.053565383256
 21
-2.1165731
 31
0.0
  0
LINE
  5
177
330
EE
100
AcDbEntity
  8
AM_0
 48
0.0192592424049175
100
AcDbLine
 10
-0.053565383256
 20
-2.1165731
 30
0.0
 11
0.0198957
 21
-2.1165731
 31
0.0
  0
LINE
  5
178
330
EE
100
AcDbEntity
  8
AM_0
 48
0.0192592424049175
100
AcDbLine
 10
0.0198957
 20
-2.1165731
 30
0.0
 11
0.0352001
 21
-2.1194864
 31
0.0
  0
LINE
  5
179
330
EE
100
AcDbEntity
  8
AM_0
 48
0.0192592424049175
100
AcDbLine
 10
0.0352001
 20
-2.1194864
 30
0.0
 11
0.0474437
 21
-2.1253136
 31
0.0
  0
LINE
  5
17A
330
EE
100
AcDbEntity
  8
AM_0
 48
0.0192592424049175
100
AcDbLine
 10
0.0474437
 20
-2.1253136
 30
0.0
 11
0.059687
 21
-2.1369672
 31
0.0
  0
LINE
  5
17B
330
EE
100
AcDbEntity
  8
AM_0
 48
0.0192592424049175
100
AcDbLine
 10
0.059687
 20
-2.1369672
 30
0.0
 11
0.0658091
 21
-2.1486211
 31
0.0
  0
LINE
  5
17C
330
EE
100
AcDbEntity
  8
AM_0
 48
0.0192592424049175
100
AcDbLine
 10
0.0658091
 20
-2.1486211
 30
0.0
 11
0.0688697
 21
-2.1631883
 31
0.0
  0
LINE
  5
17D
330
EE
100
AcDbEntity
  8
AM_0
 48
0.0192592424049175
100
AcDbLine
 10
0.0688697
 20
-2.1631883
 30
0.0
 11
0.0688697
 21
-2.2068900779412
 31
0.0
  0
LINE
  5
17E
330
EE
100
AcDbEntity
  8
AM_0
 48
0.0192592424049175
100
AcDbLine
 10
0.0688697
 20
-2.2068900779412
 30
0.0
 11
0.0658091
 21
-2.221457329902
 31
0.0
  0
LINE
  5
17F
330
EE
100
AcDbEntity
  8
AM_0
 48
0.0192592424049175
100
AcDbLine
 10
0.0658091
 20
-2.221457329902
 30
0.0
 11
0.059687
 21
-2.233111273203
 31
0.0
  0
LINE
  5
180
330
EE
100
AcDbEntity
  8
AM_0
 48
0.0192592424049175
100
AcDbLine
 10
0.059687
 20
-2.233111273203
 30
0.0
 11
0.0474437
 21
-2.244764822803
 31
0.0
  0
LINE
  5
181
330
EE
100
AcDbEntity
  8
AM_0
 48
0.0192592424049175
100
AcDbLine
 10
0.0474437
 20
-2.244764822803
 30
0.0
 11
0.0352001
 21
-2.250591991304
 31
0.0
  0
LINE
  5
182
330
EE
100
AcDbEntity
  8
AM_0
 48
0.0192592424049175
100
AcDbLine
 10
0.0352001
 20
-2.250591991304
 30
0.0
 11
0.0198957
 21
-2.253505378704
 31
0.0
  0
LINE
  5
183
330
EE
100
AcDbEntity
  8
AM_0
 48
0.0192592424049175
100
AcDbLine
 10
0.0933567
 20
-2.2068900779412
 30
0.0
 11
0.0933567
 21
-2.1631883
 31
0.0
  0
LINE
  5
184
330
EE
100
AcDbEntity
  8
AM_0
 48
0.0192592424049175
100
AcDbLine
 10
0.0933567
 20
-2.1631883
 30
0.0
 11
0.0964177
 21
-2.1486211
 31
0.0
  0
LINE
  5
185
330
EE
100
AcDbEntity
  8
AM_0
 48
0.0192592424049175
100
AcDbLine
 10
0.0964177
 20
-2.1486211
 30
0.0
 11
0.1025389999999998
 21
-2.1369672
 31
0.0
  0
LINE
  5
186
330
EE
100
AcDbEntity
  8
AM_0
 48
0.0192592424049175
100
AcDbLine
 10
0.1025389999999998
 20
-2.1369672
 30
0.0
 11
0.114783
 21
-2.1253136
 31
0.0
  0
LINE
  5
187
330
EE
100
AcDbEntity
  8
AM_0
 48
0.0192592424049175
100
AcDbLine
 10
0.114783
 20
-2.1253136
 30
0.0
 11
0.127026
 21
-2.1194864
 31
0.0
  0
LINE
  5
188
330
EE
100
AcDbEntity
  8
AM_0
 48
0.0192592424049175
100
AcDbLine
 10
0.127026
 20
-2.1194864
 30
0.0
 11
0.142331
 21
-2.1165731
 31
0.0
  0
LINE
  5
189
330
EE
100
AcDbEntity
  8
AM_0
 48
0.0192592424049175
100
AcDbLine
 10
0.142331
 20
-2.1165731
 30
0.0
 11
0.169879
 21
-2.1165731
 31
0.0
  0
LINE
  5
18A
330
EE
100
AcDbEntity
  8
AM_0
 48
0.0192592424049175
100
AcDbLine
 10
0.169879
 20
-2.1165731
 30
0.0
 11
0.185183
 21
-2.1194864
 31
0.0
  0
LINE
  5
18B
330
EE
100
AcDbEntity
  8
AM_0
 48
0.0192592424049175
100
AcDbLine
 10
0.185183
 20
-2.1194864
 30
0.0
 11
0.197427
 21
-2.1253136
 31
0.0
  0
LINE
  5
18C
330
EE
100
AcDbEntity
  8
AM_0
 48
0.0192592424049175
100
AcDbLine
 10
0.197427
 20
-2.1253136
 30
0.0
 11
0.20967
 21
-2.1369672
 31
0.0
  0
LINE
  5
18D
330
EE
100
AcDbEntity
  8
AM_0
 48
0.0192592424049175
100
AcDbLine
 10
0.20967
 20
-2.1369672
 30
0.0
 11
0.212731
 21
-2.1515345
 31
0.0
  0
LINE
  5
18E
330
EE
100
AcDbEntity
  8
AM_0
 48
0.0192592424049175
100
AcDbLine
 10
0.212731
 20
-2.1515345
 30
0.0
 11
0.194366
 21
-2.1515345
 31
0.0
  0
LINE
  5
18F
330
EE
100
AcDbEntity
  8
AM_0
 48
0.0192592424049175
100
AcDbLine
 10
0.194366
 20
-2.1515345
 30
0.0
 11
0.191305
 21
-2.1427943
 31
0.0
  0
LINE
  5
190
330
EE
100
AcDbEntity
  8
AM_0
 48
0.0192592424049175
100
AcDbLine
 10
0.191305
 20
-2.1427943
 30
0.0
 11
0.182122
 21
-2.1369672
 31
0.0
  0
LINE
  5
191
330
EE
100
AcDbEntity
  8
AM_0
 48
0.0192592424049175
100
AcDbLine
 10
0.182122
 20
-2.1369672
 30
0.0
 11
0.169879
 21
-2.1340538
 31
0.0
  0
LINE
  5
192
330
EE
100
AcDbEntity
  8
AM_0
 48
0.0192592424049175
100
AcDbLine
 10
0.169879
 20
-2.1340538
 30
0.0
 11
0.142331
 21
-2.1340538
 31
0.0
  0
LINE
  5
193
330
EE
100
AcDbEntity
  8
AM_0
 48
0.0192592424049175
100
AcDbLine
 10
0.142331
 20
-2.1340538
 30
0.0
 11
0.130087
 21
-2.1369672
 31
0.0
  0
LINE
  5
194
330
EE
100
AcDbEntity
  8
AM_0
 48
0.0192592424049175
100
AcDbLine
 10
0.130087
 20
-2.1369672
 30
0.0
 11
0.120905
 21
-2.1427943
 31
0.0
  0
LINE
  5
195
330
EE
100
AcDbEntity
  8
AM_0
 48
0.0192592424049175
100
AcDbLine
 10
0.120905
 20
-2.1427943
 30
0.0
 11
0.114783
 21
-2.1515345
 31
0.0
  0
LINE
  5
196
330
EE
100
AcDbEntity
  8
AM_0
 48
0.0192592424049175
100
AcDbLine
 10
0.114783
 20
-2.1515345
 30
0.0
 11
0.111722
 21
-2.1631883
 31
0.0
  0
LINE
  5
197
330
EE
100
AcDbEntity
  8
AM_0
 48
0.0192592424049175
100
AcDbLine
 10
0.111722
 20
-2.1631883
 30
0.0
 11
0.111722
 21
-2.2068900779412
 31
0.0
  0
LINE
  5
198
330
EE
100
AcDbEntity
  8
AM_0
 48
0.0192592424049175
100
AcDbLine
 10
0.111722
 20
-2.2068900779412
 30
0.0
 11
0.114783
 21
-2.2185439031319
 31
0.0
  0
LINE
  5
199
330
EE
100
AcDbEntity
  8
AM_0
 48
0.0192592424049175
100
AcDbLine
 10
0.114783
 20
-2.2185439031319
 30
0.0
 11
0.120905
 21
-2.227284104702
 31
0.0
  0
LINE
  5
19A
330
EE
100
AcDbEntity
  8
AM_0
 48
0.0192592424049175
100
AcDbLine
 10
0.120905
 20
-2.227284104702
 30
0.0
 11
0.130087
 21
-2.233111273203
 31
0.0
  0
LINE
  5
19B
330
EE
100
AcDbEntity
  8
AM_0
 48
0.0192592424049175
100
AcDbLine
 10
0.130087
 20
-2.233111273203
 30
0.0
 11
0.142331
 21
-2.236024660603
 31
0.0
  0
LINE
  5
19C
330
EE
100
AcDbEntity
  8
AM_0
 48
0.0192592424049175
100
AcDbLine
 10
0.142331
 20
-2.236024660603
 30
0.0
 11
0.169879
 21
-2.236024660603
 31
0.0
  0
LINE
  5
19D
330
EE
100
AcDbEntity
  8
AM_0
 48
0.0192592424049175
100
AcDbLine
 10
0.169879
 20
-2.236024660603
 30
0.0
 11
0.182122
 21
-2.233111273203
 31
0.0
  0
LINE
  5
19E
330
EE
100
AcDbEntity
  8
AM_0
 48
0.0192592424049175
100
AcDbLine
 10
0.182122
 20
-2.233111273203
 30
0.0
 11
0.191305
 21
-2.227284104702
 31
0.0
  0
LINE
  5
19F
330
EE
100
AcDbEntity
  8
AM_0
 48
0.0192592424049175
100
AcDbLine
 10
0.191305
 20
-2.227284104702
 30
0.0
 11
0.194366
 21
-2.2185439031319
 31
0.0
  0
LINE
  5
1A0
330
EE
100
AcDbEntity
  8
AM_0
 48
0.0192592424049175
100
AcDbLine
 10
0.194366
 20
-2.2185439031319
 30
0.0
 11
0.194366
 21
-2.1952362921206
 31
0.0
  0
LINE
  5
1A1
330
EE
100
AcDbEntity
  8
AM_0
 48
0.0192592424049175
100
AcDbLine
 10
0.194366
 20
-2.1952362921206
 30
0.0
 11
0.166818
 21
-2.1952362921206
 31
0.0
  0
LINE
  5
1A2
330
EE
100
AcDbEntity
  8
AM_0
 48
0.0192592424049175
100
AcDbLine
 10
0.166818
 20
-2.1952362921206
 30
0.0
 11
0.166818
 21
-2.17775558
 31
0.0
  0
LINE
  5
1A3
330
EE
100
AcDbEntity
  8
AM_0
 48
0.0192592424049175
100
AcDbLine
 10
0.166818
 20
-2.17775558
 30
0.0
 11
0.212731
 21
-2.17775558
 31
0.0
  0
LINE
  5
1A4
330
EE
100
AcDbEntity
  8
AM_0
 48
0.0192592424049175
100
AcDbLine
 10
0.212731
 20
-2.17775558
 30
0.0
 11
0.212731
 21
-2.221457329902
 31
0.0
  0
LINE
  5
1A5
330
EE
100
AcDbEntity
  8
AM_0
 48
0.0192592424049175
100
AcDbLine
 10
0.212731
 20
-2.221457329902
 30
0.0
 11
0.20967
 21
-2.233111273203
 31
0.0
  0
LINE
  5
1A6
330
EE
100
AcDbEntity
  8
AM_0
 48
0.0192592424049175
100
AcDbLine
 10
0.20967
 20
-2.233111273203
 30
0.0
 11
0.197427
 21
-2.244764822803
 31
0.0
  0
LINE
  5
1A7
330
EE
100
AcDbEntity
  8
AM_0
 48
0.0192592424049175
100
AcDbLine
 10
0.197427
 20
-2.244764822803
 30
0.0
 11
0.185183
 21
-2.250591991304
 31
0.0
  0
LINE
  5
1A8
330
EE
100
AcDbEntity
  8
AM_0
 48
0.0192592424049175
100
AcDbLine
 10
0.185183
 20
-2.250591991304
 30
0.0
 11
0.169879
 21
-2.253505378704
 31
0.0
  0
LINE
  5
1A9
330
EE
100
AcDbEntity
  8
AM_0
 48
0.0192592424049175
100
AcDbLine
 10
0.169879
 20
-2.253505378704
 30
0.0
 11
0.142331
 21
-2.253505378704
 31
0.0
  0
LINE
  5
1AA
330
EE
100
AcDbEntity
  8
AM_0
 48
0.0192592424049175
100
AcDbLine
 10
0.142331
 20
-2.253505378704
 30
0.0
 11
0.127026
 21
-2.250591991304
 31
0.0
  0
LINE
  5
1AB
330
EE
100
AcDbEntity
  8
AM_0
 48
0.0192592424049175
100
AcDbLine
 10
0.127026
 20
-2.250591991304
 30
0.0
 11
0.114783
 21
-2.244764822803
 31
0.0
  0
LINE
  5
1AC
330
EE
100
AcDbEntity
  8
AM_0
 48
0.0192592424049175
100
AcDbLine
 10
0.114783
 20
-2.244764822803
 30
0.0
 11
0.102539
 21
-2.233111273203
 31
0.0
  0
LINE
  5
1AD
330
EE
100
AcDbEntity
  8
AM_0
 48
0.0192592424049175
100
AcDbLine
 10
0.102539
 20
-2.233111273203
 30
0.0
 11
0.0964177
 21
-2.221457329902
 31
0.0
  0
LINE
  5
1AE
330
EE
100
AcDbEntity
  8
AM_0
 48
0.0192592424049175
100
AcDbLine
 10
0.0964177
 20
-2.221457329902
 30
0.0
 11
0.0933567
 21
-2.2068900779412
 31
0.0
  0
LINE
  5
1AF
330
EE
100
AcDbEntity
  8
AM_0
 48
0.0192592424049175
100
AcDbLine
 10
0.347409
 20
-2.253505378704
 30
0.0
 11
0.237218
 21
-2.253505378704
 31
0.0
  0
LINE
  5
1B0
330
EE
100
AcDbEntity
  8
AM_0
 48
0.0192592424049175
100
AcDbLine
 10
0.237218
 20
-2.253505378704
 30
0.0
 11
0.237218
 21
-2.1165731
 31
0.0
  0
LINE
  5
1B1
330
EE
100
AcDbEntity
  8
AM_0
 48
0.0192592424049175
100
AcDbLine
 10
0.237218
 20
-2.1165731
 30
0.0
 11
0.347409
 21
-2.1165731
 31
0.0
  0
LINE
  5
1B2
330
EE
100
AcDbEntity
  8
AM_0
 48
0.0192592424049175
100
AcDbLine
 10
0.347409
 20
-2.1165731
 30
0.0
 11
0.347409
 21
-2.1340538
 31
0.0
  0
LINE
  5
1B3
330
EE
100
AcDbEntity
  8
AM_0
 48
0.0192592424049175
100
AcDbLine
 10
0.347409
 20
-2.1340538
 30
0.0
 11
0.255583
 21
-2.1340538
 31
0.0
  0
LINE
  5
1B4
330
EE
100
AcDbEntity
  8
AM_0
 48
0.0192592424049175
100
AcDbLine
 10
0.255583
 20
-2.1340538
 30
0.0
 11
0.255583
 21
-2.1719287
 31
0.0
  0
LINE
  5
1B5
330
EE
100
AcDbEntity
  8
AM_0
 48
0.0192592424049175
100
AcDbLine
 10
0.255583
 20
-2.1719287
 30
0.0
 11
0.335166
 21
-2.1719287
 31
0.0
  0
LINE
  5
1B6
330
EE
100
AcDbEntity
  8
AM_0
 48
0.0192592424049175
100
AcDbLine
 10
0.335166
 20
-2.1719287
 30
0.0
 11
0.335166
 21
-2.1894093598402
 31
0.0
  0
LINE
  5
1B7
330
EE
100
AcDbEntity
  8
AM_0
 48
0.0192592424049175
100
AcDbLine
 10
0.335166
 20
-2.1894093598402
 30
0.0
 11
0.255583
 21
-2.1894093598402
 31
0.0
  0
LINE
  5
1B8
330
EE
100
AcDbEntity
  8
AM_0
 48
0.0192592424049175
100
AcDbLine
 10
0.255583
 20
-2.1894093598402
 30
0.0
 11
0.255583
 21
-2.236024660603
 31
0.0
  0
LINE
  5
1B9
330
EE
100
AcDbEntity
  8
AM_0
 48
0.0192592424049175
100
AcDbLine
 10
0.255583
 20
-2.236024660603
 30
0.0
 11
0.347409
 21
-2.236024660603
 31
0.0
  0
LINE
  5
1BA
330
EE
100
AcDbEntity
  8
AM_0
 48
0.0192592424049175
100
AcDbLine
 10
0.347409
 20
-2.236024660603
 30
0.0
 11
0.347409
 21
-2.253505378704
 31
0.0
  0
LINE
  5
1BB
330
EE
100
AcDbEntity
  8
AM_0
 48
0.0192592424049175
100
AcDbLine
 10
-0.065412762151671
 20
2.419331
 30
0.0
 11
0.065412762151671
 21
2.419331
 31
0.0
  0
ARC
  5
1BC
330
EE
100
AcDbEntity
  8
AM_0
 48
0.0192592424049175
100
AcDbCircle
 10
0.0654127621516718
 20
2.399646000000001
 30
0.0
 40
0.019684999999999
100
AcDbArc
 50
21.80123384503078
 51
90.00000000000234
  0
ARC
  5
1BD
330
EE
100
AcDbEntity
  8
AM_0
 48
0.0192592424049175
100
AcDbCircle
 10
-0.0654127621516718
 20
2.399646000000001
 30
0.0
 40
0.0196849999999991
100
AcDbArc
 50
89.99999999999767
 51
158.1987661549692
  0
LINE
  5
1BE
330
EE
100
AcDbEntity
  8
AM_4
 48
0.0192592424049175
100
AcDbLine
 10
-0.0836898482231382
 20
2.406956769435304
 30
0.0
 11
0.0836898482231382
 21
2.406956769435304
 31
0.0
  0
LINE
  5
1BF
330
EE
100
AcDbEntity
  8
AM_0
 48
0.0192592424049175
100
AcDbLine
 10
-0.0836898482231382
 20
2.406956769435304
 30
0.0
 11
-0.1048774357720923
 21
2.353987329664854
 31
0.0
  0
LINE
  5
1C0
330
EE
100
AcDbEntity
  8
AM_0
 48
0.0192592424049175
100
AcDbLine
 10
0.1048774357720923
 20
2.353987329664854
 30
0.0
 11
0.0836898482231382
 21
2.406956769435304
 31
0.0
  0
LINE
  5
1C1
330
EE
100
AcDbEntity
  8
AM_4
 48
0.0192592424049175
100
AcDbLine
 10
-0.1048774357720923
 20
2.353987329664854
 30
0.0
 11
0.1048774357720923
 21
2.353987329664854
 31
0.0
  0
ARC
  5
1C2
330
EE
100
AcDbEntity
  8
AM_0
 48
0.0192592424049175
100
AcDbCircle
 10
0.0866003497006264
 20
2.346676560229549
 30
0.0
 40
0.019684999999999
100
AcDbArc
 50
314.15722282393
 51
21.80123384503382
  0
ARC
  5
1C3
330
EE
100
AcDbEntity
  8
AM_0
 48
0.0192592424049175
100
AcDbCircle
 10
-0.0866003497006264
 20
2.346676560229549
 30
0.0
 40
0.0196849999999987
100
AcDbArc
 50
158.1987661549662
 51
225.8427771760699
  0
LINE
  5
1C4
330
EE
100
AcDbEntity
  8
AM_0
 48
0.0192592424049175
100
AcDbLine
 10
0.110236
 20
2.065
 30
0.0
 11
0.110236
 21
2.084685
 31
0.0
  0
LINE
  5
1C5
330
EE
100
AcDbEntity
  8
AM_0
 48
0.0192592424049175
100
AcDbLine
 10
-0.110236
 20
2.084685
 30
0.0
 11
-0.110236
 21
2.065
 31
0.0
  0
LINE
  5
1C6
330
EE
100
AcDbEntity
  8
AM_4
 48
0.0192592424049175
100
AcDbLine
 10
-0.1003135045832955
 20
2.332553932706178
 30
0.0
 11
0.1003135045832955
 21
2.332553932706178
 31
0.0
  0
ARC
  5
1C7
330
EE
100
AcDbEntity
  8
AM_0
 48
0.0192592424049175
100
AcDbCircle
 10
0.1498523265635425
 20
2.2815359
 30
0.0
 40
0.0711121265636124
100
AcDbArc
 50
134.1572288187568
 51
236.1447523006501
  0
ARC
  5
1C8
330
EE
100
AcDbEntity
  8
AM_0
 48
0.0192592424049175
100
AcDbCircle
 10
-0.1498523265635425
 20
2.2815359
 30
0.0
 40
0.0711121265636125
100
AcDbArc
 50
303.8552476993501
 51
45.84277118124316
  0
LINE
  5
1C9
330
EE
100
AcDbEntity
  8
AM_0
 48
0.0192592424049175
100
AcDbLine
 10
-0.110236
 20
2.222481
 30
0.0
 11
0.110236
 21
2.222481
 31
0.0
  0
LINE
  5
1CA
330
EE
100
AcDbEntity
  8
AM_0
 48
0.0192592424049175
100
AcDbLine
 10
0.110236
 20
2.202796
 30
0.0
 11
0.110236
 21
2.222481
 31
0.0
  0
LINE
  5
1CB
330
EE
100
AcDbEntity
  8
AM_0
 48
0.0192592424049175
100
AcDbLine
 10
-0.110236
 20
2.222481
 30
0.0
 11
-0.110236
 21
2.202796
 31
0.0
  0
LWPOLYLINE
  5
1CC
330
EE
100
AcDbEntity
  8
AM_0
 48
0.0192592424049175
100
AcDbPolyline
 90
        3
 70
     0
 43
0.0
 10
0.1574805
 20
2.196268002555586
 10
0.0794975725125035
 20
2.202795215457259
 10
0.0
 20
2.196268002555586
  0
LINE
  5
1CD
330
EE
100
AcDbEntity
  8
AM_0
 48
0.0192592424049175
100
AcDbLine
 10
0.0
 20
2.091212997444414
 30
0.0
 11
0.0
 21
2.196268002555586
 31
0.0
  0
LWPOLYLINE
  5
1CE
330
EE
100
AcDbEntity
  8
AM_0
 48
0.0192592424049175
100
AcDbPolyline
 90
        3
 70
     0
 43
0.0
 10
0.0
 20
2.196268002555586
 10
-0.0779829274874965
 20
2.202795215457259
 10
-0.1574805
 20
2.196268002555586
  0
LINE
  5
1CF
330
EE
100
AcDbEntity
  8
AM_0
 48
0.0192592424049175
100
AcDbLine
 10
0.1574805
 20
2.202795865359485
 30
0.0
 11
0.1574805
 21
2.084686
 31
0.0
  0
LWPOLYLINE
  5
1D0
330
EE
100
AcDbEntity
  8
AM_0
 48
0.0192592424049175
100
AcDbPolyline
 90
        5
 70
     0
 43
0.0
 10
0.0
 20
2.091212997444414
 10
0.0778664735408017
 20
2.084686
 10
0.0796140264591983
 20
2.084686
 10
0.1273207991350541
 20
2.087282276099683
 10
0.1574805
 20
2.091212997444414
  0
LWPOLYLINE
  5
1D1
330
EE
100
AcDbEntity
  8
AM_0
 48
0.0192592424049175
100
AcDbPolyline
 90
        5
 70
     0
 43
0.0
 10
-0.1574805
 20
2.091212997444414
 10
-0.0796140264591982
 20
2.084686
 10
-0.0778664735408017
 20
2.084686
 10
-0.0301597008649459
 20
2.087282276099683
 10
0.0
 20
2.091212997444414
  0
LINE
  5
1D2
330
EE
100
AcDbEntity
  8
AM_0
 48
0.0192592424049175
100
AcDbLine
 10
-0.1574805
 20
2.084686
 30
0.0
 11
-0.1574805
 21
2.202795865227378
 31
0.0
  0
LINE
  5
1D3
330
EE
100
AcDbEntity
  8
AM_0
 48
0.0192592424049175
100
AcDbLine
 10
-0.15748
 20
2.084685
 30
0.0
 11
0.0
 21
2.084685
 31
0.0
  0
LINE
  5
1D4
330
EE
100
AcDbEntity
  8
AM_0
 48
0.0192592424049175
100
AcDbLine
 10
1.76776695296637
 20
-1.152584053334074
 30
0.0
 11
1.635084198341635
 21
-0.9227707810358391
 31
0.0
  0
LINE
  5
1D5
330
EE
100
AcDbEntity
  8
AM_0
 48
0.0192592424049175
100
AcDbLine
 10
0.9227707810358375
 20
-1.635084198341636
 30
0.0
 11
1.152584053334074
 21
-1.76776695296637
 31
0.0
  0
ARC
  5
1D6
330
EE
100
AcDbEntity
  8
AM_0
 48
0.0192592424049175
100
AcDbCircle
 10
-0.0000000000000004
 20
0.0000000000000004
 30
0.0
 40
1.877500000000001
100
AcDbArc
 50
330.5614972792318
 51
29.43850272076817
  0
LINE
  5
1D7
330
EE
100
AcDbEntity
  8
AM_0
 48
0.0192592424049175
100
AcDbLine
 10
1.635084198341635
 20
0.9227707810358405
 30
0.0
 11
1.76776695296637
 21
1.152584053334074
 31
0.0
  0
ARC
  5
1D8
330
EE
100
AcDbEntity
  8
AM_0
 48
0.0192592424049175
100
AcDbCircle
 10
1.460175497881866
 20
-1.460175497881866
 30
0.0
 40
0.4349999999999999
100
AcDbArc
 50
225.000000981349
 51
44.999999018651
  0
LINE
  5
1D9
330
EE
100
AcDbEntity
  8
AM_0
 48
0.0192592424049175
100
AcDbLine
 10
-0.5533150823702683
 20
2.065
 30
0.0
 11
-0.6330112649824328
 21
1.767569797322114
 31
0.0
  0
ARC
  5
1DA
330
EE
100
AcDbEntity
  8
AM_0
 48
0.0192592424049175
100
AcDbCircle
 10
0.0000000000000353
 20
-0.0000000000000766
 30
0.0
 40
1.877500000000084
100
AcDbArc
 50
109.7037250009887
 51
119.4385027207679
  0
ARC
  5
1DB
330
EE
100
AcDbEntity
  8
AM_0
 48
0.0192592424049175
100
AcDbCircle
 10
0.0000000000000001
 20
-0.0000000000000016
 30
0.0
 40
1.877499999999999
100
AcDbArc
 50
240.5614972792318
 51
299.438502720768
  0
LINE
  5
1DC
330
EE
100
AcDbEntity
  8
AM_0
 48
0.0192592424049175
100
AcDbLine
 10
0.6330112649824324
 20
1.767569797322114
 30
0.0
 11
0.553315082370268
 21
2.065
 31
0.0
  0
LINE
  5
1DD
330
EE
100
AcDbEntity
  8
AM_0
 48
0.0192592424049175
100
AcDbLine
 10
1.152584053334074
 20
1.76776695296637
 30
0.0
 11
0.9227707810358388
 21
1.635084198341635
 31
0.0
  0
ARC
  5
1DE
330
EE
100
AcDbEntity
  8
AM_0
 48
0.0192592424049175
100
AcDbCircle
 10
-1.460175503150221
 20
-1.46017550315022
 30
0.0
 40
0.4349999999999998
100
AcDbArc
 50
135.0000000000002
 51
314.9999999999998
  0
LINE
  5
1DF
330
EE
100
AcDbEntity
  8
AM_0
 48
0.0192592424049175
100
AcDbLine
 10
-0.9227707810358393
 20
1.635084198341635
 30
0.0
 11
-1.152584053334073
 21
1.76776695296637
 31
0.0
  0
ARC
  5
1E0
330
EE
100
AcDbEntity
  8
AM_0
 48
0.0192592424049175
100
AcDbCircle
 10
1.46017550315022
 20
1.46017550315022
 30
0.0
 40
0.435
100
AcDbArc
 50
315.0000000000002
 51
134.9999999999997
  0
LINE
  5
1E1
330
EE
100
AcDbEntity
  8
AM_0
 48
0.0192592424049175
100
AcDbLine
 10
0.553315082370268
 20
2.065
 30
0.0
 11
-0.5533150823702683
 21
2.065
 31
0.0
  0
ARC
  5
1E2
330
EE
100
AcDbEntity
  8
AM_0
 48
0.0192592424049175
100
AcDbCircle
 10
-1.46017550315022
 20
1.460175503150221
 30
0.0
 40
0.4349999999999998
100
AcDbArc
 50
45.00000000000021
 51
224.9999999999997
  0
ARC
  5
1E3
330
EE
100
AcDbEntity
  8
AM_0
 48
0.0192592424049175
100
AcDbCircle
 10
-0.0000000000000637
 20
-0.0000000000001361
 30
0.0
 40
1.87750000000015
100
AcDbArc
 50
60.56149727923221
 51
70.2962749990111
  0
CIRCLE
  5
1E4
330
EE
100
AcDbEntity
  8
AM_0
 48
0.0192592424049175
100
AcDbCircle
 10
-1.46017550315022
 20
1.46017550315022
 30
0.0
 40
0.1875
  0
CIRCLE
  5
1E5
330
EE
100
AcDbEntity
  8
AM_0
 48
0.0192592424049175
100
AcDbCircle
 10
-1.46017550315022
 20
-1.46017550315022
 30
0.0
 40
0.1875
  0
CIRCLE
  5
1E6
330
EE
100
AcDbEntity
  8
AM_0
 48
0.0192592424049175
100
AcDbCircle
 10
1.46017550315022
 20
-1.46017550315022
 30
0.0
 40
0.1875
  0
CIRCLE
  5
1E7
330
EE
100
AcDbEntity
  8
AM_0
 48
0.0192592424049175
100
AcDbCircle
 10
1.46017550315022
 20
1.46017550315022
 30
0.0
 40
0.1875
  0
CIRCLE
  5
1E8
330
EE
100
AcDbEntity
  8
AM_0
 48
0.0192592424049175
100
AcDbCircle
 10
0.0
 20
0.0
 30
0.0
 40
1.4173
  0
LINE
  5
1E9
330
EE
100
AcDbEntity
  8
AM_0
 48
0.0192592424049175
100
AcDbLine
 10
-1.635084198341635
 20
-0.9227707810358391
 30
0.0
 11
-1.76776695296637
 21
-1.152584053334073
 31
0.0
  0
LINE
  5
1EA
330
EE
100
AcDbEntity
  8
AM_0
 48
0.0192592424049175
100
AcDbLine
 10
-1.152584053334074
 20
-1.76776695296637
 30
0.0
 11
-0.9227707810358391
 21
-1.635084198341635
 31
0.0
  0
LINE
  5
1EB
330
EE
100
AcDbEntity
  8
AM_0
 48
0.0192592424049175
100
AcDbLine
 10
-1.76776695296637
 20
1.152584053334074
 30
0.0
 11
-1.635084198341635
 21
0.9227707810358388
 31
0.0
  0
ARC
  5
1EC
330
EE
100
AcDbEntity
  8
AM_0
 48
0.0192592424049175
100
AcDbCircle
 10
-0.0000000000000002
 20
-0.0000000000000002
 30
0.0
 40
1.8775
100
AcDbArc
 50
150.5614972792318
 51
209.4385027207682
  0
ENDBLK
  5
F1
330
EE
100
AcDbEntity
  8
0
100
AcDbBlockEnd
  0
ENDSEC
  0
SECTION
  2
ENTITIES
  0
ATTDEF
  5
6F
330
1F
100
AcDbEntity
  8
AM_6
100
AcDbText
 10
7.625000000000005
 20
2.625000000000002
 30
0.0
 40
0.5
  1
Grip Tight Flange Cartridge Metric Bore
100
AcDbAttributeDefinition
  3

  2
NN
 70
     8
280
     0
  0
ATTDEF
  5
70
330
1F
100
AcDbEntity
  8
AM_6
100
AcDbText
 10
7.625000000000005
 20
2.125000000000002
 30
0.0
 40
0.5
  1
GT Normal Duty Piloted Flange Bearings
100
AcDbAttributeDefinition
  3

  2
NT
 70
     8
280
     0
  0
ATTDEF
  5
71
330
1F
100
AcDbEntity
  8
AM_6
100
AcDbText
 10
7.625000000000005
 20
1.625000000000002
 30
0.0
 40
0.5
  1
129738
100
AcDbAttributeDefinition
  3

  2
NB
 70
     8
280
     0
  0
ATTDEF
  5
72
330
1F
100
AcDbEntity
  8
AM_6
100
AcDbText
 10
7.625000000000005
 20
1.125000000000002
 30
0.0
 40
0.5
  1
$PN.
100
AcDbAttributeDefinition
  3

  2
NBSYN
 70
     8
280
     0
  0
ATTDEF
  5
73
330
1F
100
AcDbEntity
  8
AM_6
100
AcDbText
 10
7.625000000000005
 20
0.6250000000000018
 30
0.0
 40
0.5
  1
129738
100
AcDbAttributeDefinition
  3

  2
LINA
 70
     8
280
     0
  0
ATTDEF
  5
74
330
1F
100
AcDbEntity
  8
AM_6
100
AcDbText
 10
7.625000000000005
 20
0.1250000000000018
 30
0.0
 40
0.5
  1
207
100
AcDbAttributeDefinition
  3

  2
SERIES
 70
     8
280
     0
  0
ATTDEF
  5
75
330
1F
100
AcDbEntity
  8
AM_6
100
AcDbText
 10
7.625000000000005
 20
-0.3749999999999982
 30
0.0
 40
0.5
  1
1-1/4
100
AcDbAttributeDefinition
  3

  2
SS
 70
     8
280
     0
  0
ATTDEF
  5
76
330
1F
100
AcDbEntity
  8
AM_6
100
AcDbText
 10
7.625000000000005
 20
-0.8749999999999982
 30
0.0
 40
0.5
  1
129738
100
AcDbAttributeDefinition
  3

  2
PN
 70
     8
280
     0
  0
ATTDEF
  5
77
330
1F
100
AcDbEntity
  8
AM_6
100
AcDbText
 10
7.625000000000005
 20
-1.374999999999998
 30
0.0
 40
0.5
  1
FC-GT-104
100
AcDbAttributeDefinition
  3

  2
DESCRIPTION
 70
     8
280
     0
  0
ATTDEF
  5
78
330
1F
100
AcDbEntity
  8
AM_6
100
AcDbText
 10
7.625000000000005
 20
-1.874999999999998
 30
0.0
 40
0.5
  1
129502
100
AcDbAttributeDefinition
  3

  2
PNSL
 70
     8
280
     0
  0
ATTDEF
  5
79
330
1F
100
AcDbEntity
  8
AM_6
100
AcDbText
 10
7.625000000000005
 20
-2.374999999999998
 30
0.0
 40
0.5
  1
FC-GT-07
100
AcDbAttributeDefinition
  3

  2
DESCRIPTIONSL
 70
     8
280
     0
  0
ATTDEF
  5
7A
330
1F
100
AcDbEntity
  8
AM_6
100
AcDbText
 10
7.625000000000005
 20
-2.874999999999998
 30
0.0
 40
0.5
  1
136528
100
AcDbAttributeDefinition
  3

  2
PNA
 70
     8
280
     0
  0
ATTDEF
  5
7B
330
1F
100
AcDbEntity
  8
AM_6
100
AcDbText
 10
7.625000000000005
 20
-3.374999999999998
 30
0.0
 40
0.5
  1
AN-GT-07-104-D
100
AcDbAttributeDefinition
  3

  2
DESCRIPTIONA
 70
     8
280
     0
  0
ATTDEF
  5
7C
330
1F
100
AcDbEntity
  8
AM_6
100
AcDbText
 10
7.625000000000005
 20
-3.874999999999998
 30
0.0
 40
0.5
  1
4.1
100
AcDbAttributeDefinition
  3

  2
W
 70
     8
280
     0
  0
ATTDEF
  5
7D
330
1F
100
AcDbEntity
  8
AM_6
100
AcDbText
 10
7.625000000000005
 20
-4.374999999999998
 30
0.0
 40
0.5
  1
1.62
100
AcDbAttributeDefinition
  3

  2
A
 70
     8
280
     0
  0
ATTDEF
  5
7E
330
1F
100
AcDbEntity
  8
AM_6
100
AcDbText
 10
7.625000000000005
 20
-4.874999999999998
 30
0.0
 40
0.5
  1
5.00
100
AcDbAttributeDefinition
  3

  2
B
 70
     8
280
     0
  0
ATTDEF
  5
7F
330
1F
100
AcDbEntity
  8
AM_6
100
AcDbText
 10
7.625000000000005
 20
-5.374999999999998
 30
0.0
 40
0.5
  1
1.81
100
AcDbAttributeDefinition
  3

  2
C
 70
     8
280
     0
  0
ATTDEF
  5
80
330
1F
100
AcDbEntity
  8
AM_6
100
AcDbText
 10
7.625000000000005
 20
-5.874999999999998
 30
0.0
 40
0.5
  1
4.13
100
AcDbAttributeDefinition
  3

  2
D
 70
     8
280
     0
  0
ATTDEF
  5
81
330
1F
100
AcDbEntity
  8
AM_6
100
AcDbText
 10
7.625000000000005
 20
-6.374999999999998
 30
0.0
 40
0.5
  1
0.38
100
AcDbAttributeDefinition
  3

  2
E
 70
     8
280
     0
  0
ATTDEF
  5
82
330
1F
100
AcDbEntity
  8
AM_6
100
AcDbText
 10
7.625000000000005
 20
-6.874999999999998
 30
0.0
 40
0.5
  1
3/8
100
AcDbAttributeDefinition
  3

  2
F
 70
     8
280
     0
  0
ATTDEF
  5
83
330
1F
100
AcDbEntity
  8
AM_6
100
AcDbText
 10
7.625000000000005
 20
-7.374999999999998
 30
0.0
 40
0.5
  1
1.44
100
AcDbAttributeDefinition
  3

  2
G
 70
     8
280
     0
  0
ATTDEF
  5
84
330
1F
100
AcDbEntity
  8
AM_6
100
AcDbText
 10
7.625000000000005
 20
-7.874999999999998
 30
0.0
 40
0.5
  1
0.84
100
AcDbAttributeDefinition
  3

  2
H
 70
     8
280
     0
  0
ATTDEF
  5
85
330
1F
100
AcDbEntity
  8
AM_6
100
AcDbText
 10
7.625000000000005
 20
-8.374999999999998
 30
0.0
 40
0.5
  1
3.375/3.373
100
AcDbAttributeDefinition
  3

  2
K
 70
     8
280
     0
  0
ATTDEF
  5
86
330
1F
100
AcDbEntity
  8
AM_6
100
AcDbText
 10
7.625000000000005
 20
-8.874999999999998
 30
0.0
 40
0.5
  1
2.38
100
AcDbAttributeDefinition
  3

  2
L
 70
     8
280
     0
  0
ATTDEF
  5
87
330
1F
100
AcDbEntity
  8
AM_6
100
AcDbText
 10
7.625000000000005
 20
-9.374999999999998
 30
0.0
 40
0.5
  1
1.49
100
AcDbAttributeDefinition
  3

  2
Z
 70
     8
280
     0
  0
ATTDEF
  5
88
330
1F
100
AcDbEntity
  8
AM_6
100
AcDbText
 10
7.625000000000005
 20
-9.874999999999998
 30
0.0
 40
0.5
  1
3065
100
AcDbAttributeDefinition
  3

  2
CAPS
 70
     8
280
     0
  0
ATTDEF
  5
89
330
1F
100
AcDbEntity
  8
AM_6
100
AcDbText
 10
7.625000000000005
 20
-10.375
 30
0.0
 40
0.5
  1
5759
100
AcDbAttributeDefinition
  3

  2
CAPD
 70
     8
280
     0
  0
ATTDEF
  5
8A
330
1F
100
AcDbEntity
  8
AM_6
100
AcDbText
 10
7.625000000000005
 20
-10.875
 30
0.0
 40
0.5
  1
baldor
100
AcDbAttributeDefinition
  3

  2
COMPANY
 70
     8
280
     0
  0
INSERT
  5
8C
330
1F
100
AcDbEntity
  8
0
100
AcDbBlockReference
  2
1_129520I_0_in_129738_0
 10
0.0
 20
0.0
 30
0.0
  0
INSERT
  5
AE
330
1F
100
AcDbEntity
  8
0
100
AcDbBlockReference
  2
2_136528_0_in_129738_0
 10
0.0
 20
0.0
 30
0.0
  0
INSERT
  5
EF
330
1F
100
AcDbEntity
  8
0
100
AcDbBlockReference
  2
3_129738h_0_in_129738_0
 10
0.0
 20
0.0
 30
0.0
  0
POINT
  5
1EE
330
1F
100
AcDbEntity
  8
ConnectionPoints
100
AcDbPoint
 10
0.0
 20
0.0000000000000001
 30
0.6700000000000002
  0
POINT
  5
1EF
330
1F
100
AcDbEntity
  8
ConnectionPoints
100
AcDbPoint
 10
0.0
 20
0.0000000000000001
 30
1.81
  0
POINT
  5
1F0
330
1F
100
AcDbEntity
  8
ConnectionPoints
100
AcDbPoint
 10
0.0
 20
0.0
 30
1.81
  0
POINT
  5
1F1
330
1F
100
AcDbEntity
  8
ConnectionPoints
100
AcDbPoint
 10
0.0
 20
0.0
 30
1.81
  0
ENDSEC
  0
SECTION
  2
OBJECTS
  0
DICTIONARY
  5
C
330
0
100
AcDbDictionary
281
     1
  3
ACAD_DETAILVIEWSTYLE
350
1F9
  3
ACAD_GROUP
350
D
  3
ACAD_LAYOUT
350
1A
  3
ACAD_MATERIAL
350
43
  3
ACAD_MLEADERSTYLE
350
6B
  3
ACAD_MLINESTYLE
350
17
  3
ACAD_PLOTSETTINGS
350
19
  3
ACAD_PLOTSTYLENAME
350
E
  3
ACAD_SCALELIST
350
47
  3
ACAD_SECTIONVIEWSTYLE
350
1FA
  3
ACAD_TABLESTYLE
350
69
  3
ACAD_VISUALSTYLE
350
2A
  3
ACDB_RECOMPOSE_DATA
350
1F6
  3
AcDbVariableDictionary
350
1F2
  0
SUN
  5
6D
330
29
100
AcDbSun
 90
        1
290
     0
 63
     7
421
 16777215
 40
1.0
291
     1
 91
  2455826
 92
 54000000
292
     0
 70
     2
 71
   256
280
     1
  0
DICTIONARY
  5
1F9
102
{ACAD_REACTORS
330
C
102
}
330
C
100
AcDbDictionary
281
     1
  0
DICTIONARY
  5
D
102
{ACAD_REACTORS
330
C
102
}
330
C
100
AcDbDictionary
281
     1
  0
DICTIONARY
  5
1A
102
{ACAD_REACTORS
330
C
102
}
330
C
100
AcDbDictionary
281
     1
  3
Layout1
350
1E
  3
Layout2
350
26
  3
Model
350
22
  0
DICTIONARY
  5
43
102
{ACAD_REACTORS
330
C
102
}
330
C
100
AcDbDictionary
281
     1
  3
ByBlock
350
45
  3
ByLayer
350
44
  3
Global
350
46
  0
DICTIONARY
  5
6B
102
{ACAD_REACTORS
330
C
102
}
330
C
100
AcDbDictionary
281
     1
  3
Standard
350
6C
  0
DICTIONARY
  5
17
102
{ACAD_REACTORS
330
C
102
}
330
C
100
AcDbDictionary
281
     1
  3
Standard
350
18
  0
DICTIONARY
  5
19
102
{ACAD_REACTORS
330
C
102
}
330
C
100
AcDbDictionary
281
     1
  0
ACDBDICTIONARYWDFLT
  5
E
102
{ACAD_REACTORS
330
C
102
}
330
C
100
AcDbDictionary
281
     1
  3
Normal
350
F
100
AcDbDictionaryWithDefault
340
F
  0
DICTIONARY
  5
47
102
{ACAD_REACTORS
330
C
102
}
330
C
100
AcDbDictionary
281
     1
  3
A0
350
48
  3
A1
350
49
  3
A2
350
4A
  3
A3
350
4B
  3
A4
350
4C
  3
A5
350
4D
  3
A6
350
4E
  3
A7
350
4F
  3
A8
350
50
  3
A9
350
51
  3
B0
350
52
  3
B1
350
53
  3
B2
350
54
  3
B3
350
55
  3
B4
350
56
  3
B5
350
57
  3
B6
350
58
  3
B7
350
59
  3
B8
350
5A
  3
B9
350
5B
  3
C0
350
5C
  3
C1
350
5D
  3
C2
350
5E
  3
C3
350
5F
  3
C4
350
60
  3
C5
350
61
  3
C6
350
62
  3
C7
350
63
  3
C8
350
64
  3
C9
350
65
  3
D0
350
66
  3
D1
350
67
  3
D2
350
68
  0
DICTIONARY
  5
1FA
102
{ACAD_REACTORS
330
C
102
}
330
C
100
AcDbDictionary
281
     1
  0
DICTIONARY
  5
69
102
{ACAD_REACTORS
330
C
102
}
330
C
100
AcDbDictionary
281
     1
  3
Standard
350
6A
  0
DICTIONARY
  5
2A
102
{ACAD_REACTORS
330
C
102
}
330
C
100
AcDbDictionary
281
     1
  3
2dWireframe
350
2F
  3
Basic
350
32
  3
Brighten
350
36
  3
ColorChange
350
3A
  3
Conceptual
350
34
  3
Dim
350
35
  3
EdgeColorOff
350
3D
  3
Facepattern
350
39
  3
Flat
350
2B
  3
FlatWithEdges
350
2C
  3
Gouraud
350
2D
  3
GouraudWithEdges
350
2E
  3
Hidden
350
31
  3
JitterOff
350
3B
  3
Linepattern
350
38
  3
OverhangOff
350
3C
  3
Realistic
350
33
  3
Shaded
350
42
  3
Shaded with edges
350
41
  3
Shades of Gray
350
3E
  3
Sketchy
350
3F
  3
Thicken
350
37
  3
Wireframe
350
30
  3
X-Ray
350
40
  0
XRECORD
  5
1F6
102
{ACAD_REACTORS
330
C
102
}
330
C
100
AcDbXrecord
280
     1
 90
        1
330
6A
  0
DICTIONARY
  5
1F2
102
{ACAD_REACTORS
330
C
102
}
330
C
100
AcDbDictionary
281
     1
  3
CANNOSCALE
350
1F3
  3
CMLEADERSTYLE
350
1F8
  3
CTABLESTYLE
350
1F7
  0
LAYOUT
  5
1E
102
{ACAD_REACTORS
330
1A
102
}
330
1A
100
AcDbPlotSettings
  1

  2
none_device
  4

  6

 40
0.0
 41
0.0
 42
0.0
 43
0.0
 44
0.0
 45
0.0
 46
0.0
 47
0.0
 48
0.0
 49
0.0
140
0.0
141
0.0
142
1.0
143
1.0
 70
   688
 72
     0
 73
     0
 74
     5
  7

 75
    16
 76
     0
 77
     2
 78
   300
147
1.0
148
0.0
149
0.0
100
AcDbLayout
  1
Layout1
 70
     1
 71
     1
 10
0.0
 20
0.0
 11
12.0
 21
9.0
 12
0.0
 22
0.0
 32
0.0
 14
1.000000000000000E+20
 24
1.000000000000000E+20
 34
1.000000000000000E+20
 15
-1.000000000000000E+20
 25
-1.000000000000000E+20
 35
-1.000000000000000E+20
146
0.0
 13
0.0
 23
0.0
 33
0.0
 16
1.0
 26
0.0
 36
0.0
 17
0.0
 27
1.0
 37
0.0
 76
     0
330
1B
  0
LAYOUT
  5
26
102
{ACAD_REACTORS
330
1A
102
}
330
1A
100
AcDbPlotSettings
  1

  2
none_device
  4

  6

 40
0.0
 41
0.0
 42
0.0
 43
0.0
 44
0.0
 45
0.0
 46
0.0
 47
0.0
 48
0.0
 49
0.0
140
0.0
141
0.0
142
1.0
143
1.0
 70
   688
 72
     0
 73
     0
 74
     5
  7

 75
    16
 76
     0
 77
     2
 78
   300
147
1.0
148
0.0
149
0.0
100
AcDbLayout
  1
Layout2
 70
     1
 71
     2
 10
0.0
 20
0.0
 11
0.0
 21
0.0
 12
0.0
 22
0.0
 32
0.0
 14
0.0
 24
0.0
 34
0.0
 15
0.0
 25
0.0
 35
0.0
146
0.0
 13
0.0
 23
0.0
 33
0.0
 16
1.0
 26
0.0
 36
0.0
 17
0.0
 27
1.0
 37
0.0
 76
     0
330
23
  0
LAYOUT
  5
22
102
{ACAD_REACTORS
330
1A
102
}
330
1A
100
AcDbPlotSettings
  1

  2
none_device
  4
Letter_(8.50_x_11.00_Inches)
  6

 40
6.35
 41
6.35
 42
6.35000508
 43
6.35000508
 44
215.9
 45
279.4
 46
0.0
 47
0.0
 48
0.0
 49
0.0
140
0.0
141
0.0
142
1.0
143
1.0
 70
  1712
 72
     0
 73
     0
 74
     0
  7

 75
     0
 76
     0
 77
     2
 78
   300
147
1.0
148
0.0
149
0.0
100
AcDbLayout
  1
Model
 70
     1
 71
     0
 10
0.0
 20
0.0
 11
12.0
 21
9.0
 12
0.0
 22
0.0
 32
0.0
 14
1.000000000000000E+20
 24
1.000000000000000E+20
 34
1.000000000000000E+20
 15
-1.000000000000000E+20
 25
-1.000000000000000E+20
 35
-1.000000000000000E+20
146
0.0
 13
0.0
 23
0.0
 33
0.0
 16
1.0
 26
0.0
 36
0.0
 17
0.0
 27
1.0
 37
0.0
 76
     0
330
1F
331
29
  0
MATERIAL
  5
45
102
{ACAD_REACTORS
330
43
102
}
330
43
100
AcDbMaterial
  1
ByBlock
 72
     1
 94
      127
  0
MATERIAL
  5
44
102
{ACAD_REACTORS
330
43
102
}
330
43
100
AcDbMaterial
  1
ByLayer
 72
     1
 94
      127
  0
MATERIAL
  5
46
102
{ACAD_REACTORS
330
43
102
}
330
43
100
AcDbMaterial
  1
Global
 72
     1
 94
      127
  0
MLEADERSTYLE
  5
6C
102
{ACAD_REACTORS
330
6B
102
}
330
6B
100
AcDbMLeaderStyle
179
     2
170
     2
171
     1
172
     0
 90
        2
 40
0.0
 41
0.0
173
     1
 91
-1056964608
340
14
 92
       -2
290
     1
 42
0.09
291
     1
 43
0.36
  3
Standard
341
0
 44
0.18
300

342
11
174
     1
178
     6
175
     1
176
     0
 93
-1056964608
 45
0.18
292
     0
297
     0
 46
0.18
343
0
 94
-1056964608
 47
1.0
 49
1.0
140
1.0
293
     1
141
0.0
294
     1
177
     0
142
1.0
295
     0
296
     0
143
0.125
271
     0
272
     9
273
     9
298
     0
  0
MLINESTYLE
  5
18
102
{ACAD_REACTORS
330
17
102
}
330
17
100
AcDbMlineStyle
  2
Standard
 70
     0
  3

 62
   256
 51
90.0
 52
90.0
 71
     2
 49
0.5
 62
   256
  6
BYLAYER
 49
-0.5
 62
   256
  6
BYLAYER
  0
ACDBPLACEHOLDER
  5
F
102
{ACAD_REACTORS
330
E
102
}
330
E
  0
SCALE
  5
48
102
{ACAD_REACTORS
330
47
102
}
330
47
100
AcDbScale
 70
     0
300
1:1
140
1.0
141
1.0
290
     1
  0
SCALE
  5
49
102
{ACAD_REACTORS
330
47
102
}
330
47
100
AcDbScale
 70
     0
300
1:2
140
1.0
141
2.0
290
     0
  0
SCALE
  5
4A
102
{ACAD_REACTORS
330
47
102
}
330
47
100
AcDbScale
 70
     0
300
1:4
140
1.0
141
4.0
290
     0
  0
SCALE
  5
4B
102
{ACAD_REACTORS
330
47
102
}
330
47
100
AcDbScale
 70
     0
300
1:5
140
1.0
141
5.0
290
     0
  0
SCALE
  5
4C
102
{ACAD_REACTORS
330
47
102
}
330
47
100
AcDbScale
 70
     0
300
1:8
140
1.0
141
8.0
290
     0
  0
SCALE
  5
4D
102
{ACAD_REACTORS
330
47
102
}
330
47
100
AcDbScale
 70
     0
300
1:10
140
1.0
141
10.0
290
     0
  0
SCALE
  5
4E
102
{ACAD_REACTORS
330
47
102
}
330
47
100
AcDbScale
 70
     0
300
1:16
140
1.0
141
16.0
290
     0
  0
SCALE
  5
4F
102
{ACAD_REACTORS
330
47
102
}
330
47
100
AcDbScale
 70
     0
300
1:20
140
1.0
141
20.0
290
     0
  0
SCALE
  5
50
102
{ACAD_REACTORS
330
47
102
}
330
47
100
AcDbScale
 70
     0
300
1:30
140
1.0
141
30.0
290
     0
  0
SCALE
  5
51
102
{ACAD_REACTORS
330
47
102
}
330
47
100
AcDbScale
 70
     0
300
1:40
140
1.0
141
40.0
290
     0
  0
SCALE
  5
52
102
{ACAD_REACTORS
330
47
102
}
330
47
100
AcDbScale
 70
     0
300
1:50
140
1.0
141
50.0
290
     0
  0
SCALE
  5
53
102
{ACAD_REACTORS
330
47
102
}
330
47
100
AcDbScale
 70
     0
300
1:100
140
1.0
141
100.0
290
     0
  0
SCALE
  5
54
102
{ACAD_REACTORS
330
47
102
}
330
47
100
AcDbScale
 70
     0
300
2:1
140
2.0
141
1.0
290
     0
  0
SCALE
  5
55
102
{ACAD_REACTORS
330
47
102
}
330
47
100
AcDbScale
 70
     0
300
4:1
140
4.0
141
1.0
290
     0
  0
SCALE
  5
56
102
{ACAD_REACTORS
330
47
102
}
330
47
100
AcDbScale
 70
     0
300
8:1
140
8.0
141
1.0
290
     0
  0
SCALE
  5
57
102
{ACAD_REACTORS
330
47
102
}
330
47
100
AcDbScale
 70
     0
300
10:1
140
10.0
141
1.0
290
     0
  0
SCALE
  5
58
102
{ACAD_REACTORS
330
47
102
}
330
47
100
AcDbScale
 70
     0
300
100:1
140
100.0
141
1.0
290
     0
  0
SCALE
  5
59
102
{ACAD_REACTORS
330
47
102
}
330
47
100
AcDbScale
 70
     0
300
1/128" = 1'-0"
140
0.0078125
141
12.0
290
     0
  0
SCALE
  5
5A
102
{ACAD_REACTORS
330
47
102
}
330
47
100
AcDbScale
 70
     0
300
1/64" = 1'-0"
140
0.015625
141
12.0
290
     0
  0
SCALE
  5
5B
102
{ACAD_REACTORS
330
47
102
}
330
47
100
AcDbScale
 70
     0
300
1/32" = 1'-0"
140
0.03125
141
12.0
290
     0
  0
SCALE
  5
5C
102
{ACAD_REACTORS
330
47
102
}
330
47
100
AcDbScale
 70
     0
300
1/16" = 1'-0"
140
0.0625
141
12.0
290
     0
  0
SCALE
  5
5D
102
{ACAD_REACTORS
330
47
102
}
330
47
100
AcDbScale
 70
     0
300
3/32" = 1'-0"
140
0.09375
141
12.0
290
     0
  0
SCALE
  5
5E
102
{ACAD_REACTORS
330
47
102
}
330
47
100
AcDbScale
 70
     0
300
1/8" = 1'-0"
140
0.125
141
12.0
290
     0
  0
SCALE
  5
5F
102
{ACAD_REACTORS
330
47
102
}
330
47
100
AcDbScale
 70
     0
300
3/16" = 1'-0"
140
0.1875
141
12.0
290
     0
  0
SCALE
  5
60
102
{ACAD_REACTORS
330
47
102
}
330
47
100
AcDbScale
 70
     0
300
1/4" = 1'-0"
140
0.25
141
12.0
290
     0
  0
SCALE
  5
61
102
{ACAD_REACTORS
330
47
102
}
330
47
100
AcDbScale
 70
     0
300
3/8" = 1'-0"
140
0.375
141
12.0
290
     0
  0
SCALE
  5
62
102
{ACAD_REACTORS
330
47
102
}
330
47
100
AcDbScale
 70
     0
300
1/2" = 1'-0"
140
0.5
141
12.0
290
     0
  0
SCALE
  5
63
102
{ACAD_REACTORS
330
47
102
}
330
47
100
AcDbScale
 70
     0
300
3/4" = 1'-0"
140
0.75
141
12.0
290
     0
  0
SCALE
  5
64
102
{ACAD_REACTORS
330
47
102
}
330
47
100
AcDbScale
 70
     0
300
1" = 1'-0"
140
1.0
141
12.0
290
     0
  0
SCALE
  5
65
102
{ACAD_REACTORS
330
47
102
}
330
47
100
AcDbScale
 70
     0
300
1-1/2" = 1'-0"
140
1.5
141
12.0
290
     0
  0
SCALE
  5
66
102
{ACAD_REACTORS
330
47
102
}
330
47
100
AcDbScale
 70
     0
300
3" = 1'-0"
140
3.0
141
12.0
290
     0
  0
SCALE
  5
67
102
{ACAD_REACTORS
330
47
102
}
330
47
100
AcDbScale
 70
     0
300
6" = 1'-0"
140
6.0
141
12.0
290
     0
  0
SCALE
  5
68
102
{ACAD_REACTORS
330
47
102
}
330
47
100
AcDbScale
 70
     0
300
1'-0" = 1'-0"
140
12.0
141
12.0
290
     0
  0
TABLESTYLE
  5
6A
102
{ACAD_REACTORS
330
69
102
}
102
{ACAD_XDICTIONARY
360
1F4
102
}
330
69
100
AcDbTableStyle
  3
Standard
 70
     0
 71
     0
 40
0.06
 41
0.06
280
     0
281
     0
  7
Standard
140
0.18
170
     2
 62
     0
 63
   257
283
     0
 90
        4
 91
        0
  1

274
    -2
284
     1
 64
     0
275
    -2
285
     1
 65
     0
276
    -2
286
     1
 66
     0
277
    -2
287
     1
 67
     0
278
    -2
288
     1
 68
     0
279
    -2
289
     1
 69
     0
  7
Standard
140
0.25
170
     5
 62
     0
 63
   257
283
     0
 90
        4
 91
        0
  1

274
    -2
284
     1
 64
     0
275
    -2
285
     1
 65
     0
276
    -2
286
     1
 66
     0
277
    -2
287
     1
 67
     0
278
    -2
288
     1
 68
     0
279
    -2
289
     1
 69
     0
  7
Standard
140
0.18
170
     5
 62
     0
 63
   257
283
     0
 90
        4
 91
        0
  1

274
    -2
284
     1
 64
     0
275
    -2
285
     1
 65
     0
276
    -2
286
     1
 66
     0
277
    -2
287
     1
 67
     0
278
    -2
288
     1
 68
     0
279
    -2
289
     1
 69
     0
  0
VISUALSTYLE
  5
2F
102
{ACAD_REACTORS
330
2A
102
}
330
2A
100
AcDbVisualStyle
  2
2dWireframe
 70
     4
177
     3
291
     0
 70
    58
 90
        0
176
     1
 90
        2
176
     1
 90
        0
176
     1
 90
        0
176
     1
 40
0.6
176
     1
 40
30.0
176
     1
 62
     7
420
 16777215
176
     1
 90
        1
176
     1
 90
        4
176
     1
 62
     7
176
     1
 62
   257
176
     1
 90
        1
176
     1
 90
        1
176
     1
 40
1.0
176
     1
 90
        0
176
     1
 62
   257
176
     1
 40
1.0
176
     1
 90
        1
176
     1
 90
        6
176
     1
 90
        2
176
     1
 62
     7
176
     1
 90
        5
176
     1
 90
        0
176
     1
 90
        0
176
     1
290
     0
176
     1
 90
        1
176
     1
 40
0.0
176
     1
 90
        0
176
     1
290
     1
176
     1
290
     1
176
     1
290
     0
176
     1
290
     0
176
     1
290
     0
176
     1
290
     0
176
     1
290
     0
176
     1
290
     0
176
     1
290
     0
176
     1
 90
       50
176
     1
 40
0.0
176
     1
 40
1.0
176
     1
 90
        0
176
     1
 62
    18
420
        0
176
     1
 90
       50
176
     1
 90
        3
176
     1
 62
     5
420
      255
176
     1
290
     0
176
     1
 90
       50
176
     1
 90
       50
176
     1
 90
       50
176
     1
290
     0
176
     1
 90
       50
176
     1
 62
   256
176
     0
 40
1.0
176
     0
 90
        2
176
     1
  1
strokes_ogs.tif
176
     1
290
     0
176
     1
 40
1.0
176
     1
 40
1.0
176
     1
  0
VISUALSTYLE
  5
32
102
{ACAD_REACTORS
330
2A
102
}
330
2A
100
AcDbVisualStyle
  2
Basic
 70
     7
177
     3
291
     1
 70
    58
 90
        1
176
     1
 90
        0
176
     1
 90
        1
176
     1
 90
        0
176
     1
 40
0.6
176
     1
 40
30.0
176
     1
 62
     7
420
 16777215
176
     1
 90
        0
176
     1
 90
        4
176
     1
 62
     7
176
     1
 62
   257
176
     1
 90
        1
176
     1
 90
        1
176
     1
 40
1.0
176
     1
 90
        8
176
     1
 62
     7
176
     1
 40
1.0
176
     1
 90
        1
176
     1
 90
        6
176
     1
 90
        2
176
     1
 62
     7
176
     1
 90
        5
176
     1
 90
        0
176
     1
 90
        0
176
     1
290
     0
176
     1
 90
        1
176
     1
 40
0.0
176
     1
 90
        0
176
     1
290
     0
176
     1
290
     1
176
     1
290
     1
176
     1
290
     0
176
     1
290
     0
176
     1
290
     0
176
     1
290
     0
176
     1
290
     0
176
     1
290
     0
176
     1
 90
       50
176
     1
 40
0.0
176
     1
 40
1.0
176
     1
 90
        0
176
     1
 62
    18
420
        0
176
     1
 90
       50
176
     1
 90
        3
176
     1
 62
     5
420
      255
176
     1
290
     0
176
     1
 90
       50
176
     1
 90
       50
176
     1
 90
       50
176
     1
290
     0
176
     1
 90
       50
176
     1
 62
   256
176
     0
 40
1.0
176
     0
 90
        2
176
     1
  1
strokes_ogs.tif
176
     1
290
     0
176
     1
 40
1.0
176
     1
 40
1.0
176
     1
  0
VISUALSTYLE
  5
36
102
{ACAD_REACTORS
330
2A
102
}
330
2A
100
AcDbVisualStyle
  2
Brighten
 70
    12
177
     3
291
     1
 70
    58
 90
        2
176
     1
 90
        2
176
     1
 90
        0
176
     1
 90
        0
176
     1
 40
0.6
176
     1
 40
30.0
176
     1
 62
     7
420
 16777215
176
     1
 90
        1
176
     1
 90
        4
176
     1
 62
     7
176
     1
 62
   257
176
     1
 90
        1
176
     1
 90
        1
176
     1
 40
1.0
176
     1
 90
        8
176
     1
 62
     7
176
     1
 40
1.0
176
     1
 90
        1
176
     1
 90
        6
176
     1
 90
        2
176
     1
 62
     7
176
     1
 90
        5
176
     1
 90
        0
176
     1
 90
        0
176
     1
290
     0
176
     1
 90
        1
176
     1
 40
50.0
176
     1
 90
        0
176
     1
290
     0
176
     1
290
     1
176
     1
290
     1
176
     1
290
     0
176
     1
290
     0
176
     1
290
     0
176
     1
290
     0
176
     1
290
     0
176
     1
290
     0
176
     1
 90
       50
176
     1
 40
0.0
176
     1
 40
1.0
176
     1
 90
        0
176
     1
 62
    18
420
        0
176
     1
 90
       50
176
     1
 90
        3
176
     1
 62
     5
420
      255
176
     1
290
     0
176
     1
 90
       50
176
     1
 90
       50
176
     1
 90
       50
176
     1
290
     0
176
     1
 90
       50
176
     1
 62
   256
176
     0
 40
1.0
176
     0
 90
        2
176
     1
  1
strokes_ogs.tif
176
     1
290
     0
176
     1
 40
1.0
176
     1
 40
1.0
176
     1
  0
VISUALSTYLE
  5
3A
102
{ACAD_REACTORS
330
2A
102
}
330
2A
100
AcDbVisualStyle
  2
ColorChange
 70
    16
177
     3
291
     1
 70
    58
 90
        2
176
     1
 90
        2
176
     1
 90
        3
176
     1
 90
        0
176
     1
 40
0.6
176
     1
 40
30.0
176
     1
 62
     8
420
  8421504
176
     1
 90
        1
176
     1
 90
        4
176
     1
 62
     7
176
     1
 62
   257
176
     1
 90
        1
176
     1
 90
        1
176
     1
 40
1.0
176
     1
 90
        8
176
     1
 62
     8
420
  8421504
176
     1
 40
1.0
176
     1
 90
        1
176
     1
 90
        6
176
     1
 90
        2
176
     1
 62
     7
176
     1
 90
        5
176
     1
 90
        0
176
     1
 90
        0
176
     1
290
     0
176
     1
 90
        1
176
     1
 40
0.0
176
     1
 90
        0
176
     1
290
     0
176
     1
290
     1
176
     1
290
     1
176
     1
290
     0
176
     1
290
     0
176
     1
290
     0
176
     1
290
     0
176
     1
290
     0
176
     1
290
     0
176
     1
 90
       50
176
     1
 40
0.0
176
     1
 40
1.0
176
     1
 90
        0
176
     1
 62
    18
420
        0
176
     1
 90
       50
176
     1
 90
        3
176
     1
 62
     5
420
      255
176
     1
290
     0
176
     1
 90
       50
176
     1
 90
       50
176
     1
 90
       50
176
     1
290
     0
176
     1
 90
       50
176
     1
 62
   256
176
     0
 40
1.0
176
     0
 90
        2
176
     1
  1
strokes_ogs.tif
176
     1
290
     0
176
     1
 40
1.0
176
     1
 40
1.0
176
     1
  0
VISUALSTYLE
  5
34
102
{ACAD_REACTORS
330
2A
102
}
330
2A
100
AcDbVisualStyle
  2
Conceptual
 70
     9
177
     3
291
     0
 70
    58
 90
        3
176
     1
 90
        2
176
     1
 90
        0
176
     1
 90
        0
176
     1
 40
0.6
176
     1
 40
30.0
176
     1
 62
     7
420
 16777215
176
     1
 90
        2
176
     1
 90
        2
176
     1
 62
     7
176
     1
 62
   257
176
     1
 90
        1
176
     1
 90
        1
176
     1
 40
179.0
176
     1
 90
        8
176
     1
 62
     7
176
     1
 40
1.0
176
     1
 90
        1
176
     1
 90
        6
176
     1
 90
        2
176
     1
 62
     7
176
     1
 90
        3
176
     1
 90
        0
176
     1
 90
        0
176
     1
290
     0
176
     1
 90
        1
176
     1
 40
0.0
176
     1
 90
        0
176
     1
290
     0
176
     1
290
     1
176
     1
290
     1
176
     1
290
     0
176
     1
290
     0
176
     1
290
     0
176
     1
290
     0
176
     1
290
     0
176
     1
290
     0
176
     1
 90
       50
176
     1
 40
0.0
176
     1
 40
1.0
176
     1
 90
        0
176
     1
 62
    18
420
        0
176
     1
 90
       50
176
     1
 90
        3
176
     1
 62
     5
420
      255
176
     1
290
     0
176
     1
 90
       50
176
     1
 90
       50
176
     1
 90
       50
176
     1
290
     0
176
     1
 90
       50
176
     1
 62
   256
176
     0
 40
1.0
176
     0
 90
        2
176
     1
  1
strokes_ogs.tif
176
     1
290
     0
176
     1
 40
1.0
176
     1
 40
1.0
176
     1
  0
VISUALSTYLE
  5
35
102
{ACAD_REACTORS
330
2A
102
}
330
2A
100
AcDbVisualStyle
  2
Dim
 70
    11
177
     3
291
     1
 70
    58
 90
        2
176
     1
 90
        2
176
     1
 90
        0
176
     1
 90
        0
176
     1
 40
0.6
176
     1
 40
30.0
176
     1
 62
     7
420
 16777215
176
     1
 90
        1
176
     1
 90
        4
176
     1
 62
     7
176
     1
 62
   257
176
     1
 90
        1
176
     1
 90
        1
176
     1
 40
1.0
176
     1
 90
        8
176
     1
 62
     7
176
     1
 40
1.0
176
     1
 90
        1
176
     1
 90
        6
176
     1
 90
        2
176
     1
 62
     7
176
     1
 90
        5
176
     1
 90
        0
176
     1
 90
        0
176
     1
290
     0
176
     1
 90
        1
176
     1
 40
-50.0
176
     1
 90
        0
176
     1
290
     0
176
     1
290
     1
176
     1
290
     1
176
     1
290
     0
176
     1
290
     0
176
     1
290
     0
176
     1
290
     0
176
     1
290
     0
176
     1
290
     0
176
     1
 90
       50
176
     1
 40
0.0
176
     1
 40
1.0
176
     1
 90
        0
176
     1
 62
    18
420
        0
176
     1
 90
       50
176
     1
 90
        3
176
     1
 62
     5
420
      255
176
     1
290
     0
176
     1
 90
       50
176
     1
 90
       50
176
     1
 90
       50
176
     1
290
     0
176
     1
 90
       50
176
     1
 62
   256
176
     0
 40
1.0
176
     0
 90
        2
176
     1
  1
strokes_ogs.tif
176
     1
290
     0
176
     1
 40
1.0
176
     1
 40
1.0
176
     1
  0
VISUALSTYLE
  5
3D
102
{ACAD_REACTORS
330
2A
102
}
330
2A
100
AcDbVisualStyle
  2
EdgeColorOff
 70
    22
177
     3
291
     1
 70
    58
 90
        2
176
     0
 90
        2
176
     0
 90
        0
176
     0
 90
        0
176
     0
 40
0.6
176
     0
 40
30.0
176
     0
 62
     7
420
 16777215
176
     0
 90
        1
176
     0
 90
        4
176
     0
 62
     7
176
     0
 62
   257
176
     0
 90
        1
176
     0
 90
        1
176
     0
 40
1.0
176
     0
 90
        8
176
     2
 62
     7
176
     0
 40
1.0
176
     0
 90
        1
176
     0
 90
        6
176
     0
 90
        2
176
     0
 62
     7
176
     0
 90
        5
176
     0
 90
        0
176
     0
 90
        0
176
     0
290
     0
176
     0
 90
        1
176
     0
 40
0.0
176
     0
 90
        0
176
     0
290
     0
176
     0
290
     1
176
     0
290
     1
176
     0
290
     0
176
     0
290
     0
176
     0
290
     0
176
     0
290
     0
176
     0
290
     0
176
     0
290
     0
176
     0
 90
       50
176
     0
 40
0.0
176
     0
 40
1.0
176
     0
 90
        0
176
     0
 62
    18
420
        0
176
     0
 90
       50
176
     0
 90
        3
176
     0
 62
     5
420
      255
176
     0
290
     0
176
     0
 90
       50
176
     0
 90
       50
176
     0
 90
       50
176
     0
290
     0
176
     0
 90
       50
176
     0
 62
   256
176
     0
 40
1.0
176
     0
 90
        2
176
     0
  1
strokes_ogs.tif
176
     0
290
     0
176
     0
 40
1.0
176
     0
 40
1.0
176
     0
  0
VISUALSTYLE
  5
39
102
{ACAD_REACTORS
330
2A
102
}
330
2A
100
AcDbVisualStyle
  2
Facepattern
 70
    15
177
     3
291
     1
 70
    58
 90
        2
176
     1
 90
        2
176
     1
 90
        0
176
     1
 90
        0
176
     1
 40
0.6
176
     1
 40
30.0
176
     1
 62
     7
420
 16777215
176
     1
 90
        1
176
     1
 90
        4
176
     1
 62
     7
176
     1
 62
   257
176
     1
 90
        1
176
     1
 90
        1
176
     1
 40
1.0
176
     1
 90
        8
176
     1
 62
     7
176
     1
 40
1.0
176
     1
 90
        1
176
     1
 90
        6
176
     1
 90
        2
176
     1
 62
     7
176
     1
 90
        5
176
     1
 90
        0
176
     1
 90
        0
176
     1
290
     0
176
     1
 90
        1
176
     1
 40
0.0
176
     1
 90
        0
176
     1
290
     0
176
     1
290
     1
176
     1
290
     1
176
     1
290
     0
176
     1
290
     0
176
     1
290
     0
176
     1
290
     0
176
     1
290
     0
176
     1
290
     0
176
     1
 90
       50
176
     1
 40
0.0
176
     1
 40
1.0
176
     1
 90
        0
176
     1
 62
    18
420
        0
176
     1
 90
       50
176
     1
 90
        3
176
     1
 62
     5
420
      255
176
     1
290
     0
176
     1
 90
       50
176
     1
 90
       50
176
     1
 90
       50
176
     1
290
     0
176
     1
 90
       50
176
     1
 62
   256
176
     0
 40
1.0
176
     0
 90
        2
176
     1
  1
strokes_ogs.tif
176
     1
290
     0
176
     1
 40
1.0
176
     1
 40
1.0
176
     1
  0
VISUALSTYLE
  5
2B
102
{ACAD_REACTORS
330
2A
102
}
330
2A
100
AcDbVisualStyle
  2
Flat
 70
     0
177
     3
291
     1
 70
    58
 90
        2
176
     1
 90
        1
176
     1
 90
        1
176
     1
 90
        2
176
     1
 40
0.6
176
     1
 40
30.0
176
     1
 62
     7
420
 16777215
176
     1
 90
        0
176
     1
 90
        0
176
     1
 62
     7
176
     1
 62
   257
176
     1
 90
        1
176
     1
 90
        1
176
     1
 40
1.0
176
     1
 90
        8
176
     1
 62
     7
176
     1
 40
1.0
176
     1
 90
        1
176
     1
 90
        6
176
     1
 90
        2
176
     1
 62
     7
176
     1
 90
        5
176
     1
 90
        0
176
     1
 90
        0
176
     1
290
     0
176
     1
 90
       13
176
     1
 40
0.0
176
     1
 90
        0
176
     1
290
     0
176
     1
290
     1
176
     1
290
     1
176
     1
290
     0
176
     1
290
     0
176
     1
290
     0
176
     1
290
     0
176
     1
290
     0
176
     1
290
     0
176
     1
 90
       50
176
     1
 40
0.0
176
     1
 40
1.0
176
     1
 90
        0
176
     1
 62
    18
420
        0
176
     1
 90
       50
176
     1
 90
        3
176
     1
 62
     5
420
      255
176
     1
290
     0
176
     1
 90
       50
176
     1
 90
       50
176
     1
 90
       50
176
     1
290
     0
176
     1
 90
       50
176
     1
 62
   256
176
     0
 40
1.0
176
     0
 90
        2
176
     1
  1
strokes_ogs.tif
176
     1
290
     0
176
     1
 40
1.0
176
     1
 40
1.0
176
     1
  0
VISUALSTYLE
  5
2C
102
{ACAD_REACTORS
330
2A
102
}
330
2A
100
AcDbVisualStyle
  2
FlatWithEdges
 70
     1
177
     3
291
     1
 70
    58
 90
        2
176
     1
 90
        1
176
     1
 90
        1
176
     1
 90
        2
176
     1
 40
0.6
176
     1
 40
30.0
176
     1
 62
     7
420
 16777215
176
     1
 90
        1
176
     1
 90
        0
176
     1
 62
     7
176
     1
 62
   257
176
     1
 90
        1
176
     1
 90
        1
176
     1
 40
1.0
176
     1
 90
        0
176
     1
 62
   257
176
     1
 40
1.0
176
     1
 90
        1
176
     1
 90
        6
176
     1
 90
        2
176
     1
 62
     7
176
     1
 90
        5
176
     1
 90
        0
176
     1
 90
        0
176
     1
290
     0
176
     1
 90
       13
176
     1
 40
0.0
176
     1
 90
        0
176
     1
290
     0
176
     1
290
     1
176
     1
290
     1
176
     1
290
     0
176
     1
290
     0
176
     1
290
     0
176
     1
290
     0
176
     1
290
     0
176
     1
290
     0
176
     1
 90
       50
176
     1
 40
0.0
176
     1
 40
1.0
176
     1
 90
        0
176
     1
 62
    18
420
        0
176
     1
 90
       50
176
     1
 90
        3
176
     1
 62
     5
420
      255
176
     1
290
     0
176
     1
 90
       50
176
     1
 90
       50
176
     1
 90
       50
176
     1
290
     0
176
     1
 90
       50
176
     1
 62
   256
176
     0
 40
1.0
176
     0
 90
        2
176
     1
  1
strokes_ogs.tif
176
     1
290
     0
176
     1
 40
1.0
176
     1
 40
1.0
176
     1
  0
VISUALSTYLE
  5
2D
102
{ACAD_REACTORS
330
2A
102
}
330
2A
100
AcDbVisualStyle
  2
Gouraud
 70
     2
177
     3
291
     1
 70
    58
 90
        2
176
     1
 90
        2
176
     1
 90
        1
176
     1
 90
        2
176
     1
 40
0.6
176
     1
 40
30.0
176
     1
 62
     7
420
 16777215
176
     1
 90
        0
176
     1
 90
        0
176
     1
 62
     7
176
     1
 62
   257
176
     1
 90
        1
176
     1
 90
        1
176
     1
 40
1.0
176
     1
 90
        0
176
     1
 62
     7
176
     1
 40
1.0
176
     1
 90
        1
176
     1
 90
        6
176
     1
 90
        2
176
     1
 62
     7
176
     1
 90
        5
176
     1
 90
        0
176
     1
 90
        0
176
     1
290
     0
176
     1
 90
       13
176
     1
 40
0.0
176
     1
 90
        0
176
     1
290
     0
176
     1
290
     1
176
     1
290
     1
176
     1
290
     0
176
     1
290
     0
176
     1
290
     0
176
     1
290
     0
176
     1
290
     0
176
     1
290
     0
176
     1
 90
       50
176
     1
 40
0.0
176
     1
 40
1.0
176
     1
 90
        0
176
     1
 62
    18
420
        0
176
     1
 90
       50
176
     1
 90
        3
176
     1
 62
     5
420
      255
176
     1
290
     0
176
     1
 90
       50
176
     1
 90
       50
176
     1
 90
       50
176
     1
290
     0
176
     1
 90
       50
176
     1
 62
   256
176
     0
 40
1.0
176
     0
 90
        2
176
     1
  1
strokes_ogs.tif
176
     1
290
     0
176
     1
 40
1.0
176
     1
 40
1.0
176
     1
  0
VISUALSTYLE
  5
2E
102
{ACAD_REACTORS
330
2A
102
}
330
2A
100
AcDbVisualStyle
  2
GouraudWithEdges
 70
     3
177
     3
291
     1
 70
    58
 90
        2
176
     1
 90
        2
176
     1
 90
        1
176
     1
 90
        2
176
     1
 40
0.6
176
     1
 40
30.0
176
     1
 62
     7
420
 16777215
176
     1
 90
        1
176
     1
 90
        0
176
     1
 62
     7
176
     1
 62
   257
176
     1
 90
        1
176
     1
 90
        1
176
     1
 40
1.0
176
     1
 90
        0
176
     1
 62
   257
176
     1
 40
1.0
176
     1
 90
        1
176
     1
 90
        6
176
     1
 90
        2
176
     1
 62
     7
176
     1
 90
        5
176
     1
 90
        0
176
     1
 90
        0
176
     1
290
     0
176
     1
 90
       13
176
     1
 40
0.0
176
     1
 90
        0
176
     1
290
     0
176
     1
290
     1
176
     1
290
     1
176
     1
290
     0
176
     1
290
     0
176
     1
290
     0
176
     1
290
     0
176
     1
290
     0
176
     1
290
     0
176
     1
 90
       50
176
     1
 40
0.0
176
     1
 40
1.0
176
     1
 90
        0
176
     1
 62
    18
420
        0
176
     1
 90
       50
176
     1
 90
        3
176
     1
 62
     5
420
      255
176
     1
290
     0
176
     1
 90
       50
176
     1
 90
       50
176
     1
 90
       50
176
     1
290
     0
176
     1
 90
       50
176
     1
 62
   256
176
     0
 40
1.0
176
     0
 90
        2
176
     1
  1
strokes_ogs.tif
176
     1
290
     0
176
     1
 40
1.0
176
     1
 40
1.0
176
     1
  0
VISUALSTYLE
  5
31
102
{ACAD_REACTORS
330
2A
102
}
330
2A
100
AcDbVisualStyle
  2
Hidden
 70
     6
177
     3
291
     0
 70
    58
 90
        1
176
     1
 90
        2
176
     1
 90
        2
176
     1
 90
        0
176
     1
 40
0.6
176
     1
 40
30.0
176
     1
 62
     7
420
 16777215
176
     1
 90
        2
176
     1
 90
        2
176
     1
 62
     7
176
     1
 62
   257
176
     1
 90
        2
176
     1
 90
        1
176
     1
 40
40.0
176
     1
 90
        0
176
     1
 62
   257
176
     1
 40
1.0
176
     1
 90
        1
176
     1
 90
        6
176
     1
 90
        2
176
     1
 62
     7
176
     1
 90
        3
176
     1
 90
        0
176
     1
 90
        0
176
     1
290
     0
176
     1
 90
        1
176
     1
 40
0.0
176
     1
 90
        0
176
     1
290
     0
176
     1
290
     1
176
     1
290
     1
176
     1
290
     0
176
     1
290
     0
176
     1
290
     0
176
     1
290
     0
176
     1
290
     0
176
     1
290
     0
176
     1
 90
       50
176
     1
 40
0.0
176
     1
 40
1.0
176
     1
 90
        0
176
     1
 62
    18
420
        0
176
     1
 90
       50
176
     1
 90
        3
176
     1
 62
     5
420
      255
176
     1
290
     0
176
     1
 90
       50
176
     1
 90
       50
176
     1
 90
       50
176
     1
290
     0
176
     1
 90
       50
176
     1
 62
   256
176
     0
 40
1.0
176
     0
 90
        2
176
     1
  1
strokes_ogs.tif
176
     1
290
     0
176
     1
 40
1.0
176
     1
 40
1.0
176
     1
  0
VISUALSTYLE
  5
3B
102
{ACAD_REACTORS
330
2A
102
}
330
2A
100
AcDbVisualStyle
  2
JitterOff
 70
    20
177
     3
291
     1
 70
    58
 90
        2
176
     0
 90
        2
176
     0
 90
        0
176
     0
 90
        0
176
     0
 40
0.6
176
     0
 40
30.0
176
     0
 62
     7
420
 16777215
176
     0
 90
        1
176
     0
 90
        4
176
     0
 62
     7
176
     0
 62
   257
176
     0
 90
        1
176
     0
 90
        1
176
     0
 40
1.0
176
     0
 90
       10
176
     2
 62
     7
176
     0
 40
1.0
176
     0
 90
        1
176
     0
 90
        6
176
     0
 90
        2
176
     0
 62
     7
176
     0
 90
        5
176
     0
 90
        0
176
     0
 90
        0
176
     0
290
     0
176
     0
 90
        1
176
     0
 40
0.0
176
     0
 90
        0
176
     0
290
     0
176
     0
290
     1
176
     0
290
     1
176
     0
290
     0
176
     0
290
     0
176
     0
290
     0
176
     0
290
     0
176
     0
290
     0
176
     0
290
     0
176
     0
 90
       50
176
     0
 40
0.0
176
     0
 40
1.0
176
     0
 90
        0
176
     0
 62
    18
420
        0
176
     0
 90
       50
176
     0
 90
        3
176
     0
 62
     5
420
      255
176
     0
290
     0
176
     0
 90
       50
176
     0
 90
       50
176
     0
 90
       50
176
     0
290
     0
176
     0
 90
       50
176
     0
 62
   256
176
     0
 40
1.0
176
     0
 90
        2
176
     0
  1
strokes_ogs.tif
176
     0
290
     0
176
     0
 40
1.0
176
     0
 40
1.0
176
     0
  0
VISUALSTYLE
  5
38
102
{ACAD_REACTORS
330
2A
102
}
330
2A
100
AcDbVisualStyle
  2
Linepattern
 70
    14
177
     3
291
     1
 70
    58
 90
        2
176
     1
 90
        2
176
     1
 90
        0
176
     1
 90
        0
176
     1
 40
0.6
176
     1
 40
30.0
176
     1
 62
     7
420
 16777215
176
     1
 90
        1
176
     1
 90
        4
176
     1
 62
     7
176
     1
 62
   257
176
     1
 90
        7
176
     1
 90
        7
176
     1
 40
1.0
176
     1
 90
        8
176
     1
 62
     7
176
     1
 40
1.0
176
     1
 90
        1
176
     1
 90
        6
176
     1
 90
        2
176
     1
 62
     7
176
     1
 90
        5
176
     1
 90
        0
176
     1
 90
        0
176
     1
290
     0
176
     1
 90
        1
176
     1
 40
0.0
176
     1
 90
        0
176
     1
290
     0
176
     1
290
     1
176
     1
290
     1
176
     1
290
     0
176
     1
290
     0
176
     1
290
     0
176
     1
290
     0
176
     1
290
     0
176
     1
290
     0
176
     1
 90
       50
176
     1
 40
0.0
176
     1
 40
1.0
176
     1
 90
        0
176
     1
 62
    18
420
        0
176
     1
 90
       50
176
     1
 90
        3
176
     1
 62
     5
420
      255
176
     1
290
     0
176
     1
 90
       50
176
     1
 90
       50
176
     1
 90
       50
176
     1
290
     0
176
     1
 90
       50
176
     1
 62
   256
176
     0
 40
1.0
176
     0
 90
        2
176
     1
  1
strokes_ogs.tif
176
     1
290
     0
176
     1
 40
1.0
176
     1
 40
1.0
176
     1
  0
VISUALSTYLE
  5
3C
102
{ACAD_REACTORS
330
2A
102
}
330
2A
100
AcDbVisualStyle
  2
OverhangOff
 70
    21
177
     3
291
     1
 70
    58
 90
        2
176
     0
 90
        2
176
     0
 90
        0
176
     0
 90
        0
176
     0
 40
0.6
176
     0
 40
30.0
176
     0
 62
     7
420
 16777215
176
     0
 90
        1
176
     0
 90
        4
176
     0
 62
     7
176
     0
 62
   257
176
     0
 90
        1
176
     0
 90
        1
176
     0
 40
1.0
176
     0
 90
        9
176
     2
 62
     7
176
     0
 40
1.0
176
     0
 90
        1
176
     0
 90
        6
176
     0
 90
        2
176
     0
 62
     7
176
     0
 90
        5
176
     0
 90
        0
176
     0
 90
        0
176
     0
290
     0
176
     0
 90
        1
176
     0
 40
0.0
176
     0
 90
        0
176
     0
290
     0
176
     0
290
     1
176
     0
290
     1
176
     0
290
     0
176
     0
290
     0
176
     0
290
     0
176
     0
290
     0
176
     0
290
     0
176
     0
290
     0
176
     0
 90
       50
176
     0
 40
0.0
176
     0
 40
1.0
176
     0
 90
        0
176
     0
 62
    18
420
        0
176
     0
 90
       50
176
     0
 90
        3
176
     0
 62
     5
420
      255
176
     0
290
     0
176
     0
 90
       50
176
     0
 90
       50
176
     0
 90
       50
176
     0
290
     0
176
     0
 90
       50
176
     0
 62
   256
176
     0
 40
1.0
176
     0
 90
        2
176
     0
  1
strokes_ogs.tif
176
     0
290
     0
176
     0
 40
1.0
176
     0
 40
1.0
176
     0
  0
VISUALSTYLE
  5
33
102
{ACAD_REACTORS
330
2A
102
}
330
2A
100
AcDbVisualStyle
  2
Realistic
 70
     8
177
     3
291
     0
 70
    58
 90
        2
176
     1
 90
        3
176
     1
 90
        0
176
     1
 90
        2
176
     1
 40
0.6
176
     1
 40
30.0
176
     1
 62
     7
420
 16777215
176
     1
 90
        0
176
     1
 90
        0
176
     1
 62
     7
176
     1
 62
   257
176
     1
 90
        1
176
     1
 90
        1
176
     1
 40
1.0
176
     1
 90
        8
176
     1
 62
   257
176
     1
 40
1.0
176
     1
 90
        1
176
     1
 90
        6
176
     1
 90
        2
176
     1
 62
     7
176
     1
 90
        3
176
     1
 90
        0
176
     1
 90
        0
176
     1
290
     0
176
     1
 90
       13
176
     1
 40
0.0
176
     1
 90
        0
176
     1
290
     0
176
     1
290
     1
176
     1
290
     1
176
     1
290
     0
176
     1
290
     0
176
     1
290
     0
176
     1
290
     0
176
     1
290
     0
176
     1
290
     0
176
     1
 90
       50
176
     1
 40
0.0
176
     1
 40
1.0
176
     1
 90
        0
176
     1
 62
    18
420
        0
176
     1
 90
       50
176
     1
 90
        3
176
     1
 62
     5
420
      255
176
     1
290
     0
176
     1
 90
       50
176
     1
 90
       50
176
     1
 90
       50
176
     1
290
     0
176
     1
 90
       50
176
     1
 62
   256
176
     0
 40
1.0
176
     0
 90
        2
176
     1
  1
strokes_ogs.tif
176
     1
290
     0
176
     1
 40
1.0
176
     1
 40
1.0
176
     1
  0
VISUALSTYLE
  5
42
102
{ACAD_REACTORS
330
2A
102
}
330
2A
100
AcDbVisualStyle
  2
Shaded
 70
    27
177
     3
291
     0
 70
    58
 90
        2
176
     1
 90
        2
176
     1
 90
        1
176
     1
 90
        2
176
     1
 40
0.6
176
     1
 40
30.0
176
     1
 62
     7
420
 16777215
176
     1
 90
        0
176
     1
 90
        4
176
     1
 62
     7
176
     1
 62
   257
176
     1
 90
        1
176
     1
 90
        1
176
     1
 40
1.0
176
     1
 90
        8
176
     1
 62
   257
176
     1
 40
1.0
176
     1
 90
        1
176
     1
 90
        6
176
     1
 90
        2
176
     1
 62
     8
420
  7895160
176
     1
 90
        3
176
     1
 90
        0
176
     1
 90
        0
176
     1
290
     0
176
     1
 90
        5
176
     1
 40
0.0
176
     1
 90
        0
176
     1
290
     0
176
     1
290
     1
176
     1
290
     1
176
     1
290
     0
176
     1
290
     0
176
     1
290
     0
176
     1
290
     0
176
     1
290
     0
176
     1
290
     0
176
     1
 90
       50
176
     1
 40
0.0
176
     1
 40
1.0
176
     1
 90
        0
176
     1
 62
    18
420
        0
176
     1
 90
       50
176
     1
 90
        3
176
     1
 62
     5
420
      255
176
     1
290
     0
176
     1
 90
       50
176
     1
 90
       50
176
     1
 90
       50
176
     1
290
     0
176
     1
 90
       50
176
     1
 62
   256
176
     0
 40
1.0
176
     0
 90
        2
176
     1
  1
strokes_ogs.tif
176
     1
290
     0
176
     1
 40
1.0
176
     1
 40
1.0
176
     1
  0
VISUALSTYLE
  5
41
102
{ACAD_REACTORS
330
2A
102
}
330
2A
100
AcDbVisualStyle
  2
Shaded with edges
 70
    26
177
     3
291
     0
 70
    58
 90
        2
176
     1
 90
        2
176
     1
 90
        1
176
     1
 90
        2
176
     1
 40
0.6
176
     1
 40
30.0
176
     1
 62
     7
420
 16777215
176
     1
 90
        1
176
     1
 90
       10
176
     1
 62
     7
176
     1
 62
   257
176
     1
 90
        2
176
     1
 90
        1
176
     1
 40
1.0
176
     1
 90
        8
176
     1
 62
   257
176
     1
 40
1.0
176
     1
 90
        1
176
     1
 90
        6
176
     1
 90
        2
176
     1
 62
     7
176
     1
 90
        3
176
     1
 90
        0
176
     1
 90
        0
176
     1
290
     0
176
     1
 90
        5
176
     1
 40
0.0
176
     1
 90
        0
176
     1
290
     0
176
     1
290
     1
176
     1
290
     1
176
     1
290
     0
176
     1
290
     0
176
     1
290
     0
176
     1
290
     0
176
     1
290
     0
176
     1
290
     0
176
     1
 90
       50
176
     1
 40
0.0
176
     1
 40
1.0
176
     1
 90
        0
176
     1
 62
    18
420
        0
176
     1
 90
       50
176
     1
 90
        3
176
     1
 62
     5
420
      255
176
     1
290
     0
176
     1
 90
       50
176
     1
 90
       50
176
     1
 90
       50
176
     1
290
     0
176
     1
 90
       50
176
     1
 62
   256
176
     0
 40
1.0
176
     0
 90
        2
176
     1
  1
strokes_ogs.tif
176
     1
290
     0
176
     1
 40
1.0
176
     1
 40
1.0
176
     1
  0
VISUALSTYLE
  5
3E
102
{ACAD_REACTORS
330
2A
102
}
330
2A
100
AcDbVisualStyle
  2
Shades of Gray
 70
    23
177
     3
291
     0
 70
    58
 90
        2
176
     1
 90
        2
176
     1
 90
        3
176
     1
 90
        0
176
     1
 40
0.6
176
     1
 40
30.0
176
     1
 62
     7
420
 16777215
176
     1
 90
        2
176
     1
 90
        2
176
     1
 62
     7
176
     1
 62
     7
176
     1
 90
        1
176
     1
 90
        1
176
     1
 40
40.0
176
     1
 90
        8
176
     1
 62
     7
176
     1
 40
1.0
176
     1
 90
        1
176
     1
 90
        6
176
     1
 90
        2
176
     1
 62
     7
176
     1
 90
        3
176
     1
 90
        0
176
     1
 90
        0
176
     1
290
     0
176
     1
 90
        1
176
     1
 40
0.0
176
     1
 90
        0
176
     1
290
     0
176
     1
290
     1
176
     1
290
     1
176
     1
290
     0
176
     1
290
     0
176
     1
290
     0
176
     1
290
     0
176
     1
290
     0
176
     1
290
     0
176
     1
 90
       50
176
     1
 40
0.0
176
     1
 40
1.0
176
     1
 90
        0
176
     1
 62
    18
420
        0
176
     1
 90
       50
176
     1
 90
        3
176
     1
 62
     5
420
      255
176
     1
290
     0
176
     1
 90
       50
176
     1
 90
       50
176
     1
 90
       50
176
     1
290
     0
176
     1
 90
       50
176
     1
 62
   256
176
     0
 40
1.0
176
     0
 90
        2
176
     1
  1
strokes_ogs.tif
176
     1
290
     0
176
     1
 40
1.0
176
     1
 40
1.0
176
     1
  0
VISUALSTYLE
  5
3F
102
{ACAD_REACTORS
330
2A
102
}
330
2A
100
AcDbVisualStyle
  2
Sketchy
 70
    24
177
     3
291
     0
 70
    58
 90
        1
176
     1
 90
        2
176
     1
 90
        2
176
     1
 90
        0
176
     1
 40
0.6
176
     1
 40
30.0
176
     1
 62
     7
420
 16777215
176
     1
 90
        2
176
     1
 90
        2
176
     1
 62
     7
176
     1
 62
     7
176
     1
 90
        1
176
     1
 90
        1
176
     1
 40
40.0
176
     1
 90
       11
176
     1
 62
     7
176
     1
 40
1.0
176
     1
 90
        1
176
     1
 90
        6
176
     1
 90
        2
176
     1
 62
     7
176
     1
 90
        6
176
     1
 90
        0
176
     1
 90
        0
176
     1
290
     0
176
     1
 90
        1
176
     1
 40
0.0
176
     1
 90
        0
176
     1
290
     0
176
     1
290
     1
176
     1
290
     1
176
     1
290
     0
176
     1
290
     0
176
     1
290
     0
176
     1
290
     0
176
     1
290
     0
176
     1
290
     0
176
     1
 90
       50
176
     1
 40
0.0
176
     1
 40
1.0
176
     1
 90
        0
176
     1
 62
    18
420
        0
176
     1
 90
       50
176
     1
 90
        3
176
     1
 62
     5
420
      255
176
     1
290
     0
176
     1
 90
       50
176
     1
 90
       50
176
     1
 90
       50
176
     1
290
     0
176
     1
 90
       50
176
     1
 62
   256
176
     0
 40
1.0
176
     0
 90
        2
176
     1
  1
strokes_ogs.tif
176
     1
290
     0
176
     1
 40
1.0
176
     1
 40
1.0
176
     1
  0
VISUALSTYLE
  5
37
102
{ACAD_REACTORS
330
2A
102
}
330
2A
100
AcDbVisualStyle
  2
Thicken
 70
    13
177
     3
291
     1
 70
    58
 90
        2
176
     1
 90
        2
176
     1
 90
        0
176
     1
 90
        0
176
     1
 40
0.6
176
     1
 40
30.0
176
     1
 62
     7
420
 16777215
176
     1
 90
        1
176
     1
 90
        4
176
     1
 62
     7
176
     1
 62
   257
176
     1
 90
        1
176
     1
 90
        1
176
     1
 40
1.0
176
     1
 90
       12
176
     1
 62
     7
176
     1
 40
1.0
176
     1
 90
        1
176
     1
 90
        6
176
     1
 90
        2
176
     1
 62
     7
176
     1
 90
        5
176
     1
 90
        0
176
     1
 90
        0
176
     1
290
     0
176
     1
 90
        1
176
     1
 40
0.0
176
     1
 90
        0
176
     1
290
     0
176
     1
290
     1
176
     1
290
     1
176
     1
290
     0
176
     1
290
     0
176
     1
290
     0
176
     1
290
     0
176
     1
290
     0
176
     1
290
     0
176
     1
 90
       50
176
     1
 40
0.0
176
     1
 40
1.0
176
     1
 90
        0
176
     1
 62
    18
420
        0
176
     1
 90
       50
176
     1
 90
        3
176
     1
 62
     5
420
      255
176
     1
290
     0
176
     1
 90
       50
176
     1
 90
       50
176
     1
 90
       50
176
     1
290
     0
176
     1
 90
       50
176
     1
 62
   256
176
     0
 40
1.0
176
     0
 90
        2
176
     1
  1
strokes_ogs.tif
176
     1
290
     0
176
     1
 40
1.0
176
     1
 40
1.0
176
     1
  0
VISUALSTYLE
  5
30
102
{ACAD_REACTORS
330
2A
102
}
330
2A
100
AcDbVisualStyle
  2
Wireframe
 70
     5
177
     3
291
     0
 70
    58
 90
        0
176
     1
 90
        2
176
     1
 90
        0
176
     1
 90
        0
176
     1
 40
0.6
176
     1
 40
30.0
176
     1
 62
     7
420
 16777215
176
     1
 90
        1
176
     1
 90
        4
176
     1
 62
     7
176
     1
 62
   257
176
     1
 90
        1
176
     1
 90
        1
176
     1
 40
1.0
176
     1
 90
        0
176
     1
 62
   257
176
     1
 40
1.0
176
     1
 90
        1
176
     1
 90
        6
176
     1
 90
        2
176
     1
 62
     7
176
     1
 90
        3
176
     1
 90
        0
176
     1
 90
        0
176
     1
290
     0
176
     1
 90
        1
176
     1
 40
0.0
176
     1
 90
        0
176
     1
290
     0
176
     1
290
     1
176
     1
290
     1
176
     1
290
     0
176
     1
290
     0
176
     1
290
     0
176
     1
290
     0
176
     1
290
     0
176
     1
290
     0
176
     1
 90
       50
176
     1
 40
0.0
176
     1
 40
1.0
176
     1
 90
        0
176
     1
 62
    18
420
        0
176
     1
 90
       50
176
     1
 90
        3
176
     1
 62
     5
420
      255
176
     1
290
     0
176
     1
 90
       50
176
     1
 90
       50
176
     1
 90
       50
176
     1
290
     0
176
     1
 90
       50
176
     1
 62
   256
176
     0
 40
1.0
176
     0
 90
        2
176
     1
  1
strokes_ogs.tif
176
     1
290
     0
176
     1
 40
1.0
176
     1
 40
1.0
176
     1
  0
VISUALSTYLE
  5
40
102
{ACAD_REACTORS
330
2A
102
}
330
2A
100
AcDbVisualStyle
  2
X-Ray
 70
    25
177
     3
291
     0
 70
    58
 90
        2
176
     1
 90
        2
176
     1
 90
        1
176
     1
 90
        1
176
     1
 40
0.5
176
     1
 40
30.0
176
     1
 62
     7
420
 16777215
176
     1
 90
        1
176
     1
 90
        0
176
     1
 62
     7
176
     1
 62
   257
176
     1
 90
        1
176
     1
 90
        1
176
     1
 40
1.0
176
     1
 90
        8
176
     1
 62
     7
176
     1
 40
1.0
176
     1
 90
        1
176
     1
 90
        6
176
     1
 90
        2
176
     1
 62
     7
176
     1
 90
        3
176
     1
 90
        0
176
     1
 90
        0
176
     1
290
     0
176
     1
 90
       13
176
     1
 40
0.0
176
     1
 90
        0
176
     1
290
     0
176
     1
290
     1
176
     1
290
     1
176
     1
290
     0
176
     1
290
     0
176
     1
290
     0
176
     1
290
     0
176
     1
290
     0
176
     1
290
     0
176
     1
 90
       50
176
     1
 40
0.0
176
     1
 40
1.0
176
     1
 90
        0
176
     1
 62
    18
420
        0
176
     1
 90
       50
176
     1
 90
        3
176
     1
 62
     5
420
      255
176
     1
290
     0
176
     1
 90
       50
176
     1
 90
       50
176
     1
 90
       50
176
     1
290
     0
176
     1
 90
       50
176
     1
 62
   256
176
     0
 40
1.0
176
     0
 90
        2
176
     1
  1
strokes_ogs.tif
176
     1
290
     0
176
     1
 40
1.0
176
     1
 40
1.0
176
     1
  0
DICTIONARYVAR
  5
1F3
102
{ACAD_REACTORS
330
1F2
102
}
330
1F2
100
DictionaryVariables
280
     0
  1
1:1
  0
DICTIONARYVAR
  5
1F8
102
{ACAD_REACTORS
330
1F2
102
}
330
1F2
100
DictionaryVariables
280
     0
  1
Standard
  0
DICTIONARYVAR
  5
1F7
102
{ACAD_REACTORS
330
1F2
102
}
330
1F2
100
DictionaryVariables
280
     0
  1
Standard
  0
DICTIONARY
  5
1F4
330
6A
100
AcDbDictionary
280
     1
281
     1
  3
ACAD_ROUNDTRIP_2008_TABLESTYLE_CELLSTYLEMAP
360
1F5
  0
CELLSTYLEMAP
  5
1F5
102
{ACAD_REACTORS
330
1F4
102
}
330
1F4
100
AcDbCellStyleMap
 90
        3
300
CELLSTYLE
  1
TABLEFORMAT_BEGIN
 90
        5
170
     1
 91
        0
 92
    32768
 62
   257
 93
        1
300
CONTENTFORMAT
  1
CONTENTFORMAT_BEGIN
 90
        0
 91
        0
 92
        4
 93
        0
300

 40
0.0
140
1.0
 94
        5
 62
     0
340
11
144
0.25
309
CONTENTFORMAT_END
171
     1
301
MARGIN
  1
CELLMARGIN_BEGIN
 40
0.06
 40
0.06
 40
0.06
 40
0.06
 40
0.06
 40
0.06
309
CELLMARGIN_END
 94
        6
 95
        1
302
GRIDFORMAT
  1
GRIDFORMAT_BEGIN
 90
        0
 91
        1
 62
     0
 92
       -2
340
14
 93
        0
 40
0.045
309
GRIDFORMAT_END
 95
        2
302
GRIDFORMAT
  1
GRIDFORMAT_BEGIN
 90
        0
 91
        1
 62
     0
 92
       -2
340
14
 93
        0
 40
0.045
309
GRIDFORMAT_END
 95
        4
302
GRIDFORMAT
  1
GRIDFORMAT_BEGIN
 90
        0
 91
        1
 62
     0
 92
       -2
340
14
 93
        0
 40
0.045
309
GRIDFORMAT_END
 95
        8
302
GRIDFORMAT
  1
GRIDFORMAT_BEGIN
 90
        0
 91
        1
 62
     0
 92
       -2
340
14
 93
        0
 40
0.045
309
GRIDFORMAT_END
 95
       16
302
GRIDFORMAT
  1
GRIDFORMAT_BEGIN
 90
        0
 91
        1
 62
     0
 92
       -2
340
14
 93
        0
 40
0.045
309
GRIDFORMAT_END
 95
       32
302
GRIDFORMAT
  1
GRIDFORMAT_BEGIN
 90
        0
 91
        1
 62
     0
 92
       -2
340
14
 93
        0
 40
0.045
309
GRIDFORMAT_END
309
TABLEFORMAT_END
  1
CELLSTYLE_BEGIN
 90
        1
 91
        1
300
_TITLE
309
CELLSTYLE_END
300
CELLSTYLE
  1
TABLEFORMAT_BEGIN
 90
        5
170
     1
 91
        0
 92
        0
 62
   257
 93
        1
300
CONTENTFORMAT
  1
CONTENTFORMAT_BEGIN
 90
        0
 91
        0
 92
        4
 93
        0
300

 40
0.0
140
1.0
 94
        5
 62
     0
340
11
144
0.18
309
CONTENTFORMAT_END
171
     1
301
MARGIN
  1
CELLMARGIN_BEGIN
 40
0.06
 40
0.06
 40
0.06
 40
0.06
 40
0.06
 40
0.06
309
CELLMARGIN_END
 94
        6
 95
        1
302
GRIDFORMAT
  1
GRIDFORMAT_BEGIN
 90
        0
 91
        1
 62
     0
 92
       -2
340
14
 93
        0
 40
0.045
309
GRIDFORMAT_END
 95
        2
302
GRIDFORMAT
  1
GRIDFORMAT_BEGIN
 90
        0
 91
        1
 62
     0
 92
       -2
340
14
 93
        0
 40
0.045
309
GRIDFORMAT_END
 95
        4
302
GRIDFORMAT
  1
GRIDFORMAT_BEGIN
 90
        0
 91
        1
 62
     0
 92
       -2
340
14
 93
        0
 40
0.045
309
GRIDFORMAT_END
 95
        8
302
GRIDFORMAT
  1
GRIDFORMAT_BEGIN
 90
        0
 91
        1
 62
     0
 92
       -2
340
14
 93
        0
 40
0.045
309
GRIDFORMAT_END
 95
       16
302
GRIDFORMAT
  1
GRIDFORMAT_BEGIN
 90
        0
 91
        1
 62
     0
 92
       -2
340
14
 93
        0
 40
0.045
309
GRIDFORMAT_END
 95
       32
302
GRIDFORMAT
  1
GRIDFORMAT_BEGIN
 90
        0
 91
        1
 62
     0
 92
       -2
340
14
 93
        0
 40
0.045
309
GRIDFORMAT_END
309
TABLEFORMAT_END
  1
CELLSTYLE_BEGIN
 90
        2
 91
        1
300
_HEADER
309
CELLSTYLE_END
300
CELLSTYLE
  1
TABLEFORMAT_BEGIN
 90
        5
170
     1
 91
        0
 92
        0
 62
   257
 93
        1
300
CONTENTFORMAT
  1
CONTENTFORMAT_BEGIN
 90
        0
 91
        0
 92
        4
 93
        0
300

 40
0.0
140
1.0
 94
        2
 62
     0
340
11
144
0.18
309
CONTENTFORMAT_END
171
     1
301
MARGIN
  1
CELLMARGIN_BEGIN
 40
0.06
 40
0.06
 40
0.06
 40
0.06
 40
0.06
 40
0.06
309
CELLMARGIN_END
 94
        6
 95
        1
302
GRIDFORMAT
  1
GRIDFORMAT_BEGIN
 90
        0
 91
        1
 62
     0
 92
       -2
340
14
 93
        0
 40
0.045
309
GRIDFORMAT_END
 95
        2
302
GRIDFORMAT
  1
GRIDFORMAT_BEGIN
 90
        0
 91
        1
 62
     0
 92
       -2
340
14
 93
        0
 40
0.045
309
GRIDFORMAT_END
 95
        4
302
GRIDFORMAT
  1
GRIDFORMAT_BEGIN
 90
        0
 91
        1
 62
     0
 92
       -2
340
14
 93
        0
 40
0.045
309
GRIDFORMAT_END
 95
        8
302
GRIDFORMAT
  1
GRIDFORMAT_BEGIN
 90
        0
 91
        1
 62
     0
 92
       -2
340
14
 93
        0
 40
0.045
309
GRIDFORMAT_END
 95
       16
302
GRIDFORMAT
  1
GRIDFORMAT_BEGIN
 90
        0
 91
        1
 62
     0
 92
       -2
340
14
 93
        0
 40
0.045
309
GRIDFORMAT_END
 95
       32
302
GRIDFORMAT
  1
GRIDFORMAT_BEGIN
 90
        0
 91
        1
 62
     0
 92
       -2
340
14
 93
        0
 40
0.045
309
GRIDFORMAT_END
309
TABLEFORMAT_END
  1
CELLSTYLE_BEGIN
 90
        3
 91
        2
300
_DATA
309
CELLSTYLE_END
  0
ENDSEC
  0
EOF