0
SECTION
  2
HEADER
  9
$ACADVER
  1
AC1027
  9
$ACADMAINTVER
 70
     8
  9
$DWGCODEPAGE
  3
ANSI_1252
  9
$REQUIREDVERSIONS
160
                 0
  9
$COMMENTS
  1
File was created by Cadenas
  9
$CUSTOMPROPERTYTAG
  1
NN
  9
$CUSTOMPROPERTY
  1
Grip Tight Flange Cartridge Metric Bore
  9
$CUSTOMPROPERTYTAG
  1
NT
  9
$CUSTOMPROPERTY
  1
GT Normal Duty Piloted Flange Bearings
  9
$CUSTOMPROPERTYTAG
  1
NB
  9
$CUSTOMPROPERTY
  1
129735
  9
$CUSTOMPROPERTYTAG
  1
NBSYN
  9
$CUSTOMPROPERTY
  1
$PN.
  9
$CUSTOMPROPERTYTAG
  1
LINA
  9
$CUSTOMPROPERTY
  1
129735
  9
$CUSTOMPROPERTYTAG
  1
SERIES
  9
$CUSTOMPROPERTY
  1
206
  9
$CUSTOMPROPERTYTAG
  1
SS
  9
$CUSTOMPROPERTY
  1
1-1/8
  9
$CUSTOMPROPERTYTAG
  1
PN
  9
$CUSTOMPROPERTY
  1
129735
  9
$CUSTOMPROPERTYTAG
  1
DESCRIPTION
  9
$CUSTOMPROPERTY
  1
FC-GT-102
  9
$CUSTOMPROPERTYTAG
  1
PNSL
  9
$CUSTOMPROPERTY
  1
129501
  9
$CUSTOMPROPERTYTAG
  1
DESCRIPTIONSL
  9
$CUSTOMPROPERTY
  1
FC-GT-06
  9
$CUSTOMPROPERTYTAG
  1
PNA
  9
$CUSTOMPROPERTY
  1
136525
  9
$CUSTOMPROPERTYTAG
  1
DESCRIPTIONA
  9
$CUSTOMPROPERTY
  1
AN-GT-06-102-D
  9
$CUSTOMPROPERTYTAG
  1
W
  9
$CUSTOMPROPERTY
  1
3.0
  9
$CUSTOMPROPERTYTAG
  1
A
  9
$CUSTOMPROPERTY
  1
1.61
  9
$CUSTOMPROPERTYTAG
  1
B
  9
$CUSTOMPROPERTY
  1
4.38
  9
$CUSTOMPROPERTYTAG
  1
C
  9
$CUSTOMPROPERTY
  1
1.68
  9
$CUSTOMPROPERTYTAG
  1
D
  9
$CUSTOMPROPERTY
  1
3.63
  9
$CUSTOMPROPERTYTAG
  1
E
  9
$CUSTOMPROPERTY
  1
0.25
  9
$CUSTOMPROPERTYTAG
  1
F
  9
$CUSTOMPROPERTY
  1
3/8
  9
$CUSTOMPROPERTYTAG
  1
G
  9
$CUSTOMPROPERTY
  1
1.43
  9
$CUSTOMPROPERTYTAG
  1
H
  9
$CUSTOMPROPERTY
  1
0.81
  9
$CUSTOMPROPERTYTAG
  1
K
  9
$CUSTOMPROPERTY
  1
3.000/2.998
  9
$CUSTOMPROPERTYTAG
  1
L
  9
$CUSTOMPROPERTY
  1
2.08
  9
$CUSTOMPROPERTYTAG
  1
Z
  9
$CUSTOMPROPERTY
  1
1.46
  9
$CUSTOMPROPERTYTAG
  1
CAPS
  9
$CUSTOMPROPERTY
  1
2250
  9
$CUSTOMPROPERTYTAG
  1
CAPD
  9
$CUSTOMPROPERTY
  1
4368
  9
$CUSTOMPROPERTYTAG
  1
COMPANY
  9
$CUSTOMPROPERTY
  1
baldor
  9
$INSBASE
 10
0.0
 20
0.0
 30
0.0
  9
$EXTMIN
 10
1.000000000000000E+20
 20
1.000000000000000E+20
 30
1.000000000000000E+20
  9
$EXTMAX
 10
-1.000000000000000E+20
 20
-1.000000000000000E+20
 30
-1.000000000000000E+20
  9
$LIMMIN
 10
0.0
 20
0.0
  9
$LIMMAX
 10
12.0
 20
9.0
  9
$ORTHOMODE
 70
     0
  9
$REGENMODE
 70
     1
  9
$FILLMODE
 70
     1
  9
$QTEXTMODE
 70
     0
  9
$MIRRTEXT
 70
     1
  9
$LTSCALE
 40
1.0
  9
$ATTMODE
 70
     1
  9
$TEXTSIZE
 40
0.2
  9
$TRACEWID
 40
0.05
  9
$TEXTSTYLE
  7
Standard
  9
$CLAYER
  8
0
  9
$CELTYPE
  6
ByLayer
  9
$CECOLOR
 62
   256
  9
$CELTSCALE
 40
1.0
  9
$DISPSILH
 70
     0
  9
$DIMSCALE
 40
1.0
  9
$DIMASZ
 40
0.18
  9
$DIMEXO
 40
0.0625
  9
$DIMDLI
 40
0.38
  9
$DIMRND
 40
0.0
  9
$DIMDLE
 40
0.0
  9
$DIMEXE
 40
0.18
  9
$DIMTP
 40
0.0
  9
$DIMTM
 40
0.0
  9
$DIMTXT
 40
0.18
  9
$DIMCEN
 40
0.09
  9
$DIMTSZ
 40
0.0
  9
$DIMTOL
 70
     0
  9
$DIMLIM
 70
     0
  9
$DIMTIH
 70
     1
  9
$DIMTOH
 70
     1
  9
$DIMSE1
 70
     0
  9
$DIMSE2
 70
     0
  9
$DIMTAD
 70
     0
  9
$DIMZIN
 70
     0
  9
$DIMBLK
  1

  9
$DIMASO
 70
     1
  9
$DIMSHO
 70
     1
  9
$DIMPOST
  1

  9
$DIMAPOST
  1

  9
$DIMALT
 70
     0
  9
$DIMALTD
 70
     2
  9
$DIMALTF
 40
25.4
  9
$DIMLFAC
 40
1.0
  9
$DIMTOFL
 70
     0
  9
$DIMTVP
 40
0.0
  9
$DIMTIX
 70
     0
  9
$DIMSOXD
 70
     0
  9
$DIMSAH
 70
     0
  9
$DIMBLK1
  1

  9
$DIMBLK2
  1

  9
$DIMSTYLE
  2
Standard
  9
$DIMCLRD
 70
     0
  9
$DIMCLRE
 70
     0
  9
$DIMCLRT
 70
     0
  9
$DIMTFAC
 40
1.0
  9
$DIMGAP
 40
0.09
  9
$DIMJUST
 70
     0
  9
$DIMSD1
 70
     0
  9
$DIMSD2
 70
     0
  9
$DIMTOLJ
 70
     1
  9
$DIMTZIN
 70
     0
  9
$DIMALTZ
 70
     0
  9
$DIMALTTZ
 70
     0
  9
$DIMUPT
 70
     0
  9
$DIMDEC
 70
     4
  9
$DIMTDEC
 70
     4
  9
$DIMALTU
 70
     2
  9
$DIMALTTD
 70
     2
  9
$DIMTXSTY
  7
Standard
  9
$DIMAUNIT
 70
     0
  9
$DIMADEC
 70
     0
  9
$DIMALTRND
 40
0.0
  9
$DIMAZIN
 70
     0
  9
$DIMDSEP
 70
    46
  9
$DIMATFIT
 70
     3
  9
$DIMFRAC
 70
     0
  9
$DIMLDRBLK
  1

  9
$DIMLUNIT
 70
     2
  9
$DIMLWD
 70
    -2
  9
$DIMLWE
 70
    -2
  9
$DIMTMOVE
 70
     0
  9
$DIMFXL
 40
1.0
  9
$DIMFXLON
 70
     0
  9
$DIMJOGANG
 40
0.7853981633974483
  9
$DIMTFILL
 70
     0
  9
$DIMTFILLCLR
 70
     0
  9
$DIMARCSYM
 70
     0
  9
$DIMLTYPE
  6

  9
$DIMLTEX1
  6

  9
$DIMLTEX2
  6

  9
$DIMTXTDIRECTION
 70
     0
  9
$LUNITS
 70
     2
  9
$LUPREC
 70
     4
  9
$SKETCHINC
 40
0.1
  9
$FILLETRAD
 40
0.5
  9
$AUNITS
 70
     0
  9
$AUPREC
 70
     0
  9
$MENU
  1
.
  9
$ELEVATION
 40
0.0
  9
$PELEVATION
 40
0.0
  9
$THICKNESS
 40
0.0
  9
$LIMCHECK
 70
     0
  9
$CHAMFERA
 40
0.0
  9
$CHAMFERB
 40
0.0
  9
$CHAMFERC
 40
0.0
  9
$CHAMFERD
 40
0.0
  9
$SKPOLY
 70
     0
  9
$TDCREATE
 40
2458168.995783449
  9
$TDUCREATE
 40
2458168.954116783
  9
$TDUPDATE
 40
2458168.995783623
  9
$TDUUPDATE
 40
2458168.954116956
  9
$TDINDWG
 40
0.0000000116
  9
$TDUSRTIMER
 40
0.0000000116
  9
$USRTIMER
 70
     1
  9
$ANGBASE
 50
0.0
  9
$ANGDIR
 70
     0
  9
$PDMODE
 70
     0
  9
$PDSIZE
 40
0.0
  9
$PLINEWID
 40
0.0
  9
$SPLFRAME
 70
     0
  9
$SPLINETYPE
 70
     6
  9
$SPLINESEGS
 70
     8
  9
$HANDSEED
  5
1DC
  9
$SURFTAB1
 70
     6
  9
$SURFTAB2
 70
     6
  9
$SURFTYPE
 70
     6
  9
$SURFU
 70
     6
  9
$SURFV
 70
     6
  9
$UCSBASE
  2

  9
$UCSNAME
  2

  9
$UCSORG
 10
0.0
 20
0.0
 30
0.0
  9
$UCSXDIR
 10
1.0
 20
0.0
 30
0.0
  9
$UCSYDIR
 10
0.0
 20
1.0
 30
0.0
  9
$UCSORTHOREF
  2

  9
$UCSORTHOVIEW
 70
     0
  9
$UCSORGTOP
 10
0.0
 20
0.0
 30
0.0
  9
$UCSORGBOTTOM
 10
0.0
 20
0.0
 30
0.0
  9
$UCSORGLEFT
 10
0.0
 20
0.0
 30
0.0
  9
$UCSORGRIGHT
 10
0.0
 20
0.0
 30
0.0
  9
$UCSORGFRONT
 10
0.0
 20
0.0
 30
0.0
  9
$UCSORGBACK
 10
0.0
 20
0.0
 30
0.0
  9
$PUCSBASE
  2

  9
$PUCSNAME
  2

  9
$PUCSORG
 10
0.0
 20
0.0
 30
0.0
  9
$PUCSXDIR
 10
1.0
 20
0.0
 30
0.0
  9
$PUCSYDIR
 10
0.0
 20
1.0
 30
0.0
  9
$PUCSORTHOREF
  2

  9
$PUCSORTHOVIEW
 70
     0
  9
$PUCSORGTOP
 10
0.0
 20
0.0
 30
0.0
  9
$PUCSORGBOTTOM
 10
0.0
 20
0.0
 30
0.0
  9
$PUCSORGLEFT
 10
0.0
 20
0.0
 30
0.0
  9
$PUCSORGRIGHT
 10
0.0
 20
0.0
 30
0.0
  9
$PUCSORGFRONT
 10
0.0
 20
0.0
 30
0.0
  9
$PUCSORGBACK
 10
0.0
 20
0.0
 30
0.0
  9
$USERI1
 70
     0
  9
$USERI2
 70
     0
  9
$USERI3
 70
     0
  9
$USERI4
 70
     0
  9
$USERI5
 70
     0
  9
$USERR1
 40
0.0
  9
$USERR2
 40
0.0
  9
$USERR3
 40
0.0
  9
$USERR4
 40
0.0
  9
$USERR5
 40
0.0
  9
$WORLDVIEW
 70
     1
  9
$SHADEDGE
 70
     3
  9
$SHADEDIF
 70
    70
  9
$TILEMODE
 70
     1
  9
$MAXACTVP
 70
    64
  9
$PINSBASE
 10
0.0
 20
0.0
 30
0.0
  9
$PLIMCHECK
 70
     0
  9
$PEXTMIN
 10
1.000000000000000E+20
 20
1.000000000000000E+20
 30
1.000000000000000E+20
  9
$PEXTMAX
 10
-1.000000000000000E+20
 20
-1.000000000000000E+20
 30
-1.000000000000000E+20
  9
$PLIMMIN
 10
0.0
 20
0.0
  9
$PLIMMAX
 10
12.0
 20
9.0
  9
$UNITMODE
 70
     0
  9
$VISRETAIN
 70
     1
  9
$PLINEGEN
 70
     0
  9
$PSLTSCALE
 70
     1
  9
$TREEDEPTH
 70
  3020
  9
$CMLSTYLE
  2
Standard
  9
$CMLJUST
 70
     0
  9
$CMLSCALE
 40
1.0
  9
$PROXYGRAPHICS
 70
     1
  9
$MEASUREMENT
 70
     0
  9
$CELWEIGHT
370
    -1
  9
$ENDCAPS
280
     0
  9
$JOINSTYLE
280
     0
  9
$LWDISPLAY
290
     0
  9
$INSUNITS
 70
     1
  9
$HYPERLINKBASE
  1

  9
$STYLESHEET
  1

  9
$XEDIT
290
     1
  9
$CEPSNTYPE
380
     0
  9
$PSTYLEMODE
290
     1
  9
$FINGERPRINTGUID
  2
{1B272061-D199-44BD-8E62-BBE0652AA0D7}
  9
$VERSIONGUID
  2
{FAEB1C32-E019-11D5-929B-00C0DF256EC4}
  9
$EXTNAMES
290
     1
  9
$PSVPSCALE
 40
0.0
  9
$OLESTARTUP
290
     0
  9
$SORTENTS
280
   127
  9
$INDEXCTL
280
     0
  9
$HIDETEXT
280
     1
  9
$XCLIPFRAME
280
     2
  9
$HALOGAP
280
     0
  9
$OBSCOLOR
 70
   257
  9
$OBSLTYPE
280
     0
  9
$INTERSECTIONDISPLAY
280
     0
  9
$INTERSECTIONCOLOR
 70
   257
  9
$DIMASSOC
280
     2
  9
$PROJECTNAME
  1

  9
$CAMERADISPLAY
290
     0
  9
$LENSLENGTH
 40
50.0
  9
$CAMERAHEIGHT
 40
0.0
  9
$STEPSPERSEC
 40
2.0
  9
$STEPSIZE
 40
6.0
  9
$3DDWFPREC
 40
2.0
  9
$PSOLWIDTH
 40
0.25
  9
$PSOLHEIGHT
 40
4.0
  9
$LOFTANG1
 40
1.570796326794897
  9
$LOFTANG2
 40
1.570796326794897
  9
$LOFTMAG1
 40
0.0
  9
$LOFTMAG2
 40
0.0
  9
$LOFTPARAM
 70
     7
  9
$LOFTNORMALS
280
     1
  9
$LATITUDE
 40
37.795
  9
$LONGITUDE
 40
-122.394
  9
$NORTHDIRECTION
 40
0.0
  9
$TIMEZONE
 70
 -8000
  9
$LIGHTGLYPHDISPLAY
280
     1
  9
$TILEMODELIGHTSYNCH
280
     1
  9
$CMATERIAL
347
44
  9
$SOLIDHIST
280
     0
  9
$SHOWHIST
280
     1
  9
$DWFFRAME
280
     2
  9
$DGNFRAME
280
     2
  9
$REALWORLDSCALE
290
     1
  9
$INTERFERECOLOR
 62
   256
  9
$CSHADOW
280
     0
  9
$SHADOWPLANELOCATION
 40
0.0
  0
ENDSEC
  0
SECTION
  2
CLASSES
  0
CLASS
  1
ACDBDICTIONARYWDFLT
  2
AcDbDictionaryWithDefault
  3
ObjectDBX Classes
 90
        0
 91
        4
280
     0
281
     0
  0
CLASS
  1
VISUALSTYLE
  2
AcDbVisualStyle
  3
ObjectDBX Classes
 90
     4095
 91
        4
280
     0
281
     0
  0
CLASS
  1
MATERIAL
  2
AcDbMaterial
  3
ObjectDBX Classes
 90
     1153
 91
        4
280
     0
281
     0
  0
CLASS
  1
SCALE
  2
AcDbScale
  3
ObjectDBX Classes
 90
     1153
 91
        4
280
     0
281
     0
  0
CLASS
  1
TABLESTYLE
  2
AcDbTableStyle
  3
ObjectDBX Classes
 90
     4095
 91
        4
280
     0
281
     0
  0
CLASS
  1
MLEADERSTYLE
  2
AcDbMLeaderStyle
  3
ACDB_MLEADERSTYLE_CLASS
 90
     4095
 91
        4
280
     0
281
     0
  0
CLASS
  1
SUN
  2
AcDbSun
  3
SCENEOE
 90
     1153
 91
        4
280
     0
281
     0
  0
CLASS
  1
DICTIONARYVAR
  2
AcDbDictionaryVar
  3
ObjectDBX Classes
 90
        0
 91
        4
280
     0
281
     0
  0
CLASS
  1
CELLSTYLEMAP
  2
AcDbCellStyleMap
  3
ObjectDBX Classes
 90
     1152
 91
        4
280
     0
281
     0
  0
ENDSEC
  0
SECTION
  2
TABLES
  0
TABLE
  2
VPORT
  5
8
330
0
100
AcDbSymbolTable
 70
     1
  0
VPORT
  5
29
330
8
100
AcDbSymbolTableRecord
100
AcDbViewportTableRecord
  2
*Active
 70
     0
 10
0.0
 20
0.0
 11
1.0
 21
1.0
 12
0.0
 22
-0.8550000000000004
 13
0.0
 23
0.0
 14
0.5
 24
0.5
 15
0.5
 25
0.5
 16
0.0
 26
0.0
 36
1.0
 17
0.0
 27
0.0
 37
0.0
 40
1.851300000000001
 41
2.413223140495866
 42
50.0
 43
0.0
 44
0.0
 50
0.0
 51
0.0
 71
     0
 72
   100
 73
     1
 74
     3
 75
     0
 76
     0
 77
     0
 78
     0
281
     0
 65
     1
110
0.0
120
0.0
130
0.0
111
1.0
121
0.0
131
0.0
112
0.0
122
1.0
132
0.0
 79
     0
146
0.0
348
2F
 60
     3
 61
     5
292
     1
282
     1
141
0.0
142
0.0
 63
   250
361
6D
  0
ENDTAB
  0
TABLE
  2
LTYPE
  5
5
330
0
100
AcDbSymbolTable
 70
     3
  0
LTYPE
  5
14
330
5
100
AcDbSymbolTableRecord
100
AcDbLinetypeTableRecord
  2
ByBlock
 70
     0
  3

 72
    65
 73
     0
 40
0.0
  0
LTYPE
  5
15
330
5
100
AcDbSymbolTableRecord
100
AcDbLinetypeTableRecord
  2
ByLayer
 70
     0
  3

 72
    65
 73
     0
 40
0.0
  0
LTYPE
  5
16
330
5
100
AcDbSymbolTableRecord
100
AcDbLinetypeTableRecord
  2
Continuous
 70
     0
  3
Solid line
 72
    65
 73
     0
 40
0.0
  0
LTYPE
  5
A5
330
5
100
AcDbSymbolTableRecord
100
AcDbLinetypeTableRecord
  2
Dashed
 70
     0
  3

 72
    65
 73
     2
 40
2.0
 49
1.0
 74
     0
 49
-1.0
 74
     0
  0
LTYPE
  5
10B
330
5
100
AcDbSymbolTableRecord
100
AcDbLinetypeTableRecord
  2
Center
 70
     0
  3

 72
    65
 73
     4
 40
1.5
 49
0.45
 74
     0
 49
-0.5
 74
     0
 49
0.05
 74
     0
 49
-0.5
 74
     0
  0
ENDTAB
  0
TABLE
  2
LAYER
  5
2
330
0
100
AcDbSymbolTable
 70
     7
  0
LAYER
  5
10
330
2
100
AcDbSymbolTableRecord
100
AcDbLayerTableRecord
  2
0
 70
     0
 62
     7
  6
Continuous
370
    -3
390
F
347
46
348
0
  0
LAYER
  5
72
330
2
100
AcDbSymbolTableRecord
100
AcDbLayerTableRecord
  2
AM_6
 70
     0
 62
    -2
  6
Continuous
370
    35
390
F
347
46
348
0
  0
LAYER
  5
A6
330
2
100
AcDbSymbolTableRecord
100
AcDbLayerTableRecord
  2
AM_9
 70
     0
 62
     6
  6
Dashed
370
    25
390
F
347
46
348
0
  0
LAYER
  5
D7
330
2
100
AcDbSymbolTableRecord
100
AcDbLayerTableRecord
  2
AM_4
 70
     0
 62
     7
  6
Continuous
370
    50
390
F
347
46
348
0
  0
LAYER
  5
10C
330
2
100
AcDbSymbolTableRecord
100
AcDbLayerTableRecord
  2
AM_7
 70
     0
 62
     7
  6
Center
370
    25
390
F
347
46
348
0
  0
LAYER
  5
12D
330
2
100
AcDbSymbolTableRecord
100
AcDbLayerTableRecord
  2
AM_5
 70
     0
 62
     3
  6
Continuous
370
    25
390
F
347
46
348
0
  0
LAYER
  5
1CE
330
2
100
AcDbSymbolTableRecord
100
AcDbLayerTableRecord
  2
ConnectionPoints
 70
     0
 62
     7
  6
Continuous
370
    50
390
F
347
46
348
0
  0
ENDTAB
  0
TABLE
  2
STYLE
  5
3
330
0
100
AcDbSymbolTable
 70
     1
  0
STYLE
  5
11
330
3
100
AcDbSymbolTableRecord
100
AcDbTextStyleTableRecord
  2
Standard
 70
     0
 40
0.0
 41
1.0
 50
0.0
 71
     0
 42
0.2
  3
txt
  4

  0
ENDTAB
  0
TABLE
  2
VIEW
  5
6
330
0
100
AcDbSymbolTable
 70
     0
  0
ENDTAB
  0
TABLE
  2
UCS
  5
7
330
0
100
AcDbSymbolTable
 70
     0
  0
ENDTAB
  0
TABLE
  2
APPID
  5
9
330
0
100
AcDbSymbolTable
 70
     1
  0
APPID
  5
12
330
9
100
AcDbSymbolTableRecord
100
AcDbRegAppTableRecord
  2
ACAD
 70
     0
  0
ENDTAB
  0
TABLE
  2
DIMSTYLE
  5
A
330
0
100
AcDbSymbolTable
 70
     1
100
AcDbDimStyleTable
  0
DIMSTYLE
105
27
330
A
100
AcDbSymbolTableRecord
100
AcDbDimStyleTableRecord
  2
Standard
 70
     0
178
     0
340
11
  0
ENDTAB
  0
TABLE
  2
BLOCK_RECORD
  5
1
330
0
100
AcDbSymbolTable
 70
     5
  0
BLOCK_RECORD
  5
1F
330
1
100
AcDbSymbolTableRecord
100
AcDbBlockTableRecord
  2
*Model_Space
340
22
 70
     0
280
     1
281
     0
  0
BLOCK_RECORD
  5
1B
330
1
100
AcDbSymbolTableRecord
100
AcDbBlockTableRecord
  2
*Paper_Space
340
1E
 70
     0
280
     1
281
     0
  0
BLOCK_RECORD
  5
23
330
1
100
AcDbSymbolTableRecord
100
AcDbBlockTableRecord
  2
*Paper_Space0
340
26
 70
     0
280
     1
281
     0
  0
BLOCK_RECORD
  5
6E
330
1
100
AcDbSymbolTableRecord
100
AcDbBlockTableRecord
  2
1_129735_4
340
0
102
{BLKREFS
331
6F
102
}
 70
     0
280
     1
281
     0
  0
BLOCK_RECORD
  5
8F
330
1
100
AcDbSymbolTableRecord
100
AcDbBlockTableRecord
  2
2_129519I_0_in_129735_4
340
0
102
{BLKREFS
331
90
102
}
 70
     0
280
     1
281
     0
  0
BLOCK_RECORD
  5
DB
330
1
100
AcDbSymbolTableRecord
100
AcDbBlockTableRecord
  2
3_136525_0_in_129735_4
340
0
102
{BLKREFS
331
DC
102
}
 70
     0
280
     1
281
     0
  0
BLOCK_RECORD
  5
12F
330
1
100
AcDbSymbolTableRecord
100
AcDbBlockTableRecord
  2
4_129735h_0_in_129735_4
340
0
102
{BLKREFS
331
130
102
}
 70
     0
280
     1
281
     0
  0
ENDTAB
  0
ENDSEC
  0
SECTION
  2
BLOCKS
  0
BLOCK
  5
20
330
1F
100
AcDbEntity
  8
0
100
AcDbBlockBegin
  2
*Model_Space
 70
     0
 10
0.0
 20
0.0
 30
0.0
  3
*Model_Space
  1

  0
ENDBLK
  5
21
330
1F
100
AcDbEntity
  8
0
100
AcDbBlockEnd
  0
BLOCK
  5
1C
330
1B
100
AcDbEntity
 67
     1
  8
0
100
AcDbBlockBegin
  2
*Paper_Space
 70
     0
 10
0.0
 20
0.0
 30
0.0
  3
*Paper_Space
  1

  0
ENDBLK
  5
1D
330
1B
100
AcDbEntity
 67
     1
  8
0
100
AcDbBlockEnd
  0
BLOCK
  5
24
330
23
100
AcDbEntity
  8
0
100
AcDbBlockBegin
  2
*Paper_Space0
 70
     0
 10
0.0
 20
0.0
 30
0.0
  3
*Paper_Space0
  1

  0
ENDBLK
  5
25
330
23
100
AcDbEntity
  8
0
100
AcDbBlockEnd
  0
BLOCK
  5
70
330
6E
100
AcDbEntity
  8
0
100
AcDbBlockBegin
  2
1_129735_4
 70
     2
 10
0.0
 20
0.0
 30
0.0
  3
1_129735_4
  1

  0
ATTDEF
  5
73
330
6E
100
AcDbEntity
  8
AM_6
100
AcDbText
 10
7.19
 20
0.0524999999999999
 30
0.0
 40
0.5
  1
Grip Tight Flange Cartridge Metric Bore
100
AcDbAttributeDefinition
  3

  2
NN
 70
     8
280
     0
  0
ATTDEF
  5
74
330
6E
100
AcDbEntity
  8
AM_6
100
AcDbText
 10
7.19
 20
-0.4475000000000001
 30
0.0
 40
0.5
  1
GT Normal Duty Piloted Flange Bearings
100
AcDbAttributeDefinition
  3

  2
NT
 70
     8
280
     0
  0
ATTDEF
  5
75
330
6E
100
AcDbEntity
  8
AM_6
100
AcDbText
 10
7.19
 20
-0.9475
 30
0.0
 40
0.5
  1
129735
100
AcDbAttributeDefinition
  3

  2
NB
 70
     8
280
     0
  0
ATTDEF
  5
76
330
6E
100
AcDbEntity
  8
AM_6
100
AcDbText
 10
7.19
 20
-1.4475
 30
0.0
 40
0.5
  1
$PN.
100
AcDbAttributeDefinition
  3

  2
NBSYN
 70
     8
280
     0
  0
ATTDEF
  5
77
330
6E
100
AcDbEntity
  8
AM_6
100
AcDbText
 10
7.19
 20
-1.9475
 30
0.0
 40
0.5
  1
129735
100
AcDbAttributeDefinition
  3

  2
LINA
 70
     8
280
     0
  0
ATTDEF
  5
78
330
6E
100
AcDbEntity
  8
AM_6
100
AcDbText
 10
7.19
 20
-2.4475
 30
0.0
 40
0.5
  1
206
100
AcDbAttributeDefinition
  3

  2
SERIES
 70
     8
280
     0
  0
ATTDEF
  5
79
330
6E
100
AcDbEntity
  8
AM_6
100
AcDbText
 10
7.19
 20
-2.9475
 30
0.0
 40
0.5
  1
1-1/8
100
AcDbAttributeDefinition
  3

  2
SS
 70
     8
280
     0
  0
ATTDEF
  5
7A
330
6E
100
AcDbEntity
  8
AM_6
100
AcDbText
 10
7.19
 20
-3.4475
 30
0.0
 40
0.5
  1
129735
100
AcDbAttributeDefinition
  3

  2
PN
 70
     8
280
     0
  0
ATTDEF
  5
7B
330
6E
100
AcDbEntity
  8
AM_6
100
AcDbText
 10
7.19
 20
-3.9475
 30
0.0
 40
0.5
  1
FC-GT-102
100
AcDbAttributeDefinition
  3

  2
DESCRIPTION
 70
     8
280
     0
  0
ATTDEF
  5
7C
330
6E
100
AcDbEntity
  8
AM_6
100
AcDbText
 10
7.19
 20
-4.4475
 30
0.0
 40
0.5
  1
129501
100
AcDbAttributeDefinition
  3

  2
PNSL
 70
     8
280
     0
  0
ATTDEF
  5
7D
330
6E
100
AcDbEntity
  8
AM_6
100
AcDbText
 10
7.19
 20
-4.9475
 30
0.0
 40
0.5
  1
FC-GT-06
100
AcDbAttributeDefinition
  3

  2
DESCRIPTIONSL
 70
     8
280
     0
  0
ATTDEF
  5
7E
330
6E
100
AcDbEntity
  8
AM_6
100
AcDbText
 10
7.19
 20
-5.4475
 30
0.0
 40
0.5
  1
136525
100
AcDbAttributeDefinition
  3

  2
PNA
 70
     8
280
     0
  0
ATTDEF
  5
7F
330
6E
100
AcDbEntity
  8
AM_6
100
AcDbText
 10
7.19
 20
-5.9475
 30
0.0
 40
0.5
  1
AN-GT-06-102-D
100
AcDbAttributeDefinition
  3

  2
DESCRIPTIONA
 70
     8
280
     0
  0
ATTDEF
  5
80
330
6E
100
AcDbEntity
  8
AM_6
100
AcDbText
 10
7.19
 20
-6.4475
 30
0.0
 40
0.5
  1
3.0
100
AcDbAttributeDefinition
  3

  2
W
 70
     8
280
     0
  0
ATTDEF
  5
81
330
6E
100
AcDbEntity
  8
AM_6
100
AcDbText
 10
7.19
 20
-6.9475
 30
0.0
 40
0.5
  1
1.61
100
AcDbAttributeDefinition
  3

  2
A
 70
     8
280
     0
  0
ATTDEF
  5
82
330
6E
100
AcDbEntity
  8
AM_6
100
AcDbText
 10
7.19
 20
-7.4475
 30
0.0
 40
0.5
  1
4.38
100
AcDbAttributeDefinition
  3

  2
B
 70
     8
280
     0
  0
ATTDEF
  5
83
330
6E
100
AcDbEntity
  8
AM_6
100
AcDbText
 10
7.19
 20
-7.9475
 30
0.0
 40
0.5
  1
1.68
100
AcDbAttributeDefinition
  3

  2
C
 70
     8
280
     0
  0
ATTDEF
  5
84
330
6E
100
AcDbEntity
  8
AM_6
100
AcDbText
 10
7.19
 20
-8.4475
 30
0.0
 40
0.5
  1
3.63
100
AcDbAttributeDefinition
  3

  2
D
 70
     8
280
     0
  0
ATTDEF
  5
85
330
6E
100
AcDbEntity
  8
AM_6
100
AcDbText
 10
7.19
 20
-8.9475
 30
0.0
 40
0.5
  1
0.25
100
AcDbAttributeDefinition
  3

  2
E
 70
     8
280
     0
  0
ATTDEF
  5
86
330
6E
100
AcDbEntity
  8
AM_6
100
AcDbText
 10
7.19
 20
-9.4475
 30
0.0
 40
0.5
  1
3/8
100
AcDbAttributeDefinition
  3

  2
F
 70
     8
280
     0
  0
ATTDEF
  5
87
330
6E
100
AcDbEntity
  8
AM_6
100
AcDbText
 10
7.19
 20
-9.9475
 30
0.0
 40
0.5
  1
1.43
100
AcDbAttributeDefinition
  3

  2
G
 70
     8
280
     0
  0
ATTDEF
  5
88
330
6E
100
AcDbEntity
  8
AM_6
100
AcDbText
 10
7.19
 20
-10.4475
 30
0.0
 40
0.5
  1
0.81
100
AcDbAttributeDefinition
  3

  2
H
 70
     8
280
     0
  0
ATTDEF
  5
89
330
6E
100
AcDbEntity
  8
AM_6
100
AcDbText
 10
7.19
 20
-10.9475
 30
0.0
 40
0.5
  1
3.000/2.998
100
AcDbAttributeDefinition
  3

  2
K
 70
     8
280
     0
  0
ATTDEF
  5
8A
330
6E
100
AcDbEntity
  8
AM_6
100
AcDbText
 10
7.19
 20
-11.4475
 30
0.0
 40
0.5
  1
2.08
100
AcDbAttributeDefinition
  3

  2
L
 70
     8
280
     0
  0
ATTDEF
  5
8B
330
6E
100
AcDbEntity
  8
AM_6
100
AcDbText
 10
7.19
 20
-11.9475
 30
0.0
 40
0.5
  1
1.46
100
AcDbAttributeDefinition
  3

  2
Z
 70
     8
280
     0
  0
ATTDEF
  5
8C
330
6E
100
AcDbEntity
  8
AM_6
100
AcDbText
 10
7.19
 20
-12.4475
 30
0.0
 40
0.5
  1
2250
100
AcDbAttributeDefinition
  3

  2
CAPS
 70
     8
280
     0
  0
ATTDEF
  5
8D
330
6E
100
AcDbEntity
  8
AM_6
100
AcDbText
 10
7.19
 20
-12.9475
 30
0.0
 40
0.5
  1
4368
100
AcDbAttributeDefinition
  3

  2
CAPD
 70
     8
280
     0
  0
ATTDEF
  5
8E
330
6E
100
AcDbEntity
  8
AM_6
100
AcDbText
 10
7.19
 20
-13.4475
 30
0.0
 40
0.5
  1
baldor
100
AcDbAttributeDefinition
  3

  2
COMPANY
 70
     8
280
     0
  0
INSERT
  5
90
330
6E
100
AcDbEntity
  8
0
100
AcDbBlockReference
  2
2_129519I_0_in_129735_4
 10
0.0
 20
0.0
 30
0.0
  0
INSERT
  5
DC
330
6E
100
AcDbEntity
  8
0
100
AcDbBlockReference
  2
3_136525_0_in_129735_4
 10
0.0
 20
0.0
 30
0.0
  0
INSERT
  5
130
330
6E
100
AcDbEntity
  8
0
100
AcDbBlockReference
  2
4_129735h_0_in_129735_4
 10
0.0
 20
0.0
 30
0.0
  0
ENDBLK
  5
71
330
6E
100
AcDbEntity
  8
0
100
AcDbBlockEnd
  0
BLOCK
  5
91
330
8F
100
AcDbEntity
  8
0
100
AcDbBlockBegin
  2
2_129519I_0_in_129735_4
 70
     2
 10
0.0
 20
0.0
 30
0.0
  3
2_129519I_0_in_129735_4
  1

  0
ATTDEF
  5
93
330
8F
100
AcDbEntity
  8
AM_6
100
AcDbText
 10
6.219944037690784
 20
-0.0819999999999999
 30
0.0
 40
0.5
  1
INS-GT B
100
AcDbAttributeDefinition
  3

  2
NN
 70
     8
280
     0
  0
ATTDEF
  5
94
330
8F
100
AcDbEntity
  8
AM_6
100
AcDbText
 10
6.219944037690784
 20
-0.5819999999999999
 30
0.0
 40
0.5
  1
GT Normal Duty Bearing Inserts
100
AcDbAttributeDefinition
  3

  2
NT
 70
     8
280
     0
  0
ATTDEF
  5
95
330
8F
100
AcDbEntity
  8
AM_6
100
AcDbText
 10
6.219944037690784
 20
-1.082
 30
0.0
 40
0.5
  1
129519I
100
AcDbAttributeDefinition
  3

  2
NB
 70
     8
280
     0
  0
ATTDEF
  5
96
330
8F
100
AcDbEntity
  8
AM_6
100
AcDbText
 10
6.219944037690784
 20
-1.582
 30
0.0
 40
0.5
  1
$PN.I
100
AcDbAttributeDefinition
  3

  2
NBSYN
 70
     8
280
     0
  0
ATTDEF
  5
97
330
8F
100
AcDbEntity
  8
AM_6
100
AcDbText
 10
6.219944037690784
 20
-2.082
 30
0.0
 40
0.5
  1
129519
100
AcDbAttributeDefinition
  3

  2
LINA
 70
     8
280
     0
  0
ATTDEF
  5
98
330
8F
100
AcDbEntity
  8
AM_6
100
AcDbText
 10
6.219944037690784
 20
-2.582
 30
0.0
 40
0.5
  1
206
100
AcDbAttributeDefinition
  3

  2
SERIES
 70
     8
280
     0
  0
ATTDEF
  5
99
330
8F
100
AcDbEntity
  8
AM_6
100
AcDbText
 10
6.219944037690784
 20
-3.082
 30
0.0
 40
0.5
  1
129519
100
AcDbAttributeDefinition
  3

  2
PN
 70
     8
280
     0
  0
ATTDEF
  5
9A
330
8F
100
AcDbEntity
  8
AM_6
100
AcDbText
 10
6.219944037690784
 20
-3.582
 30
0.0
 40
0.5
  1
INS-GT-06
100
AcDbAttributeDefinition
  3

  2
DESCRIPTION
 70
     8
280
     0
  0
ATTDEF
  5
9B
330
8F
100
AcDbEntity
  8
AM_6
100
AcDbText
 10
6.219944037690784
 20
-4.082
 30
0.0
 40
0.5
  1
1.61
100
AcDbAttributeDefinition
  3

  2
A
 70
     8
280
     0
  0
ATTDEF
  5
9C
330
8F
100
AcDbEntity
  8
AM_6
100
AcDbText
 10
6.219944037690784
 20
-4.582
 30
0.0
 40
0.5
  1
0.69
100
AcDbAttributeDefinition
  3

  2
C
 70
     8
280
     0
  0
ATTDEF
  5
9D
330
8F
100
AcDbEntity
  8
AM_6
100
AcDbText
 10
6.219944037690784
 20
-5.082
 30
0.0
 40
0.5
  1
2.4409
100
AcDbAttributeDefinition
  3

  2
D
 70
     8
280
     0
  0
ATTDEF
  5
9E
330
8F
100
AcDbEntity
  8
AM_6
100
AcDbText
 10
6.219944037690784
 20
-5.582
 30
0.0
 40
0.5
  1
0.16
100
AcDbAttributeDefinition
  3

  2
J
 70
     8
280
     0
  0
ATTDEF
  5
9F
330
8F
100
AcDbEntity
  8
AM_6
100
AcDbText
 10
6.219944037690784
 20
-6.082
 30
0.0
 40
0.5
  1
2.08
100
AcDbAttributeDefinition
  3

  2
L
 70
     8
280
     0
  0
ATTDEF
  5
A0
330
8F
100
AcDbEntity
  8
AM_6
100
AcDbText
 10
6.219944037690784
 20
-6.582
 30
0.0
 40
0.5
  1
#10 - 32 x 1/4
100
AcDbAttributeDefinition
  3

  2
N
 70
     8
280
     0
  0
ATTDEF
  5
A1
330
8F
100
AcDbEntity
  8
AM_6
100
AcDbText
 10
6.219944037690784
 20
-7.082
 30
0.0
 40
0.5
  1
0.52000
100
AcDbAttributeDefinition
  3

  2
W
 70
     8
280
     0
  0
ATTDEF
  5
A2
330
8F
100
AcDbEntity
  8
AM_6
100
AcDbText
 10
6.219944037690784
 20
-7.582
 30
0.0
 40
0.5
  1
1.13
100
AcDbAttributeDefinition
  3

  2
X
 70
     8
280
     0
  0
ATTDEF
  5
A3
330
8F
100
AcDbEntity
  8
AM_6
100
AcDbText
 10
6.219944037690784
 20
-8.082
 30
0.0
 40
0.5
  1
1.09
100
AcDbAttributeDefinition
  3

  2
Y
 70
     8
280
     0
  0
ATTDEF
  5
A4
330
8F
100
AcDbEntity
  8
AM_6
100
AcDbText
 10
6.219944037690784
 20
-8.582
 30
0.0
 40
0.5
  1
baldor
100
AcDbAttributeDefinition
  3

  2
COMPANY
 70
     8
280
     0
  0
LINE
  5
A7
330
8F
100
AcDbEntity
  8
AM_9
100
AcDbLine
 10
0.7758729564444445
 20
-1.397499282448565
 30
0.0
 11
0.7758729564444445
 21
-0.9737492824485647
 31
0.0
  0
LINE
  5
A8
330
8F
100
AcDbEntity
  8
AM_9
100
AcDbLine
 10
-0.7758729564444445
 20
-0.9737492824485647
 30
0.0
 11
-0.7758729564444445
 21
-1.397499282448565
 31
0.0
  0
LINE
  5
A9
330
8F
100
AcDbEntity
  8
AM_9
100
AcDbLine
 10
0.7758729564444445
 20
-0.9737492824485647
 30
0.0
 11
0.8070135275812623
 21
-0.0819999999999999
 31
0.0
  0
LINE
  5
AA
330
8F
100
AcDbEntity
  8
AM_9
100
AcDbLine
 10
-0.8070135275812623
 20
-0.0819999999999999
 30
0.0
 11
-0.7758729564444445
 21
-0.9737492824485647
 31
0.0
  0
LINE
  5
AB
330
8F
100
AcDbEntity
  8
AM_9
100
AcDbLine
 10
-0.7758729564444445
 20
-0.9737492824485647
 30
0.0
 11
0.7758729564444445
 21
-0.9737492824485647
 31
0.0
  0
LINE
  5
AC
330
8F
100
AcDbEntity
  8
AM_9
100
AcDbLine
 10
0.8501587004444445
 20
-1.256249282448564
 30
0.0
 11
0.8501587004444445
 21
-1.114999282448565
 31
0.0
  0
LINE
  5
AD
330
8F
100
AcDbEntity
  8
AM_9
100
AcDbLine
 10
-0.8501587004444445
 20
-1.114999282448565
 30
0.0
 11
-0.8501587004444445
 21
-1.256249282448564
 31
0.0
  0
LINE
  5
AE
330
8F
100
AcDbEntity
  8
AM_9
100
AcDbLine
 10
0.8968444444444446
 20
-1.397499282448565
 30
0.0
 11
0.9244444444444444
 21
-1.369899282448565
 31
0.0
  0
LINE
  5
AF
330
8F
100
AcDbEntity
  8
AM_9
100
AcDbLine
 10
-0.9244444444444444
 20
-1.369899282448565
 30
0.0
 11
-0.8968444444444446
 21
-1.397499282448565
 31
0.0
  0
LINE
  5
B0
330
8F
100
AcDbEntity
  8
AM_9
100
AcDbLine
 10
-0.8968444444444446
 20
-1.397499282448565
 30
0.0
 11
0.8968444444444446
 21
-1.397499282448565
 31
0.0
  0
LINE
  5
B1
330
8F
100
AcDbEntity
  8
AM_9
100
AcDbLine
 10
-0.8968444444444446
 20
-0.0819999999999999
 30
0.0
 11
-0.9244444444444444
 21
-0.1096
 31
0.0
  0
LINE
  5
B2
330
8F
100
AcDbEntity
  8
AM_9
100
AcDbLine
 10
0.9244444444444444
 20
-0.1096
 30
0.0
 11
0.8968444444444446
 21
-0.0819999999999999
 31
0.0
  0
LINE
  5
B3
330
8F
100
AcDbEntity
  8
AM_9
100
AcDbLine
 10
-0.8968444444444446
 20
-0.0819999999999999
 30
0.0
 11
0.8968444444444446
 21
-0.0819999999999999
 31
0.0
  0
LINE
  5
B4
330
8F
100
AcDbEntity
  8
AM_9
100
AcDbLine
 10
0.9244444444444444
 20
-1.369899282448565
 30
0.0
 11
0.9244444444444444
 21
-1.256249282448564
 31
0.0
  0
LINE
  5
B5
330
8F
100
AcDbEntity
  8
AM_9
100
AcDbLine
 10
-0.9244444444444444
 20
-1.256249282448564
 30
0.0
 11
-0.9244444444444444
 21
-1.369899282448565
 31
0.0
  0
LINE
  5
B6
330
8F
100
AcDbEntity
  8
AM_9
100
AcDbLine
 10
-0.9244444444444444
 20
-1.369899282448565
 30
0.0
 11
0.9244444444444444
 21
-1.369899282448565
 31
0.0
  0
LINE
  5
B7
330
8F
100
AcDbEntity
  8
AM_9
100
AcDbLine
 10
-0.9244444444444444
 20
-1.256249282448564
 30
0.0
 11
0.9244444444444444
 21
-1.256249282448564
 31
0.0
  0
LINE
  5
B8
330
8F
100
AcDbEntity
  8
AM_9
100
AcDbLine
 10
0.9244444444444447
 20
-1.06
 30
0.0
 11
0.9244444444444446
 21
-0.8949999999999999
 31
0.0
  0
LINE
  5
B9
330
8F
100
AcDbEntity
  8
AM_9
100
AcDbLine
 10
-0.9244444444444446
 20
-0.8949999999999999
 30
0.0
 11
-0.9244444444444446
 21
-1.06
 31
0.0
  0
LINE
  5
BA
330
8F
100
AcDbEntity
  8
AM_9
100
AcDbLine
 10
0.9244444444444446
 20
-0.2050000000000001
 30
0.0
 11
0.9244444444444446
 21
-0.1096
 31
0.0
  0
LINE
  5
BB
330
8F
100
AcDbEntity
  8
AM_9
100
AcDbLine
 10
-0.9244444444444446
 20
-0.1096
 30
0.0
 11
-0.9244444444444446
 21
-0.2050000000000001
 31
0.0
  0
LINE
  5
BC
330
8F
100
AcDbEntity
  8
AM_9
100
AcDbLine
 10
-0.9244444444444446
 20
-0.1096
 30
0.0
 11
0.9244444444444444
 21
-0.1096
 31
0.0
  0
LINE
  5
BD
330
8F
100
AcDbEntity
  8
AM_9
100
AcDbLine
 10
1.15145
 20
-0.7420000000000002
 30
0.0
 11
1.15145
 21
-0.6779999999999999
 31
0.0
  0
LINE
  5
BE
330
8F
100
AcDbEntity
  8
AM_9
100
AcDbLine
 10
-1.15145
 20
-0.6779999999999999
 30
0.0
 11
-1.15145
 21
-0.7420000000000002
 31
0.0
  0
LINE
  5
BF
330
8F
100
AcDbEntity
  8
AM_9
100
AcDbLine
 10
-1.132840882082556
 20
-0.8949999999999999
 30
0.0
 11
1.13284088208356
 21
-0.8949999999999999
 31
0.0
  0
ARC
  5
C0
330
8F
100
AcDbEntity
  8
AM_9
100
AcDbCircle
 10
1.132840882083559
 20
-0.8673999999999994
 30
0.0
 40
0.0276000000000005
100
AcDbArc
 50
270.0
 51
338.5875110795948
  0
ARC
  5
C1
330
8F
100
AcDbEntity
  8
AM_9
100
AcDbCircle
 10
-1.132840882083559
 20
-0.8673999999999994
 30
0.0
 40
0.0276000000000006
100
AcDbArc
 50
201.4124889204052
 51
270.0
  0
LINE
  5
C2
330
8F
100
AcDbEntity
  8
AM_9
100
AcDbLine
 10
-1.132840882082555
 20
-0.2050000000000001
 30
0.0
 11
1.132840882083558
 21
-0.2050000000000001
 31
0.0
  0
ARC
  5
C3
330
8F
100
AcDbEntity
  8
AM_9
100
AcDbCircle
 10
1.132840882083558
 20
-0.2326000000000006
 30
0.0
 40
0.0276000000000005
100
AcDbArc
 50
21.41247796226308
 51
90.0
  0
ARC
  5
C4
330
8F
100
AcDbEntity
  8
AM_9
100
AcDbCircle
 10
-1.132840882083558
 20
-0.2326000000000006
 30
0.0
 40
0.0276000000000006
100
AcDbArc
 50
90.0
 51
158.5875220377369
  0
ARC
  5
C5
330
8F
100
AcDbEntity
  8
AM_9
100
AcDbCircle
 10
0.3234499999998486
 20
-0.5499999999999515
 30
0.0
 40
0.8970000000001583
100
AcDbArc
 50
338.5875322800853
 51
347.08777816779
  0
ARC
  5
C6
330
8F
100
AcDbEntity
  8
AM_9
100
AcDbCircle
 10
-0.3234499999998487
 20
-0.5499999999999516
 30
0.0
 40
0.8970000000001583
100
AcDbArc
 50
192.91222183221
 51
201.4124677199148
  0
LINE
  5
C7
330
8F
100
AcDbEntity
  8
AM_9
100
AcDbLine
 10
-1.158535826874395
 20
-0.8774762002856205
 30
0.0
 11
1.158535826874395
 21
-0.8774762002856205
 31
0.0
  0
LINE
  5
C8
330
8F
100
AcDbEntity
  8
AM_9
100
AcDbLine
 10
-1.191042531084768
 20
-0.7420000000000002
 30
0.0
 11
1.191042531088183
 21
-0.7420000000000002
 31
0.0
  0
ARC
  5
C9
330
8F
100
AcDbEntity
  8
AM_9
100
AcDbCircle
 10
1.191042531088183
 20
-0.7489
 30
0.0
 40
0.0069
100
AcDbArc
 50
347.0877781677898
 51
90.0
  0
ARC
  5
CA
330
8F
100
AcDbEntity
  8
AM_9
100
AcDbCircle
 10
-1.191042531088183
 20
-0.7489
 30
0.0
 40
0.0068999999999998
100
AcDbArc
 50
90.0
 51
192.9122218322102
  0
LINE
  5
CB
330
8F
100
AcDbEntity
  8
AM_9
100
AcDbLine
 10
-1.197768054584991
 20
-0.7504418604651164
 30
0.0
 11
1.197768054584991
 21
-0.7504418604651164
 31
0.0
  0
LINE
  5
CC
330
8F
100
AcDbEntity
  8
AM_9
100
AcDbLine
 10
0.1078099053705178
 20
-0.6779999999999999
 30
0.0
 11
1.205273565119463
 21
-0.6780000000000002
 31
0.0
  0
LINE
  5
CD
330
8F
100
AcDbEntity
  8
AM_9
100
AcDbLine
 10
-0.1037669290332144
 20
-0.6779999999999999
 30
0.0
 11
0.1037669290332144
 21
-0.6779999999999999
 31
0.0
  0
LINE
  5
CE
330
8F
100
AcDbEntity
  8
AM_9
100
AcDbLine
 10
-1.205273565119052
 20
-0.6780000000000002
 30
0.0
 11
-0.1078099053705178
 21
-0.6779999999999999
 31
0.0
  0
ARC
  5
CF
330
8F
100
AcDbEntity
  8
AM_9
100
AcDbCircle
 10
1.205273565119463
 20
-0.6711000000000004
 30
0.0
 40
0.0068999999999998
100
AcDbArc
 50
270.0
 51
352.1805361994643
  0
ARC
  5
D0
330
8F
100
AcDbEntity
  8
AM_9
100
AcDbCircle
 10
-1.205273565119463
 20
-0.6711000000000004
 30
0.0
 40
0.0068999999999999
100
AcDbArc
 50
187.8194638005357
 51
270.0
  0
ARC
  5
D1
330
8F
100
AcDbEntity
  8
AM_9
100
AcDbCircle
 10
0.3234499999999846
 20
-0.5500000000000023
 30
0.0
 40
0.897000000000015
100
AcDbArc
 50
352.1805361994586
 51
21.4124673827416
  0
ARC
  5
D2
330
8F
100
AcDbEntity
  8
AM_9
100
AcDbCircle
 10
-0.3234499999999997
 20
-0.5500000000000005
 30
0.0
 40
0.8970000000000004
100
AcDbArc
 50
158.5875326172582
 51
187.8194638005417
  0
LINE
  5
D3
330
8F
100
AcDbEntity
  8
AM_9
100
AcDbLine
 10
0.1089112315798012
 20
-0.672038759689922
 30
0.0
 11
1.212109406709537
 21
-0.6720387596899221
 31
0.0
  0
LINE
  5
D4
330
8F
100
AcDbEntity
  8
AM_9
100
AcDbLine
 10
-0.1049107059799583
 20
-0.672038759689922
 30
0.0
 11
0.1049107059799583
 21
-0.672038759689922
 31
0.0
  0
LINE
  5
D5
330
8F
100
AcDbEntity
  8
AM_9
100
AcDbLine
 10
-1.212109406709537
 20
-0.6720387596899221
 30
0.0
 11
-0.1089112315798012
 21
-0.672038759689922
 31
0.0
  0
LINE
  5
D6
330
8F
100
AcDbEntity
  8
AM_9
100
AcDbLine
 10
-1.158535828801523
 20
-0.2225238046286834
 30
0.0
 11
1.158535828801524
 21
-0.2225238046286834
 31
0.0
  0
LINE
  5
D8
330
8F
100
AcDbEntity
  8
AM_4
100
AcDbLine
 10
0.9244444444444446
 20
-1.114999282448565
 30
0.0
 11
0.9244444444444447
 21
-1.06
 31
0.0
  0
LINE
  5
D9
330
8F
100
AcDbEntity
  8
AM_4
100
AcDbLine
 10
-0.9244444444444446
 20
-1.06
 30
0.0
 11
-0.9244444444444446
 21
-1.114999282448565
 31
0.0
  0
LINE
  5
DA
330
8F
100
AcDbEntity
  8
AM_4
100
AcDbLine
 10
-0.9244444444444446
 20
-1.114999282448565
 30
0.0
 11
0.9244444444444444
 21
-1.114999282448565
 31
0.0
  0
ENDBLK
  5
92
330
8F
100
AcDbEntity
  8
0
100
AcDbBlockEnd
  0
BLOCK
  5
DD
330
DB
100
AcDbEntity
  8
0
100
AcDbBlockBegin
  2
3_136525_0_in_129735_4
 70
     2
 10
0.0
 20
0.0
 30
0.0
  3
3_136525_0_in_129735_4
  1

  0
ATTDEF
  5
DF
330
DB
100
AcDbEntity
  8
AM_6
100
AcDbText
 10
6.040000000000001
 20
0.0524999999999999
 30
0.0
 40
0.5
  1
Grip Tight Normal Duty Adapter and Nut Inch Bore D
100
AcDbAttributeDefinition
  3

  2
NN
 70
     8
280
     0
  0
ATTDEF
  5
E0
330
DB
100
AcDbEntity
  8
AM_6
100
AcDbText
 10
6.040000000000001
 20
-0.4475000000000001
 30
0.0
 40
0.5
  1
GT and GTM Adapter & Lock Nut Assemblies
100
AcDbAttributeDefinition
  3

  2
NT
 70
     8
280
     0
  0
ATTDEF
  5
E1
330
DB
100
AcDbEntity
  8
AM_6
100
AcDbText
 10
6.040000000000001
 20
-0.9475
 30
0.0
 40
0.5
  1
136525
100
AcDbAttributeDefinition
  3

  2
NB
 70
     8
280
     0
  0
ATTDEF
  5
E2
330
DB
100
AcDbEntity
  8
AM_6
100
AcDbText
 10
6.040000000000001
 20
-1.4475
 30
0.0
 40
0.5
  1
$PN.
100
AcDbAttributeDefinition
  3

  2
NBSYN
 70
     8
280
     0
  0
ATTDEF
  5
E3
330
DB
100
AcDbEntity
  8
AM_6
100
AcDbText
 10
6.040000000000001
 20
-1.9475
 30
0.0
 40
0.5
  1
136525
100
AcDbAttributeDefinition
  3

  2
LINA
 70
     8
280
     0
  0
ATTDEF
  5
E4
330
DB
100
AcDbEntity
  8
AM_6
100
AcDbText
 10
6.040000000000001
 20
-2.4475
 30
0.0
 40
0.5
  1
206
100
AcDbAttributeDefinition
  3

  2
SERIES
 70
     8
280
     0
  0
ATTDEF
  5
E5
330
DB
100
AcDbEntity
  8
AM_6
100
AcDbText
 10
6.040000000000001
 20
-2.9475
 30
0.0
 40
0.5
  1
1-1/8
100
AcDbAttributeDefinition
  3

  2
SS
 70
     8
280
     0
  0
ATTDEF
  5
E6
330
DB
100
AcDbEntity
  8
AM_6
100
AcDbText
 10
6.040000000000001
 20
-3.4475
 30
0.0
 40
0.5
  1
136525
100
AcDbAttributeDefinition
  3

  2
PN
 70
     8
280
     0
  0
ATTDEF
  5
E7
330
DB
100
AcDbEntity
  8
AM_6
100
AcDbText
 10
6.040000000000001
 20
-3.9475
 30
0.0
 40
0.5
  1
AN-GT-06-102-D
100
AcDbAttributeDefinition
  3

  2
DESCRIPTION
 70
     8
280
     0
  0
ATTDEF
  5
E8
330
DB
100
AcDbEntity
  8
AM_6
100
AcDbText
 10
6.040000000000001
 20
-4.4475
 30
0.0
 40
0.5
  1
1.61
100
AcDbAttributeDefinition
  3

  2
A
 70
     8
280
     0
  0
ATTDEF
  5
E9
330
DB
100
AcDbEntity
  8
AM_6
100
AcDbText
 10
6.040000000000001
 20
-4.9475
 30
0.0
 40
0.5
  1
0.69
100
AcDbAttributeDefinition
  3

  2
C
 70
     8
280
     0
  0
ATTDEF
  5
EA
330
DB
100
AcDbEntity
  8
AM_6
100
AcDbText
 10
6.040000000000001
 20
-5.4475
 30
0.0
 40
0.5
  1
2.4409
100
AcDbAttributeDefinition
  3

  2
D
 70
     8
280
     0
  0
ATTDEF
  5
EB
330
DB
100
AcDbEntity
  8
AM_6
100
AcDbText
 10
6.040000000000001
 20
-5.9475
 30
0.0
 40
0.5
  1
0.16
100
AcDbAttributeDefinition
  3

  2
J
 70
     8
280
     0
  0
ATTDEF
  5
EC
330
DB
100
AcDbEntity
  8
AM_6
100
AcDbText
 10
6.040000000000001
 20
-6.4475
 30
0.0
 40
0.5
  1
2.08
100
AcDbAttributeDefinition
  3

  2
L
 70
     8
280
     0
  0
ATTDEF
  5
ED
330
DB
100
AcDbEntity
  8
AM_6
100
AcDbText
 10
6.040000000000001
 20
-6.9475
 30
0.0
 40
0.5
  1
10 - 32 x 1/4
100
AcDbAttributeDefinition
  3

  2
N
 70
     8
280
     0
  0
ATTDEF
  5
EE
330
DB
100
AcDbEntity
  8
AM_6
100
AcDbText
 10
6.040000000000001
 20
-7.4475
 30
0.0
 40
0.5
  1
0.52
100
AcDbAttributeDefinition
  3

  2
W
 70
     8
280
     0
  0
ATTDEF
  5
EF
330
DB
100
AcDbEntity
  8
AM_6
100
AcDbText
 10
6.040000000000001
 20
-7.9475
 30
0.0
 40
0.5
  1
1.13
100
AcDbAttributeDefinition
  3

  2
X
 70
     8
280
     0
  0
ATTDEF
  5
F0
330
DB
100
AcDbEntity
  8
AM_6
100
AcDbText
 10
6.040000000000001
 20
-8.4475
 30
0.0
 40
0.5
  1
1.09
100
AcDbAttributeDefinition
  3

  2
Y
 70
     8
280
     0
  0
ATTDEF
  5
F1
330
DB
100
AcDbEntity
  8
AM_6
100
AcDbText
 10
6.040000000000001
 20
-8.9475
 30
0.0
 40
0.5
  1
baldor
100
AcDbAttributeDefinition
  3

  2
COMPANY
 70
     8
280
     0
  0
LINE
  5
F2
330
DB
100
AcDbEntity
  8
AM_9
100
AcDbLine
 10
0.08
 20
-1.115
 30
0.0
 11
0.08
 21
-1.68
 31
0.0
  0
LINE
  5
F3
330
DB
100
AcDbEntity
  8
AM_9
100
AcDbLine
 10
-0.08
 20
-1.115
 30
0.0
 11
-0.08
 21
-1.68
 31
0.0
  0
LINE
  5
F4
330
DB
100
AcDbEntity
  8
AM_9
100
AcDbLine
 10
0.7758730158730159
 20
-1.3975
 30
0.0
 11
0.775873015873016
 21
-1.68
 31
0.0
  0
LINE
  5
F5
330
DB
100
AcDbEntity
  8
AM_9
100
AcDbLine
 10
0.7758730158730159
 20
-1.64
 30
0.0
 11
-0.775873015873016
 21
-1.64
 31
0.0
  0
LINE
  5
F6
330
DB
100
AcDbEntity
  8
AM_9
100
AcDbLine
 10
-0.8579977728257462
 20
-1.6524
 30
0.0
 11
-0.9379977728257461
 21
-1.6524
 31
0.0
  0
LINE
  5
F7
330
DB
100
AcDbEntity
  8
AM_9
100
AcDbLine
 10
-0.8579977728257462
 20
-1.1426
 30
0.0
 11
-0.9379977728257465
 21
-1.1426
 31
0.0
  0
LINE
  5
F8
330
DB
100
AcDbEntity
  8
AM_9
100
AcDbLine
 10
0.937997772825746
 20
-1.1426
 30
0.0
 11
0.8579977728257461
 21
-1.1426
 31
0.0
  0
LINE
  5
F9
330
DB
100
AcDbEntity
  8
AM_9
100
AcDbLine
 10
0.937997772825746
 20
-1.6524
 30
0.0
 11
0.8579977728257456
 21
-1.6524
 31
0.0
  0
LINE
  5
FA
330
DB
100
AcDbEntity
  8
AM_9
100
AcDbLine
 10
-0.8006218394269431
 20
-1.115
 30
0.0
 11
-0.8006218394269431
 21
-1.68
 31
0.0
  0
LINE
  5
FB
330
DB
100
AcDbEntity
  8
AM_9
100
AcDbLine
 10
0.8006218394269428
 20
-1.115
 30
0.0
 11
0.8006218394269428
 21
-1.68
 31
0.0
  0
LINE
  5
FC
330
DB
100
AcDbEntity
  8
AM_9
100
AcDbLine
 10
0.5602733707753743
 20
-0.03
 30
0.0
 11
0.5602733707753743
 21
-1.64
 31
0.0
  0
LINE
  5
FD
330
DB
100
AcDbEntity
  8
AM_9
100
AcDbLine
 10
-0.5625
 20
-0.0300000000000001
 30
0.0
 11
-0.5625
 21
-1.64
 31
0.0
  0
LINE
  5
FE
330
DB
100
AcDbEntity
  8
AM_9
100
AcDbLine
 10
0.7742602513108167
 20
-1.397499282448565
 30
0.0
 11
0.7742602513108167
 21
-0.97375
 31
0.0
  0
LINE
  5
FF
330
DB
100
AcDbEntity
  8
AM_9
100
AcDbLine
 10
-0.7758730158730158
 20
-0.97375
 30
0.0
 11
-0.7758730158730158
 21
-1.397499282448565
 31
0.0
  0
LINE
  5
100
330
DB
100
AcDbEntity
  8
AM_9
100
AcDbLine
 10
-0.775873015873016
 20
-1.64
 30
0.0
 11
-0.775873015873016
 21
-1.68
 31
0.0
  0
LINE
  5
101
330
DB
100
AcDbEntity
  8
AM_9
100
AcDbLine
 10
0.7742602513108167
 20
-0.97375
 30
0.0
 11
0.8072825696494199
 21
-0.03
 31
0.0
  0
LINE
  5
102
330
DB
100
AcDbEntity
  8
AM_9
100
AcDbLine
 10
-0.8088294920808529
 20
-0.03
 30
0.0
 11
-0.7758730158730159
 21
-0.97375
 31
0.0
  0
LINE
  5
103
330
DB
100
AcDbEntity
  8
AM_9
100
AcDbLine
 10
-0.7758730158730159
 20
-0.97375
 30
0.0
 11
0.7742602513108167
 21
-0.97375
 31
0.0
  0
LINE
  5
104
330
DB
100
AcDbEntity
  8
AM_9
100
AcDbLine
 10
-0.8088294920808529
 20
-0.03
 30
0.0
 11
0.8072825696494199
 21
-0.03
 31
0.0
  0
LINE
  5
105
330
DB
100
AcDbEntity
  8
AM_9
100
AcDbLine
 10
0.8501587301587303
 20
-1.25625
 30
0.0
 11
0.8501587301587303
 21
-1.115
 31
0.0
  0
LINE
  5
106
330
DB
100
AcDbEntity
  8
AM_9
100
AcDbLine
 10
-0.8501587301587303
 20
-1.115
 30
0.0
 11
-0.8501587301587303
 21
-1.25625
 31
0.0
  0
LINE
  5
107
330
DB
100
AcDbEntity
  8
AM_9
100
AcDbLine
 10
0.9244444444444446
 20
-1.3975
 30
0.0
 11
0.9244444444444446
 21
-1.25625
 31
0.0
  0
LINE
  5
108
330
DB
100
AcDbEntity
  8
AM_9
100
AcDbLine
 10
-0.9244444444444446
 20
-1.25625
 30
0.0
 11
-0.9244444444444446
 21
-1.3975
 31
0.0
  0
LINE
  5
109
330
DB
100
AcDbEntity
  8
AM_9
100
AcDbLine
 10
-0.9244444444444446
 20
-1.25625
 30
0.0
 11
0.9244444444444446
 21
-1.25625
 31
0.0
  0
LINE
  5
10A
330
DB
100
AcDbEntity
  8
AM_9
100
AcDbLine
 10
-0.9244444444444446
 20
-1.3975
 30
0.0
 11
0.9244444444444446
 21
-1.3975
 31
0.0
  0
LINE
  5
10D
330
DB
100
AcDbEntity
  8
AM_7
100
AcDbLine
 10
-0.0760724999999998
 20
-1.551250146050292
 30
0.0
 11
0.0760724999999998
 21
-1.551250146050292
 31
0.0
  0
LINE
  5
10E
330
DB
100
AcDbEntity
  8
AM_7
100
AcDbLine
 10
0.0
 20
-1.7625
 30
0.0
 11
0.0
 21
0.0524999999999999
 31
0.0
  0
LINE
  5
10F
330
DB
100
AcDbEntity
  8
AM_4
100
AcDbLine
 10
-1.04
 20
-1.6524
 30
0.0
 11
-1.0124
 21
-1.68
 31
0.0
  0
LINE
  5
110
330
DB
100
AcDbEntity
  8
AM_4
100
AcDbLine
 10
-0.9379977728257461
 20
-1.6524
 30
0.0
 11
-0.9140224939897142
 21
-1.68
 31
0.0
  0
LINE
  5
111
330
DB
100
AcDbEntity
  8
AM_4
100
AcDbLine
 10
-0.9379977728257465
 20
-1.1426
 30
0.0
 11
-0.9379977728257461
 21
-1.6524
 31
0.0
  0
LINE
  5
112
330
DB
100
AcDbEntity
  8
AM_4
100
AcDbLine
 10
-1.04
 20
-1.1426
 30
0.0
 11
-1.04
 21
-1.6524
 31
0.0
  0
LINE
  5
113
330
DB
100
AcDbEntity
  8
AM_4
100
AcDbLine
 10
-1.04
 20
-1.6524
 30
0.0
 11
-0.9379977728257461
 21
-1.6524
 31
0.0
  0
LINE
  5
114
330
DB
100
AcDbEntity
  8
AM_4
100
AcDbLine
 10
-0.9140224939897147
 20
-1.115
 30
0.0
 11
-0.9379977728257465
 21
-1.1426
 31
0.0
  0
LINE
  5
115
330
DB
100
AcDbEntity
  8
AM_4
100
AcDbLine
 10
-1.0124
 20
-1.115
 30
0.0
 11
-1.04
 21
-1.1426
 31
0.0
  0
LINE
  5
116
330
DB
100
AcDbEntity
  8
AM_4
100
AcDbLine
 10
-1.04
 20
-1.1426
 30
0.0
 11
-0.9379977728257465
 21
-1.1426
 31
0.0
  0
LINE
  5
117
330
DB
100
AcDbEntity
  8
AM_4
100
AcDbLine
 10
1.04
 20
-1.1426
 30
0.0
 11
1.0124
 21
-1.115
 31
0.0
  0
LINE
  5
118
330
DB
100
AcDbEntity
  8
AM_4
100
AcDbLine
 10
0.937997772825746
 20
-1.1426
 30
0.0
 11
1.04
 21
-1.1426
 31
0.0
  0
LINE
  5
119
330
DB
100
AcDbEntity
  8
AM_4
100
AcDbLine
 10
1.04
 20
-1.6524
 30
0.0
 11
1.04
 21
-1.1426
 31
0.0
  0
LINE
  5
11A
330
DB
100
AcDbEntity
  8
AM_4
100
AcDbLine
 10
0.937997772825746
 20
-1.6524
 30
0.0
 11
0.937997772825746
 21
-1.1426
 31
0.0
  0
LINE
  5
11B
330
DB
100
AcDbEntity
  8
AM_4
100
AcDbLine
 10
0.937997772825746
 20
-1.1426
 30
0.0
 11
0.9140224939897144
 21
-1.115
 31
0.0
  0
LINE
  5
11C
330
DB
100
AcDbEntity
  8
AM_4
100
AcDbLine
 10
-1.0124
 20
-1.68
 30
0.0
 11
1.0124
 21
-1.68
 31
0.0
  0
LINE
  5
11D
330
DB
100
AcDbEntity
  8
AM_4
100
AcDbLine
 10
0.937997772825746
 20
-1.6524
 30
0.0
 11
1.04
 21
-1.6524
 31
0.0
  0
LINE
  5
11E
330
DB
100
AcDbEntity
  8
AM_4
100
AcDbLine
 10
0.914022493989714
 20
-1.68
 30
0.0
 11
0.937997772825746
 21
-1.6524
 31
0.0
  0
LINE
  5
11F
330
DB
100
AcDbEntity
  8
AM_4
100
AcDbLine
 10
1.0124
 20
-1.68
 30
0.0
 11
1.04
 21
-1.6524
 31
0.0
  0
LINE
  5
120
330
DB
100
AcDbEntity
  8
AM_4
100
AcDbLine
 10
-0.880621839426943
 20
-1.115
 30
0.0
 11
-0.880621839426943
 21
-1.68
 31
0.0
  0
LINE
  5
121
330
DB
100
AcDbEntity
  8
AM_4
100
AcDbLine
 10
1.0124
 20
-1.115
 30
0.0
 11
-1.0124
 21
-1.115
 31
0.0
  0
LINE
  5
122
330
DB
100
AcDbEntity
  8
AM_4
100
AcDbLine
 10
0.8806218394269427
 20
-1.115
 30
0.0
 11
0.8806218394269427
 21
-1.68
 31
0.0
  0
LINE
  5
123
330
DB
100
AcDbEntity
  8
AM_4
100
AcDbLine
 10
-0.8340224939897143
 20
-1.68
 30
0.0
 11
-0.8579977728257462
 21
-1.6524
 31
0.0
  0
LINE
  5
124
330
DB
100
AcDbEntity
  8
AM_4
100
AcDbLine
 10
0.8579977728257456
 20
-1.6524
 30
0.0
 11
0.8340224939897138
 21
-1.68
 31
0.0
  0
CIRCLE
  5
125
330
DB
100
AcDbEntity
  8
AM_4
100
AcDbCircle
 10
0.0
 20
-1.551250146050292
 30
0.0
 40
0.0724499999999998
  0
LINE
  5
126
330
DB
100
AcDbEntity
  8
AM_4
100
AcDbLine
 10
-0.8579977728257462
 20
-1.1426
 30
0.0
 11
-0.8340224939897147
 21
-1.115
 31
0.0
  0
LINE
  5
127
330
DB
100
AcDbEntity
  8
AM_4
100
AcDbLine
 10
0.8340224939897142
 20
-1.115
 30
0.0
 11
0.8579977728257461
 21
-1.1426
 31
0.0
  0
LINE
  5
128
330
DB
100
AcDbEntity
  8
AM_4
100
AcDbLine
 10
-0.8579977728257462
 20
-1.6524
 30
0.0
 11
-0.8579977728257462
 21
-1.1426
 31
0.0
  0
LINE
  5
129
330
DB
100
AcDbEntity
  8
AM_4
100
AcDbLine
 10
-0.8579977728257462
 20
-1.6524
 30
0.0
 11
0.8579977728257456
 21
-1.6524
 31
0.0
  0
LINE
  5
12A
330
DB
100
AcDbEntity
  8
AM_4
100
AcDbLine
 10
0.8579977728257461
 20
-1.1426
 30
0.0
 11
0.8579977728257456
 21
-1.6524
 31
0.0
  0
LINE
  5
12B
330
DB
100
AcDbEntity
  8
AM_4
100
AcDbLine
 10
-0.8579977728257462
 20
-1.1426
 30
0.0
 11
0.8579977728257461
 21
-1.1426
 31
0.0
  0
LWPOLYLINE
  5
12C
330
DB
100
AcDbEntity
  8
AM_4
100
AcDbPolyline
 90
       39
 70
     0
 43
0.0
 10
0.0657489115293996
 20
-1.616909351741798
 10
0.0558255099070596
 20
-1.62625598653239
 10
0.044356397302556
 20
-1.634187478584553
 10
0.0305729119661578
 20
-1.640721365483818
 10
0.0153964658341615
 20
-1.64487870436117
 10
0.0007705959162841
 20
-1.646246735141751
 10
-0.0143158465282658
 20
-1.645065627520415
 10
-0.0283011121539939
 20
-1.641533133739622
 10
-0.0418808218663275
 20
-1.635579393546564
 10
-0.054145267341711
 20
-1.627586881615714
 10
-0.0652468637118682
 20
-1.617452759866937
 10
-0.0746723495165923
 20
-1.605529466164805
 10
-0.0822527102972581
 20
-1.591884269271932
 10
-0.0876008433749334
 20
-1.576989658638989
 10
-0.0905298159906508
 20
-1.560990390041146
 10
-0.0907957867506099
 20
-1.544738069890677
 10
-0.0882887225675925
 20
-1.52820942352022
 10
-0.083161196837098
 20
-1.512681216002138
 10
-0.0752374571150157
 20
-1.497827381946092
 10
-0.0653328179389404
 20
-1.485139956975509
 10
-0.0529965347646204
 20
-1.474039599937209
 10
-0.0398131357637696
 20
-1.465835564119798
 10
-0.0249331871023092
 20
-1.459890249087513
 10
-0.0103786975629332
 20
-1.456870881870454
 10
0.004936711808719
 20
-1.45639023463947
 10
0.0192533989272171
 20
-1.458403637869275
 10
0.0334281505768109
 20
-1.462900006392282
 10
0.0463564280584334
 20
-1.469514248334897
 10
0.0583548447163095
 20
-1.47837291065816
 10
0.068820974802196
 20
-1.489115212149251
 10
0.0776519908906383
 20
-1.501732229860878
 10
0.0844347553209237
 20
-1.515820573679165
 10
0.0889642450741156
 20
-1.531235248696223
 10
0.0909299703994284
 20
-1.547265159058996
 10
0.0902041640324278
 20
-1.563855779305639
 10
0.0867806422587519
 20
-1.579853577294506
 10
0.0805278252421258
 20
-1.595485569254687
 10
0.073943743303014
 20
-1.60660505802141
 10
0.0657489116330436
 20
-1.616909351806309
  0
ARC
  5
12E
330
DB
100
AcDbEntity
  8
AM_5
100
AcDbCircle
 10
0.0000000000000001
 20
-1.551250146050292
 30
0.0
 40
0.095
100
AcDbArc
 50
75.0000000000001
 51
14.99999999999997
  0
ENDBLK
  5
DE
330
DB
100
AcDbEntity
  8
0
100
AcDbBlockEnd
  0
BLOCK
  5
131
330
12F
100
AcDbEntity
  8
0
100
AcDbBlockBegin
  2
4_129735h_0_in_129735_4
 70
     2
 10
0.0
 20
0.0
 30
0.0
  3
4_129735h_0_in_129735_4
  1

  0
ATTDEF
  5
133
330
12F
100
AcDbEntity
  8
AM_6
100
AcDbText
 10
7.19
 20
0.0
 30
0.0
 40
0.5
  1
FC-GT - Inch - Housing
100
AcDbAttributeDefinition
  3

  2
NN
 70
     8
280
     0
  0
ATTDEF
  5
134
330
12F
100
AcDbEntity
  8
AM_6
100
AcDbText
 10
7.19
 20
-0.5
 30
0.0
 40
0.5
  1
GT Normal Duty Piloted Flange Bearings
100
AcDbAttributeDefinition
  3

  2
NT
 70
     8
280
     0
  0
ATTDEF
  5
135
330
12F
100
AcDbEntity
  8
AM_6
100
AcDbText
 10
7.19
 20
-1.0
 30
0.0
 40
0.5
  1
129735h
100
AcDbAttributeDefinition
  3

  2
NB
 70
     8
280
     0
  0
ATTDEF
  5
136
330
12F
100
AcDbEntity
  8
AM_6
100
AcDbText
 10
7.19
 20
-1.5
 30
0.0
 40
0.5
  1
$PN.h
100
AcDbAttributeDefinition
  3

  2
NBSYN
 70
     8
280
     0
  0
ATTDEF
  5
137
330
12F
100
AcDbEntity
  8
AM_6
100
AcDbText
 10
7.19
 20
-2.0
 30
0.0
 40
0.5
  1
129735
100
AcDbAttributeDefinition
  3

  2
LINA
 70
     8
280
     0
  0
ATTDEF
  5
138
330
12F
100
AcDbEntity
  8
AM_6
100
AcDbText
 10
7.19
 20
-2.5
 30
0.0
 40
0.5
  1
206
100
AcDbAttributeDefinition
  3

  2
SERIES
 70
     8
280
     0
  0
ATTDEF
  5
139
330
12F
100
AcDbEntity
  8
AM_6
100
AcDbText
 10
7.19
 20
-3.0
 30
0.0
 40
0.5
  1
1-1/8
100
AcDbAttributeDefinition
  3

  2
SS
 70
     8
280
     0
  0
ATTDEF
  5
13A
330
12F
100
AcDbEntity
  8
AM_6
100
AcDbText
 10
7.19
 20
-3.5
 30
0.0
 40
0.5
  1
129735
100
AcDbAttributeDefinition
  3

  2
PN
 70
     8
280
     0
  0
ATTDEF
  5
13B
330
12F
100
AcDbEntity
  8
AM_6
100
AcDbText
 10
7.19
 20
-4.0
 30
0.0
 40
0.5
  1
FC-GT-102
100
AcDbAttributeDefinition
  3

  2
DESCRIPTION
 70
     8
280
     0
  0
ATTDEF
  5
13C
330
12F
100
AcDbEntity
  8
AM_6
100
AcDbText
 10
7.19
 20
-4.5
 30
0.0
 40
0.5
  1
129501
100
AcDbAttributeDefinition
  3

  2
PNSL
 70
     8
280
     0
  0
ATTDEF
  5
13D
330
12F
100
AcDbEntity
  8
AM_6
100
AcDbText
 10
7.19
 20
-5.0
 30
0.0
 40
0.5
  1
FC-GT-06
100
AcDbAttributeDefinition
  3

  2
DESCRIPTIONSL
 70
     8
280
     0
  0
ATTDEF
  5
13E
330
12F
100
AcDbEntity
  8
AM_6
100
AcDbText
 10
7.19
 20
-5.5
 30
0.0
 40
0.5
  1
136525
100
AcDbAttributeDefinition
  3

  2
PNA
 70
     8
280
     0
  0
ATTDEF
  5
13F
330
12F
100
AcDbEntity
  8
AM_6
100
AcDbText
 10
7.19
 20
-6.0
 30
0.0
 40
0.5
  1
AN-GT-06-102-D
100
AcDbAttributeDefinition
  3

  2
DESCRIPTIONA
 70
     8
280
     0
  0
ATTDEF
  5
140
330
12F
100
AcDbEntity
  8
AM_6
100
AcDbText
 10
7.19
 20
-6.5
 30
0.0
 40
0.5
  1
3.0
100
AcDbAttributeDefinition
  3

  2
W
 70
     8
280
     0
  0
ATTDEF
  5
141
330
12F
100
AcDbEntity
  8
AM_6
100
AcDbText
 10
7.19
 20
-7.0
 30
0.0
 40
0.5
  1
1.61
100
AcDbAttributeDefinition
  3

  2
A
 70
     8
280
     0
  0
ATTDEF
  5
142
330
12F
100
AcDbEntity
  8
AM_6
100
AcDbText
 10
7.19
 20
-7.5
 30
0.0
 40
0.5
  1
4.38
100
AcDbAttributeDefinition
  3

  2
B
 70
     8
280
     0
  0
ATTDEF
  5
143
330
12F
100
AcDbEntity
  8
AM_6
100
AcDbText
 10
7.19
 20
-8.0
 30
0.0
 40
0.5
  1
1.68
100
AcDbAttributeDefinition
  3

  2
C
 70
     8
280
     0
  0
ATTDEF
  5
144
330
12F
100
AcDbEntity
  8
AM_6
100
AcDbText
 10
7.19
 20
-8.5
 30
0.0
 40
0.5
  1
3.63
100
AcDbAttributeDefinition
  3

  2
D
 70
     8
280
     0
  0
ATTDEF
  5
145
330
12F
100
AcDbEntity
  8
AM_6
100
AcDbText
 10
7.19
 20
-9.0
 30
0.0
 40
0.5
  1
0.25
100
AcDbAttributeDefinition
  3

  2
E
 70
     8
280
     0
  0
ATTDEF
  5
146
330
12F
100
AcDbEntity
  8
AM_6
100
AcDbText
 10
7.19
 20
-9.5
 30
0.0
 40
0.5
  1
3/8
100
AcDbAttributeDefinition
  3

  2
F
 70
     8
280
     0
  0
ATTDEF
  5
147
330
12F
100
AcDbEntity
  8
AM_6
100
AcDbText
 10
7.19
 20
-10.0
 30
0.0
 40
0.5
  1
1.43
100
AcDbAttributeDefinition
  3

  2
G
 70
     8
280
     0
  0
ATTDEF
  5
148
330
12F
100
AcDbEntity
  8
AM_6
100
AcDbText
 10
7.19
 20
-10.5
 30
0.0
 40
0.5
  1
0.81
100
AcDbAttributeDefinition
  3

  2
H
 70
     8
280
     0
  0
ATTDEF
  5
149
330
12F
100
AcDbEntity
  8
AM_6
100
AcDbText
 10
7.19
 20
-11.0
 30
0.0
 40
0.5
  1
3.000/2.998
100
AcDbAttributeDefinition
  3

  2
K
 70
     8
280
     0
  0
ATTDEF
  5
14A
330
12F
100
AcDbEntity
  8
AM_6
100
AcDbText
 10
7.19
 20
-11.5
 30
0.0
 40
0.5
  1
2.08
100
AcDbAttributeDefinition
  3

  2
L
 70
     8
280
     0
  0
ATTDEF
  5
14B
330
12F
100
AcDbEntity
  8
AM_6
100
AcDbText
 10
7.19
 20
-12.0
 30
0.0
 40
0.5
  1
1.46
100
AcDbAttributeDefinition
  3

  2
Z
 70
     8
280
     0
  0
ATTDEF
  5
14C
330
12F
100
AcDbEntity
  8
AM_6
100
AcDbText
 10
7.19
 20
-12.5
 30
0.0
 40
0.5
  1
102
100
AcDbAttributeDefinition
  3

  2
SSM
 70
     8
280
     0
  0
ATTDEF
  5
14D
330
12F
100
AcDbEntity
  8
AM_6
100
AcDbText
 10
7.19
 20
-13.0
 30
0.0
 40
0.5
  1
fc_gi_templ.prj
100
AcDbAttributeDefinition
  3

  2
PPATH
 70
     8
280
     0
  0
ATTDEF
  5
14E
330
12F
100
AcDbEntity
  8
AM_6
100
AcDbText
 10
7.19
 20
-13.5
 30
0.0
 40
0.5
  1
Infotex
100
AcDbAttributeDefinition
  3

  2
INFO
 70
     8
280
     0
  0
ATTDEF
  5
14F
330
12F
100
AcDbEntity
  8
AM_6
100
AcDbText
 10
7.19
 20
-14.0
 30
0.0
 40
0.5
  1
2250
100
AcDbAttributeDefinition
  3

  2
CAPS
 70
     8
280
     0
  0
ATTDEF
  5
150
330
12F
100
AcDbEntity
  8
AM_6
100
AcDbText
 10
7.19
 20
-14.5
 30
0.0
 40
0.5
  1
4368
100
AcDbAttributeDefinition
  3

  2
CAPD
 70
     8
280
     0
  0
ATTDEF
  5
151
330
12F
100
AcDbEntity
  8
AM_6
100
AcDbText
 10
7.19
 20
-15.0
 30
0.0
 40
0.5
  1
baldor
100
AcDbAttributeDefinition
  3

  2
COMPANY
 70
     8
280
     0
  0
LINE
  5
152
330
12F
100
AcDbEntity
  8
AM_9
100
AcDbLine
 10
0.166818
 20
-0.6550000000000001
 30
0.0
 11
0.166818
 21
-0.6353150000000002
 31
0.0
  0
LINE
  5
153
330
12F
100
AcDbEntity
  8
AM_9
100
AcDbLine
 10
0.335166
 20
-0.6550000000000001
 30
0.0
 11
0.335166
 21
-0.6353150000000002
 31
0.0
  0
LINE
  5
154
330
12F
100
AcDbEntity
  8
AM_9
100
AcDbLine
 10
0.0933567
 20
-0.6550000000000001
 30
0.0
 11
0.0933567
 21
-0.6353150000000002
 31
0.0
  0
LINE
  5
155
330
12F
100
AcDbEntity
  8
AM_9
100
AcDbLine
 10
-0.200487509838
 20
-0.6550000000000001
 30
0.0
 11
-0.200487509838
 21
-0.6353150000000002
 31
0.0
  0
LINE
  5
156
330
12F
100
AcDbEntity
  8
AM_9
100
AcDbLine
 10
-0.078052404353
 20
-0.6550000000000001
 30
0.0
 11
-0.078052404353
 21
-0.6353150000000002
 31
0.0
  0
LINE
  5
157
330
12F
100
AcDbEntity
  8
AM_9
100
AcDbLine
 10
0.0688697
 20
-0.6550000000000001
 30
0.0
 11
0.0688697
 21
-0.6353150000000002
 31
0.0
  0
LINE
  5
158
330
12F
100
AcDbEntity
  8
AM_9
100
AcDbLine
 10
-0.224974530935
 20
-0.6550000000000001
 30
0.0
 11
-0.224974530935
 21
-0.6353150000000002
 31
0.0
  0
LINE
  5
159
330
12F
100
AcDbEntity
  8
AM_9
100
AcDbLine
 10
-0.18212214559
 20
-0.6550000000000001
 30
0.0
 11
-0.18212214559
 21
-0.6353150000000002
 31
0.0
  0
LINE
  5
15A
330
12F
100
AcDbEntity
  8
AM_9
100
AcDbLine
 10
0.111722
 20
-0.6550000000000001
 30
0.0
 11
0.111722
 21
-0.6353150000000002
 31
0.0
  0
LINE
  5
15B
330
12F
100
AcDbEntity
  8
AM_9
100
AcDbLine
 10
-0.243339895183
 20
-0.6550000000000001
 30
0.0
 11
-0.243339895183
 21
-0.6353150000000002
 31
0.0
  0
LINE
  5
15C
330
12F
100
AcDbEntity
  8
AM_9
100
AcDbLine
 10
-0.096417768601
 20
-0.6550000000000001
 30
0.0
 11
-0.096417768601
 21
-0.6353150000000002
 31
0.0
  0
LINE
  5
15D
330
12F
100
AcDbEntity
  8
AM_9
100
AcDbLine
 10
0.212731
 20
-0.6550000000000001
 30
0.0
 11
0.212731
 21
-0.6353150000000002
 31
0.0
  0
LINE
  5
15E
330
12F
100
AcDbEntity
  8
AM_9
100
AcDbLine
 10
0.0505043
 20
-0.6550000000000001
 30
0.0
 11
0.0505043
 21
-0.6353150000000002
 31
0.0
  0
LINE
  5
15F
330
12F
100
AcDbEntity
  8
AM_9
100
AcDbLine
 10
-0.197426878264
 20
-0.6550000000000001
 30
0.0
 11
-0.197426878264
 21
-0.6353150000000002
 31
0.0
  0
LINE
  5
160
330
12F
100
AcDbEntity
  8
AM_9
100
AcDbLine
 10
0.0964177
 20
-0.6550000000000001
 30
0.0
 11
0.0964177
 21
-0.6353150000000002
 31
0.0
  0
LINE
  5
161
330
12F
100
AcDbEntity
  8
AM_9
100
AcDbLine
 10
0.0658091
 20
-0.6550000000000001
 30
0.0
 11
0.0658091
 21
-0.6353150000000002
 31
0.0
  0
LINE
  5
162
330
12F
100
AcDbEntity
  8
AM_9
100
AcDbLine
 10
-0.22803555621
 20
-0.6550000000000001
 30
0.0
 11
-0.22803555621
 21
-0.6353150000000002
 31
0.0
  0
LINE
  5
163
330
12F
100
AcDbEntity
  8
AM_9
100
AcDbLine
 10
-0.081113429628
 20
-0.6550000000000001
 30
0.0
 11
-0.081113429628
 21
-0.6353150000000002
 31
0.0
  0
LINE
  5
164
330
12F
100
AcDbEntity
  8
AM_9
100
AcDbLine
 10
0.194366
 20
-0.6550000000000001
 30
0.0
 11
0.194366
 21
-0.6353150000000002
 31
0.0
  0
LINE
  5
165
330
12F
100
AcDbEntity
  8
AM_9
100
AcDbLine
 10
-0.172939463466
 20
-0.6550000000000001
 30
0.0
 11
-0.172939463466
 21
-0.6353150000000002
 31
0.0
  0
LINE
  5
166
330
12F
100
AcDbEntity
  8
AM_9
100
AcDbLine
 10
-0.234157213059
 20
-0.6550000000000001
 30
0.0
 11
-0.234157213059
 21
-0.6353150000000002
 31
0.0
  0
LINE
  5
167
330
12F
100
AcDbEntity
  8
AM_9
100
AcDbLine
 10
0.1025390000000002
 20
-0.6550000000000001
 30
0.0
 11
0.102539
 21
-0.6353150000000002
 31
0.0
  0
LINE
  5
168
330
12F
100
AcDbEntity
  8
AM_9
100
AcDbLine
 10
-0.1913048277139996
 20
-0.6550000000000001
 30
0.0
 11
-0.191304827714
 21
-0.6353150000000002
 31
0.0
  0
LINE
  5
169
330
12F
100
AcDbEntity
  8
AM_9
100
AcDbLine
 10
-0.105600450725
 20
-0.6550000000000001
 30
0.0
 11
-0.105600450725
 21
-0.6353150000000002
 31
0.0
  0
LINE
  5
16A
330
12F
100
AcDbEntity
  8
AM_9
100
AcDbLine
 10
0.120905
 20
-0.6550000000000001
 30
0.0
 11
0.120905
 21
-0.6353150000000002
 31
0.0
  0
LINE
  5
16B
330
12F
100
AcDbEntity
  8
AM_9
100
AcDbLine
 10
-0.252522577307
 20
-0.6550000000000001
 30
0.0
 11
-0.252522577307
 21
-0.6353150000000002
 31
0.0
  0
LINE
  5
16C
330
12F
100
AcDbEntity
  8
AM_9
100
AcDbLine
 10
0.0413217
 20
-0.6550000000000001
 30
0.0
 11
0.0413217
 21
-0.6353150000000002
 31
0.0
  0
LINE
  5
16D
330
12F
100
AcDbEntity
  8
AM_9
100
AcDbLine
 10
0.059687
 20
-0.6550000000000001
 30
0.0
 11
0.059687
 21
-0.6353150000000002
 31
0.0
  0
LINE
  5
16E
330
12F
100
AcDbEntity
  8
AM_9
100
AcDbLine
 10
0.191305
 20
-0.6550000000000001
 30
0.0
 11
0.191305
 21
-0.6353150000000002
 31
0.0
  0
LINE
  5
16F
330
12F
100
AcDbEntity
  8
AM_9
100
AcDbLine
 10
0.20967
 20
-0.6550000000000001
 30
0.0
 11
0.20967
 21
-0.6353150000000002
 31
0.0
  0
LINE
  5
170
330
12F
100
AcDbEntity
  8
AM_9
100
AcDbLine
 10
-0.087235086477
 20
-0.6550000000000001
 30
0.0
 11
-0.087235086477
 21
-0.6353150000000002
 31
0.0
  0
LINE
  5
171
330
12F
100
AcDbEntity
  8
AM_9
100
AcDbLine
 10
-0.261705259431
 20
-0.6550000000000001
 30
0.0
 11
-0.261705259431
 21
-0.6353150000000002
 31
0.0
  0
LINE
  5
172
330
12F
100
AcDbEntity
  8
AM_9
100
AcDbLine
 10
0.0321392
 20
-0.6550000000000001
 30
0.0
 11
0.0321392
 21
-0.6353150000000002
 31
0.0
  0
LINE
  5
173
330
12F
100
AcDbEntity
  8
AM_9
100
AcDbLine
 10
0.182122
 20
-0.6550000000000001
 30
0.0
 11
0.182122
 21
-0.6353150000000002
 31
0.0
  0
LINE
  5
174
330
12F
100
AcDbEntity
  8
AM_9
100
AcDbLine
 10
0.130087
 20
-0.6550000000000001
 30
0.0
 11
0.130087
 21
-0.6353150000000002
 31
0.0
  0
LINE
  5
175
330
12F
100
AcDbEntity
  8
AM_9
100
AcDbLine
 10
-0.3290446658729999
 20
-0.6550000000000001
 30
0.0
 11
-0.3290446658729999
 21
-0.6353150000000002
 31
0.0
  0
LINE
  5
176
330
12F
100
AcDbEntity
  8
AM_9
100
AcDbLine
 10
-0.163757175043
 20
-0.6550000000000001
 30
0.0
 11
-0.163757175043
 21
-0.6353150000000002
 31
0.0
  0
LINE
  5
177
330
12F
100
AcDbEntity
  8
AM_9
100
AcDbLine
 10
0.255583
 20
-0.6550000000000001
 30
0.0
 11
0.255583
 21
-0.6353150000000002
 31
0.0
  0
LINE
  5
178
330
12F
100
AcDbEntity
  8
AM_9
100
AcDbLine
 10
-0.114783132849
 20
-0.6550000000000001
 30
0.0
 11
-0.114783132849
 21
-0.6353150000000002
 31
0.0
  0
LINE
  5
179
330
12F
100
AcDbEntity
  8
AM_9
100
AcDbLine
 10
-0.0352000977482
 20
-0.6550000000000001
 30
0.0
 11
-0.0352000977482
 21
-0.6353150000000002
 31
0.0
  0
LINE
  5
17A
330
12F
100
AcDbEntity
  8
AM_9
100
AcDbLine
 10
0.0474437
 20
-0.6550000000000001
 30
0.0
 11
0.0474437
 21
-0.6353150000000002
 31
0.0
  0
LINE
  5
17B
330
12F
100
AcDbEntity
  8
AM_9
100
AcDbLine
 10
-0.179061514016
 20
-0.6550000000000001
 30
0.0
 11
-0.179061514016
 21
-0.6353150000000002
 31
0.0
  0
LINE
  5
17C
330
12F
100
AcDbEntity
  8
AM_9
100
AcDbLine
 10
-0.246400920458
 20
-0.6550000000000001
 30
0.0
 11
-0.246400920458
 21
-0.6353150000000002
 31
0.0
  0
LINE
  5
17D
330
12F
100
AcDbEntity
  8
AM_9
100
AcDbLine
 10
0.114783
 20
-0.6550000000000001
 30
0.0
 11
0.114783
 21
-0.6353150000000002
 31
0.0
  0
LINE
  5
17E
330
12F
100
AcDbEntity
  8
AM_9
100
AcDbLine
 10
-0.099478400175
 20
-0.6550000000000001
 30
0.0
 11
-0.099478400175
 21
-0.6353150000000002
 31
0.0
  0
LINE
  5
17F
330
12F
100
AcDbEntity
  8
AM_9
100
AcDbLine
 10
0.197427
 20
-0.6550000000000001
 30
0.0
 11
0.197427
 21
-0.6353150000000002
 31
0.0
  0
LINE
  5
180
330
12F
100
AcDbEntity
  8
AM_9
100
AcDbLine
 10
-0.111722107574
 20
-0.6550000000000001
 30
0.0
 11
-0.111722107574
 21
-0.6353150000000002
 31
0.0
  0
LINE
  5
181
330
12F
100
AcDbEntity
  8
AM_9
100
AcDbLine
 10
-0.258644234156
 20
-0.6550000000000001
 30
0.0
 11
-0.258644234156
 21
-0.6353150000000002
 31
0.0
  0
LINE
  5
182
330
12F
100
AcDbEntity
  8
AM_9
100
AcDbLine
 10
0.0352001
 20
-0.6550000000000001
 30
0.0
 11
0.0352001
 21
-0.6353150000000002
 31
0.0
  0
LINE
  5
183
330
12F
100
AcDbEntity
  8
AM_9
100
AcDbLine
 10
0.185183
 20
-0.6550000000000001
 30
0.0
 11
0.185183
 21
-0.6353150000000002
 31
0.0
  0
LINE
  5
184
330
12F
100
AcDbEntity
  8
AM_9
100
AcDbLine
 10
0.127026
 20
-0.6550000000000001
 30
0.0
 11
0.127026
 21
-0.6353150000000002
 31
0.0
  0
LINE
  5
185
330
12F
100
AcDbEntity
  8
AM_9
100
AcDbLine
 10
-0.166817806617
 20
-0.6550000000000001
 30
0.0
 11
-0.166817806617
 21
-0.6353150000000002
 31
0.0
  0
LINE
  5
186
330
12F
100
AcDbEntity
  8
AM_9
100
AcDbLine
 10
0.169879
 20
-0.6550000000000001
 30
0.0
 11
0.169879
 21
-0.6353150000000002
 31
0.0
  0
LINE
  5
187
330
12F
100
AcDbEntity
  8
AM_9
100
AcDbLine
 10
0.142331
 20
-0.6550000000000001
 30
0.0
 11
0.142331
 21
-0.6353150000000002
 31
0.0
  0
LINE
  5
188
330
12F
100
AcDbEntity
  8
AM_9
100
AcDbLine
 10
-0.224974530935
 20
-0.6353150000000002
 30
0.0
 11
-0.3474096364199999
 21
-0.6353150000000002
 31
0.0
  0
LINE
  5
189
330
12F
100
AcDbEntity
  8
AM_9
100
AcDbLine
 10
-0.127026446547
 20
-0.6550000000000001
 30
0.0
 11
-0.127026446547
 21
-0.6353150000000002
 31
0.0
  0
LINE
  5
18A
330
12F
100
AcDbEntity
  8
AM_9
100
AcDbLine
 10
-0.151513467644
 20
-0.6550000000000001
 30
0.0
 11
-0.151513467644
 21
-0.6353150000000002
 31
0.0
  0
LINE
  5
18B
330
12F
100
AcDbEntity
  8
AM_9
100
AcDbLine
 10
0.237218
 20
-0.6550000000000001
 30
0.0
 11
0.237218
 21
-0.6353150000000002
 31
0.0
  0
LINE
  5
18C
330
12F
100
AcDbEntity
  8
AM_9
100
AcDbLine
 10
0.0688697
 20
-0.6353150000000002
 30
0.0
 11
-0.053565383256
 21
-0.6353150000000002
 31
0.0
  0
LINE
  5
18D
330
12F
100
AcDbEntity
  8
AM_9
100
AcDbLine
 10
0.0198957
 20
-0.6550000000000001
 30
0.0
 11
0.0198957
 21
-0.6353150000000002
 31
0.0
  0
LINE
  5
18E
330
12F
100
AcDbEntity
  8
AM_9
100
AcDbLine
 10
-0.053565383256
 20
-0.6550000000000001
 30
0.0
 11
-0.053565383256
 21
-0.6353150000000002
 31
0.0
  0
LINE
  5
18F
330
12F
100
AcDbEntity
  8
AM_9
100
AcDbLine
 10
-0.273948573129
 20
-0.6550000000000001
 30
0.0
 11
-0.273948573129
 21
-0.6353150000000002
 31
0.0
  0
LINE
  5
190
330
12F
100
AcDbEntity
  8
AM_9
100
AcDbLine
 10
-0.078052404353
 20
-0.6353150000000002
 30
0.0
 11
-0.200487509838
 21
-0.6353150000000002
 31
0.0
  0
LINE
  5
191
330
12F
100
AcDbEntity
  8
AM_9
100
AcDbLine
 10
0.347409
 20
-0.6353150000000002
 30
0.0
 11
0.237218
 21
-0.6353150000000002
 31
0.0
  0
LINE
  5
192
330
12F
100
AcDbEntity
  8
AM_9
100
AcDbLine
 10
0.3474090000000001
 20
-0.6550000000000001
 30
0.0
 11
0.347409
 21
-0.6353150000000002
 31
0.0
  0
LINE
  5
193
330
12F
100
AcDbEntity
  8
AM_9
100
AcDbLine
 10
0.212731
 20
-0.6353150000000002
 30
0.0
 11
0.0933567
 21
-0.6353150000000002
 31
0.0
  0
LINE
  5
194
330
12F
100
AcDbEntity
  8
AM_9
100
AcDbLine
 10
-0.3474096364199999
 20
-0.6550000000000001
 30
0.0
 11
-0.3474096364199999
 21
-0.6353150000000002
 31
0.0
  0
LINE
  5
195
330
12F
100
AcDbEntity
  8
AM_9
100
AcDbLine
 10
-0.4863277842624878
 20
-0.6550000000000001
 30
0.0
 11
0.4863277842624876
 21
-0.6550000000000001
 31
0.0
  0
LINE
  5
196
330
12F
100
AcDbEntity
  8
AM_9
100
AcDbLine
 10
1.419901538442609
 20
-1.06
 30
0.0
 11
1.419901538442609
 21
-0.6550000000000001
 31
0.0
  0
LINE
  5
197
330
12F
100
AcDbEntity
  8
AM_9
100
AcDbLine
 10
1.6275
 20
-1.06
 30
0.0
 11
1.6275
 21
-0.6550000000000001
 31
0.0
  0
LINE
  5
198
330
12F
100
AcDbEntity
  8
AM_9
100
AcDbLine
 10
-1.419901538442609
 20
-1.06
 30
0.0
 11
-1.419901538442609
 21
-0.6550000000000001
 31
0.0
  0
LINE
  5
199
330
12F
100
AcDbEntity
  8
AM_9
100
AcDbLine
 10
-1.6275
 20
-0.6550000000000001
 30
0.0
 11
-1.6275
 21
-1.06
 31
0.0
  0
LINE
  5
19A
330
12F
100
AcDbEntity
  8
AM_9
100
AcDbLine
 10
1.22045
 20
-1.06
 30
0.0
 11
1.22045
 21
-0.05
 31
0.0
  0
LINE
  5
19B
330
12F
100
AcDbEntity
  8
AM_9
100
AcDbLine
 10
-1.22045
 20
-0.05
 30
0.0
 11
-1.22045
 21
-1.06
 31
0.0
  0
LINE
  5
19C
330
12F
100
AcDbEntity
  8
AM_9
100
AcDbLine
 10
1.2814725
 20
-0.0250000000000003
 30
0.0
 11
1.2814725
 21
0.0
 31
0.0
  0
LINE
  5
19D
330
12F
100
AcDbEntity
  8
AM_9
100
AcDbLine
 10
-1.2814725
 20
0.0
 30
0.0
 11
-1.2814725
 21
-0.0250000000000003
 31
0.0
  0
LINE
  5
19E
330
12F
100
AcDbEntity
  8
AM_9
100
AcDbLine
 10
-1.2564725
 20
-0.05
 30
0.0
 11
1.256472499999802
 21
-0.05
 31
0.0
  0
LINE
  5
19F
330
12F
100
AcDbEntity
  8
AM_9
100
AcDbLine
 10
-1.2814725
 20
-0.0250000000000003
 30
0.0
 11
1.2814725
 21
-0.0250000000000003
 31
0.0
  0
ARC
  5
1A0
330
12F
100
AcDbEntity
  8
AM_9
100
AcDbCircle
 10
1.256472500000001
 20
-0.0250000000000005
 30
0.0
 40
0.0249999999999995
100
AcDbArc
 50
270.0
 51
0.0
  0
ARC
  5
1A1
330
12F
100
AcDbEntity
  8
AM_9
100
AcDbCircle
 10
-1.256472500000001
 20
-0.0250000000000005
 30
0.0
 40
0.0249999999999995
100
AcDbArc
 50
180.0
 51
270.0
  0
LINE
  5
1A2
330
12F
100
AcDbEntity
  8
AM_9
100
AcDbLine
 10
1.095898807853584
 20
-0.2499999999999999
 30
0.0
 11
1.095898807853584
 21
-1.06
 31
0.0
  0
LINE
  5
1A3
330
12F
100
AcDbEntity
  8
AM_9
100
AcDbLine
 10
1.470898807853584
 20
-1.06
 30
0.0
 11
1.470898807853584
 21
-0.2499999999999999
 31
0.0
  0
LINE
  5
1A4
330
12F
100
AcDbEntity
  8
AM_9
100
AcDbLine
 10
-1.470898807853584
 20
-0.2499999999999999
 30
0.0
 11
-1.470898807853584
 21
-1.06
 31
0.0
  0
LINE
  5
1A5
330
12F
100
AcDbEntity
  8
AM_9
100
AcDbLine
 10
-1.095898807853584
 20
-1.06
 30
0.0
 11
-1.095898807853584
 21
-0.2499999999999999
 31
0.0
  0
LINE
  5
1A6
330
12F
100
AcDbEntity
  8
AM_9
100
AcDbLine
 10
1.548563850798538
 20
-1.06
 30
0.0
 11
1.548563850798538
 21
-0.6550000000000001
 31
0.0
  0
LINE
  5
1A7
330
12F
100
AcDbEntity
  8
AM_9
100
AcDbLine
 10
-1.54856385079854
 20
-1.06
 30
0.0
 11
-1.54856385079854
 21
-0.6550000000000001
 31
0.0
  0
CIRCLE
  5
1A8
330
12F
100
AcDbEntity
  8
AM_9
100
AcDbCircle
 10
0.0
 20
-0.655
 30
0.0
 40
0.0787401999999297
  0
CIRCLE
  5
1A9
330
12F
100
AcDbEntity
  8
AM_9
100
AcDbCircle
 10
0.0
 20
-0.655
 30
0.0
 40
0.1003135045832954
  0
LINE
  5
1AA
330
12F
100
AcDbEntity
  8
AM_7
100
AcDbLine
 10
-0.165354
 20
-0.655
 30
0.0
 11
0.165354
 21
-0.655
 31
0.0
  0
LINE
  5
1AB
330
12F
100
AcDbEntity
  8
AM_7
100
AcDbLine
 10
-1.283398807853584
 20
-1.1005
 30
0.0
 11
-1.283398807853584
 21
-0.2095
 31
0.0
  0
LINE
  5
1AC
330
12F
100
AcDbEntity
  8
AM_7
100
AcDbLine
 10
1.283398807853584
 20
-1.1005
 30
0.0
 11
1.283398807853584
 21
-0.2095
 31
0.0
  0
LINE
  5
1AD
330
12F
100
AcDbEntity
  8
AM_4
100
AcDbLine
 10
1.5
 20
0.0
 30
0.0
 11
-1.5
 21
0.0
 31
0.0
  0
LINE
  5
1AE
330
12F
100
AcDbEntity
  8
AM_4
100
AcDbLine
 10
1.5
 20
-0.25
 30
0.0
 11
1.5
 21
0.0
 31
0.0
  0
LINE
  5
1AF
330
12F
100
AcDbEntity
  8
AM_4
100
AcDbLine
 10
-1.5
 20
0.0
 30
0.0
 11
-1.5
 21
-0.25
 31
0.0
  0
LINE
  5
1B0
330
12F
100
AcDbEntity
  8
AM_4
100
AcDbLine
 10
-0.7953841028888587
 20
-1.06
 30
0.0
 11
-0.7953841028888587
 21
-0.655
 31
0.0
  0
LINE
  5
1B1
330
12F
100
AcDbEntity
  8
AM_4
100
AcDbLine
 10
0.7953841028888583
 20
-1.06
 30
0.0
 11
0.7953841028888583
 21
-0.655
 31
0.0
  0
LINE
  5
1B2
330
12F
100
AcDbEntity
  8
AM_4
100
AcDbLine
 10
1.018233764908629
 20
-1.06
 30
0.0
 11
1.018233764908629
 21
-0.655
 31
0.0
  0
LINE
  5
1B3
330
12F
100
AcDbEntity
  8
AM_4
100
AcDbLine
 10
1.658398807853584
 20
-1.06
 30
0.0
 11
1.658398807853584
 21
-0.655
 31
0.0
  0
LINE
  5
1B4
330
12F
100
AcDbEntity
  8
AM_4
100
AcDbLine
 10
1.658398807853584
 20
-1.06
 30
0.0
 11
-1.658398807853584
 21
-1.06
 31
0.0
  0
LINE
  5
1B5
330
12F
100
AcDbEntity
  8
AM_4
100
AcDbLine
 10
-1.018233764908628
 20
-1.06
 30
0.0
 11
-1.018233764908628
 21
-0.655
 31
0.0
  0
LINE
  5
1B6
330
12F
100
AcDbEntity
  8
AM_4
100
AcDbLine
 10
-1.658398807853584
 20
-0.655
 30
0.0
 11
-1.658398807853584
 21
-1.06
 31
0.0
  0
LINE
  5
1B7
330
12F
100
AcDbEntity
  8
AM_4
100
AcDbLine
 10
-0.5635460116568176
 20
-1.06
 30
0.0
 11
-0.5635460116568176
 21
-0.655
 31
0.0
  0
LINE
  5
1B8
330
12F
100
AcDbEntity
  8
AM_4
100
AcDbLine
 10
0.5635460116568177
 20
-1.06
 30
0.0
 11
0.5635460116568177
 21
-0.655
 31
0.0
  0
LINE
  5
1B9
330
12F
100
AcDbEntity
  8
AM_4
100
AcDbLine
 10
-0.486327784262488
 20
-1.06
 30
0.0
 11
-0.4863277842624878
 21
-0.2499999999999999
 31
0.0
  0
LINE
  5
1BA
330
12F
100
AcDbEntity
  8
AM_4
100
AcDbLine
 10
0.4863277842624878
 20
-1.06
 30
0.0
 11
0.4863277842624876
 21
-0.2499999999999999
 31
0.0
  0
LINE
  5
1BB
330
12F
100
AcDbEntity
  8
AM_4
100
AcDbLine
 10
0.1574805
 20
-0.5640785909328832
 30
0.0
 11
0.1574805
 21
-0.7459214090671168
 31
0.0
  0
LINE
  5
1BC
330
12F
100
AcDbEntity
  8
AM_4
100
AcDbLine
 10
0.0
 20
-0.4731571818657663
 30
0.0
 11
0.1574805
 21
-0.5640785909328832
 31
0.0
  0
LINE
  5
1BD
330
12F
100
AcDbEntity
  8
AM_4
100
AcDbLine
 10
-0.1574805
 20
-0.5640785909328832
 30
0.0
 11
0.0
 21
-0.4731571818657663
 31
0.0
  0
LINE
  5
1BE
330
12F
100
AcDbEntity
  8
AM_4
100
AcDbLine
 10
-0.1574805
 20
-0.7459214090671168
 30
0.0
 11
-0.1574805
 21
-0.5640785909328832
 31
0.0
  0
LINE
  5
1BF
330
12F
100
AcDbEntity
  8
AM_4
100
AcDbLine
 10
0.0
 20
-0.8368428181342337
 30
0.0
 11
-0.1574805
 21
-0.7459214090671168
 31
0.0
  0
LINE
  5
1C0
330
12F
100
AcDbEntity
  8
AM_4
100
AcDbLine
 10
0.1574805
 20
-0.7459214090671168
 30
0.0
 11
0.0
 21
-0.8368428181342337
 31
0.0
  0
CIRCLE
  5
1C1
330
12F
100
AcDbEntity
  8
AM_4
100
AcDbCircle
 10
0.0
 20
-0.655
 30
0.0
 40
0.15748
  0
CIRCLE
  5
1C2
330
12F
100
AcDbEntity
  8
AM_4
100
AcDbCircle
 10
0.0
 20
-0.655
 30
0.0
 40
0.110236
  0
CIRCLE
  5
1C3
330
12F
100
AcDbEntity
  8
AM_4
100
AcDbCircle
 10
0.0
 20
-0.655
 30
0.0
 40
0.106285349700625
  0
LINE
  5
1C4
330
12F
100
AcDbEntity
  8
AM_4
100
AcDbLine
 10
2.19
 20
-0.655
 30
0.0
 11
0.4863277842624876
 21
-0.6549999999999998
 31
0.0
  0
LINE
  5
1C5
330
12F
100
AcDbEntity
  8
AM_4
100
AcDbLine
 10
-0.4863277842624878
 20
-0.6549999999999998
 30
0.0
 11
-2.19
 21
-0.655
 31
0.0
  0
LINE
  5
1C6
330
12F
100
AcDbEntity
  8
AM_4
100
AcDbLine
 10
2.19
 20
-0.25
 30
0.0
 11
-2.19
 21
-0.25
 31
0.0
  0
LINE
  5
1C7
330
12F
100
AcDbEntity
  8
AM_4
100
AcDbLine
 10
0.5668137087745218
 20
-0.6549999999999998
 30
0.0
 11
0.5668137087745218
 21
-0.2499999999999999
 31
0.0
  0
LINE
  5
1C8
330
12F
100
AcDbEntity
  8
AM_4
100
AcDbLine
 10
-0.5668137087745206
 20
-0.6549999999999998
 30
0.0
 11
-0.5668137087745206
 21
-0.2499999999999999
 31
0.0
  0
LINE
  5
1C9
330
12F
100
AcDbEntity
  8
AM_4
100
AcDbLine
 10
2.19
 20
-0.655
 30
0.0
 11
2.19
 21
-0.25
 31
0.0
  0
LINE
  5
1CA
330
12F
100
AcDbEntity
  8
AM_4
100
AcDbLine
 10
-2.19
 20
-0.25
 30
0.0
 11
-2.19
 21
-0.655
 31
0.0
  0
CIRCLE
  5
1CB
330
12F
100
AcDbEntity
  8
AM_4
100
AcDbCircle
 10
0.0
 20
-0.655
 30
0.0
 40
0.1048774357720922
  0
CIRCLE
  5
1CC
330
12F
100
AcDbEntity
  8
AM_4
100
AcDbCircle
 10
0.0
 20
-0.655
 30
0.0
 40
0.0836898482231382
  0
CIRCLE
  5
1CD
330
12F
100
AcDbEntity
  8
AM_4
100
AcDbCircle
 10
0.0
 20
-0.655
 30
0.0
 40
0.065412762151671
  0
ENDBLK
  5
132
330
12F
100
AcDbEntity
  8
0
100
AcDbBlockEnd
  0
ENDSEC
  0
SECTION
  2
ENTITIES
  0
INSERT
  5
6F
330
1F
100
AcDbEntity
  8
0
100
AcDbBlockReference
  2
1_129735_4
 10
0.0
 20
0.0
 30
0.0
  0
POINT
  5
1CF
330
1F
100
AcDbEntity
  8
ConnectionPoints
100
AcDbPoint
 10
0.0
 20
-0.55
 30
0.0000000000000002
  0
POINT
  5
1D0
330
1F
100
AcDbEntity
  8
ConnectionPoints
100
AcDbPoint
 10
0.0
 20
-1.68
 30
0.0000000000000002
  0
POINT
  5
1D1
330
1F
100
AcDbEntity
  8
ConnectionPoints
100
AcDbPoint
 10
0.0
 20
-1.68
 30
0.0000000000000001
  0
POINT
  5
1D2
330
1F
100
AcDbEntity
  8
ConnectionPoints
100
AcDbPoint
 10
0.0
 20
-1.68
 30
0.0000000000000001
  0
ENDSEC
  0
SECTION
  2
OBJECTS
  0
DICTIONARY
  5
C
330
0
100
AcDbDictionary
281
     1
  3
ACAD_DETAILVIEWSTYLE
350
1DA
  3
ACAD_GROUP
350
D
  3
ACAD_LAYOUT
350
1A
  3
ACAD_MATERIAL
350
43
  3
ACAD_MLEADERSTYLE
350
6B
  3
ACAD_MLINESTYLE
350
17
  3
ACAD_PLOTSETTINGS
350
19
  3
ACAD_PLOTSTYLENAME
350
E
  3
ACAD_SCALELIST
350
47
  3
ACAD_SECTIONVIEWSTYLE
350
1DB
  3
ACAD_TABLESTYLE
350
69
  3
ACAD_VISUALSTYLE
350
2A
  3
ACDB_RECOMPOSE_DATA
350
1D7
  3
AcDbVariableDictionary
350
1D3
  0
SUN
  5
6D
330
29
100
AcDbSun
 90
        1
290
     0
 63
     7
421
 16777215
 40
1.0
291
     1
 91
  2455826
 92
 54000000
292
     0
 70
     2
 71
   256
280
     1
  0
DICTIONARY
  5
1DA
102
{ACAD_REACTORS
330
C
102
}
330
C
100
AcDbDictionary
281
     1
  0
DICTIONARY
  5
D
102
{ACAD_REACTORS
330
C
102
}
330
C
100
AcDbDictionary
281
     1
  0
DICTIONARY
  5
1A
102
{ACAD_REACTORS
330
C
102
}
330
C
100
AcDbDictionary
281
     1
  3
Layout1
350
1E
  3
Layout2
350
26
  3
Model
350
22
  0
DICTIONARY
  5
43
102
{ACAD_REACTORS
330
C
102
}
330
C
100
AcDbDictionary
281
     1
  3
ByBlock
350
45
  3
ByLayer
350
44
  3
Global
350
46
  0
DICTIONARY
  5
6B
102
{ACAD_REACTORS
330
C
102
}
330
C
100
AcDbDictionary
281
     1
  3
Standard
350
6C
  0
DICTIONARY
  5
17
102
{ACAD_REACTORS
330
C
102
}
330
C
100
AcDbDictionary
281
     1
  3
Standard
350
18
  0
DICTIONARY
  5
19
102
{ACAD_REACTORS
330
C
102
}
330
C
100
AcDbDictionary
281
     1
  0
ACDBDICTIONARYWDFLT
  5
E
102
{ACAD_REACTORS
330
C
102
}
330
C
100
AcDbDictionary
281
     1
  3
Normal
350
F
100
AcDbDictionaryWithDefault
340
F
  0
DICTIONARY
  5
47
102
{ACAD_REACTORS
330
C
102
}
330
C
100
AcDbDictionary
281
     1
  3
A0
350
48
  3
A1
350
49
  3
A2
350
4A
  3
A3
350
4B
  3
A4
350
4C
  3
A5
350
4D
  3
A6
350
4E
  3
A7
350
4F
  3
A8
350
50
  3
A9
350
51
  3
B0
350
52
  3
B1
350
53
  3
B2
350
54
  3
B3
350
55
  3
B4
350
56
  3
B5
350
57
  3
B6
350
58
  3
B7
350
59
  3
B8
350
5A
  3
B9
350
5B
  3
C0
350
5C
  3
C1
350
5D
  3
C2
350
5E
  3
C3
350
5F
  3
C4
350
60
  3
C5
350
61
  3
C6
350
62
  3
C7
350
63
  3
C8
350
64
  3
C9
350
65
  3
D0
350
66
  3
D1
350
67
  3
D2
350
68
  0
DICTIONARY
  5
1DB
102
{ACAD_REACTORS
330
C
102
}
330
C
100
AcDbDictionary
281
     1
  0
DICTIONARY
  5
69
102
{ACAD_REACTORS
330
C
102
}
330
C
100
AcDbDictionary
281
     1
  3
Standard
350
6A
  0
DICTIONARY
  5
2A
102
{ACAD_REACTORS
330
C
102
}
330
C
100
AcDbDictionary
281
     1
  3
2dWireframe
350
2F
  3
Basic
350
32
  3
Brighten
350
36
  3
ColorChange
350
3A
  3
Conceptual
350
34
  3
Dim
350
35
  3
EdgeColorOff
350
3D
  3
Facepattern
350
39
  3
Flat
350
2B
  3
FlatWithEdges
350
2C
  3
Gouraud
350
2D
  3
GouraudWithEdges
350
2E
  3
Hidden
350
31
  3
JitterOff
350
3B
  3
Linepattern
350
38
  3
OverhangOff
350
3C
  3
Realistic
350
33
  3
Shaded
350
42
  3
Shaded with edges
350
41
  3
Shades of Gray
350
3E
  3
Sketchy
350
3F
  3
Thicken
350
37
  3
Wireframe
350
30
  3
X-Ray
350
40
  0
XRECORD
  5
1D7
102
{ACAD_REACTORS
330
C
102
}
330
C
100
AcDbXrecord
280
     1
 90
        1
330
6A
  0
DICTIONARY
  5
1D3
102
{ACAD_REACTORS
330
C
102
}
330
C
100
AcDbDictionary
281
     1
  3
CANNOSCALE
350
1D4
  3
CMLEADERSTYLE
350
1D9
  3
CTABLESTYLE
350
1D8
  0
LAYOUT
  5
1E
102
{ACAD_REACTORS
330
1A
102
}
330
1A
100
AcDbPlotSettings
  1

  2
none_device
  4

  6

 40
0.0
 41
0.0
 42
0.0
 43
0.0
 44
0.0
 45
0.0
 46
0.0
 47
0.0
 48
0.0
 49
0.0
140
0.0
141
0.0
142
1.0
143
1.0
 70
   688
 72
     0
 73
     0
 74
     5
  7

 75
    16
 76
     0
 77
     2
 78
   300
147
1.0
148
0.0
149
0.0
100
AcDbLayout
  1
Layout1
 70
     1
 71
     1
 10
0.0
 20
0.0
 11
12.0
 21
9.0
 12
0.0
 22
0.0
 32
0.0
 14
1.000000000000000E+20
 24
1.000000000000000E+20
 34
1.000000000000000E+20
 15
-1.000000000000000E+20
 25
-1.000000000000000E+20
 35
-1.000000000000000E+20
146
0.0
 13
0.0
 23
0.0
 33
0.0
 16
1.0
 26
0.0
 36
0.0
 17
0.0
 27
1.0
 37
0.0
 76
     0
330
1B
  0
LAYOUT
  5
26
102
{ACAD_REACTORS
330
1A
102
}
330
1A
100
AcDbPlotSettings
  1

  2
none_device
  4

  6

 40
0.0
 41
0.0
 42
0.0
 43
0.0
 44
0.0
 45
0.0
 46
0.0
 47
0.0
 48
0.0
 49
0.0
140
0.0
141
0.0
142
1.0
143
1.0
 70
   688
 72
     0
 73
     0
 74
     5
  7

 75
    16
 76
     0
 77
     2
 78
   300
147
1.0
148
0.0
149
0.0
100
AcDbLayout
  1
Layout2
 70
     1
 71
     2
 10
0.0
 20
0.0
 11
0.0
 21
0.0
 12
0.0
 22
0.0
 32
0.0
 14
0.0
 24
0.0
 34
0.0
 15
0.0
 25
0.0
 35
0.0
146
0.0
 13
0.0
 23
0.0
 33
0.0
 16
1.0
 26
0.0
 36
0.0
 17
0.0
 27
1.0
 37
0.0
 76
     0
330
23
  0
LAYOUT
  5
22
102
{ACAD_REACTORS
330
1A
102
}
330
1A
100
AcDbPlotSettings
  1

  2
none_device
  4
Letter_(8.50_x_11.00_Inches)
  6

 40
6.35
 41
6.35
 42
6.35000508
 43
6.35000508
 44
215.9
 45
279.4
 46
0.0
 47
0.0
 48
0.0
 49
0.0
140
0.0
141
0.0
142
1.0
143
1.0
 70
  1712
 72
     0
 73
     0
 74
     0
  7

 75
     0
 76
     0
 77
     2
 78
   300
147
1.0
148
0.0
149
0.0
100
AcDbLayout
  1
Model
 70
     1
 71
     0
 10
0.0
 20
0.0
 11
12.0
 21
9.0
 12
0.0
 22
0.0
 32
0.0
 14
1.000000000000000E+20
 24
1.000000000000000E+20
 34
1.000000000000000E+20
 15
-1.000000000000000E+20
 25
-1.000000000000000E+20
 35
-1.000000000000000E+20
146
0.0
 13
0.0
 23
0.0
 33
0.0
 16
1.0
 26
0.0
 36
0.0
 17
0.0
 27
1.0
 37
0.0
 76
     0
330
1F
331
29
  0
MATERIAL
  5
45
102
{ACAD_REACTORS
330
43
102
}
330
43
100
AcDbMaterial
  1
ByBlock
 72
     1
 94
      127
  0
MATERIAL
  5
44
102
{ACAD_REACTORS
330
43
102
}
330
43
100
AcDbMaterial
  1
ByLayer
 72
     1
 94
      127
  0
MATERIAL
  5
46
102
{ACAD_REACTORS
330
43
102
}
330
43
100
AcDbMaterial
  1
Global
 72
     1
 94
      127
  0
MLEADERSTYLE
  5
6C
102
{ACAD_REACTORS
330
6B
102
}
330
6B
100
AcDbMLeaderStyle
179
     2
170
     2
171
     1
172
     0
 90
        2
 40
0.0
 41
0.0
173
     1
 91
-1056964608
340
14
 92
       -2
290
     1
 42
0.09
291
     1
 43
0.36
  3
Standard
341
0
 44
0.18
300

342
11
174
     1
178
     6
175
     1
176
     0
 93
-1056964608
 45
0.18
292
     0
297
     0
 46
0.18
343
0
 94
-1056964608
 47
1.0
 49
1.0
140
1.0
293
     1
141
0.0
294
     1
177
     0
142
1.0
295
     0
296
     0
143
0.125
271
     0
272
     9
273
     9
298
     0
  0
MLINESTYLE
  5
18
102
{ACAD_REACTORS
330
17
102
}
330
17
100
AcDbMlineStyle
  2
Standard
 70
     0
  3

 62
   256
 51
90.0
 52
90.0
 71
     2
 49
0.5
 62
   256
  6
BYLAYER
 49
-0.5
 62
   256
  6
BYLAYER
  0
ACDBPLACEHOLDER
  5
F
102
{ACAD_REACTORS
330
E
102
}
330
E
  0
SCALE
  5
48
102
{ACAD_REACTORS
330
47
102
}
330
47
100
AcDbScale
 70
     0
300
1:1
140
1.0
141
1.0
290
     1
  0
SCALE
  5
49
102
{ACAD_REACTORS
330
47
102
}
330
47
100
AcDbScale
 70
     0
300
1:2
140
1.0
141
2.0
290
     0
  0
SCALE
  5
4A
102
{ACAD_REACTORS
330
47
102
}
330
47
100
AcDbScale
 70
     0
300
1:4
140
1.0
141
4.0
290
     0
  0
SCALE
  5
4B
102
{ACAD_REACTORS
330
47
102
}
330
47
100
AcDbScale
 70
     0
300
1:5
140
1.0
141
5.0
290
     0
  0
SCALE
  5
4C
102
{ACAD_REACTORS
330
47
102
}
330
47
100
AcDbScale
 70
     0
300
1:8
140
1.0
141
8.0
290
     0
  0
SCALE
  5
4D
102
{ACAD_REACTORS
330
47
102
}
330
47
100
AcDbScale
 70
     0
300
1:10
140
1.0
141
10.0
290
     0
  0
SCALE
  5
4E
102
{ACAD_REACTORS
330
47
102
}
330
47
100
AcDbScale
 70
     0
300
1:16
140
1.0
141
16.0
290
     0
  0
SCALE
  5
4F
102
{ACAD_REACTORS
330
47
102
}
330
47
100
AcDbScale
 70
     0
300
1:20
140
1.0
141
20.0
290
     0
  0
SCALE
  5
50
102
{ACAD_REACTORS
330
47
102
}
330
47
100
AcDbScale
 70
     0
300
1:30
140
1.0
141
30.0
290
     0
  0
SCALE
  5
51
102
{ACAD_REACTORS
330
47
102
}
330
47
100
AcDbScale
 70
     0
300
1:40
140
1.0
141
40.0
290
     0
  0
SCALE
  5
52
102
{ACAD_REACTORS
330
47
102
}
330
47
100
AcDbScale
 70
     0
300
1:50
140
1.0
141
50.0
290
     0
  0
SCALE
  5
53
102
{ACAD_REACTORS
330
47
102
}
330
47
100
AcDbScale
 70
     0
300
1:100
140
1.0
141
100.0
290
     0
  0
SCALE
  5
54
102
{ACAD_REACTORS
330
47
102
}
330
47
100
AcDbScale
 70
     0
300
2:1
140
2.0
141
1.0
290
     0
  0
SCALE
  5
55
102
{ACAD_REACTORS
330
47
102
}
330
47
100
AcDbScale
 70
     0
300
4:1
140
4.0
141
1.0
290
     0
  0
SCALE
  5
56
102
{ACAD_REACTORS
330
47
102
}
330
47
100
AcDbScale
 70
     0
300
8:1
140
8.0
141
1.0
290
     0
  0
SCALE
  5
57
102
{ACAD_REACTORS
330
47
102
}
330
47
100
AcDbScale
 70
     0
300
10:1
140
10.0
141
1.0
290
     0
  0
SCALE
  5
58
102
{ACAD_REACTORS
330
47
102
}
330
47
100
AcDbScale
 70
     0
300
100:1
140
100.0
141
1.0
290
     0
  0
SCALE
  5
59
102
{ACAD_REACTORS
330
47
102
}
330
47
100
AcDbScale
 70
     0
300
1/128" = 1'-0"
140
0.0078125
141
12.0
290
     0
  0
SCALE
  5
5A
102
{ACAD_REACTORS
330
47
102
}
330
47
100
AcDbScale
 70
     0
300
1/64" = 1'-0"
140
0.015625
141
12.0
290
     0
  0
SCALE
  5
5B
102
{ACAD_REACTORS
330
47
102
}
330
47
100
AcDbScale
 70
     0
300
1/32" = 1'-0"
140
0.03125
141
12.0
290
     0
  0
SCALE
  5
5C
102
{ACAD_REACTORS
330
47
102
}
330
47
100
AcDbScale
 70
     0
300
1/16" = 1'-0"
140
0.0625
141
12.0
290
     0
  0
SCALE
  5
5D
102
{ACAD_REACTORS
330
47
102
}
330
47
100
AcDbScale
 70
     0
300
3/32" = 1'-0"
140
0.09375
141
12.0
290
     0
  0
SCALE
  5
5E
102
{ACAD_REACTORS
330
47
102
}
330
47
100
AcDbScale
 70
     0
300
1/8" = 1'-0"
140
0.125
141
12.0
290
     0
  0
SCALE
  5
5F
102
{ACAD_REACTORS
330
47
102
}
330
47
100
AcDbScale
 70
     0
300
3/16" = 1'-0"
140
0.1875
141
12.0
290
     0
  0
SCALE
  5
60
102
{ACAD_REACTORS
330
47
102
}
330
47
100
AcDbScale
 70
     0
300
1/4" = 1'-0"
140
0.25
141
12.0
290
     0
  0
SCALE
  5
61
102
{ACAD_REACTORS
330
47
102
}
330
47
100
AcDbScale
 70
     0
300
3/8" = 1'-0"
140
0.375
141
12.0
290
     0
  0
SCALE
  5
62
102
{ACAD_REACTORS
330
47
102
}
330
47
100
AcDbScale
 70
     0
300
1/2" = 1'-0"
140
0.5
141
12.0
290
     0
  0
SCALE
  5
63
102
{ACAD_REACTORS
330
47
102
}
330
47
100
AcDbScale
 70
     0
300
3/4" = 1'-0"
140
0.75
141
12.0
290
     0
  0
SCALE
  5
64
102
{ACAD_REACTORS
330
47
102
}
330
47
100
AcDbScale
 70
     0
300
1" = 1'-0"
140
1.0
141
12.0
290
     0
  0
SCALE
  5
65
102
{ACAD_REACTORS
330
47
102
}
330
47
100
AcDbScale
 70
     0
300
1-1/2" = 1'-0"
140
1.5
141
12.0
290
     0
  0
SCALE
  5
66
102
{ACAD_REACTORS
330
47
102
}
330
47
100
AcDbScale
 70
     0
300
3" = 1'-0"
140
3.0
141
12.0
290
     0
  0
SCALE
  5
67
102
{ACAD_REACTORS
330
47
102
}
330
47
100
AcDbScale
 70
     0
300
6" = 1'-0"
140
6.0
141
12.0
290
     0
  0
SCALE
  5
68
102
{ACAD_REACTORS
330
47
102
}
330
47
100
AcDbScale
 70
     0
300
1'-0" = 1'-0"
140
12.0
141
12.0
290
     0
  0
TABLESTYLE
  5
6A
102
{ACAD_REACTORS
330
69
102
}
102
{ACAD_XDICTIONARY
360
1D5
102
}
330
69
100
AcDbTableStyle
  3
Standard
 70
     0
 71
     0
 40
0.06
 41
0.06
280
     0
281
     0
  7
Standard
140
0.18
170
     2
 62
     0
 63
   257
283
     0
 90
        4
 91
        0
  1

274
    -2
284
     1
 64
     0
275
    -2
285
     1
 65
     0
276
    -2
286
     1
 66
     0
277
    -2
287
     1
 67
     0
278
    -2
288
     1
 68
     0
279
    -2
289
     1
 69
     0
  7
Standard
140
0.25
170
     5
 62
     0
 63
   257
283
     0
 90
        4
 91
        0
  1

274
    -2
284
     1
 64
     0
275
    -2
285
     1
 65
     0
276
    -2
286
     1
 66
     0
277
    -2
287
     1
 67
     0
278
    -2
288
     1
 68
     0
279
    -2
289
     1
 69
     0
  7
Standard
140
0.18
170
     5
 62
     0
 63
   257
283
     0
 90
        4
 91
        0
  1

274
    -2
284
     1
 64
     0
275
    -2
285
     1
 65
     0
276
    -2
286
     1
 66
     0
277
    -2
287
     1
 67
     0
278
    -2
288
     1
 68
     0
279
    -2
289
     1
 69
     0
  0
VISUALSTYLE
  5
2F
102
{ACAD_REACTORS
330
2A
102
}
330
2A
100
AcDbVisualStyle
  2
2dWireframe
 70
     4
177
     3
291
     0
 70
    58
 90
        0
176
     1
 90
        2
176
     1
 90
        0
176
     1
 90
        0
176
     1
 40
0.6
176
     1
 40
30.0
176
     1
 62
     7
420
 16777215
176
     1
 90
        1
176
     1
 90
        4
176
     1
 62
     7
176
     1
 62
   257
176
     1
 90
        1
176
     1
 90
        1
176
     1
 40
1.0
176
     1
 90
        0
176
     1
 62
   257
176
     1
 40
1.0
176
     1
 90
        1
176
     1
 90
        6
176
     1
 90
        2
176
     1
 62
     7
176
     1
 90
        5
176
     1
 90
        0
176
     1
 90
        0
176
     1
290
     0
176
     1
 90
        1
176
     1
 40
0.0
176
     1
 90
        0
176
     1
290
     1
176
     1
290
     1
176
     1
290
     0
176
     1
290
     0
176
     1
290
     0
176
     1
290
     0
176
     1
290
     0
176
     1
290
     0
176
     1
290
     0
176
     1
 90
       50
176
     1
 40
0.0
176
     1
 40
1.0
176
     1
 90
        0
176
     1
 62
    18
420
        0
176
     1
 90
       50
176
     1
 90
        3
176
     1
 62
     5
420
      255
176
     1
290
     0
176
     1
 90
       50
176
     1
 90
       50
176
     1
 90
       50
176
     1
290
     0
176
     1
 90
       50
176
     1
 62
   256
176
     0
 40
1.0
176
     0
 90
        2
176
     1
  1
strokes_ogs.tif
176
     1
290
     0
176
     1
 40
1.0
176
     1
 40
1.0
176
     1
  0
VISUALSTYLE
  5
32
102
{ACAD_REACTORS
330
2A
102
}
330
2A
100
AcDbVisualStyle
  2
Basic
 70
     7
177
     3
291
     1
 70
    58
 90
        1
176
     1
 90
        0
176
     1
 90
        1
176
     1
 90
        0
176
     1
 40
0.6
176
     1
 40
30.0
176
     1
 62
     7
420
 16777215
176
     1
 90
        0
176
     1
 90
        4
176
     1
 62
     7
176
     1
 62
   257
176
     1
 90
        1
176
     1
 90
        1
176
     1
 40
1.0
176
     1
 90
        8
176
     1
 62
     7
176
     1
 40
1.0
176
     1
 90
        1
176
     1
 90
        6
176
     1
 90
        2
176
     1
 62
     7
176
     1
 90
        5
176
     1
 90
        0
176
     1
 90
        0
176
     1
290
     0
176
     1
 90
        1
176
     1
 40
0.0
176
     1
 90
        0
176
     1
290
     0
176
     1
290
     1
176
     1
290
     1
176
     1
290
     0
176
     1
290
     0
176
     1
290
     0
176
     1
290
     0
176
     1
290
     0
176
     1
290
     0
176
     1
 90
       50
176
     1
 40
0.0
176
     1
 40
1.0
176
     1
 90
        0
176
     1
 62
    18
420
        0
176
     1
 90
       50
176
     1
 90
        3
176
     1
 62
     5
420
      255
176
     1
290
     0
176
     1
 90
       50
176
     1
 90
       50
176
     1
 90
       50
176
     1
290
     0
176
     1
 90
       50
176
     1
 62
   256
176
     0
 40
1.0
176
     0
 90
        2
176
     1
  1
strokes_ogs.tif
176
     1
290
     0
176
     1
 40
1.0
176
     1
 40
1.0
176
     1
  0
VISUALSTYLE
  5
36
102
{ACAD_REACTORS
330
2A
102
}
330
2A
100
AcDbVisualStyle
  2
Brighten
 70
    12
177
     3
291
     1
 70
    58
 90
        2
176
     1
 90
        2
176
     1
 90
        0
176
     1
 90
        0
176
     1
 40
0.6
176
     1
 40
30.0
176
     1
 62
     7
420
 16777215
176
     1
 90
        1
176
     1
 90
        4
176
     1
 62
     7
176
     1
 62
   257
176
     1
 90
        1
176
     1
 90
        1
176
     1
 40
1.0
176
     1
 90
        8
176
     1
 62
     7
176
     1
 40
1.0
176
     1
 90
        1
176
     1
 90
        6
176
     1
 90
        2
176
     1
 62
     7
176
     1
 90
        5
176
     1
 90
        0
176
     1
 90
        0
176
     1
290
     0
176
     1
 90
        1
176
     1
 40
50.0
176
     1
 90
        0
176
     1
290
     0
176
     1
290
     1
176
     1
290
     1
176
     1
290
     0
176
     1
290
     0
176
     1
290
     0
176
     1
290
     0
176
     1
290
     0
176
     1
290
     0
176
     1
 90
       50
176
     1
 40
0.0
176
     1
 40
1.0
176
     1
 90
        0
176
     1
 62
    18
420
        0
176
     1
 90
       50
176
     1
 90
        3
176
     1
 62
     5
420
      255
176
     1
290
     0
176
     1
 90
       50
176
     1
 90
       50
176
     1
 90
       50
176
     1
290
     0
176
     1
 90
       50
176
     1
 62
   256
176
     0
 40
1.0
176
     0
 90
        2
176
     1
  1
strokes_ogs.tif
176
     1
290
     0
176
     1
 40
1.0
176
     1
 40
1.0
176
     1
  0
VISUALSTYLE
  5
3A
102
{ACAD_REACTORS
330
2A
102
}
330
2A
100
AcDbVisualStyle
  2
ColorChange
 70
    16
177
     3
291
     1
 70
    58
 90
        2
176
     1
 90
        2
176
     1
 90
        3
176
     1
 90
        0
176
     1
 40
0.6
176
     1
 40
30.0
176
     1
 62
     8
420
  8421504
176
     1
 90
        1
176
     1
 90
        4
176
     1
 62
     7
176
     1
 62
   257
176
     1
 90
        1
176
     1
 90
        1
176
     1
 40
1.0
176
     1
 90
        8
176
     1
 62
     8
420
  8421504
176
     1
 40
1.0
176
     1
 90
        1
176
     1
 90
        6
176
     1
 90
        2
176
     1
 62
     7
176
     1
 90
        5
176
     1
 90
        0
176
     1
 90
        0
176
     1
290
     0
176
     1
 90
        1
176
     1
 40
0.0
176
     1
 90
        0
176
     1
290
     0
176
     1
290
     1
176
     1
290
     1
176
     1
290
     0
176
     1
290
     0
176
     1
290
     0
176
     1
290
     0
176
     1
290
     0
176
     1
290
     0
176
     1
 90
       50
176
     1
 40
0.0
176
     1
 40
1.0
176
     1
 90
        0
176
     1
 62
    18
420
        0
176
     1
 90
       50
176
     1
 90
        3
176
     1
 62
     5
420
      255
176
     1
290
     0
176
     1
 90
       50
176
     1
 90
       50
176
     1
 90
       50
176
     1
290
     0
176
     1
 90
       50
176
     1
 62
   256
176
     0
 40
1.0
176
     0
 90
        2
176
     1
  1
strokes_ogs.tif
176
     1
290
     0
176
     1
 40
1.0
176
     1
 40
1.0
176
     1
  0
VISUALSTYLE
  5
34
102
{ACAD_REACTORS
330
2A
102
}
330
2A
100
AcDbVisualStyle
  2
Conceptual
 70
     9
177
     3
291
     0
 70
    58
 90
        3
176
     1
 90
        2
176
     1
 90
        0
176
     1
 90
        0
176
     1
 40
0.6
176
     1
 40
30.0
176
     1
 62
     7
420
 16777215
176
     1
 90
        2
176
     1
 90
        2
176
     1
 62
     7
176
     1
 62
   257
176
     1
 90
        1
176
     1
 90
        1
176
     1
 40
179.0
176
     1
 90
        8
176
     1
 62
     7
176
     1
 40
1.0
176
     1
 90
        1
176
     1
 90
        6
176
     1
 90
        2
176
     1
 62
     7
176
     1
 90
        3
176
     1
 90
        0
176
     1
 90
        0
176
     1
290
     0
176
     1
 90
        1
176
     1
 40
0.0
176
     1
 90
        0
176
     1
290
     0
176
     1
290
     1
176
     1
290
     1
176
     1
290
     0
176
     1
290
     0
176
     1
290
     0
176
     1
290
     0
176
     1
290
     0
176
     1
290
     0
176
     1
 90
       50
176
     1
 40
0.0
176
     1
 40
1.0
176
     1
 90
        0
176
     1
 62
    18
420
        0
176
     1
 90
       50
176
     1
 90
        3
176
     1
 62
     5
420
      255
176
     1
290
     0
176
     1
 90
       50
176
     1
 90
       50
176
     1
 90
       50
176
     1
290
     0
176
     1
 90
       50
176
     1
 62
   256
176
     0
 40
1.0
176
     0
 90
        2
176
     1
  1
strokes_ogs.tif
176
     1
290
     0
176
     1
 40
1.0
176
     1
 40
1.0
176
     1
  0
VISUALSTYLE
  5
35
102
{ACAD_REACTORS
330
2A
102
}
330
2A
100
AcDbVisualStyle
  2
Dim
 70
    11
177
     3
291
     1
 70
    58
 90
        2
176
     1
 90
        2
176
     1
 90
        0
176
     1
 90
        0
176
     1
 40
0.6
176
     1
 40
30.0
176
     1
 62
     7
420
 16777215
176
     1
 90
        1
176
     1
 90
        4
176
     1
 62
     7
176
     1
 62
   257
176
     1
 90
        1
176
     1
 90
        1
176
     1
 40
1.0
176
     1
 90
        8
176
     1
 62
     7
176
     1
 40
1.0
176
     1
 90
        1
176
     1
 90
        6
176
     1
 90
        2
176
     1
 62
     7
176
     1
 90
        5
176
     1
 90
        0
176
     1
 90
        0
176
     1
290
     0
176
     1
 90
        1
176
     1
 40
-50.0
176
     1
 90
        0
176
     1
290
     0
176
     1
290
     1
176
     1
290
     1
176
     1
290
     0
176
     1
290
     0
176
     1
290
     0
176
     1
290
     0
176
     1
290
     0
176
     1
290
     0
176
     1
 90
       50
176
     1
 40
0.0
176
     1
 40
1.0
176
     1
 90
        0
176
     1
 62
    18
420
        0
176
     1
 90
       50
176
     1
 90
        3
176
     1
 62
     5
420
      255
176
     1
290
     0
176
     1
 90
       50
176
     1
 90
       50
176
     1
 90
       50
176
     1
290
     0
176
     1
 90
       50
176
     1
 62
   256
176
     0
 40
1.0
176
     0
 90
        2
176
     1
  1
strokes_ogs.tif
176
     1
290
     0
176
     1
 40
1.0
176
     1
 40
1.0
176
     1
  0
VISUALSTYLE
  5
3D
102
{ACAD_REACTORS
330
2A
102
}
330
2A
100
AcDbVisualStyle
  2
EdgeColorOff
 70
    22
177
     3
291
     1
 70
    58
 90
        2
176
     0
 90
        2
176
     0
 90
        0
176
     0
 90
        0
176
     0
 40
0.6
176
     0
 40
30.0
176
     0
 62
     7
420
 16777215
176
     0
 90
        1
176
     0
 90
        4
176
     0
 62
     7
176
     0
 62
   257
176
     0
 90
        1
176
     0
 90
        1
176
     0
 40
1.0
176
     0
 90
        8
176
     2
 62
     7
176
     0
 40
1.0
176
     0
 90
        1
176
     0
 90
        6
176
     0
 90
        2
176
     0
 62
     7
176
     0
 90
        5
176
     0
 90
        0
176
     0
 90
        0
176
     0
290
     0
176
     0
 90
        1
176
     0
 40
0.0
176
     0
 90
        0
176
     0
290
     0
176
     0
290
     1
176
     0
290
     1
176
     0
290
     0
176
     0
290
     0
176
     0
290
     0
176
     0
290
     0
176
     0
290
     0
176
     0
290
     0
176
     0
 90
       50
176
     0
 40
0.0
176
     0
 40
1.0
176
     0
 90
        0
176
     0
 62
    18
420
        0
176
     0
 90
       50
176
     0
 90
        3
176
     0
 62
     5
420
      255
176
     0
290
     0
176
     0
 90
       50
176
     0
 90
       50
176
     0
 90
       50
176
     0
290
     0
176
     0
 90
       50
176
     0
 62
   256
176
     0
 40
1.0
176
     0
 90
        2
176
     0
  1
strokes_ogs.tif
176
     0
290
     0
176
     0
 40
1.0
176
     0
 40
1.0
176
     0
  0
VISUALSTYLE
  5
39
102
{ACAD_REACTORS
330
2A
102
}
330
2A
100
AcDbVisualStyle
  2
Facepattern
 70
    15
177
     3
291
     1
 70
    58
 90
        2
176
     1
 90
        2
176
     1
 90
        0
176
     1
 90
        0
176
     1
 40
0.6
176
     1
 40
30.0
176
     1
 62
     7
420
 16777215
176
     1
 90
        1
176
     1
 90
        4
176
     1
 62
     7
176
     1
 62
   257
176
     1
 90
        1
176
     1
 90
        1
176
     1
 40
1.0
176
     1
 90
        8
176
     1
 62
     7
176
     1
 40
1.0
176
     1
 90
        1
176
     1
 90
        6
176
     1
 90
        2
176
     1
 62
     7
176
     1
 90
        5
176
     1
 90
        0
176
     1
 90
        0
176
     1
290
     0
176
     1
 90
        1
176
     1
 40
0.0
176
     1
 90
        0
176
     1
290
     0
176
     1
290
     1
176
     1
290
     1
176
     1
290
     0
176
     1
290
     0
176
     1
290
     0
176
     1
290
     0
176
     1
290
     0
176
     1
290
     0
176
     1
 90
       50
176
     1
 40
0.0
176
     1
 40
1.0
176
     1
 90
        0
176
     1
 62
    18
420
        0
176
     1
 90
       50
176
     1
 90
        3
176
     1
 62
     5
420
      255
176
     1
290
     0
176
     1
 90
       50
176
     1
 90
       50
176
     1
 90
       50
176
     1
290
     0
176
     1
 90
       50
176
     1
 62
   256
176
     0
 40
1.0
176
     0
 90
        2
176
     1
  1
strokes_ogs.tif
176
     1
290
     0
176
     1
 40
1.0
176
     1
 40
1.0
176
     1
  0
VISUALSTYLE
  5
2B
102
{ACAD_REACTORS
330
2A
102
}
330
2A
100
AcDbVisualStyle
  2
Flat
 70
     0
177
     3
291
     1
 70
    58
 90
        2
176
     1
 90
        1
176
     1
 90
        1
176
     1
 90
        2
176
     1
 40
0.6
176
     1
 40
30.0
176
     1
 62
     7
420
 16777215
176
     1
 90
        0
176
     1
 90
        0
176
     1
 62
     7
176
     1
 62
   257
176
     1
 90
        1
176
     1
 90
        1
176
     1
 40
1.0
176
     1
 90
        8
176
     1
 62
     7
176
     1
 40
1.0
176
     1
 90
        1
176
     1
 90
        6
176
     1
 90
        2
176
     1
 62
     7
176
     1
 90
        5
176
     1
 90
        0
176
     1
 90
        0
176
     1
290
     0
176
     1
 90
       13
176
     1
 40
0.0
176
     1
 90
        0
176
     1
290
     0
176
     1
290
     1
176
     1
290
     1
176
     1
290
     0
176
     1
290
     0
176
     1
290
     0
176
     1
290
     0
176
     1
290
     0
176
     1
290
     0
176
     1
 90
       50
176
     1
 40
0.0
176
     1
 40
1.0
176
     1
 90
        0
176
     1
 62
    18
420
        0
176
     1
 90
       50
176
     1
 90
        3
176
     1
 62
     5
420
      255
176
     1
290
     0
176
     1
 90
       50
176
     1
 90
       50
176
     1
 90
       50
176
     1
290
     0
176
     1
 90
       50
176
     1
 62
   256
176
     0
 40
1.0
176
     0
 90
        2
176
     1
  1
strokes_ogs.tif
176
     1
290
     0
176
     1
 40
1.0
176
     1
 40
1.0
176
     1
  0
VISUALSTYLE
  5
2C
102
{ACAD_REACTORS
330
2A
102
}
330
2A
100
AcDbVisualStyle
  2
FlatWithEdges
 70
     1
177
     3
291
     1
 70
    58
 90
        2
176
     1
 90
        1
176
     1
 90
        1
176
     1
 90
        2
176
     1
 40
0.6
176
     1
 40
30.0
176
     1
 62
     7
420
 16777215
176
     1
 90
        1
176
     1
 90
        0
176
     1
 62
     7
176
     1
 62
   257
176
     1
 90
        1
176
     1
 90
        1
176
     1
 40
1.0
176
     1
 90
        0
176
     1
 62
   257
176
     1
 40
1.0
176
     1
 90
        1
176
     1
 90
        6
176
     1
 90
        2
176
     1
 62
     7
176
     1
 90
        5
176
     1
 90
        0
176
     1
 90
        0
176
     1
290
     0
176
     1
 90
       13
176
     1
 40
0.0
176
     1
 90
        0
176
     1
290
     0
176
     1
290
     1
176
     1
290
     1
176
     1
290
     0
176
     1
290
     0
176
     1
290
     0
176
     1
290
     0
176
     1
290
     0
176
     1
290
     0
176
     1
 90
       50
176
     1
 40
0.0
176
     1
 40
1.0
176
     1
 90
        0
176
     1
 62
    18
420
        0
176
     1
 90
       50
176
     1
 90
        3
176
     1
 62
     5
420
      255
176
     1
290
     0
176
     1
 90
       50
176
     1
 90
       50
176
     1
 90
       50
176
     1
290
     0
176
     1
 90
       50
176
     1
 62
   256
176
     0
 40
1.0
176
     0
 90
        2
176
     1
  1
strokes_ogs.tif
176
     1
290
     0
176
     1
 40
1.0
176
     1
 40
1.0
176
     1
  0
VISUALSTYLE
  5
2D
102
{ACAD_REACTORS
330
2A
102
}
330
2A
100
AcDbVisualStyle
  2
Gouraud
 70
     2
177
     3
291
     1
 70
    58
 90
        2
176
     1
 90
        2
176
     1
 90
        1
176
     1
 90
        2
176
     1
 40
0.6
176
     1
 40
30.0
176
     1
 62
     7
420
 16777215
176
     1
 90
        0
176
     1
 90
        0
176
     1
 62
     7
176
     1
 62
   257
176
     1
 90
        1
176
     1
 90
        1
176
     1
 40
1.0
176
     1
 90
        0
176
     1
 62
     7
176
     1
 40
1.0
176
     1
 90
        1
176
     1
 90
        6
176
     1
 90
        2
176
     1
 62
     7
176
     1
 90
        5
176
     1
 90
        0
176
     1
 90
        0
176
     1
290
     0
176
     1
 90
       13
176
     1
 40
0.0
176
     1
 90
        0
176
     1
290
     0
176
     1
290
     1
176
     1
290
     1
176
     1
290
     0
176
     1
290
     0
176
     1
290
     0
176
     1
290
     0
176
     1
290
     0
176
     1
290
     0
176
     1
 90
       50
176
     1
 40
0.0
176
     1
 40
1.0
176
     1
 90
        0
176
     1
 62
    18
420
        0
176
     1
 90
       50
176
     1
 90
        3
176
     1
 62
     5
420
      255
176
     1
290
     0
176
     1
 90
       50
176
     1
 90
       50
176
     1
 90
       50
176
     1
290
     0
176
     1
 90
       50
176
     1
 62
   256
176
     0
 40
1.0
176
     0
 90
        2
176
     1
  1
strokes_ogs.tif
176
     1
290
     0
176
     1
 40
1.0
176
     1
 40
1.0
176
     1
  0
VISUALSTYLE
  5
2E
102
{ACAD_REACTORS
330
2A
102
}
330
2A
100
AcDbVisualStyle
  2
GouraudWithEdges
 70
     3
177
     3
291
     1
 70
    58
 90
        2
176
     1
 90
        2
176
     1
 90
        1
176
     1
 90
        2
176
     1
 40
0.6
176
     1
 40
30.0
176
     1
 62
     7
420
 16777215
176
     1
 90
        1
176
     1
 90
        0
176
     1
 62
     7
176
     1
 62
   257
176
     1
 90
        1
176
     1
 90
        1
176
     1
 40
1.0
176
     1
 90
        0
176
     1
 62
   257
176
     1
 40
1.0
176
     1
 90
        1
176
     1
 90
        6
176
     1
 90
        2
176
     1
 62
     7
176
     1
 90
        5
176
     1
 90
        0
176
     1
 90
        0
176
     1
290
     0
176
     1
 90
       13
176
     1
 40
0.0
176
     1
 90
        0
176
     1
290
     0
176
     1
290
     1
176
     1
290
     1
176
     1
290
     0
176
     1
290
     0
176
     1
290
     0
176
     1
290
     0
176
     1
290
     0
176
     1
290
     0
176
     1
 90
       50
176
     1
 40
0.0
176
     1
 40
1.0
176
     1
 90
        0
176
     1
 62
    18
420
        0
176
     1
 90
       50
176
     1
 90
        3
176
     1
 62
     5
420
      255
176
     1
290
     0
176
     1
 90
       50
176
     1
 90
       50
176
     1
 90
       50
176
     1
290
     0
176
     1
 90
       50
176
     1
 62
   256
176
     0
 40
1.0
176
     0
 90
        2
176
     1
  1
strokes_ogs.tif
176
     1
290
     0
176
     1
 40
1.0
176
     1
 40
1.0
176
     1
  0
VISUALSTYLE
  5
31
102
{ACAD_REACTORS
330
2A
102
}
330
2A
100
AcDbVisualStyle
  2
Hidden
 70
     6
177
     3
291
     0
 70
    58
 90
        1
176
     1
 90
        2
176
     1
 90
        2
176
     1
 90
        0
176
     1
 40
0.6
176
     1
 40
30.0
176
     1
 62
     7
420
 16777215
176
     1
 90
        2
176
     1
 90
        2
176
     1
 62
     7
176
     1
 62
   257
176
     1
 90
        2
176
     1
 90
        1
176
     1
 40
40.0
176
     1
 90
        0
176
     1
 62
   257
176
     1
 40
1.0
176
     1
 90
        1
176
     1
 90
        6
176
     1
 90
        2
176
     1
 62
     7
176
     1
 90
        3
176
     1
 90
        0
176
     1
 90
        0
176
     1
290
     0
176
     1
 90
        1
176
     1
 40
0.0
176
     1
 90
        0
176
     1
290
     0
176
     1
290
     1
176
     1
290
     1
176
     1
290
     0
176
     1
290
     0
176
     1
290
     0
176
     1
290
     0
176
     1
290
     0
176
     1
290
     0
176
     1
 90
       50
176
     1
 40
0.0
176
     1
 40
1.0
176
     1
 90
        0
176
     1
 62
    18
420
        0
176
     1
 90
       50
176
     1
 90
        3
176
     1
 62
     5
420
      255
176
     1
290
     0
176
     1
 90
       50
176
     1
 90
       50
176
     1
 90
       50
176
     1
290
     0
176
     1
 90
       50
176
     1
 62
   256
176
     0
 40
1.0
176
     0
 90
        2
176
     1
  1
strokes_ogs.tif
176
     1
290
     0
176
     1
 40
1.0
176
     1
 40
1.0
176
     1
  0
VISUALSTYLE
  5
3B
102
{ACAD_REACTORS
330
2A
102
}
330
2A
100
AcDbVisualStyle
  2
JitterOff
 70
    20
177
     3
291
     1
 70
    58
 90
        2
176
     0
 90
        2
176
     0
 90
        0
176
     0
 90
        0
176
     0
 40
0.6
176
     0
 40
30.0
176
     0
 62
     7
420
 16777215
176
     0
 90
        1
176
     0
 90
        4
176
     0
 62
     7
176
     0
 62
   257
176
     0
 90
        1
176
     0
 90
        1
176
     0
 40
1.0
176
     0
 90
       10
176
     2
 62
     7
176
     0
 40
1.0
176
     0
 90
        1
176
     0
 90
        6
176
     0
 90
        2
176
     0
 62
     7
176
     0
 90
        5
176
     0
 90
        0
176
     0
 90
        0
176
     0
290
     0
176
     0
 90
        1
176
     0
 40
0.0
176
     0
 90
        0
176
     0
290
     0
176
     0
290
     1
176
     0
290
     1
176
     0
290
     0
176
     0
290
     0
176
     0
290
     0
176
     0
290
     0
176
     0
290
     0
176
     0
290
     0
176
     0
 90
       50
176
     0
 40
0.0
176
     0
 40
1.0
176
     0
 90
        0
176
     0
 62
    18
420
        0
176
     0
 90
       50
176
     0
 90
        3
176
     0
 62
     5
420
      255
176
     0
290
     0
176
     0
 90
       50
176
     0
 90
       50
176
     0
 90
       50
176
     0
290
     0
176
     0
 90
       50
176
     0
 62
   256
176
     0
 40
1.0
176
     0
 90
        2
176
     0
  1
strokes_ogs.tif
176
     0
290
     0
176
     0
 40
1.0
176
     0
 40
1.0
176
     0
  0
VISUALSTYLE
  5
38
102
{ACAD_REACTORS
330
2A
102
}
330
2A
100
AcDbVisualStyle
  2
Linepattern
 70
    14
177
     3
291
     1
 70
    58
 90
        2
176
     1
 90
        2
176
     1
 90
        0
176
     1
 90
        0
176
     1
 40
0.6
176
     1
 40
30.0
176
     1
 62
     7
420
 16777215
176
     1
 90
        1
176
     1
 90
        4
176
     1
 62
     7
176
     1
 62
   257
176
     1
 90
        7
176
     1
 90
        7
176
     1
 40
1.0
176
     1
 90
        8
176
     1
 62
     7
176
     1
 40
1.0
176
     1
 90
        1
176
     1
 90
        6
176
     1
 90
        2
176
     1
 62
     7
176
     1
 90
        5
176
     1
 90
        0
176
     1
 90
        0
176
     1
290
     0
176
     1
 90
        1
176
     1
 40
0.0
176
     1
 90
        0
176
     1
290
     0
176
     1
290
     1
176
     1
290
     1
176
     1
290
     0
176
     1
290
     0
176
     1
290
     0
176
     1
290
     0
176
     1
290
     0
176
     1
290
     0
176
     1
 90
       50
176
     1
 40
0.0
176
     1
 40
1.0
176
     1
 90
        0
176
     1
 62
    18
420
        0
176
     1
 90
       50
176
     1
 90
        3
176
     1
 62
     5
420
      255
176
     1
290
     0
176
     1
 90
       50
176
     1
 90
       50
176
     1
 90
       50
176
     1
290
     0
176
     1
 90
       50
176
     1
 62
   256
176
     0
 40
1.0
176
     0
 90
        2
176
     1
  1
strokes_ogs.tif
176
     1
290
     0
176
     1
 40
1.0
176
     1
 40
1.0
176
     1
  0
VISUALSTYLE
  5
3C
102
{ACAD_REACTORS
330
2A
102
}
330
2A
100
AcDbVisualStyle
  2
OverhangOff
 70
    21
177
     3
291
     1
 70
    58
 90
        2
176
     0
 90
        2
176
     0
 90
        0
176
     0
 90
        0
176
     0
 40
0.6
176
     0
 40
30.0
176
     0
 62
     7
420
 16777215
176
     0
 90
        1
176
     0
 90
        4
176
     0
 62
     7
176
     0
 62
   257
176
     0
 90
        1
176
     0
 90
        1
176
     0
 40
1.0
176
     0
 90
        9
176
     2
 62
     7
176
     0
 40
1.0
176
     0
 90
        1
176
     0
 90
        6
176
     0
 90
        2
176
     0
 62
     7
176
     0
 90
        5
176
     0
 90
        0
176
     0
 90
        0
176
     0
290
     0
176
     0
 90
        1
176
     0
 40
0.0
176
     0
 90
        0
176
     0
290
     0
176
     0
290
     1
176
     0
290
     1
176
     0
290
     0
176
     0
290
     0
176
     0
290
     0
176
     0
290
     0
176
     0
290
     0
176
     0
290
     0
176
     0
 90
       50
176
     0
 40
0.0
176
     0
 40
1.0
176
     0
 90
        0
176
     0
 62
    18
420
        0
176
     0
 90
       50
176
     0
 90
        3
176
     0
 62
     5
420
      255
176
     0
290
     0
176
     0
 90
       50
176
     0
 90
       50
176
     0
 90
       50
176
     0
290
     0
176
     0
 90
       50
176
     0
 62
   256
176
     0
 40
1.0
176
     0
 90
        2
176
     0
  1
strokes_ogs.tif
176
     0
290
     0
176
     0
 40
1.0
176
     0
 40
1.0
176
     0
  0
VISUALSTYLE
  5
33
102
{ACAD_REACTORS
330
2A
102
}
330
2A
100
AcDbVisualStyle
  2
Realistic
 70
     8
177
     3
291
     0
 70
    58
 90
        2
176
     1
 90
        3
176
     1
 90
        0
176
     1
 90
        2
176
     1
 40
0.6
176
     1
 40
30.0
176
     1
 62
     7
420
 16777215
176
     1
 90
        0
176
     1
 90
        0
176
     1
 62
     7
176
     1
 62
   257
176
     1
 90
        1
176
     1
 90
        1
176
     1
 40
1.0
176
     1
 90
        8
176
     1
 62
   257
176
     1
 40
1.0
176
     1
 90
        1
176
     1
 90
        6
176
     1
 90
        2
176
     1
 62
     7
176
     1
 90
        3
176
     1
 90
        0
176
     1
 90
        0
176
     1
290
     0
176
     1
 90
       13
176
     1
 40
0.0
176
     1
 90
        0
176
     1
290
     0
176
     1
290
     1
176
     1
290
     1
176
     1
290
     0
176
     1
290
     0
176
     1
290
     0
176
     1
290
     0
176
     1
290
     0
176
     1
290
     0
176
     1
 90
       50
176
     1
 40
0.0
176
     1
 40
1.0
176
     1
 90
        0
176
     1
 62
    18
420
        0
176
     1
 90
       50
176
     1
 90
        3
176
     1
 62
     5
420
      255
176
     1
290
     0
176
     1
 90
       50
176
     1
 90
       50
176
     1
 90
       50
176
     1
290
     0
176
     1
 90
       50
176
     1
 62
   256
176
     0
 40
1.0
176
     0
 90
        2
176
     1
  1
strokes_ogs.tif
176
     1
290
     0
176
     1
 40
1.0
176
     1
 40
1.0
176
     1
  0
VISUALSTYLE
  5
42
102
{ACAD_REACTORS
330
2A
102
}
330
2A
100
AcDbVisualStyle
  2
Shaded
 70
    27
177
     3
291
     0
 70
    58
 90
        2
176
     1
 90
        2
176
     1
 90
        1
176
     1
 90
        2
176
     1
 40
0.6
176
     1
 40
30.0
176
     1
 62
     7
420
 16777215
176
     1
 90
        0
176
     1
 90
        4
176
     1
 62
     7
176
     1
 62
   257
176
     1
 90
        1
176
     1
 90
        1
176
     1
 40
1.0
176
     1
 90
        8
176
     1
 62
   257
176
     1
 40
1.0
176
     1
 90
        1
176
     1
 90
        6
176
     1
 90
        2
176
     1
 62
     8
420
  7895160
176
     1
 90
        3
176
     1
 90
        0
176
     1
 90
        0
176
     1
290
     0
176
     1
 90
        5
176
     1
 40
0.0
176
     1
 90
        0
176
     1
290
     0
176
     1
290
     1
176
     1
290
     1
176
     1
290
     0
176
     1
290
     0
176
     1
290
     0
176
     1
290
     0
176
     1
290
     0
176
     1
290
     0
176
     1
 90
       50
176
     1
 40
0.0
176
     1
 40
1.0
176
     1
 90
        0
176
     1
 62
    18
420
        0
176
     1
 90
       50
176
     1
 90
        3
176
     1
 62
     5
420
      255
176
     1
290
     0
176
     1
 90
       50
176
     1
 90
       50
176
     1
 90
       50
176
     1
290
     0
176
     1
 90
       50
176
     1
 62
   256
176
     0
 40
1.0
176
     0
 90
        2
176
     1
  1
strokes_ogs.tif
176
     1
290
     0
176
     1
 40
1.0
176
     1
 40
1.0
176
     1
  0
VISUALSTYLE
  5
41
102
{ACAD_REACTORS
330
2A
102
}
330
2A
100
AcDbVisualStyle
  2
Shaded with edges
 70
    26
177
     3
291
     0
 70
    58
 90
        2
176
     1
 90
        2
176
     1
 90
        1
176
     1
 90
        2
176
     1
 40
0.6
176
     1
 40
30.0
176
     1
 62
     7
420
 16777215
176
     1
 90
        1
176
     1
 90
       10
176
     1
 62
     7
176
     1
 62
   257
176
     1
 90
        2
176
     1
 90
        1
176
     1
 40
1.0
176
     1
 90
        8
176
     1
 62
   257
176
     1
 40
1.0
176
     1
 90
        1
176
     1
 90
        6
176
     1
 90
        2
176
     1
 62
     7
176
     1
 90
        3
176
     1
 90
        0
176
     1
 90
        0
176
     1
290
     0
176
     1
 90
        5
176
     1
 40
0.0
176
     1
 90
        0
176
     1
290
     0
176
     1
290
     1
176
     1
290
     1
176
     1
290
     0
176
     1
290
     0
176
     1
290
     0
176
     1
290
     0
176
     1
290
     0
176
     1
290
     0
176
     1
 90
       50
176
     1
 40
0.0
176
     1
 40
1.0
176
     1
 90
        0
176
     1
 62
    18
420
        0
176
     1
 90
       50
176
     1
 90
        3
176
     1
 62
     5
420
      255
176
     1
290
     0
176
     1
 90
       50
176
     1
 90
       50
176
     1
 90
       50
176
     1
290
     0
176
     1
 90
       50
176
     1
 62
   256
176
     0
 40
1.0
176
     0
 90
        2
176
     1
  1
strokes_ogs.tif
176
     1
290
     0
176
     1
 40
1.0
176
     1
 40
1.0
176
     1
  0
VISUALSTYLE
  5
3E
102
{ACAD_REACTORS
330
2A
102
}
330
2A
100
AcDbVisualStyle
  2
Shades of Gray
 70
    23
177
     3
291
     0
 70
    58
 90
        2
176
     1
 90
        2
176
     1
 90
        3
176
     1
 90
        0
176
     1
 40
0.6
176
     1
 40
30.0
176
     1
 62
     7
420
 16777215
176
     1
 90
        2
176
     1
 90
        2
176
     1
 62
     7
176
     1
 62
     7
176
     1
 90
        1
176
     1
 90
        1
176
     1
 40
40.0
176
     1
 90
        8
176
     1
 62
     7
176
     1
 40
1.0
176
     1
 90
        1
176
     1
 90
        6
176
     1
 90
        2
176
     1
 62
     7
176
     1
 90
        3
176
     1
 90
        0
176
     1
 90
        0
176
     1
290
     0
176
     1
 90
        1
176
     1
 40
0.0
176
     1
 90
        0
176
     1
290
     0
176
     1
290
     1
176
     1
290
     1
176
     1
290
     0
176
     1
290
     0
176
     1
290
     0
176
     1
290
     0
176
     1
290
     0
176
     1
290
     0
176
     1
 90
       50
176
     1
 40
0.0
176
     1
 40
1.0
176
     1
 90
        0
176
     1
 62
    18
420
        0
176
     1
 90
       50
176
     1
 90
        3
176
     1
 62
     5
420
      255
176
     1
290
     0
176
     1
 90
       50
176
     1
 90
       50
176
     1
 90
       50
176
     1
290
     0
176
     1
 90
       50
176
     1
 62
   256
176
     0
 40
1.0
176
     0
 90
        2
176
     1
  1
strokes_ogs.tif
176
     1
290
     0
176
     1
 40
1.0
176
     1
 40
1.0
176
     1
  0
VISUALSTYLE
  5
3F
102
{ACAD_REACTORS
330
2A
102
}
330
2A
100
AcDbVisualStyle
  2
Sketchy
 70
    24
177
     3
291
     0
 70
    58
 90
        1
176
     1
 90
        2
176
     1
 90
        2
176
     1
 90
        0
176
     1
 40
0.6
176
     1
 40
30.0
176
     1
 62
     7
420
 16777215
176
     1
 90
        2
176
     1
 90
        2
176
     1
 62
     7
176
     1
 62
     7
176
     1
 90
        1
176
     1
 90
        1
176
     1
 40
40.0
176
     1
 90
       11
176
     1
 62
     7
176
     1
 40
1.0
176
     1
 90
        1
176
     1
 90
        6
176
     1
 90
        2
176
     1
 62
     7
176
     1
 90
        6
176
     1
 90
        0
176
     1
 90
        0
176
     1
290
     0
176
     1
 90
        1
176
     1
 40
0.0
176
     1
 90
        0
176
     1
290
     0
176
     1
290
     1
176
     1
290
     1
176
     1
290
     0
176
     1
290
     0
176
     1
290
     0
176
     1
290
     0
176
     1
290
     0
176
     1
290
     0
176
     1
 90
       50
176
     1
 40
0.0
176
     1
 40
1.0
176
     1
 90
        0
176
     1
 62
    18
420
        0
176
     1
 90
       50
176
     1
 90
        3
176
     1
 62
     5
420
      255
176
     1
290
     0
176
     1
 90
       50
176
     1
 90
       50
176
     1
 90
       50
176
     1
290
     0
176
     1
 90
       50
176
     1
 62
   256
176
     0
 40
1.0
176
     0
 90
        2
176
     1
  1
strokes_ogs.tif
176
     1
290
     0
176
     1
 40
1.0
176
     1
 40
1.0
176
     1
  0
VISUALSTYLE
  5
37
102
{ACAD_REACTORS
330
2A
102
}
330
2A
100
AcDbVisualStyle
  2
Thicken
 70
    13
177
     3
291
     1
 70
    58
 90
        2
176
     1
 90
        2
176
     1
 90
        0
176
     1
 90
        0
176
     1
 40
0.6
176
     1
 40
30.0
176
     1
 62
     7
420
 16777215
176
     1
 90
        1
176
     1
 90
        4
176
     1
 62
     7
176
     1
 62
   257
176
     1
 90
        1
176
     1
 90
        1
176
     1
 40
1.0
176
     1
 90
       12
176
     1
 62
     7
176
     1
 40
1.0
176
     1
 90
        1
176
     1
 90
        6
176
     1
 90
        2
176
     1
 62
     7
176
     1
 90
        5
176
     1
 90
        0
176
     1
 90
        0
176
     1
290
     0
176
     1
 90
        1
176
     1
 40
0.0
176
     1
 90
        0
176
     1
290
     0
176
     1
290
     1
176
     1
290
     1
176
     1
290
     0
176
     1
290
     0
176
     1
290
     0
176
     1
290
     0
176
     1
290
     0
176
     1
290
     0
176
     1
 90
       50
176
     1
 40
0.0
176
     1
 40
1.0
176
     1
 90
        0
176
     1
 62
    18
420
        0
176
     1
 90
       50
176
     1
 90
        3
176
     1
 62
     5
420
      255
176
     1
290
     0
176
     1
 90
       50
176
     1
 90
       50
176
     1
 90
       50
176
     1
290
     0
176
     1
 90
       50
176
     1
 62
   256
176
     0
 40
1.0
176
     0
 90
        2
176
     1
  1
strokes_ogs.tif
176
     1
290
     0
176
     1
 40
1.0
176
     1
 40
1.0
176
     1
  0
VISUALSTYLE
  5
30
102
{ACAD_REACTORS
330
2A
102
}
330
2A
100
AcDbVisualStyle
  2
Wireframe
 70
     5
177
     3
291
     0
 70
    58
 90
        0
176
     1
 90
        2
176
     1
 90
        0
176
     1
 90
        0
176
     1
 40
0.6
176
     1
 40
30.0
176
     1
 62
     7
420
 16777215
176
     1
 90
        1
176
     1
 90
        4
176
     1
 62
     7
176
     1
 62
   257
176
     1
 90
        1
176
     1
 90
        1
176
     1
 40
1.0
176
     1
 90
        0
176
     1
 62
   257
176
     1
 40
1.0
176
     1
 90
        1
176
     1
 90
        6
176
     1
 90
        2
176
     1
 62
     7
176
     1
 90
        3
176
     1
 90
        0
176
     1
 90
        0
176
     1
290
     0
176
     1
 90
        1
176
     1
 40
0.0
176
     1
 90
        0
176
     1
290
     0
176
     1
290
     1
176
     1
290
     1
176
     1
290
     0
176
     1
290
     0
176
     1
290
     0
176
     1
290
     0
176
     1
290
     0
176
     1
290
     0
176
     1
 90
       50
176
     1
 40
0.0
176
     1
 40
1.0
176
     1
 90
        0
176
     1
 62
    18
420
        0
176
     1
 90
       50
176
     1
 90
        3
176
     1
 62
     5
420
      255
176
     1
290
     0
176
     1
 90
       50
176
     1
 90
       50
176
     1
 90
       50
176
     1
290
     0
176
     1
 90
       50
176
     1
 62
   256
176
     0
 40
1.0
176
     0
 90
        2
176
     1
  1
strokes_ogs.tif
176
     1
290
     0
176
     1
 40
1.0
176
     1
 40
1.0
176
     1
  0
VISUALSTYLE
  5
40
102
{ACAD_REACTORS
330
2A
102
}
330
2A
100
AcDbVisualStyle
  2
X-Ray
 70
    25
177
     3
291
     0
 70
    58
 90
        2
176
     1
 90
        2
176
     1
 90
        1
176
     1
 90
        1
176
     1
 40
0.5
176
     1
 40
30.0
176
     1
 62
     7
420
 16777215
176
     1
 90
        1
176
     1
 90
        0
176
     1
 62
     7
176
     1
 62
   257
176
     1
 90
        1
176
     1
 90
        1
176
     1
 40
1.0
176
     1
 90
        8
176
     1
 62
     7
176
     1
 40
1.0
176
     1
 90
        1
176
     1
 90
        6
176
     1
 90
        2
176
     1
 62
     7
176
     1
 90
        3
176
     1
 90
        0
176
     1
 90
        0
176
     1
290
     0
176
     1
 90
       13
176
     1
 40
0.0
176
     1
 90
        0
176
     1
290
     0
176
     1
290
     1
176
     1
290
     1
176
     1
290
     0
176
     1
290
     0
176
     1
290
     0
176
     1
290
     0
176
     1
290
     0
176
     1
290
     0
176
     1
 90
       50
176
     1
 40
0.0
176
     1
 40
1.0
176
     1
 90
        0
176
     1
 62
    18
420
        0
176
     1
 90
       50
176
     1
 90
        3
176
     1
 62
     5
420
      255
176
     1
290
     0
176
     1
 90
       50
176
     1
 90
       50
176
     1
 90
       50
176
     1
290
     0
176
     1
 90
       50
176
     1
 62
   256
176
     0
 40
1.0
176
     0
 90
        2
176
     1
  1
strokes_ogs.tif
176
     1
290
     0
176
     1
 40
1.0
176
     1
 40
1.0
176
     1
  0
DICTIONARYVAR
  5
1D4
102
{ACAD_REACTORS
330
1D3
102
}
330
1D3
100
DictionaryVariables
280
     0
  1
1:1
  0
DICTIONARYVAR
  5
1D9
102
{ACAD_REACTORS
330
1D3
102
}
330
1D3
100
DictionaryVariables
280
     0
  1
Standard
  0
DICTIONARYVAR
  5
1D8
102
{ACAD_REACTORS
330
1D3
102
}
330
1D3
100
DictionaryVariables
280
     0
  1
Standard
  0
DICTIONARY
  5
1D5
330
6A
100
AcDbDictionary
280
     1
281
     1
  3
ACAD_ROUNDTRIP_2008_TABLESTYLE_CELLSTYLEMAP
360
1D6
  0
CELLSTYLEMAP
  5
1D6
102
{ACAD_REACTORS
330
1D5
102
}
330
1D5
100
AcDbCellStyleMap
 90
        3
300
CELLSTYLE
  1
TABLEFORMAT_BEGIN
 90
        5
170
     1
 91
        0
 92
    32768
 62
   257
 93
        1
300
CONTENTFORMAT
  1
CONTENTFORMAT_BEGIN
 90
        0
 91
        0
 92
        4
 93
        0
300

 40
0.0
140
1.0
 94
        5
 62
     0
340
11
144
0.25
309
CONTENTFORMAT_END
171
     1
301
MARGIN
  1
CELLMARGIN_BEGIN
 40
0.06
 40
0.06
 40
0.06
 40
0.06
 40
0.06
 40
0.06
309
CELLMARGIN_END
 94
        6
 95
        1
302
GRIDFORMAT
  1
GRIDFORMAT_BEGIN
 90
        0
 91
        1
 62
     0
 92
       -2
340
14
 93
        0
 40
0.045
309
GRIDFORMAT_END
 95
        2
302
GRIDFORMAT
  1
GRIDFORMAT_BEGIN
 90
        0
 91
        1
 62
     0
 92
       -2
340
14
 93
        0
 40
0.045
309
GRIDFORMAT_END
 95
        4
302
GRIDFORMAT
  1
GRIDFORMAT_BEGIN
 90
        0
 91
        1
 62
     0
 92
       -2
340
14
 93
        0
 40
0.045
309
GRIDFORMAT_END
 95
        8
302
GRIDFORMAT
  1
GRIDFORMAT_BEGIN
 90
        0
 91
        1
 62
     0
 92
       -2
340
14
 93
        0
 40
0.045
309
GRIDFORMAT_END
 95
       16
302
GRIDFORMAT
  1
GRIDFORMAT_BEGIN
 90
        0
 91
        1
 62
     0
 92
       -2
340
14
 93
        0
 40
0.045
309
GRIDFORMAT_END
 95
       32
302
GRIDFORMAT
  1
GRIDFORMAT_BEGIN
 90
        0
 91
        1
 62
     0
 92
       -2
340
14
 93
        0
 40
0.045
309
GRIDFORMAT_END
309
TABLEFORMAT_END
  1
CELLSTYLE_BEGIN
 90
        1
 91
        1
300
_TITLE
309
CELLSTYLE_END
300
CELLSTYLE
  1
TABLEFORMAT_BEGIN
 90
        5
170
     1
 91
        0
 92
        0
 62
   257
 93
        1
300
CONTENTFORMAT
  1
CONTENTFORMAT_BEGIN
 90
        0
 91
        0
 92
        4
 93
        0
300

 40
0.0
140
1.0
 94
        5
 62
     0
340
11
144
0.18
309
CONTENTFORMAT_END
171
     1
301
MARGIN
  1
CELLMARGIN_BEGIN
 40
0.06
 40
0.06
 40
0.06
 40
0.06
 40
0.06
 40
0.06
309
CELLMARGIN_END
 94
        6
 95
        1
302
GRIDFORMAT
  1
GRIDFORMAT_BEGIN
 90
        0
 91
        1
 62
     0
 92
       -2
340
14
 93
        0
 40
0.045
309
GRIDFORMAT_END
 95
        2
302
GRIDFORMAT
  1
GRIDFORMAT_BEGIN
 90
        0
 91
        1
 62
     0
 92
       -2
340
14
 93
        0
 40
0.045
309
GRIDFORMAT_END
 95
        4
302
GRIDFORMAT
  1
GRIDFORMAT_BEGIN
 90
        0
 91
        1
 62
     0
 92
       -2
340
14
 93
        0
 40
0.045
309
GRIDFORMAT_END
 95
        8
302
GRIDFORMAT
  1
GRIDFORMAT_BEGIN
 90
        0
 91
        1
 62
     0
 92
       -2
340
14
 93
        0
 40
0.045
309
GRIDFORMAT_END
 95
       16
302
GRIDFORMAT
  1
GRIDFORMAT_BEGIN
 90
        0
 91
        1
 62
     0
 92
       -2
340
14
 93
        0
 40
0.045
309
GRIDFORMAT_END
 95
       32
302
GRIDFORMAT
  1
GRIDFORMAT_BEGIN
 90
        0
 91
        1
 62
     0
 92
       -2
340
14
 93
        0
 40
0.045
309
GRIDFORMAT_END
309
TABLEFORMAT_END
  1
CELLSTYLE_BEGIN
 90
        2
 91
        1
300
_HEADER
309
CELLSTYLE_END
300
CELLSTYLE
  1
TABLEFORMAT_BEGIN
 90
        5
170
     1
 91
        0
 92
        0
 62
   257
 93
        1
300
CONTENTFORMAT
  1
CONTENTFORMAT_BEGIN
 90
        0
 91
        0
 92
        4
 93
        0
300

 40
0.0
140
1.0
 94
        2
 62
     0
340
11
144
0.18
309
CONTENTFORMAT_END
171
     1
301
MARGIN
  1
CELLMARGIN_BEGIN
 40
0.06
 40
0.06
 40
0.06
 40
0.06
 40
0.06
 40
0.06
309
CELLMARGIN_END
 94
        6
 95
        1
302
GRIDFORMAT
  1
GRIDFORMAT_BEGIN
 90
        0
 91
        1
 62
     0
 92
       -2
340
14
 93
        0
 40
0.045
309
GRIDFORMAT_END
 95
        2
302
GRIDFORMAT
  1
GRIDFORMAT_BEGIN
 90
        0
 91
        1
 62
     0
 92
       -2
340
14
 93
        0
 40
0.045
309
GRIDFORMAT_END
 95
        4
302
GRIDFORMAT
  1
GRIDFORMAT_BEGIN
 90
        0
 91
        1
 62
     0
 92
       -2
340
14
 93
        0
 40
0.045
309
GRIDFORMAT_END
 95
        8
302
GRIDFORMAT
  1
GRIDFORMAT_BEGIN
 90
        0
 91
        1
 62
     0
 92
       -2
340
14
 93
        0
 40
0.045
309
GRIDFORMAT_END
 95
       16
302
GRIDFORMAT
  1
GRIDFORMAT_BEGIN
 90
        0
 91
        1
 62
     0
 92
       -2
340
14
 93
        0
 40
0.045
309
GRIDFORMAT_END
 95
       32
302
GRIDFORMAT
  1
GRIDFORMAT_BEGIN
 90
        0
 91
        1
 62
     0
 92
       -2
340
14
 93
        0
 40
0.045
309
GRIDFORMAT_END
309
TABLEFORMAT_END
  1
CELLSTYLE_BEGIN
 90
        3
 91
        2
300
_DATA
309
CELLSTYLE_END
  0
ENDSEC
  0
EOF