0
SECTION
  2
HEADER
  9
$ACADVER
  1
AC1027
  9
$ACADMAINTVER
 70
     8
  9
$DWGCODEPAGE
  3
ANSI_1252
  9
$REQUIREDVERSIONS
160
                 0
  9
$COMMENTS
  1
File was created by Cadenas
  9
$CUSTOMPROPERTYTAG
  1
NN
  9
$CUSTOMPROPERTY
  1
Grip Tight Four-Bolt Flange Stainless Housing Corrosion Resistant Insert Inch Bore
  9
$CUSTOMPROPERTYTAG
  1
NT
  9
$CUSTOMPROPERTY
  1
GTEZ Normal Duty Stainless Steel Polymer Housed 4 Bolt Flange Bearings
  9
$CUSTOMPROPERTYTAG
  1
NB
  9
$CUSTOMPROPERTY
  1
129733
  9
$CUSTOMPROPERTYTAG
  1
NBSYN
  9
$CUSTOMPROPERTY
  1
$PN.$LUBE.
  9
$CUSTOMPROPERTYTAG
  1
LINA
  9
$CUSTOMPROPERTY
  1
129733
  9
$CUSTOMPROPERTYTAG
  1
SERIES
  9
$CUSTOMPROPERTY
  1
210
  9
$CUSTOMPROPERTYTAG
  1
SS
  9
$CUSTOMPROPERTY
  1
1-15/16
  9
$CUSTOMPROPERTYTAG
  1
PN
  9
$CUSTOMPROPERTY
  1
129733
  9
$CUSTOMPROPERTYTAG
  1
DESCRIPTION
  9
$CUSTOMPROPERTY
  1
F4B-GTEZ-115-SHCR
  9
$CUSTOMPROPERTYTAG
  1
A
  9
$CUSTOMPROPERTY
  1
1-55/64
  9
$CUSTOMPROPERTYTAG
  1
B
  9
$CUSTOMPROPERTY
  1
5-43/64
  9
$CUSTOMPROPERTYTAG
  1
C
  9
$CUSTOMPROPERTY
  1
2
  9
$CUSTOMPROPERTYTAG
  1
D
  9
$CUSTOMPROPERTY
  1
4-3/8
  9
$CUSTOMPROPERTYTAG
  1
F
  9
$CUSTOMPROPERTY
  1
5/8
  9
$CUSTOMPROPERTYTAG
  1
H
  9
$CUSTOMPROPERTY
  1
31/64
  9
$CUSTOMPROPERTYTAG
  1
J
  9
$CUSTOMPROPERTY
  1
19/32
  9
$CUSTOMPROPERTYTAG
  1
L
  9
$CUSTOMPROPERTY
  1
2-15/16
  9
$CUSTOMPROPERTYTAG
  1
Z
  9
$CUSTOMPROPERTY
  1
1-61/64
  9
$CUSTOMPROPERTYTAG
  1
COMPANY
  9
$CUSTOMPROPERTY
  1
baldor
  9
$INSBASE
 10
0.0
 20
0.0
 30
0.0
  9
$EXTMIN
 10
1.000000000000000E+20
 20
1.000000000000000E+20
 30
1.000000000000000E+20
  9
$EXTMAX
 10
-1.000000000000000E+20
 20
-1.000000000000000E+20
 30
-1.000000000000000E+20
  9
$LIMMIN
 10
0.0
 20
0.0
  9
$LIMMAX
 10
12.0
 20
9.0
  9
$ORTHOMODE
 70
     0
  9
$REGENMODE
 70
     1
  9
$FILLMODE
 70
     1
  9
$QTEXTMODE
 70
     0
  9
$MIRRTEXT
 70
     1
  9
$LTSCALE
 40
1.0
  9
$ATTMODE
 70
     1
  9
$TEXTSIZE
 40
0.2
  9
$TRACEWID
 40
0.05
  9
$TEXTSTYLE
  7
Standard
  9
$CLAYER
  8
0
  9
$CELTYPE
  6
ByLayer
  9
$CECOLOR
 62
   256
  9
$CELTSCALE
 40
1.0
  9
$DISPSILH
 70
     0
  9
$DIMSCALE
 40
1.0
  9
$DIMASZ
 40
0.18
  9
$DIMEXO
 40
0.0625
  9
$DIMDLI
 40
0.38
  9
$DIMRND
 40
0.0
  9
$DIMDLE
 40
0.0
  9
$DIMEXE
 40
0.18
  9
$DIMTP
 40
0.0
  9
$DIMTM
 40
0.0
  9
$DIMTXT
 40
0.18
  9
$DIMCEN
 40
0.09
  9
$DIMTSZ
 40
0.0
  9
$DIMTOL
 70
     0
  9
$DIMLIM
 70
     0
  9
$DIMTIH
 70
     1
  9
$DIMTOH
 70
     1
  9
$DIMSE1
 70
     0
  9
$DIMSE2
 70
     0
  9
$DIMTAD
 70
     0
  9
$DIMZIN
 70
     0
  9
$DIMBLK
  1

  9
$DIMASO
 70
     1
  9
$DIMSHO
 70
     1
  9
$DIMPOST
  1

  9
$DIMAPOST
  1

  9
$DIMALT
 70
     0
  9
$DIMALTD
 70
     2
  9
$DIMALTF
 40
25.4
  9
$DIMLFAC
 40
1.0
  9
$DIMTOFL
 70
     0
  9
$DIMTVP
 40
0.0
  9
$DIMTIX
 70
     0
  9
$DIMSOXD
 70
     0
  9
$DIMSAH
 70
     0
  9
$DIMBLK1
  1

  9
$DIMBLK2
  1

  9
$DIMSTYLE
  2
Standard
  9
$DIMCLRD
 70
     0
  9
$DIMCLRE
 70
     0
  9
$DIMCLRT
 70
     0
  9
$DIMTFAC
 40
1.0
  9
$DIMGAP
 40
0.09
  9
$DIMJUST
 70
     0
  9
$DIMSD1
 70
     0
  9
$DIMSD2
 70
     0
  9
$DIMTOLJ
 70
     1
  9
$DIMTZIN
 70
     0
  9
$DIMALTZ
 70
     0
  9
$DIMALTTZ
 70
     0
  9
$DIMUPT
 70
     0
  9
$DIMDEC
 70
     4
  9
$DIMTDEC
 70
     4
  9
$DIMALTU
 70
     2
  9
$DIMALTTD
 70
     2
  9
$DIMTXSTY
  7
Standard
  9
$DIMAUNIT
 70
     0
  9
$DIMADEC
 70
     0
  9
$DIMALTRND
 40
0.0
  9
$DIMAZIN
 70
     0
  9
$DIMDSEP
 70
    46
  9
$DIMATFIT
 70
     3
  9
$DIMFRAC
 70
     0
  9
$DIMLDRBLK
  1

  9
$DIMLUNIT
 70
     2
  9
$DIMLWD
 70
    -2
  9
$DIMLWE
 70
    -2
  9
$DIMTMOVE
 70
     0
  9
$DIMFXL
 40
1.0
  9
$DIMFXLON
 70
     0
  9
$DIMJOGANG
 40
0.7853981633974483
  9
$DIMTFILL
 70
     0
  9
$DIMTFILLCLR
 70
     0
  9
$DIMARCSYM
 70
     0
  9
$DIMLTYPE
  6

  9
$DIMLTEX1
  6

  9
$DIMLTEX2
  6

  9
$DIMTXTDIRECTION
 70
     0
  9
$LUNITS
 70
     2
  9
$LUPREC
 70
     4
  9
$SKETCHINC
 40
0.1
  9
$FILLETRAD
 40
0.5
  9
$AUNITS
 70
     0
  9
$AUPREC
 70
     0
  9
$MENU
  1
.
  9
$ELEVATION
 40
0.0
  9
$PELEVATION
 40
0.0
  9
$THICKNESS
 40
0.0
  9
$LIMCHECK
 70
     0
  9
$CHAMFERA
 40
0.0
  9
$CHAMFERB
 40
0.0
  9
$CHAMFERC
 40
0.0
  9
$CHAMFERD
 40
0.0
  9
$SKPOLY
 70
     0
  9
$TDCREATE
 40
2458168.991923264
  9
$TDUCREATE
 40
2458168.950256597
  9
$TDUPDATE
 40
2458168.991923449
  9
$TDUUPDATE
 40
2458168.950256783
  9
$TDINDWG
 40
0.0000000116
  9
$TDUSRTIMER
 40
0.0000000116
  9
$USRTIMER
 70
     1
  9
$ANGBASE
 50
0.0
  9
$ANGDIR
 70
     0
  9
$PDMODE
 70
     0
  9
$PDSIZE
 40
0.0
  9
$PLINEWID
 40
0.0
  9
$SPLFRAME
 70
     0
  9
$SPLINETYPE
 70
     6
  9
$SPLINESEGS
 70
     8
  9
$HANDSEED
  5
210
  9
$SURFTAB1
 70
     6
  9
$SURFTAB2
 70
     6
  9
$SURFTYPE
 70
     6
  9
$SURFU
 70
     6
  9
$SURFV
 70
     6
  9
$UCSBASE
  2

  9
$UCSNAME
  2

  9
$UCSORG
 10
0.0
 20
0.0
 30
0.0
  9
$UCSXDIR
 10
1.0
 20
0.0
 30
0.0
  9
$UCSYDIR
 10
0.0
 20
1.0
 30
0.0
  9
$UCSORTHOREF
  2

  9
$UCSORTHOVIEW
 70
     0
  9
$UCSORGTOP
 10
0.0
 20
0.0
 30
0.0
  9
$UCSORGBOTTOM
 10
0.0
 20
0.0
 30
0.0
  9
$UCSORGLEFT
 10
0.0
 20
0.0
 30
0.0
  9
$UCSORGRIGHT
 10
0.0
 20
0.0
 30
0.0
  9
$UCSORGFRONT
 10
0.0
 20
0.0
 30
0.0
  9
$UCSORGBACK
 10
0.0
 20
0.0
 30
0.0
  9
$PUCSBASE
  2

  9
$PUCSNAME
  2

  9
$PUCSORG
 10
0.0
 20
0.0
 30
0.0
  9
$PUCSXDIR
 10
1.0
 20
0.0
 30
0.0
  9
$PUCSYDIR
 10
0.0
 20
1.0
 30
0.0
  9
$PUCSORTHOREF
  2

  9
$PUCSORTHOVIEW
 70
     0
  9
$PUCSORGTOP
 10
0.0
 20
0.0
 30
0.0
  9
$PUCSORGBOTTOM
 10
0.0
 20
0.0
 30
0.0
  9
$PUCSORGLEFT
 10
0.0
 20
0.0
 30
0.0
  9
$PUCSORGRIGHT
 10
0.0
 20
0.0
 30
0.0
  9
$PUCSORGFRONT
 10
0.0
 20
0.0
 30
0.0
  9
$PUCSORGBACK
 10
0.0
 20
0.0
 30
0.0
  9
$USERI1
 70
     0
  9
$USERI2
 70
     0
  9
$USERI3
 70
     0
  9
$USERI4
 70
     0
  9
$USERI5
 70
     0
  9
$USERR1
 40
0.0
  9
$USERR2
 40
0.0
  9
$USERR3
 40
0.0
  9
$USERR4
 40
0.0
  9
$USERR5
 40
0.0
  9
$WORLDVIEW
 70
     1
  9
$SHADEDGE
 70
     3
  9
$SHADEDIF
 70
    70
  9
$TILEMODE
 70
     1
  9
$MAXACTVP
 70
    64
  9
$PINSBASE
 10
0.0
 20
0.0
 30
0.0
  9
$PLIMCHECK
 70
     0
  9
$PEXTMIN
 10
1.000000000000000E+20
 20
1.000000000000000E+20
 30
1.000000000000000E+20
  9
$PEXTMAX
 10
-1.000000000000000E+20
 20
-1.000000000000000E+20
 30
-1.000000000000000E+20
  9
$PLIMMIN
 10
0.0
 20
0.0
  9
$PLIMMAX
 10
12.0
 20
9.0
  9
$UNITMODE
 70
     0
  9
$VISRETAIN
 70
     1
  9
$PLINEGEN
 70
     0
  9
$PSLTSCALE
 70
     1
  9
$TREEDEPTH
 70
  3020
  9
$CMLSTYLE
  2
Standard
  9
$CMLJUST
 70
     0
  9
$CMLSCALE
 40
1.0
  9
$PROXYGRAPHICS
 70
     1
  9
$MEASUREMENT
 70
     0
  9
$CELWEIGHT
370
    -1
  9
$ENDCAPS
280
     0
  9
$JOINSTYLE
280
     0
  9
$LWDISPLAY
290
     0
  9
$INSUNITS
 70
     1
  9
$HYPERLINKBASE
  1

  9
$STYLESHEET
  1

  9
$XEDIT
290
     1
  9
$CEPSNTYPE
380
     0
  9
$PSTYLEMODE
290
     1
  9
$FINGERPRINTGUID
  2
{7503B598-E55D-4CDE-870F-00E12957AA0E}
  9
$VERSIONGUID
  2
{FAEB1C32-E019-11D5-929B-00C0DF256EC4}
  9
$EXTNAMES
290
     1
  9
$PSVPSCALE
 40
0.0
  9
$OLESTARTUP
290
     0
  9
$SORTENTS
280
   127
  9
$INDEXCTL
280
     0
  9
$HIDETEXT
280
     1
  9
$XCLIPFRAME
280
     2
  9
$HALOGAP
280
     0
  9
$OBSCOLOR
 70
   257
  9
$OBSLTYPE
280
     0
  9
$INTERSECTIONDISPLAY
280
     0
  9
$INTERSECTIONCOLOR
 70
   257
  9
$DIMASSOC
280
     2
  9
$PROJECTNAME
  1

  9
$CAMERADISPLAY
290
     0
  9
$LENSLENGTH
 40
50.0
  9
$CAMERAHEIGHT
 40
0.0
  9
$STEPSPERSEC
 40
2.0
  9
$STEPSIZE
 40
6.0
  9
$3DDWFPREC
 40
2.0
  9
$PSOLWIDTH
 40
0.25
  9
$PSOLHEIGHT
 40
4.0
  9
$LOFTANG1
 40
1.570796326794897
  9
$LOFTANG2
 40
1.570796326794897
  9
$LOFTMAG1
 40
0.0
  9
$LOFTMAG2
 40
0.0
  9
$LOFTPARAM
 70
     7
  9
$LOFTNORMALS
280
     1
  9
$LATITUDE
 40
37.795
  9
$LONGITUDE
 40
-122.394
  9
$NORTHDIRECTION
 40
0.0
  9
$TIMEZONE
 70
 -8000
  9
$LIGHTGLYPHDISPLAY
280
     1
  9
$TILEMODELIGHTSYNCH
280
     1
  9
$CMATERIAL
347
44
  9
$SOLIDHIST
280
     0
  9
$SHOWHIST
280
     1
  9
$DWFFRAME
280
     2
  9
$DGNFRAME
280
     2
  9
$REALWORLDSCALE
290
     1
  9
$INTERFERECOLOR
 62
   256
  9
$CSHADOW
280
     0
  9
$SHADOWPLANELOCATION
 40
0.0
  0
ENDSEC
  0
SECTION
  2
CLASSES
  0
CLASS
  1
ACDBDICTIONARYWDFLT
  2
AcDbDictionaryWithDefault
  3
ObjectDBX Classes
 90
        0
 91
        4
280
     0
281
     0
  0
CLASS
  1
VISUALSTYLE
  2
AcDbVisualStyle
  3
ObjectDBX Classes
 90
     4095
 91
        4
280
     0
281
     0
  0
CLASS
  1
MATERIAL
  2
AcDbMaterial
  3
ObjectDBX Classes
 90
     1153
 91
        4
280
     0
281
     0
  0
CLASS
  1
SCALE
  2
AcDbScale
  3
ObjectDBX Classes
 90
     1153
 91
        4
280
     0
281
     0
  0
CLASS
  1
TABLESTYLE
  2
AcDbTableStyle
  3
ObjectDBX Classes
 90
     4095
 91
        4
280
     0
281
     0
  0
CLASS
  1
MLEADERSTYLE
  2
AcDbMLeaderStyle
  3
ACDB_MLEADERSTYLE_CLASS
 90
     4095
 91
        4
280
     0
281
     0
  0
CLASS
  1
SUN
  2
AcDbSun
  3
SCENEOE
 90
     1153
 91
        4
280
     0
281
     0
  0
CLASS
  1
DICTIONARYVAR
  2
AcDbDictionaryVar
  3
ObjectDBX Classes
 90
        0
 91
        4
280
     0
281
     0
  0
CLASS
  1
CELLSTYLEMAP
  2
AcDbCellStyleMap
  3
ObjectDBX Classes
 90
     1152
 91
        4
280
     0
281
     0
  0
ENDSEC
  0
SECTION
  2
TABLES
  0
TABLE
  2
VPORT
  5
8
330
0
100
AcDbSymbolTable
 70
     1
  0
VPORT
  5
29
330
8
100
AcDbSymbolTableRecord
100
AcDbViewportTableRecord
  2
*Active
 70
     0
 10
0.0
 20
0.0
 11
1.0
 21
1.0
 12
0.0
 22
-1.012696875
 13
0.0
 23
0.0
 14
0.5
 24
0.5
 15
0.5
 25
0.5
 16
0.0
 26
0.0
 36
1.0
 17
0.0
 27
0.0
 37
0.0
 40
2.204519624999999
 41
2.559115344686488
 42
50.0
 43
0.0
 44
0.0
 50
0.0
 51
0.0
 71
     0
 72
   100
 73
     1
 74
     3
 75
     0
 76
     0
 77
     0
 78
     0
281
     0
 65
     1
110
0.0
120
0.0
130
0.0
111
1.0
121
0.0
131
0.0
112
0.0
122
1.0
132
0.0
 79
     0
146
0.0
348
2F
 60
     3
 61
     5
292
     1
282
     1
141
0.0
142
0.0
 63
   250
361
6D
  0
ENDTAB
  0
TABLE
  2
LTYPE
  5
5
330
0
100
AcDbSymbolTable
 70
     3
  0
LTYPE
  5
14
330
5
100
AcDbSymbolTableRecord
100
AcDbLinetypeTableRecord
  2
ByBlock
 70
     0
  3

 72
    65
 73
     0
 40
0.0
  0
LTYPE
  5
15
330
5
100
AcDbSymbolTableRecord
100
AcDbLinetypeTableRecord
  2
ByLayer
 70
     0
  3

 72
    65
 73
     0
 40
0.0
  0
LTYPE
  5
16
330
5
100
AcDbSymbolTableRecord
100
AcDbLinetypeTableRecord
  2
Continuous
 70
     0
  3
Solid line
 72
    65
 73
     0
 40
0.0
  0
LTYPE
  5
9C
330
5
100
AcDbSymbolTableRecord
100
AcDbLinetypeTableRecord
  2
Dashed
 70
     0
  3

 72
    65
 73
     2
 40
2.0
 49
1.0
 74
     0
 49
-1.0
 74
     0
  0
LTYPE
  5
10B
330
5
100
AcDbSymbolTableRecord
100
AcDbLinetypeTableRecord
  2
Center
 70
     0
  3

 72
    65
 73
     4
 40
1.5
 49
0.45
 74
     0
 49
-0.5
 74
     0
 49
0.05
 74
     0
 49
-0.5
 74
     0
  0
ENDTAB
  0
TABLE
  2
LAYER
  5
2
330
0
100
AcDbSymbolTable
 70
     7
  0
LAYER
  5
10
330
2
100
AcDbSymbolTableRecord
100
AcDbLayerTableRecord
  2
0
 70
     0
 62
     7
  6
Continuous
370
    -3
390
F
347
46
348
0
  0
LAYER
  5
72
330
2
100
AcDbSymbolTableRecord
100
AcDbLayerTableRecord
  2
AM_6
 70
     0
 62
    -2
  6
Continuous
370
    35
390
F
347
46
348
0
  0
LAYER
  5
9D
330
2
100
AcDbSymbolTableRecord
100
AcDbLayerTableRecord
  2
AM_9
 70
     0
 62
     6
  6
Dashed
370
    25
390
F
347
46
348
0
  0
LAYER
  5
D2
330
2
100
AcDbSymbolTableRecord
100
AcDbLayerTableRecord
  2
AM_4
 70
     0
 62
     7
  6
Continuous
370
    50
390
F
347
46
348
0
  0
LAYER
  5
108
330
2
100
AcDbSymbolTableRecord
100
AcDbLayerTableRecord
  2
AM_5
 70
     0
 62
     3
  6
Continuous
370
    25
390
F
347
46
348
0
  0
LAYER
  5
10C
330
2
100
AcDbSymbolTableRecord
100
AcDbLayerTableRecord
  2
AM_7
 70
     0
 62
     7
  6
Center
370
    25
390
F
347
46
348
0
  0
LAYER
  5
202
330
2
100
AcDbSymbolTableRecord
100
AcDbLayerTableRecord
  2
ConnectionPoints
 70
     0
 62
     7
  6
Continuous
370
    50
390
F
347
46
348
0
  0
ENDTAB
  0
TABLE
  2
STYLE
  5
3
330
0
100
AcDbSymbolTable
 70
     1
  0
STYLE
  5
11
330
3
100
AcDbSymbolTableRecord
100
AcDbTextStyleTableRecord
  2
Standard
 70
     0
 40
0.0
 41
1.0
 50
0.0
 71
     0
 42
0.2
  3
txt
  4

  0
ENDTAB
  0
TABLE
  2
VIEW
  5
6
330
0
100
AcDbSymbolTable
 70
     0
  0
ENDTAB
  0
TABLE
  2
UCS
  5
7
330
0
100
AcDbSymbolTable
 70
     0
  0
ENDTAB
  0
TABLE
  2
APPID
  5
9
330
0
100
AcDbSymbolTable
 70
     1
  0
APPID
  5
12
330
9
100
AcDbSymbolTableRecord
100
AcDbRegAppTableRecord
  2
ACAD
 70
     0
  0
ENDTAB
  0
TABLE
  2
DIMSTYLE
  5
A
330
0
100
AcDbSymbolTable
 70
     1
100
AcDbDimStyleTable
  0
DIMSTYLE
105
27
330
A
100
AcDbSymbolTableRecord
100
AcDbDimStyleTableRecord
  2
Standard
 70
     0
178
     0
340
11
  0
ENDTAB
  0
TABLE
  2
BLOCK_RECORD
  5
1
330
0
100
AcDbSymbolTable
 70
     5
  0
BLOCK_RECORD
  5
1F
330
1
100
AcDbSymbolTableRecord
100
AcDbBlockTableRecord
  2
*Model_Space
340
22
 70
     0
280
     1
281
     0
  0
BLOCK_RECORD
  5
1B
330
1
100
AcDbSymbolTableRecord
100
AcDbBlockTableRecord
  2
*Paper_Space
340
1E
 70
     0
280
     1
281
     0
  0
BLOCK_RECORD
  5
23
330
1
100
AcDbSymbolTableRecord
100
AcDbBlockTableRecord
  2
*Paper_Space0
340
26
 70
     0
280
     1
281
     0
  0
BLOCK_RECORD
  5
6E
330
1
100
AcDbSymbolTableRecord
100
AcDbBlockTableRecord
  2
1_129733_4
340
0
102
{BLKREFS
331
6F
102
}
 70
     0
280
     1
281
     0
  0
BLOCK_RECORD
  5
86
330
1
100
AcDbSymbolTableRecord
100
AcDbBlockTableRecord
  2
2_INS_GT_10_CRI_0_in_129733_4
340
0
102
{BLKREFS
331
87
102
}
 70
     0
280
     1
281
     0
  0
BLOCK_RECORD
  5
D6
330
1
100
AcDbSymbolTableRecord
100
AcDbBlockTableRecord
  2
3_129978_0_in_129733_4
340
0
102
{BLKREFS
331
D7
102
}
 70
     0
280
     1
281
     0
  0
BLOCK_RECORD
  5
128
330
1
100
AcDbSymbolTableRecord
100
AcDbBlockTableRecord
  2
4_F4B_GTEZ_10_SHCR_II_0_in_129733_4
340
0
102
{BLKREFS
331
129
102
}
 70
     0
280
     1
281
     0
  0
ENDTAB
  0
ENDSEC
  0
SECTION
  2
BLOCKS
  0
BLOCK
  5
20
330
1F
100
AcDbEntity
  8
0
100
AcDbBlockBegin
  2
*Model_Space
 70
     0
 10
0.0
 20
0.0
 30
0.0
  3
*Model_Space
  1

  0
ENDBLK
  5
21
330
1F
100
AcDbEntity
  8
0
100
AcDbBlockEnd
  0
BLOCK
  5
1C
330
1B
100
AcDbEntity
 67
     1
  8
0
100
AcDbBlockBegin
  2
*Paper_Space
 70
     0
 10
0.0
 20
0.0
 30
0.0
  3
*Paper_Space
  1

  0
ENDBLK
  5
1D
330
1B
100
AcDbEntity
 67
     1
  8
0
100
AcDbBlockEnd
  0
BLOCK
  5
24
330
23
100
AcDbEntity
  8
0
100
AcDbBlockBegin
  2
*Paper_Space0
 70
     0
 10
0.0
 20
0.0
 30
0.0
  3
*Paper_Space0
  1

  0
ENDBLK
  5
25
330
23
100
AcDbEntity
  8
0
100
AcDbBlockEnd
  0
BLOCK
  5
70
330
6E
100
AcDbEntity
  8
0
100
AcDbBlockBegin
  2
1_129733_4
 70
     2
 10
0.0
 20
0.0
 30
0.0
  3
1_129733_4
  1

  0
ATTDEF
  5
73
330
6E
100
AcDbEntity
  8
AM_6
100
AcDbText
 10
7.765500000000001
 20
0.06795
 30
0.0
 40
0.5
  1
Grip Tight Four-Bolt Flange Stainless Housing Corrosion Resistant Insert Inch Bore
100
AcDbAttributeDefinition
  3

  2
NN
 70
     8
280
     0
  0
ATTDEF
  5
74
330
6E
100
AcDbEntity
  8
AM_6
100
AcDbText
 10
7.765500000000001
 20
-0.43205
 30
0.0
 40
0.5
  1
GTEZ Normal Duty Stainless Steel Polymer Housed 4 Bolt Flange Bearings
100
AcDbAttributeDefinition
  3

  2
NT
 70
     8
280
     0
  0
ATTDEF
  5
75
330
6E
100
AcDbEntity
  8
AM_6
100
AcDbText
 10
7.765500000000001
 20
-0.93205
 30
0.0
 40
0.5
  1
129733
100
AcDbAttributeDefinition
  3

  2
NB
 70
     8
280
     0
  0
ATTDEF
  5
76
330
6E
100
AcDbEntity
  8
AM_6
100
AcDbText
 10
7.765500000000001
 20
-1.43205
 30
0.0
 40
0.5
  1
$PN.$LUBE.
100
AcDbAttributeDefinition
  3

  2
NBSYN
 70
     8
280
     0
  0
ATTDEF
  5
77
330
6E
100
AcDbEntity
  8
AM_6
100
AcDbText
 10
7.765500000000001
 20
-1.93205
 30
0.0
 40
0.5
  1
129733
100
AcDbAttributeDefinition
  3

  2
LINA
 70
     8
280
     0
  0
ATTDEF
  5
78
330
6E
100
AcDbEntity
  8
AM_6
100
AcDbText
 10
7.765500000000001
 20
-2.43205
 30
0.0
 40
0.5
  1
210
100
AcDbAttributeDefinition
  3

  2
SERIES
 70
     8
280
     0
  0
ATTDEF
  5
79
330
6E
100
AcDbEntity
  8
AM_6
100
AcDbText
 10
7.765500000000001
 20
-2.93205
 30
0.0
 40
0.5
  1
1-15/16
100
AcDbAttributeDefinition
  3

  2
SS
 70
     8
280
     0
  0
ATTDEF
  5
7A
330
6E
100
AcDbEntity
  8
AM_6
100
AcDbText
 10
7.765500000000001
 20
-3.43205
 30
0.0
 40
0.5
  1
129733
100
AcDbAttributeDefinition
  3

  2
PN
 70
     8
280
     0
  0
ATTDEF
  5
7B
330
6E
100
AcDbEntity
  8
AM_6
100
AcDbText
 10
7.765500000000001
 20
-3.93205
 30
0.0
 40
0.5
  1
F4B-GTEZ-115-SHCR
100
AcDbAttributeDefinition
  3

  2
DESCRIPTION
 70
     8
280
     0
  0
ATTDEF
  5
7C
330
6E
100
AcDbEntity
  8
AM_6
100
AcDbText
 10
7.765500000000001
 20
-4.43205
 30
0.0
 40
0.5
  1
1-55/64
100
AcDbAttributeDefinition
  3

  2
A
 70
     8
280
     0
  0
ATTDEF
  5
7D
330
6E
100
AcDbEntity
  8
AM_6
100
AcDbText
 10
7.765500000000001
 20
-4.93205
 30
0.0
 40
0.5
  1
5-43/64
100
AcDbAttributeDefinition
  3

  2
B
 70
     8
280
     0
  0
ATTDEF
  5
7E
330
6E
100
AcDbEntity
  8
AM_6
100
AcDbText
 10
7.765500000000001
 20
-5.43205
 30
0.0
 40
0.5
  1
2
100
AcDbAttributeDefinition
  3

  2
C
 70
     8
280
     0
  0
ATTDEF
  5
7F
330
6E
100
AcDbEntity
  8
AM_6
100
AcDbText
 10
7.765500000000001
 20
-5.93205
 30
0.0
 40
0.5
  1
4-3/8
100
AcDbAttributeDefinition
  3

  2
D
 70
     8
280
     0
  0
ATTDEF
  5
80
330
6E
100
AcDbEntity
  8
AM_6
100
AcDbText
 10
7.765500000000001
 20
-6.43205
 30
0.0
 40
0.5
  1
5/8
100
AcDbAttributeDefinition
  3

  2
F
 70
     8
280
     0
  0
ATTDEF
  5
81
330
6E
100
AcDbEntity
  8
AM_6
100
AcDbText
 10
7.765500000000001
 20
-6.93205
 30
0.0
 40
0.5
  1
31/64
100
AcDbAttributeDefinition
  3

  2
H
 70
     8
280
     0
  0
ATTDEF
  5
82
330
6E
100
AcDbEntity
  8
AM_6
100
AcDbText
 10
7.765500000000001
 20
-7.43205
 30
0.0
 40
0.5
  1
19/32
100
AcDbAttributeDefinition
  3

  2
J
 70
     8
280
     0
  0
ATTDEF
  5
83
330
6E
100
AcDbEntity
  8
AM_6
100
AcDbText
 10
7.765500000000001
 20
-7.93205
 30
0.0
 40
0.5
  1
2-15/16
100
AcDbAttributeDefinition
  3

  2
L
 70
     8
280
     0
  0
ATTDEF
  5
84
330
6E
100
AcDbEntity
  8
AM_6
100
AcDbText
 10
7.765500000000001
 20
-8.43205
 30
0.0
 40
0.5
  1
1-61/64
100
AcDbAttributeDefinition
  3

  2
Z
 70
     8
280
     0
  0
ATTDEF
  5
85
330
6E
100
AcDbEntity
  8
AM_6
100
AcDbText
 10
7.765500000000001
 20
-8.93205
 30
0.0
 40
0.5
  1
baldor
100
AcDbAttributeDefinition
  3

  2
COMPANY
 70
     8
280
     0
  0
INSERT
  5
87
330
6E
100
AcDbEntity
  8
0
100
AcDbBlockReference
  2
2_INS_GT_10_CRI_0_in_129733_4
 10
0.0
 20
0.0
 30
0.0
  0
INSERT
  5
D7
330
6E
100
AcDbEntity
  8
0
100
AcDbBlockReference
  2
3_129978_0_in_129733_4
 10
0.0
 20
0.0
 30
0.0
  0
INSERT
  5
129
330
6E
100
AcDbEntity
  8
0
100
AcDbBlockReference
  2
4_F4B_GTEZ_10_SHCR_II_0_in_129733_4
 10
0.0
 20
0.0
 30
0.0
  0
ENDBLK
  5
71
330
6E
100
AcDbEntity
  8
0
100
AcDbBlockEnd
  0
BLOCK
  5
88
330
86
100
AcDbEntity
  8
0
100
AcDbBlockBegin
  2
2_INS_GT_10_CRI_0_in_129733_4
 70
     2
 10
0.0
 20
0.0
 30
0.0
  3
2_INS_GT_10_CRI_0_in_129733_4
  1

  0
ATTDEF
  5
8A
330
86
100
AcDbEntity
  8
AM_6
100
AcDbText
 10
6.771521352026209
 20
-0.206625
 30
0.0
 40
0.5
  1
INS-GT-CR-I
100
AcDbAttributeDefinition
  3

  2
NN
 70
     8
280
     0
  0
ATTDEF
  5
8B
330
86
100
AcDbEntity
  8
AM_6
100
AcDbText
 10
6.771521352026209
 20
-0.7066250000000001
 30
0.0
 40
0.5
  1
GT Normal Duty Corrosion Resistant Bearing Inserts
100
AcDbAttributeDefinition
  3

  2
NT
 70
     8
280
     0
  0
ATTDEF
  5
8C
330
86
100
AcDbEntity
  8
AM_6
100
AcDbText
 10
6.771521352026209
 20
-1.206625
 30
0.0
 40
0.5
  1
INS-GT-10-CRI
100
AcDbAttributeDefinition
  3

  2
NB
 70
     8
280
     0
  0
ATTDEF
  5
8D
330
86
100
AcDbEntity
  8
AM_6
100
AcDbText
 10
6.771521352026209
 20
-1.706625
 30
0.0
 40
0.5
  1
$PN.I
100
AcDbAttributeDefinition
  3

  2
NBSYN
 70
     8
280
     0
  0
ATTDEF
  5
8E
330
86
100
AcDbEntity
  8
AM_6
100
AcDbText
 10
6.771521352026209
 20
-2.206625
 30
0.0
 40
0.5
  1
INS-GT-10-CR
100
AcDbAttributeDefinition
  3

  2
LINA
 70
     8
280
     0
  0
ATTDEF
  5
8F
330
86
100
AcDbEntity
  8
AM_6
100
AcDbText
 10
6.771521352026209
 20
-2.706625
 30
0.0
 40
0.5
  1
210
100
AcDbAttributeDefinition
  3

  2
SERIES
 70
     8
280
     0
  0
ATTDEF
  5
90
330
86
100
AcDbEntity
  8
AM_6
100
AcDbText
 10
6.771521352026209
 20
-3.206625
 30
0.0
 40
0.5
  1
INS-GT-10-CR
100
AcDbAttributeDefinition
  3

  2
PN
 70
     8
280
     0
  0
ATTDEF
  5
91
330
86
100
AcDbEntity
  8
AM_6
100
AcDbText
 10
6.771521352026209
 20
-3.706625
 30
0.0
 40
0.5
  1
INS-GT-10-CR
100
AcDbAttributeDefinition
  3

  2
DESCRIPTION
 70
     8
280
     0
  0
ATTDEF
  5
92
330
86
100
AcDbEntity
  8
AM_6
100
AcDbText
 10
6.771521352026209
 20
-4.206625
 30
0.0
 40
0.5
  1
1-55/64
100
AcDbAttributeDefinition
  3

  2
A
 70
     8
280
     0
  0
ATTDEF
  5
93
330
86
100
AcDbEntity
  8
AM_6
100
AcDbText
 10
6.771521352026209
 20
-4.706625
 30
0.0
 40
0.5
  1
0.8661
100
AcDbAttributeDefinition
  3

  2
C
 70
     8
280
     0
  0
ATTDEF
  5
94
330
86
100
AcDbEntity
  8
AM_6
100
AcDbText
 10
6.771521352026209
 20
-5.206625
 30
0.0
 40
0.5
  1
3.5433
100
AcDbAttributeDefinition
  3

  2
D
 70
     8
280
     0
  0
ATTDEF
  5
95
330
86
100
AcDbEntity
  8
AM_6
100
AcDbText
 10
6.771521352026209
 20
-5.706625
 30
0.0
 40
0.5
  1
0.248
100
AcDbAttributeDefinition
  3

  2
J
 70
     8
280
     0
  0
ATTDEF
  5
96
330
86
100
AcDbEntity
  8
AM_6
100
AcDbText
 10
6.771521352026209
 20
-6.206625
 30
0.0
 40
0.5
  1
2-15/16
100
AcDbAttributeDefinition
  3

  2
L
 70
     8
280
     0
  0
ATTDEF
  5
97
330
86
100
AcDbEntity
  8
AM_6
100
AcDbText
 10
6.771521352026209
 20
-6.706625
 30
0.0
 40
0.5
  1
10 - 32 x 1/4
100
AcDbAttributeDefinition
  3

  2
N
 70
     8
280
     0
  0
ATTDEF
  5
98
330
86
100
AcDbEntity
  8
AM_6
100
AcDbText
 10
6.771521352026209
 20
-7.206625
 30
0.0
 40
0.5
  1
21/32
100
AcDbAttributeDefinition
  3

  2
W
 70
     8
280
     0
  0
ATTDEF
  5
99
330
86
100
AcDbEntity
  8
AM_6
100
AcDbText
 10
6.771521352026209
 20
-7.706625
 30
0.0
 40
0.5
  1
1-5/32
100
AcDbAttributeDefinition
  3

  2
X
 70
     8
280
     0
  0
ATTDEF
  5
9A
330
86
100
AcDbEntity
  8
AM_6
100
AcDbText
 10
6.771521352026209
 20
-8.206624999999999
 30
0.0
 40
0.5
  1
1-13/64
100
AcDbAttributeDefinition
  3

  2
Y
 70
     8
280
     0
  0
ATTDEF
  5
9B
330
86
100
AcDbEntity
  8
AM_6
100
AcDbText
 10
6.771521352026209
 20
-8.706624999999999
 30
0.0
 40
0.5
  1
baldor
100
AcDbAttributeDefinition
  3

  2
COMPANY
 70
     8
280
     0
  0
LINE
  5
9E
330
86
100
AcDbEntity
  8
AM_9
100
AcDbLine
 10
1.095734043055556
 20
-1.664436765779782
 30
0.0
 11
1.095734043055556
 21
-1.230843015779777
 31
0.0
  0
LINE
  5
9F
330
86
100
AcDbEntity
  8
AM_9
100
AcDbLine
 10
-1.095734043055556
 20
-1.230843015779777
 30
0.0
 11
-1.095734043055556
 21
-1.664436765779782
 31
0.0
  0
LINE
  5
A0
330
86
100
AcDbEntity
  8
AM_9
100
AcDbLine
 10
-1.095734043055556
 20
-1.230843015779777
 30
0.0
 11
1.095734043055556
 21
-1.230843015779777
 31
0.0
  0
LINE
  5
A1
330
86
100
AcDbEntity
  8
AM_9
100
AcDbLine
 10
1.095734043055556
 20
-1.230843015779777
 30
0.0
 11
1.131500524293897
 21
-0.206625
 31
0.0
  0
LINE
  5
A2
330
86
100
AcDbEntity
  8
AM_9
100
AcDbLine
 10
-1.131500524293896
 20
-0.206625
 30
0.0
 11
-1.095734043055556
 21
-1.230843015779777
 31
0.0
  0
LINE
  5
A3
330
86
100
AcDbEntity
  8
AM_9
100
AcDbLine
 10
1.200644799305556
 20
-1.519905515779782
 30
0.0
 11
1.200644799305556
 21
-1.375375
 31
0.0
  0
LINE
  5
A4
330
86
100
AcDbEntity
  8
AM_9
100
AcDbLine
 10
-1.200644799305556
 20
-1.375375
 30
0.0
 11
-1.200644799305556
 21
-1.519905515779782
 31
0.0
  0
LINE
  5
A5
330
86
100
AcDbEntity
  8
AM_9
100
AcDbLine
 10
1.305555555555556
 20
-1.359
 30
0.0
 11
1.305555555555556
 21
-1.2303
 31
0.0
  0
LINE
  5
A6
330
86
100
AcDbEntity
  8
AM_9
100
AcDbLine
 10
-1.305555555555556
 20
-1.2303
 30
0.0
 11
-1.305555555555556
 21
-1.359
 31
0.0
  0
LINE
  5
A7
330
86
100
AcDbEntity
  8
AM_9
100
AcDbLine
 10
-1.270911555555556
 20
-0.206625
 30
0.0
 11
1.270911555555556
 21
-0.206625
 31
0.0
  0
LINE
  5
A8
330
86
100
AcDbEntity
  8
AM_9
100
AcDbLine
 10
-1.270911555555556
 20
-0.206625
 30
0.0
 11
-1.305555555555556
 21
-0.241269
 31
0.0
  0
LINE
  5
A9
330
86
100
AcDbEntity
  8
AM_9
100
AcDbLine
 10
1.305555555555556
 20
-0.241269
 30
0.0
 11
1.270911555555556
 21
-0.206625
 31
0.0
  0
LINE
  5
AA
330
86
100
AcDbEntity
  8
AM_9
100
AcDbLine
 10
1.305555555555556
 20
-1.629792765779781
 30
0.0
 11
1.305555555555556
 21
-1.519905515779782
 31
0.0
  0
LINE
  5
AB
330
86
100
AcDbEntity
  8
AM_9
100
AcDbLine
 10
-1.305555555555556
 20
-1.519905515779782
 30
0.0
 11
-1.305555555555556
 21
-1.629792765779781
 31
0.0
  0
LINE
  5
AC
330
86
100
AcDbEntity
  8
AM_9
100
AcDbLine
 10
-1.305555555555556
 20
-1.519905515779782
 30
0.0
 11
1.305555555555556
 21
-1.519905515779782
 31
0.0
  0
LINE
  5
AD
330
86
100
AcDbEntity
  8
AM_9
100
AcDbLine
 10
1.270911555555556
 20
-1.664436765779782
 30
0.0
 11
1.305555555555556
 21
-1.629792765779781
 31
0.0
  0
LINE
  5
AE
330
86
100
AcDbEntity
  8
AM_9
100
AcDbLine
 10
-1.305555555555556
 20
-1.629792765779781
 30
0.0
 11
-1.270911555555556
 21
-1.664436765779782
 31
0.0
  0
LINE
  5
AF
330
86
100
AcDbEntity
  8
AM_9
100
AcDbLine
 10
-1.270911555555556
 20
-1.664436765779782
 30
0.0
 11
1.270911555555556
 21
-1.664436765779782
 31
0.0
  0
LINE
  5
B0
330
86
100
AcDbEntity
  8
AM_9
100
AcDbLine
 10
-1.305555555555556
 20
-1.629792765779781
 30
0.0
 11
1.305555555555556
 21
-1.629792765779781
 31
0.0
  0
LINE
  5
B1
330
86
100
AcDbEntity
  8
AM_9
100
AcDbLine
 10
-1.305555555555556
 20
-0.241269
 30
0.0
 11
1.305555555555556
 21
-0.241269
 31
0.0
  0
LINE
  5
B2
330
86
100
AcDbEntity
  8
AM_9
100
AcDbLine
 10
1.305555555555556
 20
-0.3642000000000001
 30
0.0
 11
1.305555555555556
 21
-0.241269
 31
0.0
  0
LINE
  5
B3
330
86
100
AcDbEntity
  8
AM_9
100
AcDbLine
 10
-1.305555555555556
 20
-0.241269
 30
0.0
 11
-1.305555555555556
 21
-0.3642000000000001
 31
0.0
  0
LINE
  5
B4
330
86
100
AcDbEntity
  8
AM_9
100
AcDbLine
 10
1.68504
 20
-1.09485
 30
0.0
 11
1.68504
 21
-0.99565
 31
0.0
  0
LINE
  5
B5
330
86
100
AcDbEntity
  8
AM_9
100
AcDbLine
 10
-1.68504
 20
-0.99565
 30
0.0
 11
-1.68504
 21
-1.09485
 31
0.0
  0
LINE
  5
B6
330
86
100
AcDbEntity
  8
AM_9
100
AcDbLine
 10
-1.661681511554455
 20
-1.2303
 30
0.0
 11
1.661681511554455
 21
-1.2303
 31
0.0
  0
ARC
  5
B7
330
86
100
AcDbEntity
  8
AM_9
100
AcDbCircle
 10
1.661681511554455
 20
-1.195656
 30
0.0
 40
0.0346439999999999
100
AcDbArc
 50
270.0
 51
338.5874981009518
  0
ARC
  5
B8
330
86
100
AcDbEntity
  8
AM_9
100
AcDbCircle
 10
-1.661681511554455
 20
-1.195656
 30
0.0
 40
0.0346439999999999
100
AcDbArc
 50
201.4125018990482
 51
270.0
  0
LINE
  5
B9
330
86
100
AcDbEntity
  8
AM_9
100
AcDbLine
 10
-1.66168151155445
 20
-0.3642000000000001
 30
0.0
 11
1.66168151155445
 21
-0.3642000000000001
 31
0.0
  0
ARC
  5
BA
330
86
100
AcDbEntity
  8
AM_9
100
AcDbCircle
 10
1.661681511554449
 20
-0.3988440000000005
 30
0.0
 40
0.0346440000000005
100
AcDbArc
 50
21.41248381382837
 51
90.0
  0
ARC
  5
BB
330
86
100
AcDbEntity
  8
AM_9
100
AcDbCircle
 10
-1.661681511554449
 20
-0.3988440000000005
 30
0.0
 40
0.0346440000000004
100
AcDbArc
 50
90.0
 51
158.5875161861716
  0
LINE
  5
BC
330
86
100
AcDbEntity
  8
AM_9
100
AcDbLine
 10
-1.69393425025953
 20
-1.20830382914267
 30
0.0
 11
1.69393425025953
 21
-1.20830382914267
 31
0.0
  0
ARC
  5
BD
330
86
100
AcDbEntity
  8
AM_9
100
AcDbCircle
 10
0.6457200000003052
 20
-0.7972500000001058
 30
0.0
 40
1.125929999999677
100
AcDbArc
 50
338.5875318807411
 51
344.0906760483564
  0
ARC
  5
BE
330
86
100
AcDbEntity
  8
AM_9
100
AcDbCircle
 10
-0.6457200000001844
 20
-0.7972500000000651
 30
0.0
 40
1.125929999999804
100
AcDbArc
 50
195.9093239516439
 51
201.4124681192585
  0
LINE
  5
BF
330
86
100
AcDbEntity
  8
AM_9
100
AcDbLine
 10
0.068165107991891
 20
-1.105885115708203
 30
0.0
 11
1.7285231816779
 21
-1.105885115708203
 31
0.0
  0
LINE
  5
C0
330
86
100
AcDbEntity
  8
AM_9
100
AcDbLine
 10
-0.0615717614863366
 20
-1.105885115708203
 30
0.0
 11
0.0615717614863366
 21
-1.105885115708203
 31
0.0
  0
LINE
  5
C1
330
86
100
AcDbEntity
  8
AM_9
100
AcDbLine
 10
0.0802293348812817
 20
-1.09485
 30
0.0
 11
1.720193926272759
 21
-1.09485
 31
0.0
  0
LINE
  5
C2
330
86
100
AcDbEntity
  8
AM_9
100
AcDbLine
 10
-0.074708406759059
 20
-1.09485
 30
0.0
 11
0.074708406759059
 21
-1.09485
 31
0.0
  0
LINE
  5
C3
330
86
100
AcDbEntity
  8
AM_9
100
AcDbLine
 10
-1.720193926272759
 20
-1.09485
 30
0.0
 11
-0.0802293348812817
 21
-1.09485
 31
0.0
  0
ARC
  5
C4
330
86
100
AcDbEntity
  8
AM_9
100
AcDbCircle
 10
1.72019392627276
 20
-1.103511
 30
0.0
 40
0.0086609999999996
100
AcDbArc
 50
344.0906799450594
 51
90.0
  0
ARC
  5
C5
330
86
100
AcDbEntity
  8
AM_9
100
AcDbCircle
 10
-1.72019392627276
 20
-1.103511
 30
0.0
 40
0.0086609999999996
100
AcDbArc
 50
90.0
 51
195.9093200549406
  0
LINE
  5
C6
330
86
100
AcDbEntity
  8
AM_9
100
AcDbLine
 10
-1.7285231816779
 20
-1.105885115708203
 30
0.0
 11
-0.068165107991891
 21
-1.105885115708203
 31
0.0
  0
LINE
  5
C7
330
86
100
AcDbEntity
  8
AM_9
100
AcDbLine
 10
0.1076799654686482
 20
-0.99565
 30
0.0
 11
1.746760022088207
 21
-0.9956500000000003
 31
0.0
  0
LINE
  5
C8
330
86
100
AcDbEntity
  8
AM_9
100
AcDbLine
 10
-0.1036319199296889
 20
-0.99565
 30
0.0
 11
0.1036319199296889
 21
-0.99565
 31
0.0
  0
LINE
  5
C9
330
86
100
AcDbEntity
  8
AM_9
100
AcDbLine
 10
-1.746760022088207
 20
-0.9956500000000003
 30
0.0
 11
-0.1076799654686482
 21
-0.99565
 31
0.0
  0
ARC
  5
CA
330
86
100
AcDbEntity
  8
AM_9
100
AcDbCircle
 10
1.746760022088207
 20
-0.9869890000000003
 30
0.0
 40
0.0086609999999999
100
AcDbArc
 50
270.0
 51
350.222418511474
  0
ARC
  5
CB
330
86
100
AcDbEntity
  8
AM_9
100
AcDbCircle
 10
-1.746760022088207
 20
-0.9869890000000003
 30
0.0
 40
0.0086609999999998
100
AcDbArc
 50
189.7775814885262
 51
270.0
  0
LINE
  5
CC
330
86
100
AcDbEntity
  8
AM_9
100
AcDbLine
 10
0.1058484242032958
 20
-0.9884598449612404
 30
0.0
 11
1.755295216057883
 21
-0.9884598449612405
 31
0.0
  0
LINE
  5
CD
330
86
100
AcDbEntity
  8
AM_9
100
AcDbLine
 10
-0.1017275221919073
 20
-0.9884598449612404
 30
0.0
 11
0.1017275221919073
 21
-0.9884598449612404
 31
0.0
  0
LINE
  5
CE
330
86
100
AcDbEntity
  8
AM_9
100
AcDbLine
 10
-1.693934254251768
 20
-0.3861961810377998
 30
0.0
 11
1.693934254251768
 21
-0.3861961810377998
 31
0.0
  0
ARC
  5
CF
330
86
100
AcDbEntity
  8
AM_9
100
AcDbCircle
 10
0.6457199999999628
 20
-0.7972500000000043
 30
0.0
 40
1.125930000000036
100
AcDbArc
 50
350.2224185114736
 51
21.41246756278952
  0
ARC
  5
D0
330
86
100
AcDbEntity
  8
AM_9
100
AcDbCircle
 10
-0.6457200000001198
 20
-0.7972499999999882
 30
0.0
 40
1.125929999999884
100
AcDbArc
 50
158.5875324372083
 51
189.7775814885286
  0
LINE
  5
D1
330
86
100
AcDbEntity
  8
AM_9
100
AcDbLine
 10
-1.755295216057883
 20
-0.9884598449612405
 30
0.0
 11
-0.1058484242032958
 21
-0.9884598449612404
 31
0.0
  0
LINE
  5
D3
330
86
100
AcDbEntity
  8
AM_4
100
AcDbLine
 10
1.305555555555556
 20
-1.375374265779782
 30
0.0
 11
1.305555555555556
 21
-1.359
 31
0.0
  0
LINE
  5
D4
330
86
100
AcDbEntity
  8
AM_4
100
AcDbLine
 10
-1.305555555555556
 20
-1.359
 30
0.0
 11
-1.305555555555556
 21
-1.375374265779782
 31
0.0
  0
LINE
  5
D5
330
86
100
AcDbEntity
  8
AM_4
100
AcDbLine
 10
-1.305555555555556
 20
-1.375374265779782
 30
0.0
 11
1.305555555555556
 21
-1.375374265779782
 31
0.0
  0
ENDBLK
  5
89
330
86
100
AcDbEntity
  8
0
100
AcDbBlockEnd
  0
BLOCK
  5
D8
330
D6
100
AcDbEntity
  8
0
100
AcDbBlockBegin
  2
3_129978_0_in_129733_4
 70
     2
 10
0.0
 20
0.0
 30
0.0
  3
3_129978_0_in_129733_4
  1

  0
ATTDEF
  5
DA
330
D6
100
AcDbEntity
  8
AM_6
100
AcDbText
 10
6.463506256392503
 20
-0.1409999999999999
 30
0.0
 40
0.5
  1
Grip Tight Adapter and Nut - Corrosion Resistant Inch Bore
100
AcDbAttributeDefinition
  3

  2
NN
 70
     8
280
     0
  0
ATTDEF
  5
DB
330
D6
100
AcDbEntity
  8
AM_6
100
AcDbText
 10
6.463506256392503
 20
-0.6409999999999999
 30
0.0
 40
0.5
  1
GT and GTM Adapter & Lock Nut Assemblies
100
AcDbAttributeDefinition
  3

  2
NT
 70
     8
280
     0
  0
ATTDEF
  5
DC
330
D6
100
AcDbEntity
  8
AM_6
100
AcDbText
 10
6.463506256392503
 20
-1.141
 30
0.0
 40
0.5
  1
129978
100
AcDbAttributeDefinition
  3

  2
NB
 70
     8
280
     0
  0
ATTDEF
  5
DD
330
D6
100
AcDbEntity
  8
AM_6
100
AcDbText
 10
6.463506256392503
 20
-1.641
 30
0.0
 40
0.5
  1
$PN.
100
AcDbAttributeDefinition
  3

  2
NBSYN
 70
     8
280
     0
  0
ATTDEF
  5
DE
330
D6
100
AcDbEntity
  8
AM_6
100
AcDbText
 10
6.463506256392503
 20
-2.141
 30
0.0
 40
0.5
  1
129978
100
AcDbAttributeDefinition
  3

  2
LINA
 70
     8
280
     0
  0
ATTDEF
  5
DF
330
D6
100
AcDbEntity
  8
AM_6
100
AcDbText
 10
6.463506256392503
 20
-2.641
 30
0.0
 40
0.5
  1
210
100
AcDbAttributeDefinition
  3

  2
SERIES
 70
     8
280
     0
  0
ATTDEF
  5
E0
330
D6
100
AcDbEntity
  8
AM_6
100
AcDbText
 10
6.463506256392503
 20
-3.141
 30
0.0
 40
0.5
  1
1-15/16
100
AcDbAttributeDefinition
  3

  2
SS
 70
     8
280
     0
  0
ATTDEF
  5
E1
330
D6
100
AcDbEntity
  8
AM_6
100
AcDbText
 10
6.463506256392503
 20
-3.641
 30
0.0
 40
0.5
  1
129978
100
AcDbAttributeDefinition
  3

  2
PN
 70
     8
280
     0
  0
ATTDEF
  5
E2
330
D6
100
AcDbEntity
  8
AM_6
100
AcDbText
 10
6.463506256392503
 20
-4.141
 30
0.0
 40
0.5
  1
AN-GT-10-115-CR
100
AcDbAttributeDefinition
  3

  2
DESCRIPTION
 70
     8
280
     0
  0
ATTDEF
  5
E3
330
D6
100
AcDbEntity
  8
AM_6
100
AcDbText
 10
6.463506256392503
 20
-4.641
 30
0.0
 40
0.5
  1
1-55/64
100
AcDbAttributeDefinition
  3

  2
A
 70
     8
280
     0
  0
ATTDEF
  5
E4
330
D6
100
AcDbEntity
  8
AM_6
100
AcDbText
 10
6.463506256392503
 20
-5.141
 30
0.0
 40
0.5
  1
0.8661
100
AcDbAttributeDefinition
  3

  2
C
 70
     8
280
     0
  0
ATTDEF
  5
E5
330
D6
100
AcDbEntity
  8
AM_6
100
AcDbText
 10
6.463506256392503
 20
-5.641
 30
0.0
 40
0.5
  1
3.5433
100
AcDbAttributeDefinition
  3

  2
D
 70
     8
280
     0
  0
ATTDEF
  5
E6
330
D6
100
AcDbEntity
  8
AM_6
100
AcDbText
 10
6.463506256392503
 20
-6.141
 30
0.0
 40
0.5
  1
0.248
100
AcDbAttributeDefinition
  3

  2
J
 70
     8
280
     0
  0
ATTDEF
  5
E7
330
D6
100
AcDbEntity
  8
AM_6
100
AcDbText
 10
6.463506256392503
 20
-6.641
 30
0.0
 40
0.5
  1
2-15/16
100
AcDbAttributeDefinition
  3

  2
L
 70
     8
280
     0
  0
ATTDEF
  5
E8
330
D6
100
AcDbEntity
  8
AM_6
100
AcDbText
 10
6.463506256392503
 20
-7.141
 30
0.0
 40
0.5
  1
10 - 32 x 1/4
100
AcDbAttributeDefinition
  3

  2
N
 70
     8
280
     0
  0
ATTDEF
  5
E9
330
D6
100
AcDbEntity
  8
AM_6
100
AcDbText
 10
6.463506256392503
 20
-7.641
 30
0.0
 40
0.5
  1
21/32
100
AcDbAttributeDefinition
  3

  2
W
 70
     8
280
     0
  0
ATTDEF
  5
EA
330
D6
100
AcDbEntity
  8
AM_6
100
AcDbText
 10
6.463506256392503
 20
-8.141
 30
0.0
 40
0.5
  1
1-5/32
100
AcDbAttributeDefinition
  3

  2
X
 70
     8
280
     0
  0
ATTDEF
  5
EB
330
D6
100
AcDbEntity
  8
AM_6
100
AcDbText
 10
6.463506256392503
 20
-8.641
 30
0.0
 40
0.5
  1
1-13/64
100
AcDbAttributeDefinition
  3

  2
Y
 70
     8
280
     0
  0
ATTDEF
  5
EC
330
D6
100
AcDbEntity
  8
AM_6
100
AcDbText
 10
6.463506256392503
 20
-9.141
 30
0.0
 40
0.5
  1
baldor
100
AcDbAttributeDefinition
  3

  2
COMPANY
 70
     8
280
     0
  0
LINE
  5
ED
330
D6
100
AcDbEntity
  8
AM_9
100
AcDbLine
 10
-1.45175
 20
-1.911156433324867
 30
0.0
 11
-1.1185625
 21
-1.911156433324867
 31
0.0
  0
LINE
  5
EE
330
D6
100
AcDbEntity
  8
AM_9
100
AcDbLine
 10
-1.1185625
 20
-1.755156433324867
 30
0.0
 11
-1.45175
 21
-1.755156433324867
 31
0.0
  0
LINE
  5
EF
330
D6
100
AcDbEntity
  8
AM_9
100
AcDbLine
 10
-1.1185625
 20
-1.911156433324867
 30
0.0
 11
-1.1015625
 21
-1.928156433324867
 31
0.0
  0
LINE
  5
F0
330
D6
100
AcDbEntity
  8
AM_9
100
AcDbLine
 10
-1.1015625
 20
-1.738156433324867
 30
0.0
 11
-1.1185625
 21
-1.755156433324867
 31
0.0
  0
LINE
  5
F1
330
D6
100
AcDbEntity
  8
AM_9
100
AcDbLine
 10
-1.1015625
 20
-1.738156433324867
 30
0.0
 11
-1.1015625
 21
-1.928156433324867
 31
0.0
  0
LINE
  5
F2
330
D6
100
AcDbEntity
  8
AM_9
100
AcDbLine
 10
-1.1185625
 20
-1.755156433324867
 30
0.0
 11
-1.1185625
 21
-1.911156433324867
 31
0.0
  0
LINE
  5
F3
330
D6
100
AcDbEntity
  8
AM_9
100
AcDbLine
 10
-1.45175
 20
-1.755156433324867
 30
0.0
 11
-1.468694003632598
 21
-1.738212429692269
 31
0.0
  0
LINE
  5
F4
330
D6
100
AcDbEntity
  8
AM_9
100
AcDbLine
 10
-1.464083848736283
 20
-1.923490282061149
 30
0.0
 11
-1.45175
 21
-1.911156433324867
 31
0.0
  0
LINE
  5
F5
330
D6
100
AcDbEntity
  8
AM_9
100
AcDbLine
 10
-1.45175
 20
-1.755156433324867
 30
0.0
 11
-1.45175
 21
-1.911156433324867
 31
0.0
  0
LINE
  5
F6
330
D6
100
AcDbEntity
  8
AM_9
100
AcDbLine
 10
1.370833084624502
 20
-1.375375
 30
0.0
 11
1.370833084624502
 21
-1.9535
 31
0.0
  0
LINE
  5
F7
330
D6
100
AcDbEntity
  8
AM_9
100
AcDbLine
 10
0.9687500000000001
 20
-2.000375
 30
0.0
 11
0.9687500000000001
 21
-0.1410000000000002
 31
0.0
  0
LINE
  5
F8
330
D6
100
AcDbEntity
  8
AM_9
100
AcDbLine
 10
-0.9687499999999999
 20
-0.1410000000000002
 30
0.0
 11
-0.9687499999999999
 21
-2.000375
 31
0.0
  0
LINE
  5
F9
330
D6
100
AcDbEntity
  8
AM_9
100
AcDbLine
 10
1.095734126984127
 20
-1.664436765779782
 30
0.0
 11
1.095734126984127
 21
-1.230843750000001
 31
0.0
  0
LINE
  5
FA
330
D6
100
AcDbEntity
  8
AM_9
100
AcDbLine
 10
-1.095734126984127
 20
-1.230843750000001
 30
0.0
 11
-1.095734126984127
 21
-1.664436765779782
 31
0.0
  0
LINE
  5
FB
330
D6
100
AcDbEntity
  8
AM_9
100
AcDbLine
 10
-0.0499999999999999
 20
-0.1409999999999999
 30
0.0
 11
-0.0499999999999999
 21
-1.9535
 31
0.0
  0
LINE
  5
FC
330
D6
100
AcDbEntity
  8
AM_9
100
AcDbLine
 10
0.0500000000000001
 20
-0.1409999999999999
 30
0.0
 11
0.0500000000000001
 21
-1.9535
 31
0.0
  0
LINE
  5
FD
330
D6
100
AcDbEntity
  8
AM_9
100
AcDbLine
 10
-1.095734126984127
 20
-1.230843750000001
 30
0.0
 11
1.095734126984127
 21
-1.230843750000001
 31
0.0
  0
LINE
  5
FE
330
D6
100
AcDbEntity
  8
AM_9
100
AcDbLine
 10
1.095753115152538
 20
-1.2303
 30
0.0
 11
1.133792309359899
 21
-0.1410000000000001
 31
0.0
  0
LINE
  5
FF
330
D6
100
AcDbEntity
  8
AM_9
100
AcDbLine
 10
-1.133792309359899
 20
-0.1410000000000001
 30
0.0
 11
-1.095753115152538
 21
-1.2303
 31
0.0
  0
LINE
  5
100
330
D6
100
AcDbEntity
  8
AM_9
100
AcDbLine
 10
-1.133792309359899
 20
-0.1410000000000001
 30
0.0
 11
1.133792309359899
 21
-0.1410000000000001
 31
0.0
  0
LINE
  5
101
330
D6
100
AcDbEntity
  8
AM_9
100
AcDbLine
 10
1.200644841269842
 20
-1.51990625
 30
0.0
 11
1.200644841269842
 21
-1.375375
 31
0.0
  0
LINE
  5
102
330
D6
100
AcDbEntity
  8
AM_9
100
AcDbLine
 10
-1.200644841269842
 20
-1.375375
 30
0.0
 11
-1.200644841269842
 21
-1.51990625
 31
0.0
  0
LINE
  5
103
330
D6
100
AcDbEntity
  8
AM_9
100
AcDbLine
 10
-0.5780293922429813
 20
-1.375375
 30
0.0
 11
-0.5780293922429813
 21
-1.9535
 31
0.0
  0
LINE
  5
104
330
D6
100
AcDbEntity
  8
AM_9
100
AcDbLine
 10
-1.305555555555557
 20
-1.51990625
 30
0.0
 11
1.305555555555557
 21
-1.51990625
 31
0.0
  0
LINE
  5
105
330
D6
100
AcDbEntity
  8
AM_9
100
AcDbLine
 10
-1.305555555555557
 20
-1.6644375
 30
0.0
 11
1.305555555555557
 21
-1.6644375
 31
0.0
  0
LINE
  5
106
330
D6
100
AcDbEntity
  8
AM_9
100
AcDbLine
 10
1.305555555555557
 20
-1.6644375
 30
0.0
 11
1.305555555555557
 21
-1.51990625
 31
0.0
  0
LINE
  5
107
330
D6
100
AcDbEntity
  8
AM_9
100
AcDbLine
 10
-1.305555555555557
 20
-1.51990625
 30
0.0
 11
-1.305555555555557
 21
-1.6644375
 31
0.0
  0
LINE
  5
109
330
D6
100
AcDbEntity
  8
AM_5
100
AcDbLine
 10
-1.459449566675133
 20
-1.928156433324867
 30
0.0
 11
-1.1015625
 21
-1.928156433324867
 31
0.0
  0
LINE
  5
10A
330
D6
100
AcDbEntity
  8
AM_5
100
AcDbLine
 10
-1.46875
 20
-1.738156433324867
 30
0.0
 11
-1.1015625
 21
-1.738156433324867
 31
0.0
  0
LINE
  5
10D
330
D6
100
AcDbEntity
  8
AM_7
100
AcDbLine
 10
-1.083203125
 20
-1.833156433324867
 30
0.0
 11
-1.487109375
 21
-1.833156433324867
 31
0.0
  0
LINE
  5
10E
330
D6
100
AcDbEntity
  8
AM_4
100
AcDbLine
 10
-0.0499999999999999
 20
-2.000375
 30
0.0
 11
-0.0499999999999999
 21
-1.9535
 31
0.0
  0
LINE
  5
10F
330
D6
100
AcDbEntity
  8
AM_4
100
AcDbLine
 10
0.0500000000000001
 20
-2.000375
 30
0.0
 11
0.0500000000000001
 21
-1.9535
 31
0.0
  0
LINE
  5
110
330
D6
100
AcDbEntity
  8
AM_4
100
AcDbLine
 10
1.095734126984127
 20
-2.000375
 30
0.0
 11
1.095734126984127
 21
-1.9535
 31
0.0
  0
LINE
  5
111
330
D6
100
AcDbEntity
  8
AM_4
100
AcDbLine
 10
-1.095734126984127
 20
-1.9535
 30
0.0
 11
-1.095734126984127
 21
-2.000375
 31
0.0
  0
LINE
  5
112
330
D6
100
AcDbEntity
  8
AM_4
100
AcDbLine
 10
-1.095734126984127
 20
-2.000375
 30
0.0
 11
1.095734126984127
 21
-2.000375
 31
0.0
  0
LINE
  5
113
330
D6
100
AcDbEntity
  8
AM_4
100
AcDbLine
 10
-1.468212458137745
 20
-1.918856000000001
 30
0.0
 11
-1.464099783337579
 21
-1.92350621666242
 31
0.0
  0
LINE
  5
114
330
D6
100
AcDbEntity
  8
AM_4
100
AcDbLine
 10
-1.464358872857403
 20
-1.923247127142597
 30
0.0
 11
-1.434106
 21
-1.9535
 31
0.0
  0
LINE
  5
115
330
D6
100
AcDbEntity
  8
AM_4
100
AcDbLine
 10
-1.434106000000001
 20
-1.375375
 30
0.0
 11
-1.46875
 21
-1.410019
 31
0.0
  0
LINE
  5
116
330
D6
100
AcDbEntity
  8
AM_4
100
AcDbLine
 10
-1.468212458137745
 20
-1.918856000000001
 30
0.0
 11
-0.8391402782655227
 21
-1.918856
 31
0.0
  0
LINE
  5
117
330
D6
100
AcDbEntity
  8
AM_4
100
AcDbLine
 10
-1.46875
 20
-1.410019
 30
0.0
 11
-1.46875
 21
-1.738262258562632
 31
0.0
  0
LWPOLYLINE
  5
118
330
D6
100
AcDbEntity
  8
AM_4
100
AcDbPolyline
 90
       18
 70
     0
 43
0.0
 10
-1.46875
 20
-1.73815643332487
 10
-1.468749344627319
 20
-1.738167221712195
 10
-1.468654847519393
 20
-1.739735725101846
 10
-1.468423168775334
 20
-1.743696671520155
 10
-1.468067413549423
 20
-1.750143526350433
 10
-1.46763910465841
 20
-1.758637019773122
 10
-1.467165808810984
 20
-1.769317092947638
 10
-1.466709432711252
 20
-1.78166416561254
 10
-1.466308574404425
 20
-1.795721655808286
 10
-1.466019313055118
 20
-1.810802689068838
 10
-1.465871449787786
 20
-1.826918940723828
 10
-1.465890477527292
 20
-1.843065883569378
 10
-1.466079811755712
 20
-1.859390877792163
 10
-1.466409385318765
 20
-1.874577255849382
 10
-1.466859045407249
 20
-1.888997197375095
 10
-1.467229660348049
 20
-1.898538086744127
 10
-1.467613279790543
 20
-1.90713272356082
 10
-1.468212458137746
 20
-1.918856000000001
  0
LINE
  5
119
330
D6
100
AcDbEntity
  8
AM_4
100
AcDbLine
 10
-1.46875
 20
-1.410019
 30
0.0
 11
-0.8391402782655227
 21
-1.410019
 31
0.0
  0
LINE
  5
11A
330
D6
100
AcDbEntity
  8
AM_4
100
AcDbLine
 10
-0.8217547058898027
 20
-1.375375
 30
0.0
 11
-0.8391402782655227
 21
-1.410019
 31
0.0
  0
LINE
  5
11B
330
D6
100
AcDbEntity
  8
AM_4
100
AcDbLine
 10
-0.8391402782655227
 20
-1.410019
 30
0.0
 11
-0.8391402782655227
 21
-1.918856
 31
0.0
  0
LINE
  5
11C
330
D6
100
AcDbEntity
  8
AM_4
100
AcDbLine
 10
-0.8391402782655227
 20
-1.918856
 30
0.0
 11
-0.8217547058898026
 21
-1.9535
 31
0.0
  0
LINE
  5
11D
330
D6
100
AcDbEntity
  8
AM_4
100
AcDbLine
 10
-0.7928036923815222
 20
-1.375375
 30
0.0
 11
-0.7928036923815222
 21
-1.9535
 31
0.0
  0
LINE
  5
11E
330
D6
100
AcDbEntity
  8
AM_4
100
AcDbLine
 10
1.463506256392503
 20
-1.918856
 30
0.0
 11
1.428735111641063
 21
-1.9535
 31
0.0
  0
LINE
  5
11F
330
D6
100
AcDbEntity
  8
AM_4
100
AcDbLine
 10
-0.6069804057512616
 20
-1.9535
 30
0.0
 11
-0.6243659781269818
 21
-1.918856
 31
0.0
  0
LINE
  5
120
330
D6
100
AcDbEntity
  8
AM_4
100
AcDbLine
 10
-1.434106
 20
-1.9535
 30
0.0
 11
1.428735111641063
 21
-1.9535
 31
0.0
  0
LINE
  5
121
330
D6
100
AcDbEntity
  8
AM_4
100
AcDbLine
 10
1.463506256392504
 20
-1.410019
 30
0.0
 11
1.463506256392503
 21
-1.918856
 31
0.0
  0
LINE
  5
122
330
D6
100
AcDbEntity
  8
AM_4
100
AcDbLine
 10
-0.6243659781269818
 20
-1.918856
 30
0.0
 11
-0.6243659781269819
 21
-1.410019
 31
0.0
  0
LINE
  5
123
330
D6
100
AcDbEntity
  8
AM_4
100
AcDbLine
 10
-0.6243659781269818
 20
-1.918856
 30
0.0
 11
1.463506256392503
 21
-1.918856
 31
0.0
  0
LINE
  5
124
330
D6
100
AcDbEntity
  8
AM_4
100
AcDbLine
 10
1.428735111641063
 20
-1.375375
 30
0.0
 11
1.463506256392504
 21
-1.410019
 31
0.0
  0
LINE
  5
125
330
D6
100
AcDbEntity
  8
AM_4
100
AcDbLine
 10
-1.434106000000001
 20
-1.375375
 30
0.0
 11
1.428735111641063
 21
-1.375375
 31
0.0
  0
LINE
  5
126
330
D6
100
AcDbEntity
  8
AM_4
100
AcDbLine
 10
-0.6243659781269819
 20
-1.410019
 30
0.0
 11
-0.6069804057512618
 21
-1.375375
 31
0.0
  0
LINE
  5
127
330
D6
100
AcDbEntity
  8
AM_4
100
AcDbLine
 10
-0.6243659781269819
 20
-1.410019
 30
0.0
 11
1.463506256392504
 21
-1.410019
 31
0.0
  0
ENDBLK
  5
D9
330
D6
100
AcDbEntity
  8
0
100
AcDbBlockEnd
  0
BLOCK
  5
12A
330
128
100
AcDbEntity
  8
0
100
AcDbBlockBegin
  2
4_F4B_GTEZ_10_SHCR_II_0_in_129733_4
 70
     2
 10
0.0
 20
0.0
 30
0.0
  3
4_F4B_GTEZ_10_SHCR_II_0_in_129733_4
  1

  0
ATTDEF
  5
12C
330
128
100
AcDbEntity
  8
AM_6
100
AcDbText
 10
7.765500000000001
 20
0.06795
 30
0.0
 40
0.5
  1
GTEZ Normal Duty Stainless Steel Housed 4 Bolt Flange Bearings-inch
100
AcDbAttributeDefinition
  3

  2
NN
 70
     8
280
     0
  0
ATTDEF
  5
12D
330
128
100
AcDbEntity
  8
AM_6
100
AcDbText
 10
7.765500000000001
 20
-0.43205
 30
0.0
 40
0.5
  1
GRIP TIGHT Adapter Ball Bearings -E-Z KLEEN
100
AcDbAttributeDefinition
  3

  2
NT
 70
     8
280
     0
  0
ATTDEF
  5
12E
330
128
100
AcDbEntity
  8
AM_6
100
AcDbText
 10
7.765500000000001
 20
-0.93205
 30
0.0
 40
0.5
  1
F4B-GTEZ-10-SHCR-II
100
AcDbAttributeDefinition
  3

  2
NB
 70
     8
280
     0
  0
ATTDEF
  5
12F
330
128
100
AcDbEntity
  8
AM_6
100
AcDbText
 10
7.765500000000001
 20
-1.43205
 30
0.0
 40
0.5
  1
$PN.$LUBE.I
100
AcDbAttributeDefinition
  3

  2
NBSYN
 70
     8
280
     0
  0
ATTDEF
  5
130
330
128
100
AcDbEntity
  8
AM_6
100
AcDbText
 10
7.765500000000001
 20
-1.93205
 30
0.0
 40
0.5
  1
F4B-GTEZ-10-SHCR-I
100
AcDbAttributeDefinition
  3

  2
LINA
 70
     8
280
     0
  0
ATTDEF
  5
131
330
128
100
AcDbEntity
  8
AM_6
100
AcDbText
 10
7.765500000000001
 20
-2.43205
 30
0.0
 40
0.5
  1
210
100
AcDbAttributeDefinition
  3

  2
SERIES
 70
     8
280
     0
  0
ATTDEF
  5
132
330
128
100
AcDbEntity
  8
AM_6
100
AcDbText
 10
7.765500000000001
 20
-2.93205
 30
0.0
 40
0.5
  1
1-15/16
100
AcDbAttributeDefinition
  3

  2
SS
 70
     8
280
     0
  0
ATTDEF
  5
133
330
128
100
AcDbEntity
  8
AM_6
100
AcDbText
 10
7.765500000000001
 20
-3.43205
 30
0.0
 40
0.5
  1
F4B-GTEZ-10-SHCR-I
100
AcDbAttributeDefinition
  3

  2
PN
 70
     8
280
     0
  0
ATTDEF
  5
134
330
128
100
AcDbEntity
  8
AM_6
100
AcDbText
 10
7.765500000000001
 20
-3.93205
 30
0.0
 40
0.5
  1
F4B-GTEZ-10-SHCR
100
AcDbAttributeDefinition
  3

  2
DESCRIPTION
 70
     8
280
     0
  0
ATTDEF
  5
135
330
128
100
AcDbEntity
  8
AM_6
100
AcDbText
 10
7.765500000000001
 20
-4.43205
 30
0.0
 40
0.5
  1
5.33
100
AcDbAttributeDefinition
  3

  2
WEIGHT
 70
     8
280
     0
  0
ATTDEF
  5
136
330
128
100
AcDbEntity
  8
AM_6
100
AcDbText
 10
7.765500000000001
 20
-4.93205
 30
0.0
 40
0.5
  1
1-55/64
100
AcDbAttributeDefinition
  3

  2
A
 70
     8
280
     0
  0
ATTDEF
  5
137
330
128
100
AcDbEntity
  8
AM_6
100
AcDbText
 10
7.765500000000001
 20
-5.43205
 30
0.0
 40
0.5
  1
5-43/64
100
AcDbAttributeDefinition
  3

  2
B
 70
     8
280
     0
  0
ATTDEF
  5
138
330
128
100
AcDbEntity
  8
AM_6
100
AcDbText
 10
7.765500000000001
 20
-5.93205
 30
0.0
 40
0.5
  1
2
100
AcDbAttributeDefinition
  3

  2
C
 70
     8
280
     0
  0
ATTDEF
  5
139
330
128
100
AcDbEntity
  8
AM_6
100
AcDbText
 10
7.765500000000001
 20
-6.43205
 30
0.0
 40
0.5
  1
4-3/8
100
AcDbAttributeDefinition
  3

  2
D
 70
     8
280
     0
  0
ATTDEF
  5
13A
330
128
100
AcDbEntity
  8
AM_6
100
AcDbText
 10
7.765500000000001
 20
-6.93205
 30
0.0
 40
0.5
  1
5/8
100
AcDbAttributeDefinition
  3

  2
F
 70
     8
280
     0
  0
ATTDEF
  5
13B
330
128
100
AcDbEntity
  8
AM_6
100
AcDbText
 10
7.765500000000001
 20
-7.43205
 30
0.0
 40
0.5
  1
31/64
100
AcDbAttributeDefinition
  3

  2
H
 70
     8
280
     0
  0
ATTDEF
  5
13C
330
128
100
AcDbEntity
  8
AM_6
100
AcDbText
 10
7.765500000000001
 20
-7.93205
 30
0.0
 40
0.5
  1
19/32
100
AcDbAttributeDefinition
  3

  2
J
 70
     8
280
     0
  0
ATTDEF
  5
13D
330
128
100
AcDbEntity
  8
AM_6
100
AcDbText
 10
7.765500000000001
 20
-8.43205
 30
0.0
 40
0.5
  1
2-15/16
100
AcDbAttributeDefinition
  3

  2
L
 70
     8
280
     0
  0
ATTDEF
  5
13E
330
128
100
AcDbEntity
  8
AM_6
100
AcDbText
 10
7.765500000000001
 20
-8.93205
 30
0.0
 40
0.5
  1
1-61/64
100
AcDbAttributeDefinition
  3

  2
Z
 70
     8
280
     0
  0
ATTDEF
  5
13F
330
128
100
AcDbEntity
  8
AM_6
100
AcDbText
 10
7.765500000000001
 20
-9.43205
 30
0.0
 40
0.5
  1
baldor
100
AcDbAttributeDefinition
  3

  2
COMPANY
 70
     8
280
     0
  0
LINE
  5
140
330
128
100
AcDbEntity
  8
AM_9
100
AcDbLine
 10
2.118445961629093
 20
-0.4839999999999999
 30
0.0
 11
2.118445961629093
 21
0.0000000000000001
 31
0.0
  0
LINE
  5
141
330
128
100
AcDbEntity
  8
AM_9
100
AcDbLine
 10
2.054366105482011
 20
0.0000000000000001
 30
0.0
 11
2.054366105482011
 21
-0.4839999999999999
 31
0.0
  0
LINE
  5
142
330
128
100
AcDbEntity
  8
AM_9
100
AcDbLine
 10
-2.118445961629093
 20
-0.4839999999999999
 30
0.0
 11
-2.118445961629093
 21
0.0000000000000001
 31
0.0
  0
LINE
  5
143
330
128
100
AcDbEntity
  8
AM_9
100
AcDbLine
 10
-2.054366105482011
 20
-0.4839999999999999
 30
0.0
 11
-2.054366105482011
 21
0.0000000000000001
 31
0.0
  0
LINE
  5
144
330
128
100
AcDbEntity
  8
AM_9
100
AcDbLine
 10
0.7289307149567408
 20
-1.2802598
 30
0.0
 11
0.7289307149567408
 21
-1.359
 31
0.0
  0
LINE
  5
145
330
128
100
AcDbEntity
  8
AM_9
100
AcDbLine
 10
0.619405354167667
 20
-1.2802598
 30
0.0
 11
0.619405354167667
 21
-1.359
 31
0.0
  0
LINE
  5
146
330
128
100
AcDbEntity
  8
AM_9
100
AcDbLine
 10
0.7229519634373078
 20
-1.2802598
 30
0.0
 11
0.7229519634373078
 21
-1.359
 31
0.0
  0
LINE
  5
147
330
128
100
AcDbEntity
  8
AM_9
100
AcDbLine
 10
-0.5503745945521133
 20
-1.2802598
 30
0.0
 11
-0.5503745945521133
 21
-1.359
 31
0.0
  0
LINE
  5
148
330
128
100
AcDbEntity
  8
AM_9
100
AcDbLine
 10
-0.6081263687985805
 20
-1.2802598
 30
0.0
 11
-0.6081263687985804
 21
-1.359
 31
0.0
  0
LINE
  5
149
330
128
100
AcDbEntity
  8
AM_9
100
AcDbLine
 10
-0.5563533460715463
 20
-1.2802598
 30
0.0
 11
-0.5563533460715463
 21
-1.359
 31
0.0
  0
LINE
  5
14A
330
128
100
AcDbEntity
  8
AM_9
100
AcDbLine
 10
-0.5369896213931297
 20
-1.2802598
 30
0.0
 11
-0.5369896213931297
 21
-1.359
 31
0.0
  0
LINE
  5
14B
330
128
100
AcDbEntity
  8
AM_9
100
AcDbLine
 10
0.7393472758164544
 20
-1.2802598
 30
0.0
 11
0.7393472758164544
 21
-1.359
 31
0.0
  0
LINE
  5
14C
330
128
100
AcDbEntity
  8
AM_9
100
AcDbLine
 10
-0.5458444730159949
 20
-1.2802598
 30
0.0
 11
-0.5458444730159949
 21
-1.359
 31
0.0
  0
LINE
  5
14D
330
128
100
AcDbEntity
  8
AM_9
100
AcDbLine
 10
0.7333685242970215
 20
-1.2802598
 30
0.0
 11
0.7333685242970215
 21
-1.359
 31
0.0
  0
LINE
  5
14E
330
128
100
AcDbEntity
  8
AM_9
100
AcDbLine
 10
0.6585852483648027
 20
-1.2802598
 30
0.0
 11
0.6585852483648027
 21
-1.359
 31
0.0
  0
LINE
  5
14F
330
128
100
AcDbEntity
  8
AM_9
100
AcDbLine
 10
0.6426418425756193
 20
-1.2802598
 30
0.0
 11
0.6426418425756193
 21
-1.359
 31
0.0
  0
LINE
  5
150
330
128
100
AcDbEntity
  8
AM_9
100
AcDbLine
 10
-0.5392085089622628
 20
-1.2802598
 30
0.0
 11
-0.5392085089622628
 21
-1.359
 31
0.0
  0
LINE
  5
151
330
128
100
AcDbEntity
  8
AM_9
100
AcDbLine
 10
-0.5274773179944197
 20
-1.2802598
 30
0.0
 11
-0.5274773179944197
 21
-1.359
 31
0.0
  0
LINE
  5
152
330
128
100
AcDbEntity
  8
AM_9
100
AcDbLine
 10
1.77165
 20
-1.359
 30
0.0
 11
1.77165
 21
0.0
 31
0.0
  0
LINE
  5
153
330
128
100
AcDbEntity
  8
AM_9
100
AcDbLine
 10
-1.77165
 20
0.0
 30
0.0
 11
-1.77165
 21
-1.359
 31
0.0
  0
LINE
  5
154
330
128
100
AcDbEntity
  8
AM_9
100
AcDbLine
 10
-0.5181915146052566
 20
-1.2802598
 30
0.0
 11
-0.5181915146052566
 21
-1.359
 31
0.0
  0
LINE
  5
155
330
128
100
AcDbEntity
  8
AM_9
100
AcDbLine
 10
-0.5199584784834193
 20
-1.2802598
 30
0.0
 11
-0.5199584784834193
 21
-1.359
 31
0.0
  0
LINE
  5
156
330
128
100
AcDbEntity
  8
AM_9
100
AcDbLine
 10
0.4054176060176059
 20
-1.2802598
 30
0.0
 11
0.4054176060176059
 21
-1.359
 31
0.0
  0
LINE
  5
157
330
128
100
AcDbEntity
  8
AM_9
100
AcDbLine
 10
0.3898398974399574
 20
-1.2802598
 30
0.0
 11
0.3898398974399574
 21
-1.359
 31
0.0
  0
LINE
  5
158
330
128
100
AcDbEntity
  8
AM_9
100
AcDbLine
 10
0.3627103149792018
 20
-1.2802598
 30
0.0
 11
0.3627103149792018
 21
-1.359
 31
0.0
  0
LINE
  5
159
330
128
100
AcDbEntity
  8
AM_9
100
AcDbLine
 10
-0.5364454452735692
 20
-1.2802598
 30
0.0
 11
-0.5364454452735692
 21
-1.359
 31
0.0
  0
LINE
  5
15A
330
128
100
AcDbEntity
  8
AM_9
100
AcDbLine
 10
0.4184870287888335
 20
-1.2802598
 30
0.0
 11
0.4184870287888335
 21
-1.359
 31
0.0
  0
LINE
  5
15B
330
128
100
AcDbEntity
  8
AM_9
100
AcDbLine
 10
-0.5202974939309277
 20
-1.2802598
 30
0.0
 11
-0.5202974939309277
 21
-1.359
 31
0.0
  0
LINE
  5
15C
330
128
100
AcDbEntity
  8
AM_9
100
AcDbLine
 10
0.3928753891392997
 20
-1.2802598
 30
0.0
 11
0.3928753891392997
 21
-1.359
 31
0.0
  0
LINE
  5
15D
330
128
100
AcDbEntity
  8
AM_9
100
AcDbLine
 10
0.3481444369680007
 20
-1.2802598
 30
0.0
 11
0.3481444369680007
 21
-1.359
 31
0.0
  0
LINE
  5
15E
330
128
100
AcDbEntity
  8
AM_9
100
AcDbLine
 10
0.3657458066785441
 20
-1.2802598
 30
0.0
 11
0.3657458066785441
 21
-1.359
 31
0.0
  0
LINE
  5
15F
330
128
100
AcDbEntity
  8
AM_9
100
AcDbLine
 10
0.415493536106644
 20
-1.2802598
 30
0.0
 11
0.415493536106644
 21
-1.359
 31
0.0
  0
LINE
  5
160
330
128
100
AcDbEntity
  8
AM_9
100
AcDbLine
 10
0.7697854657031782
 20
-1.2802598
 30
0.0
 11
0.7697854657031782
 21
-1.359
 31
0.0
  0
LINE
  5
161
330
128
100
AcDbEntity
  8
AM_9
100
AcDbLine
 10
0.4325676825594481
 20
-1.2802598
 30
0.0
 11
0.4325676825594481
 21
-1.359
 31
0.0
  0
LINE
  5
162
330
128
100
AcDbEntity
  8
AM_9
100
AcDbLine
 10
-0.2662503651871621
 20
-1.2802598
 30
0.0
 11
-0.2662503651871621
 21
-1.359
 31
0.0
  0
LINE
  5
163
330
128
100
AcDbEntity
  8
AM_9
100
AcDbLine
 10
0.354194219555354
 20
-1.2802598
 30
0.0
 11
0.354194219555354
 21
-1.359
 31
0.0
  0
LINE
  5
164
330
128
100
AcDbEntity
  8
AM_9
100
AcDbLine
 10
0.4200257698058767
 20
-1.2802598
 30
0.0
 11
0.4200257698058767
 21
-1.359
 31
0.0
  0
LINE
  5
165
330
128
100
AcDbEntity
  8
AM_9
100
AcDbLine
 10
-0.2421353777391521
 20
-1.2802598
 30
0.0
 11
-0.2421353777391521
 21
-1.359
 31
0.0
  0
LINE
  5
166
330
128
100
AcDbEntity
  8
AM_9
100
AcDbLine
 10
0.337098675329668
 20
-1.2802598
 30
0.0
 11
0.337098675329668
 21
-1.359
 31
0.0
  0
LINE
  5
167
330
128
100
AcDbEntity
  8
AM_9
100
AcDbLine
 10
0.3461629718138094
 20
-1.2802598
 30
0.0
 11
0.3461629718138094
 21
-1.359
 31
0.0
  0
LINE
  5
168
330
128
100
AcDbEntity
  8
AM_9
100
AcDbLine
 10
-0.2948974965360383
 20
-1.2802598
 30
0.0
 11
-0.2948974965360383
 21
-1.359
 31
0.0
  0
LINE
  5
169
330
128
100
AcDbEntity
  8
AM_9
100
AcDbLine
 10
0.7638069535978455
 20
-1.2802598
 30
0.0
 11
0.7638069535978455
 21
-1.359
 31
0.0
  0
LINE
  5
16A
330
128
100
AcDbEntity
  8
AM_9
100
AcDbLine
 10
0.6775180812167242
 20
-1.2802598
 30
0.0
 11
0.6775180812167242
 21
-1.359
 31
0.0
  0
LINE
  5
16B
330
128
100
AcDbEntity
  8
AM_9
100
AcDbLine
 10
0.6645639998842356
 20
-1.2802598
 30
0.0
 11
0.6645639998842356
 21
-1.359
 31
0.0
  0
LINE
  5
16C
330
128
100
AcDbEntity
  8
AM_9
100
AcDbLine
 10
-0.2275694012471758
 20
-1.2802598
 30
0.0
 11
-0.2275694012471758
 21
-1.359
 31
0.0
  0
LINE
  5
16D
330
128
100
AcDbEntity
  8
AM_9
100
AcDbLine
 10
-0.2818492572113243
 20
-1.2802598
 30
0.0
 11
-0.2818492572113243
 21
-1.359
 31
0.0
  0
LINE
  5
16E
330
128
100
AcDbEntity
  8
AM_9
100
AcDbLine
 10
-0.2692858568865044
 20
-1.2802598
 30
0.0
 11
-0.2692858568865044
 21
-1.359
 31
0.0
  0
LINE
  5
16F
330
128
100
AcDbEntity
  8
AM_9
100
AcDbLine
 10
-0.2451708694384944
 20
-1.2802598
 30
0.0
 11
-0.2451708694384944
 21
-1.359
 31
0.0
  0
LINE
  5
170
330
128
100
AcDbEntity
  8
AM_9
100
AcDbLine
 10
-0.2919042008153993
 20
-1.2802598
 30
0.0
 11
-0.2919042008153993
 21
-1.359
 31
0.0
  0
LINE
  5
171
330
128
100
AcDbEntity
  8
AM_9
100
AcDbLine
 10
0.3416519128786815
 20
-1.2802598
 30
0.0
 11
0.3416519128786815
 21
-1.359
 31
0.0
  0
LINE
  5
172
330
128
100
AcDbEntity
  8
AM_9
100
AcDbLine
 10
0.3270648734484591
 20
-1.2802598
 30
0.0
 11
0.3270648734484591
 21
-1.359
 31
0.0
  0
LINE
  5
173
330
128
100
AcDbEntity
  8
AM_9
100
AcDbLine
 10
-0.3089786033182191
 20
-1.2802598
 30
0.0
 11
-0.3089786033182191
 21
-1.359
 31
0.0
  0
LINE
  5
174
330
128
100
AcDbEntity
  8
AM_9
100
AcDbLine
 10
-0.2336190853537537
 20
-1.2802598
 30
0.0
 11
-0.2336190853537537
 21
-1.359
 31
0.0
  0
LINE
  5
175
330
128
100
AcDbEntity
  8
AM_9
100
AcDbLine
 10
-0.2994507340850517
 20
-1.2802598
 30
0.0
 11
-0.2994507340850517
 21
-1.359
 31
0.0
  0
LINE
  5
176
330
128
100
AcDbEntity
  8
AM_9
100
AcDbLine
 10
-0.5375549489116609
 20
-1.2802598
 30
0.0
 11
-0.5375549489116609
 21
-1.359
 31
0.0
  0
LINE
  5
177
330
128
100
AcDbEntity
  8
AM_9
100
AcDbLine
 10
-0.216523639608843
 20
-1.2802598
 30
0.0
 11
-0.216523639608843
 21
-1.359
 31
0.0
  0
LINE
  5
178
330
128
100
AcDbEntity
  8
AM_9
100
AcDbLine
 10
-0.225588133054535
 20
-1.2802598
 30
0.0
 11
-0.225588133054535
 21
-1.359
 31
0.0
  0
LINE
  5
179
330
128
100
AcDbEntity
  8
AM_9
100
AcDbLine
 10
0.3969435907268684
 20
-1.2802598
 30
0.0
 11
0.3969435907268684
 21
-1.359
 31
0.0
  0
LINE
  5
17A
330
128
100
AcDbEntity
  8
AM_9
100
AcDbLine
 10
0.4240730747068487
 20
-1.2802598
 30
0.0
 11
0.4240730747068487
 21
-1.359
 31
0.0
  0
LINE
  5
17B
330
128
100
AcDbEntity
  8
AM_9
100
AcDbLine
 10
-0.5352442872244743
 20
-1.2802598
 30
0.0
 11
-0.5352442872244743
 21
-1.359
 31
0.0
  0
LINE
  5
17C
330
128
100
AcDbEntity
  8
AM_9
100
AcDbLine
 10
0.3225750193443969
 20
-1.2802598
 30
0.0
 11
0.3225750193443969
 21
-1.359
 31
0.0
  0
LINE
  5
17D
330
128
100
AcDbEntity
  8
AM_9
100
AcDbLine
 10
0.3230597680231964
 20
-1.2802598
 30
0.0
 11
0.3230597680231964
 21
-1.359
 31
0.0
  0
LINE
  5
17E
330
128
100
AcDbEntity
  8
AM_9
100
AcDbLine
 10
-0.3170310310092715
 20
-1.2802598
 30
0.0
 11
-0.3170310310092715
 21
-1.359
 31
0.0
  0
LINE
  5
17F
330
128
100
AcDbEntity
  8
AM_9
100
AcDbLine
 10
-0.6662388564335374
 20
-1.2802598
 30
0.0
 11
-0.6662388564335374
 21
-1.359
 31
0.0
  0
LINE
  5
180
330
128
100
AcDbEntity
  8
AM_9
100
AcDbLine
 10
-0.619405354167667
 20
-1.2802598
 30
0.0
 11
-0.619405354167667
 21
-1.359
 31
0.0
  0
LINE
  5
181
330
128
100
AcDbEntity
  8
AM_9
100
AcDbLine
 10
0.7697854657031782
 20
-1.2802598
 30
0.0
 11
0.619405354167667
 21
-1.2802598
 31
0.0
  0
LINE
  5
182
330
128
100
AcDbEntity
  8
AM_9
100
AcDbLine
 10
0.6662388564335374
 20
-1.2802598
 30
0.0
 11
0.6662388564335374
 21
-1.359
 31
0.0
  0
LINE
  5
183
330
128
100
AcDbEntity
  8
AM_9
100
AcDbLine
 10
-0.5525017422052075
 20
-1.2802598
 30
0.0
 11
-0.5525017422052075
 21
-1.359
 31
0.0
  0
LINE
  5
184
330
128
100
AcDbEntity
  8
AM_9
100
AcDbLine
 10
-0.3044888279987772
 20
-1.2802598
 30
0.0
 11
-0.3044888279987772
 21
-1.359
 31
0.0
  0
LINE
  5
185
330
128
100
AcDbEntity
  8
AM_9
100
AcDbLine
 10
-0.2210768771578565
 20
-1.2802598
 30
0.0
 11
-0.2210768771578565
 21
-1.359
 31
0.0
  0
LINE
  5
186
330
128
100
AcDbEntity
  8
AM_9
100
AcDbLine
 10
-0.2064902907392006
 20
-1.2802598
 30
0.0
 11
-0.2064902907392006
 21
-1.359
 31
0.0
  0
LINE
  5
187
330
128
100
AcDbEntity
  8
AM_9
100
AcDbLine
 10
0.4451945607902602
 20
-1.2802598
 30
0.0
 11
0.4451945607902602
 21
-1.359
 31
0.0
  0
LINE
  5
188
330
128
100
AcDbEntity
  8
AM_9
100
AcDbLine
 10
0.4376058402243132
 20
-1.2802598
 30
0.0
 11
0.4376058402243132
 21
-1.359
 31
0.0
  0
LINE
  5
189
330
128
100
AcDbEntity
  8
AM_9
100
AcDbLine
 10
-0.5593640782697649
 20
-1.2802598
 30
0.0
 11
-0.5593640782697649
 21
-1.359
 31
0.0
  0
LINE
  5
18A
330
128
100
AcDbEntity
  8
AM_9
100
AcDbLine
 10
-0.6430026074396854
 20
-1.2802598
 30
0.0
 11
-0.6430026074396854
 21
-1.359
 31
0.0
  0
LINE
  5
18B
330
128
100
AcDbEntity
  8
AM_9
100
AcDbLine
 10
-0.5912295847126512
 20
-1.2802598
 30
0.0
 11
-0.5912295847126512
 21
-1.359
 31
0.0
  0
LINE
  5
18C
330
128
100
AcDbEntity
  8
AM_9
100
AcDbLine
 10
-0.5681057566698342
 20
-1.2802598
 30
0.0
 11
-0.5681057566698342
 21
-1.359
 31
0.0
  0
LINE
  5
18D
330
128
100
AcDbEntity
  8
AM_9
100
AcDbLine
 10
-0.5787276234738836
 20
-1.2802598
 30
0.0
 11
-0.5787276234738836
 21
-1.359
 31
0.0
  0
LINE
  5
18E
330
128
100
AcDbEntity
  8
AM_9
100
AcDbLine
 10
-0.5181915146052566
 20
-1.2802598
 30
0.0
 11
-0.6662388564335374
 21
-1.2802598
 31
0.0
  0
LINE
  5
18F
330
128
100
AcDbEntity
  8
AM_9
100
AcDbLine
 10
-0.5431029279665394
 20
-1.2802598
 30
0.0
 11
-0.5431029279665394
 21
-1.359
 31
0.0
  0
LINE
  5
190
330
128
100
AcDbEntity
  8
AM_9
100
AcDbLine
 10
0.3999790824262107
 20
-1.2802598
 30
0.0
 11
0.3999790824262107
 21
-1.359
 31
0.0
  0
LINE
  5
191
330
128
100
AcDbEntity
  8
AM_9
100
AcDbLine
 10
-0.552841628941308
 20
-1.2802598
 30
0.0
 11
-0.552841628941308
 21
-1.359
 31
0.0
  0
LINE
  5
192
330
128
100
AcDbEntity
  8
AM_9
100
AcDbLine
 10
-0.2020000821043473
 20
-1.2802598
 30
0.0
 11
-0.2020000821043473
 21
-1.359
 31
0.0
  0
LINE
  5
193
330
128
100
AcDbEntity
  8
AM_9
100
AcDbLine
 10
-0.2024849588081546
 20
-1.2802598
 30
0.0
 11
-0.2024849588081546
 21
-1.359
 31
0.0
  0
LINE
  5
194
330
128
100
AcDbEntity
  8
AM_9
100
AcDbLine
 10
-0.5972080968179838
 20
-1.2802598
 30
0.0
 11
-0.5972080968179838
 21
-1.359
 31
0.0
  0
LINE
  5
195
330
128
100
AcDbEntity
  8
AM_9
100
AcDbLine
 10
-0.5683321884479073
 20
-1.2802598
 30
0.0
 11
-0.5683321884479073
 21
-1.359
 31
0.0
  0
LINE
  5
196
330
128
100
AcDbEntity
  8
AM_9
100
AcDbLine
 10
-0.5818303603949203
 20
-1.2802598
 30
0.0
 11
-0.5818303603949203
 21
-1.359
 31
0.0
  0
LINE
  5
197
330
128
100
AcDbEntity
  8
AM_9
100
AcDbLine
 10
0.4497478591161357
 20
-1.2802598
 30
0.0
 11
0.4497478591161357
 21
-1.359
 31
0.0
  0
LINE
  5
198
330
128
100
AcDbEntity
  8
AM_9
100
AcDbLine
 10
0.3406613091707921
 20
-1.2802598
 30
0.0
 11
0.3406613091707921
 21
-1.359
 31
0.0
  0
LINE
  5
199
330
128
100
AcDbEntity
  8
AM_9
100
AcDbLine
 10
-0.3301637051807083
 20
-1.2802598
 30
0.0
 11
-0.3301637051807083
 21
-1.359
 31
0.0
  0
LINE
  5
19A
330
128
100
AcDbEntity
  8
AM_9
100
AcDbLine
 10
-0.3225750193443969
 20
-1.2802598
 30
0.0
 11
-0.3225750193443969
 21
-1.359
 31
0.0
  0
LINE
  5
19B
330
128
100
AcDbEntity
  8
AM_9
100
AcDbLine
 10
0.3301637051807083
 20
-1.2802598
 30
0.0
 11
0.3301637051807083
 21
-1.359
 31
0.0
  0
LINE
  5
19C
330
128
100
AcDbEntity
  8
AM_9
100
AcDbLine
 10
0.4316618647320666
 20
-1.2802598
 30
0.0
 11
0.4316618647320666
 21
-1.359
 31
0.0
  0
LINE
  5
19D
330
128
100
AcDbEntity
  8
AM_9
100
AcDbLine
 10
0.4492628955882397
 20
-1.2802598
 30
0.0
 11
0.4492628955882397
 21
-1.359
 31
0.0
  0
LINE
  5
19E
330
128
100
AcDbEntity
  8
AM_9
100
AcDbLine
 10
0.3482499950071034
 20
-1.2802598
 30
0.0
 11
0.3482499950071034
 21
-1.359
 31
0.0
  0
LINE
  5
19F
330
128
100
AcDbEntity
  8
AM_9
100
AcDbLine
 10
0.4301650532729052
 20
-1.2802598
 30
0.0
 11
0.4301650532729052
 21
-1.359
 31
0.0
  0
LINE
  5
1A0
330
128
100
AcDbEntity
  8
AM_9
100
AcDbLine
 10
0.3357076240565627
 20
-1.2802598
 30
0.0
 11
0.3357076240565627
 21
-1.359
 31
0.0
  0
LINE
  5
1A1
330
128
100
AcDbEntity
  8
AM_9
100
AcDbLine
 10
-0.3296788870426378
 20
-1.2802598
 30
0.0
 11
-0.3296788870426378
 21
-1.359
 31
0.0
  0
LINE
  5
1A2
330
128
100
AcDbEntity
  8
AM_9
100
AcDbLine
 10
-0.3120775138350885
 20
-1.2802598
 30
0.0
 11
-0.3120775138350885
 21
-1.359
 31
0.0
  0
LINE
  5
1A3
330
128
100
AcDbEntity
  8
AM_9
100
AcDbLine
 10
0.3532880078048714
 20
-1.2802598
 30
0.0
 11
0.3532880078048714
 21
-1.359
 31
0.0
  0
LINE
  5
1A4
330
128
100
AcDbEntity
  8
AM_9
100
AcDbLine
 10
0.4221338055313605
 20
-1.2802598
 30
0.0
 11
0.4221338055313605
 21
-1.359
 31
0.0
  0
LINE
  5
1A5
330
128
100
AcDbEntity
  8
AM_9
100
AcDbLine
 10
-0.2200860764884165
 20
-1.2802598
 30
0.0
 11
-0.2200860764884165
 21
-1.359
 31
0.0
  0
LINE
  5
1A6
330
128
100
AcDbEntity
  8
AM_9
100
AcDbLine
 10
0.4392295901306416
 20
-1.2802598
 30
0.0
 11
0.4392295901306416
 21
-1.359
 31
0.0
  0
LINE
  5
1A7
330
128
100
AcDbEntity
  8
AM_9
100
AcDbLine
 10
0.3608344889800705
 20
-1.2802598
 30
0.0
 11
0.3608344889800705
 21
-1.359
 31
0.0
  0
LINE
  5
1A8
330
128
100
AcDbEntity
  8
AM_9
100
AcDbLine
 10
0.3708894325841456
 20
-1.2802598
 30
0.0
 11
0.3708894325841456
 21
-1.359
 31
0.0
  0
LINE
  5
1A9
330
128
100
AcDbEntity
  8
AM_9
100
AcDbLine
 10
0.4105825195586276
 20
-1.2802598
 30
0.0
 11
0.4105825195586276
 21
-1.359
 31
0.0
  0
LINE
  5
1AA
330
128
100
AcDbEntity
  8
AM_9
100
AcDbLine
 10
0.383452937097872
 20
-1.2802598
 30
0.0
 11
0.383452937097872
 21
-1.359
 31
0.0
  0
LINE
  5
1AB
330
128
100
AcDbEntity
  8
AM_9
100
AcDbLine
 10
-0.2095887679406586
 20
-1.2802598
 30
0.0
 11
-0.2095887679406586
 21
-1.359
 31
0.0
  0
LINE
  5
1AC
330
128
100
AcDbEntity
  8
AM_9
100
AcDbLine
 10
0.3437600864772507
 20
-1.2802598
 30
0.0
 11
0.3437600864772507
 21
-1.359
 31
0.0
  0
LINE
  5
1AD
330
128
100
AcDbEntity
  8
AM_9
100
AcDbLine
 10
-0.3110868290112416
 20
-1.2802598
 30
0.0
 11
-0.3110868290112416
 21
-1.359
 31
0.0
  0
LINE
  5
1AE
330
128
100
AcDbEntity
  8
AM_9
100
AcDbLine
 10
0.4281838458571265
 20
-1.2802598
 30
0.0
 11
0.4281838458571265
 21
-1.359
 31
0.0
  0
LINE
  5
1AF
330
128
100
AcDbEntity
  8
AM_9
100
AcDbLine
 10
-0.3256738163470107
 20
-1.2802598
 30
0.0
 11
-0.3256738163470108
 21
-1.359
 31
0.0
  0
LINE
  5
1B0
330
128
100
AcDbEntity
  8
AM_9
100
AcDbLine
 10
0.122435
 20
-1.2802598
 30
0.0
 11
0.122435
 21
-1.359
 31
0.0
  0
LINE
  5
1B1
330
128
100
AcDbEntity
  8
AM_9
100
AcDbLine
 10
-0.2276747623247278
 20
-1.2802598
 30
0.0
 11
-0.2276747623247278
 21
-1.359
 31
0.0
  0
LINE
  5
1B2
330
128
100
AcDbEntity
  8
AM_9
100
AcDbLine
 10
-0.3065757179816604
 20
-1.2802598
 30
0.0
 11
-0.3065757179816604
 21
-1.359
 31
0.0
  0
LINE
  5
1B3
330
128
100
AcDbEntity
  8
AM_9
100
AcDbLine
 10
0.4136178897042455
 20
-1.2802598
 30
0.0
 11
0.4136178897042455
 21
-1.359
 31
0.0
  0
LINE
  5
1B4
330
128
100
AcDbEntity
  8
AM_9
100
AcDbLine
 10
0.357841236671476
 20
-1.2802598
 30
0.0
 11
0.357841236671476
 21
-1.359
 31
0.0
  0
LINE
  5
1B5
330
128
100
AcDbEntity
  8
AM_9
100
AcDbLine
 10
-0.215132814841521
 20
-1.2802598
 30
0.0
 11
-0.215132814841521
 21
-1.359
 31
0.0
  0
LINE
  5
1B6
330
128
100
AcDbEntity
  8
AM_9
100
AcDbLine
 10
-0.2327129720840464
 20
-1.2802598
 30
0.0
 11
-0.2327129720840464
 21
-1.359
 31
0.0
  0
LINE
  5
1B7
330
128
100
AcDbEntity
  8
AM_9
100
AcDbLine
 10
-0.2985444702401158
 20
-1.2802598
 30
0.0
 11
-0.2985444702401158
 21
-1.359
 31
0.0
  0
LINE
  5
1B8
330
128
100
AcDbEntity
  8
AM_9
100
AcDbLine
 10
0.3864883072434899
 20
-1.2802598
 30
0.0
 11
0.3864883072434899
 21
-1.359
 31
0.0
  0
LINE
  5
1B9
330
128
100
AcDbEntity
  8
AM_9
100
AcDbLine
 10
0.4492628955882397
 20
-1.2802598
 30
0.0
 11
0.3225750193443969
 21
-1.2802598
 31
0.0
  0
LINE
  5
1BA
330
128
100
AcDbEntity
  8
AM_9
100
AcDbLine
 10
0.10407
 20
-1.2802598
 30
0.0
 11
0.10407
 21
-1.359
 31
0.0
  0
LINE
  5
1BB
330
128
100
AcDbEntity
  8
AM_9
100
AcDbLine
 10
-0.2402596502207961
 20
-1.2802598
 30
0.0
 11
-0.2402596502207961
 21
-1.359
 31
0.0
  0
LINE
  5
1BC
330
128
100
AcDbEntity
  8
AM_9
100
AcDbLine
 10
-0.3156400578778462
 20
-1.2802598
 30
0.0
 11
-0.3156400578778462
 21
-1.359
 31
0.0
  0
LINE
  5
1BD
330
128
100
AcDbEntity
  8
AM_9
100
AcDbLine
 10
-0.2869929873058323
 20
-1.2802598
 30
0.0
 11
-0.2869929873058323
 21
-1.359
 31
0.0
  0
LINE
  5
1BE
330
128
100
AcDbEntity
  8
AM_9
100
AcDbLine
 10
-0.2628779998578223
 20
-1.2802598
 30
0.0
 11
-0.2628779998578223
 21
-1.359
 31
0.0
  0
LINE
  5
1BF
330
128
100
AcDbEntity
  8
AM_9
100
AcDbLine
 10
0.119374
 20
-1.2802598
 30
0.0
 11
0.119374
 21
-1.359
 31
0.0
  0
LINE
  5
1C0
330
128
100
AcDbEntity
  8
AM_9
100
AcDbLine
 10
-0.2231855037679921
 20
-1.2802598
 30
0.0
 11
-0.2231855037679921
 21
-1.359
 31
0.0
  0
LINE
  5
1C1
330
128
100
AcDbEntity
  8
AM_9
100
AcDbLine
 10
-0.3045943136043312
 20
-1.2802598
 30
0.0
 11
-0.3045943136043312
 21
-1.359
 31
0.0
  0
LINE
  5
1C2
330
128
100
AcDbEntity
  8
AM_9
100
AcDbLine
 10
-0.2900283574514502
 20
-1.2802598
 30
0.0
 11
-0.2900283574514502
 21
-1.359
 31
0.0
  0
LINE
  5
1C3
330
128
100
AcDbEntity
  8
AM_9
100
AcDbLine
 10
-0.237266200950651
 20
-1.2802598
 30
0.0
 11
-0.237266200950651
 21
-1.359
 31
0.0
  0
LINE
  5
1C4
330
128
100
AcDbEntity
  8
AM_9
100
AcDbLine
 10
0.113252
 20
-1.2802598
 30
0.0
 11
0.113252
 21
-1.359
 31
0.0
  0
LINE
  5
1C5
330
128
100
AcDbEntity
  8
AM_9
100
AcDbLine
 10
0.0948874
 20
-1.2802598
 30
0.0
 11
0.0948874
 21
-1.359
 31
0.0
  0
LINE
  5
1C6
330
128
100
AcDbEntity
  8
AM_9
100
AcDbLine
 10
0.0183653
 20
-1.2802598
 30
0.0
 11
0.0183653
 21
-1.359
 31
0.0
  0
LINE
  5
1C7
330
128
100
AcDbEntity
  8
AM_9
100
AcDbLine
 10
0.0857047
 20
-1.2802598
 30
0.0
 11
0.0857047
 21
-1.359
 31
0.0
  0
LINE
  5
1C8
330
128
100
AcDbEntity
  8
AM_9
100
AcDbLine
 10
-0.2503356410866965
 20
-1.2802598
 30
0.0
 11
-0.2503356410866965
 21
-1.359
 31
0.0
  0
LINE
  5
1C9
330
128
100
AcDbEntity
  8
AM_9
100
AcDbLine
 10
-0.2659133700034402
 20
-1.2802598
 30
0.0
 11
-0.2659133700034402
 21
-1.359
 31
0.0
  0
LINE
  5
1CA
330
128
100
AcDbEntity
  8
AM_9
100
AcDbLine
 10
-0.2020000821043473
 20
-1.2802598
 30
0.0
 11
-0.3296788870426378
 21
-1.2802598
 31
0.0
  0
LINE
  5
1CB
330
128
100
AcDbEntity
  8
AM_9
100
AcDbLine
 10
0.101009
 20
-1.2802598
 30
0.0
 11
0.101009
 21
-1.359
 31
0.0
  0
LINE
  5
1CC
330
128
100
AcDbEntity
  8
AM_9
100
AcDbLine
 10
0.0887654
 20
-1.2802598
 30
0.0
 11
0.0887654
 21
-1.359
 31
0.0
  0
LINE
  5
1CD
330
128
100
AcDbEntity
  8
AM_9
100
AcDbLine
 10
0.0
 20
-1.2802598
 30
0.0
 11
0.0
 21
-1.359
 31
0.0
  0
LINE
  5
1CE
330
128
100
AcDbEntity
  8
AM_9
100
AcDbLine
 10
0.073461
 20
-1.2802598
 30
0.0
 11
0.073461
 21
-1.359
 31
0.0
  0
LINE
  5
1CF
330
128
100
AcDbEntity
  8
AM_9
100
AcDbLine
 10
0.122435
 20
-1.2802598
 30
0.0
 11
0.0
 21
-1.2802598
 31
0.0
  0
LINE
  5
1D0
330
128
100
AcDbEntity
  8
AM_9
100
AcDbLine
 10
-2.075789904863983
 20
-0.4839999999999999
 30
0.0
 11
-2.075789904863983
 21
0.0
 31
0.0
  0
LINE
  5
1D1
330
128
100
AcDbEntity
  8
AM_9
100
AcDbLine
 10
2.075789904863984
 20
-0.4839999999999999
 30
0.0
 11
2.075789904863985
 21
0.0
 31
0.0
  0
LINE
  5
1D2
330
128
100
AcDbEntity
  8
AM_9
100
AcDbLine
 10
2.209375000000001
 20
-0.484
 30
0.0
 11
2.209375000000001
 21
0.0
 31
0.0
  0
LINE
  5
1D3
330
128
100
AcDbEntity
  8
AM_9
100
AcDbLine
 10
-2.209375000000001
 20
0.0
 30
0.0
 11
-2.209375000000001
 21
-0.484
 31
0.0
  0
LINE
  5
1D4
330
128
100
AcDbEntity
  8
AM_9
100
AcDbLine
 10
0.4405525026913005
 20
-1.2999449
 30
0.0
 11
-0.440552502690947
 21
-1.2999449
 31
0.0
  0
CIRCLE
  5
1D5
330
128
100
AcDbEntity
  8
AM_9
100
AcDbCircle
 10
0.0
 20
-1.019250862964534
 30
0.0
 40
0.0787401999999299
  0
CIRCLE
  5
1D6
330
128
100
AcDbEntity
  8
AM_9
100
AcDbCircle
 10
0.0
 20
-1.019250862964534
 30
0.0
 40
0.1003135047956617
  0
LINE
  5
1D7
330
128
100
AcDbEntity
  8
AM_9
100
AcDbLine
 10
2.5
 20
-0.4839999999999998
 30
0.0
 11
2.5
 21
0.0000000000000001
 31
0.0
  0
LINE
  5
1D8
330
128
100
AcDbEntity
  8
AM_9
100
AcDbLine
 10
1.875
 20
0.0000000000000001
 30
0.0
 11
1.875
 21
-0.4839999999999998
 31
0.0
  0
LINE
  5
1D9
330
128
100
AcDbEntity
  8
AM_9
100
AcDbLine
 10
-1.875
 20
-0.4839999999999998
 30
0.0
 11
-1.875
 21
0.0000000000000001
 31
0.0
  0
LINE
  5
1DA
330
128
100
AcDbEntity
  8
AM_9
100
AcDbLine
 10
-2.5
 20
0.0000000000000001
 30
0.0
 11
-2.5
 21
-0.4839999999999998
 31
0.0
  0
LINE
  5
1DB
330
128
100
AcDbEntity
  8
AM_9
100
AcDbLine
 10
-2.660969881599037
 20
-0.4839999999999998
 30
0.0
 11
-2.660969881599037
 21
0.0000000000000001
 31
0.0
  0
LINE
  5
1DC
330
128
100
AcDbEntity
  8
AM_9
100
AcDbLine
 10
2.660969881599037
 20
-0.4839999999999998
 30
0.0
 11
2.660969881599037
 21
0.0000000000000001
 31
0.0
  0
LINE
  5
1DD
330
128
100
AcDbEntity
  8
AM_7
100
AcDbLine
 10
-0.165354
 20
-1.019250862964534
 30
0.0
 11
0.165354
 21
-1.019250862964534
 31
0.0
  0
LINE
  5
1DE
330
128
100
AcDbEntity
  8
AM_7
100
AcDbLine
 10
2.1875
 20
0.0242000000000001
 30
0.0
 11
2.1875
 21
-0.5081999999999998
 31
0.0
  0
LINE
  5
1DF
330
128
100
AcDbEntity
  8
AM_7
100
AcDbLine
 10
-2.1875
 20
0.0241999999999999
 30
0.0
 11
-2.1875
 21
-0.5082000000000001
 31
0.0
  0
LINE
  5
1E0
330
128
100
AcDbEntity
  8
AM_7
100
AcDbLine
 10
0.0
 20
0.06795
 30
0.0
 11
0.0000000000000001
 21
-2.09334375
 31
0.0
  0
LINE
  5
1E1
330
128
100
AcDbEntity
  8
AM_4
100
AcDbLine
 10
0.4405525026913005
 20
-1.299944899999883
 30
0.0
 11
0.440552502690944
 21
0.0000000000000001
 31
0.0
  0
LINE
  5
1E2
330
128
100
AcDbEntity
  8
AM_4
100
AcDbLine
 10
-0.440552502690944
 20
0.0000000000000001
 30
0.0
 11
-0.440552502690947
 21
-1.2999449
 31
0.0
  0
LINE
  5
1E3
330
128
100
AcDbEntity
  8
AM_4
100
AcDbLine
 10
-0.7565937889579695
 20
-0.4839999999999998
 30
0.0
 11
-0.7565937889579687
 21
0.0000000000000001
 31
0.0
  0
LINE
  5
1E4
330
128
100
AcDbEntity
  8
AM_4
100
AcDbLine
 10
0.7565937889579695
 20
-0.4839999999999998
 30
0.0
 11
0.7565937889579695
 21
0.0000000000000001
 31
0.0
  0
LINE
  5
1E5
330
128
100
AcDbEntity
  8
AM_4
100
AcDbLine
 10
2.209375000000001
 20
-1.2999449
 30
0.0
 11
2.209375000000001
 21
-0.484
 31
0.0
  0
LINE
  5
1E6
330
128
100
AcDbEntity
  8
AM_4
100
AcDbLine
 10
-2.209375000000001
 20
-0.484
 30
0.0
 11
-2.209375000000001
 21
-1.2999449
 31
0.0
  0
LINE
  5
1E7
330
128
100
AcDbEntity
  8
AM_4
100
AcDbLine
 10
-2.150319900000001
 20
-1.359
 30
0.0
 11
2.150319899999715
 21
-1.359
 31
0.0
  0
LWPOLYLINE
  5
1E8
330
128
100
AcDbEntity
  8
AM_4
100
AcDbPolyline
 90
       27
 70
     0
 43
0.0
 10
0.4405525026913005
 20
-1.299944899999883
 10
0.440123700959915
 20
-1.303120877371528
 10
0.4379920937692323
 20
-1.307682700432522
 10
0.4323243233181442
 20
-1.313707234058301
 10
0.4226425021797422
 20
-1.319977325980395
 10
0.4118731993313852
 20
-1.324916589752483
 10
0.3907922727841048
 20
-1.331883439161968
 10
0.3690073257392125
 20
-1.337092492582556
 10
0.3242084453203491
 20
-1.344442070528635
 10
0.2840135689722652
 20
-1.348771531701294
 10
0.2436897986092345
 20
-1.351745918096481
 10
0.1626762213475031
 20
-1.355219776485345
 10
0.0813535611658187
 20
-1.356730516246004
 10
0.0
 20
-1.35714473015133
 10
-0.1181102000000009
 20
-1.356220096705506
 10
-0.1771492188849523
 20
-1.354780539291619
 10
-0.2361683046385924
 20
-1.352190915189474
 10
-0.2952203231789016
 20
-1.347714286522351
 10
-0.3540839058943738
 20
-1.33993982458283
 10
-0.3830062964634339
 20
-1.333919434729848
 10
-0.411436259654375
 20
-1.325090759505035
 10
-0.4204693660702764
 20
-1.321093723555219
 10
-0.4291082504374669
 20
-1.316102998859412
 10
-0.4346359743153234
 20
-1.311652559514658
 10
-0.4389952834420033
 20
-1.305987768756859
 10
-0.440393511744872
 20
-1.301879530831838
 10
-0.440552502690947
 20
-1.2999449
  0
LINE
  5
1E9
330
128
100
AcDbEntity
  8
AM_4
100
AcDbLine
 10
0.4405525026913005
 20
-1.299944899999883
 30
0.0
 11
2.209375000000001
 21
-1.2999449
 31
0.0
  0
ARC
  5
1EA
330
128
100
AcDbEntity
  8
AM_4
100
AcDbCircle
 10
2.1503199
 20
-1.299944899999999
 30
0.0
 40
0.0590551000000008
100
AcDbArc
 50
270.0
 51
0.0000008537736463
  0
ARC
  5
1EB
330
128
100
AcDbEntity
  8
AM_4
100
AcDbCircle
 10
-2.1503199
 20
-1.299944899999999
 30
0.0
 40
0.059055100000001
100
AcDbArc
 50
179.9999991462263
 51
270.0
  0
LINE
  5
1EC
330
128
100
AcDbEntity
  8
AM_4
100
AcDbLine
 10
-2.209375000000001
 20
-1.2999449
 30
0.0
 11
-0.440552502690947
 21
-1.2999449
 31
0.0
  0
LINE
  5
1ED
330
128
100
AcDbEntity
  8
AM_4
100
AcDbLine
 10
0.0909214090671169
 20
-0.861770362964534
 30
0.0
 11
-0.0909214090671168
 21
-0.861770362964534
 31
0.0
  0
LINE
  5
1EE
330
128
100
AcDbEntity
  8
AM_4
100
AcDbLine
 10
-0.0909214090671168
 20
-0.861770362964534
 30
0.0
 11
-0.1818428181342336
 21
-1.019250862964534
 31
0.0
  0
LINE
  5
1EF
330
128
100
AcDbEntity
  8
AM_4
100
AcDbLine
 10
-0.1818428181342336
 20
-1.019250862964534
 30
0.0
 11
-0.0909214090671168
 21
-1.176731362964534
 31
0.0
  0
LINE
  5
1F0
330
128
100
AcDbEntity
  8
AM_4
100
AcDbLine
 10
-0.0909214090671168
 20
-1.176731362964534
 30
0.0
 11
0.0909214090671169
 21
-1.176731362964534
 31
0.0
  0
LINE
  5
1F1
330
128
100
AcDbEntity
  8
AM_4
100
AcDbLine
 10
0.0909214090671169
 20
-1.176731362964534
 30
0.0
 11
0.1818428181342338
 21
-1.019250862964534
 31
0.0
  0
LINE
  5
1F2
330
128
100
AcDbEntity
  8
AM_4
100
AcDbLine
 10
0.1818428181342338
 20
-1.019250862964534
 30
0.0
 11
0.0909214090671169
 21
-0.861770362964534
 31
0.0
  0
CIRCLE
  5
1F3
330
128
100
AcDbEntity
  8
AM_4
100
AcDbCircle
 10
0.0
 20
-1.019250862964534
 30
0.0
 40
0.15748
  0
CIRCLE
  5
1F4
330
128
100
AcDbEntity
  8
AM_4
100
AcDbCircle
 10
0.0
 20
-1.019250862964534
 30
0.0
 40
0.110236
  0
CIRCLE
  5
1F5
330
128
100
AcDbEntity
  8
AM_4
100
AcDbCircle
 10
0.0
 20
-1.019250862964534
 30
0.0
 40
0.1062853497006251
  0
CIRCLE
  5
1F6
330
128
100
AcDbEntity
  8
AM_4
100
AcDbCircle
 10
0.0
 20
-1.019250862964534
 30
0.0
 40
0.1048774357720923
  0
CIRCLE
  5
1F7
330
128
100
AcDbEntity
  8
AM_4
100
AcDbCircle
 10
0.0
 20
-1.019250862964534
 30
0.0
 40
0.0836898482231382
  0
CIRCLE
  5
1F8
330
128
100
AcDbEntity
  8
AM_4
100
AcDbCircle
 10
0.0
 20
-1.019250862964534
 30
0.0
 40
0.0654127621516695
  0
LINE
  5
1F9
330
128
100
AcDbEntity
  8
AM_4
100
AcDbLine
 10
1.081168364874101
 20
-0.4839999999999998
 30
0.0
 11
1.081168364874101
 21
0.0000000000000001
 31
0.0
  0
LINE
  5
1FA
330
128
100
AcDbEntity
  8
AM_4
100
AcDbLine
 10
-1.0811683648741
 20
-0.4839999999999998
 30
0.0
 11
-1.0811683648741
 21
0.0000000000000001
 31
0.0
  0
LINE
  5
1FB
330
128
100
AcDbEntity
  8
AM_4
100
AcDbLine
 10
2.765500000000001
 20
0.0000000000000001
 30
0.0
 11
-2.765499999999999
 21
0.0000000000000001
 31
0.0
  0
LINE
  5
1FC
330
128
100
AcDbEntity
  8
AM_4
100
AcDbLine
 10
-0.7565937889579695
 20
-0.4839999999999998
 30
0.0
 11
-2.765499999999999
 21
-0.4839999999999998
 31
0.0
  0
LINE
  5
1FD
330
128
100
AcDbEntity
  8
AM_4
100
AcDbLine
 10
-1.855972819789095
 20
-0.4839999999999998
 30
0.0
 11
-1.855972819789095
 21
0.0000000000000002
 31
0.0
  0
LINE
  5
1FE
330
128
100
AcDbEntity
  8
AM_4
100
AcDbLine
 10
-2.765499999999999
 20
0.0000000000000001
 30
0.0
 11
-2.765499999999999
 21
-0.4839999999999998
 31
0.0
  0
LINE
  5
1FF
330
128
100
AcDbEntity
  8
AM_4
100
AcDbLine
 10
1.855972819789096
 20
-0.4839999999999998
 30
0.0
 11
1.855972819789096
 21
0.0000000000000002
 31
0.0
  0
LINE
  5
200
330
128
100
AcDbEntity
  8
AM_4
100
AcDbLine
 10
2.765500000000001
 20
-0.4839999999999998
 30
0.0
 11
2.765500000000001
 21
0.0000000000000001
 31
0.0
  0
LINE
  5
201
330
128
100
AcDbEntity
  8
AM_4
100
AcDbLine
 10
2.765500000000001
 20
-0.4839999999999998
 30
0.0
 11
0.7565937889579695
 21
-0.4839999999999998
 31
0.0
  0
ENDBLK
  5
12B
330
128
100
AcDbEntity
  8
0
100
AcDbBlockEnd
  0
ENDSEC
  0
SECTION
  2
ENTITIES
  0
INSERT
  5
6F
330
1F
100
AcDbEntity
  8
0
100
AcDbBlockReference
  2
1_129733_4
 10
0.0
 20
0.0
 30
0.0
  0
POINT
  5
203
330
1F
100
AcDbEntity
  8
ConnectionPoints
100
AcDbPoint
 10
0.0000000000000001
 20
-0.7972500000000001
 30
0.0
  0
POINT
  5
204
330
1F
100
AcDbEntity
  8
ConnectionPoints
100
AcDbPoint
 10
0.0000000000000001
 20
-0.1410000000000001
 30
0.0
  0
POINT
  5
205
330
1F
100
AcDbEntity
  8
ConnectionPoints
100
AcDbPoint
 10
0.0
 20
-0.1410000000000001
 30
0.0
  0
POINT
  5
206
330
1F
100
AcDbEntity
  8
ConnectionPoints
100
AcDbPoint
 10
0.0
 20
-0.1410000000000001
 30
0.0
  0
ENDSEC
  0
SECTION
  2
OBJECTS
  0
DICTIONARY
  5
C
330
0
100
AcDbDictionary
281
     1
  3
ACAD_DETAILVIEWSTYLE
350
20E
  3
ACAD_GROUP
350
D
  3
ACAD_LAYOUT
350
1A
  3
ACAD_MATERIAL
350
43
  3
ACAD_MLEADERSTYLE
350
6B
  3
ACAD_MLINESTYLE
350
17
  3
ACAD_PLOTSETTINGS
350
19
  3
ACAD_PLOTSTYLENAME
350
E
  3
ACAD_SCALELIST
350
47
  3
ACAD_SECTIONVIEWSTYLE
350
20F
  3
ACAD_TABLESTYLE
350
69
  3
ACAD_VISUALSTYLE
350
2A
  3
ACDB_RECOMPOSE_DATA
350
20B
  3
AcDbVariableDictionary
350
207
  0
SUN
  5
6D
330
29
100
AcDbSun
 90
        1
290
     0
 63
     7
421
 16777215
 40
1.0
291
     1
 91
  2455826
 92
 54000000
292
     0
 70
     2
 71
   256
280
     1
  0
DICTIONARY
  5
20E
102
{ACAD_REACTORS
330
C
102
}
330
C
100
AcDbDictionary
281
     1
  0
DICTIONARY
  5
D
102
{ACAD_REACTORS
330
C
102
}
330
C
100
AcDbDictionary
281
     1
  0
DICTIONARY
  5
1A
102
{ACAD_REACTORS
330
C
102
}
330
C
100
AcDbDictionary
281
     1
  3
Layout1
350
1E
  3
Layout2
350
26
  3
Model
350
22
  0
DICTIONARY
  5
43
102
{ACAD_REACTORS
330
C
102
}
330
C
100
AcDbDictionary
281
     1
  3
ByBlock
350
45
  3
ByLayer
350
44
  3
Global
350
46
  0
DICTIONARY
  5
6B
102
{ACAD_REACTORS
330
C
102
}
330
C
100
AcDbDictionary
281
     1
  3
Standard
350
6C
  0
DICTIONARY
  5
17
102
{ACAD_REACTORS
330
C
102
}
330
C
100
AcDbDictionary
281
     1
  3
Standard
350
18
  0
DICTIONARY
  5
19
102
{ACAD_REACTORS
330
C
102
}
330
C
100
AcDbDictionary
281
     1
  0
ACDBDICTIONARYWDFLT
  5
E
102
{ACAD_REACTORS
330
C
102
}
330
C
100
AcDbDictionary
281
     1
  3
Normal
350
F
100
AcDbDictionaryWithDefault
340
F
  0
DICTIONARY
  5
47
102
{ACAD_REACTORS
330
C
102
}
330
C
100
AcDbDictionary
281
     1
  3
A0
350
48
  3
A1
350
49
  3
A2
350
4A
  3
A3
350
4B
  3
A4
350
4C
  3
A5
350
4D
  3
A6
350
4E
  3
A7
350
4F
  3
A8
350
50
  3
A9
350
51
  3
B0
350
52
  3
B1
350
53
  3
B2
350
54
  3
B3
350
55
  3
B4
350
56
  3
B5
350
57
  3
B6
350
58
  3
B7
350
59
  3
B8
350
5A
  3
B9
350
5B
  3
C0
350
5C
  3
C1
350
5D
  3
C2
350
5E
  3
C3
350
5F
  3
C4
350
60
  3
C5
350
61
  3
C6
350
62
  3
C7
350
63
  3
C8
350
64
  3
C9
350
65
  3
D0
350
66
  3
D1
350
67
  3
D2
350
68
  0
DICTIONARY
  5
20F
102
{ACAD_REACTORS
330
C
102
}
330
C
100
AcDbDictionary
281
     1
  0
DICTIONARY
  5
69
102
{ACAD_REACTORS
330
C
102
}
330
C
100
AcDbDictionary
281
     1
  3
Standard
350
6A
  0
DICTIONARY
  5
2A
102
{ACAD_REACTORS
330
C
102
}
330
C
100
AcDbDictionary
281
     1
  3
2dWireframe
350
2F
  3
Basic
350
32
  3
Brighten
350
36
  3
ColorChange
350
3A
  3
Conceptual
350
34
  3
Dim
350
35
  3
EdgeColorOff
350
3D
  3
Facepattern
350
39
  3
Flat
350
2B
  3
FlatWithEdges
350
2C
  3
Gouraud
350
2D
  3
GouraudWithEdges
350
2E
  3
Hidden
350
31
  3
JitterOff
350
3B
  3
Linepattern
350
38
  3
OverhangOff
350
3C
  3
Realistic
350
33
  3
Shaded
350
42
  3
Shaded with edges
350
41
  3
Shades of Gray
350
3E
  3
Sketchy
350
3F
  3
Thicken
350
37
  3
Wireframe
350
30
  3
X-Ray
350
40
  0
XRECORD
  5
20B
102
{ACAD_REACTORS
330
C
102
}
330
C
100
AcDbXrecord
280
     1
 90
        1
330
6A
  0
DICTIONARY
  5
207
102
{ACAD_REACTORS
330
C
102
}
330
C
100
AcDbDictionary
281
     1
  3
CANNOSCALE
350
208
  3
CMLEADERSTYLE
350
20D
  3
CTABLESTYLE
350
20C
  0
LAYOUT
  5
1E
102
{ACAD_REACTORS
330
1A
102
}
330
1A
100
AcDbPlotSettings
  1

  2
none_device
  4

  6

 40
0.0
 41
0.0
 42
0.0
 43
0.0
 44
0.0
 45
0.0
 46
0.0
 47
0.0
 48
0.0
 49
0.0
140
0.0
141
0.0
142
1.0
143
1.0
 70
   688
 72
     0
 73
     0
 74
     5
  7

 75
    16
 76
     0
 77
     2
 78
   300
147
1.0
148
0.0
149
0.0
100
AcDbLayout
  1
Layout1
 70
     1
 71
     1
 10
0.0
 20
0.0
 11
12.0
 21
9.0
 12
0.0
 22
0.0
 32
0.0
 14
1.000000000000000E+20
 24
1.000000000000000E+20
 34
1.000000000000000E+20
 15
-1.000000000000000E+20
 25
-1.000000000000000E+20
 35
-1.000000000000000E+20
146
0.0
 13
0.0
 23
0.0
 33
0.0
 16
1.0
 26
0.0
 36
0.0
 17
0.0
 27
1.0
 37
0.0
 76
     0
330
1B
  0
LAYOUT
  5
26
102
{ACAD_REACTORS
330
1A
102
}
330
1A
100
AcDbPlotSettings
  1

  2
none_device
  4

  6

 40
0.0
 41
0.0
 42
0.0
 43
0.0
 44
0.0
 45
0.0
 46
0.0
 47
0.0
 48
0.0
 49
0.0
140
0.0
141
0.0
142
1.0
143
1.0
 70
   688
 72
     0
 73
     0
 74
     5
  7

 75
    16
 76
     0
 77
     2
 78
   300
147
1.0
148
0.0
149
0.0
100
AcDbLayout
  1
Layout2
 70
     1
 71
     2
 10
0.0
 20
0.0
 11
0.0
 21
0.0
 12
0.0
 22
0.0
 32
0.0
 14
0.0
 24
0.0
 34
0.0
 15
0.0
 25
0.0
 35
0.0
146
0.0
 13
0.0
 23
0.0
 33
0.0
 16
1.0
 26
0.0
 36
0.0
 17
0.0
 27
1.0
 37
0.0
 76
     0
330
23
  0
LAYOUT
  5
22
102
{ACAD_REACTORS
330
1A
102
}
330
1A
100
AcDbPlotSettings
  1

  2
none_device
  4
Letter_(8.50_x_11.00_Inches)
  6

 40
6.35
 41
6.35
 42
6.35000508
 43
6.35000508
 44
215.9
 45
279.4
 46
0.0
 47
0.0
 48
0.0
 49
0.0
140
0.0
141
0.0
142
1.0
143
1.0
 70
  1712
 72
     0
 73
     0
 74
     0
  7

 75
     0
 76
     0
 77
     2
 78
   300
147
1.0
148
0.0
149
0.0
100
AcDbLayout
  1
Model
 70
     1
 71
     0
 10
0.0
 20
0.0
 11
12.0
 21
9.0
 12
0.0
 22
0.0
 32
0.0
 14
1.000000000000000E+20
 24
1.000000000000000E+20
 34
1.000000000000000E+20
 15
-1.000000000000000E+20
 25
-1.000000000000000E+20
 35
-1.000000000000000E+20
146
0.0
 13
0.0
 23
0.0
 33
0.0
 16
1.0
 26
0.0
 36
0.0
 17
0.0
 27
1.0
 37
0.0
 76
     0
330
1F
331
29
  0
MATERIAL
  5
45
102
{ACAD_REACTORS
330
43
102
}
330
43
100
AcDbMaterial
  1
ByBlock
 72
     1
 94
      127
  0
MATERIAL
  5
44
102
{ACAD_REACTORS
330
43
102
}
330
43
100
AcDbMaterial
  1
ByLayer
 72
     1
 94
      127
  0
MATERIAL
  5
46
102
{ACAD_REACTORS
330
43
102
}
330
43
100
AcDbMaterial
  1
Global
 72
     1
 94
      127
  0
MLEADERSTYLE
  5
6C
102
{ACAD_REACTORS
330
6B
102
}
330
6B
100
AcDbMLeaderStyle
179
     2
170
     2
171
     1
172
     0
 90
        2
 40
0.0
 41
0.0
173
     1
 91
-1056964608
340
14
 92
       -2
290
     1
 42
0.09
291
     1
 43
0.36
  3
Standard
341
0
 44
0.18
300

342
11
174
     1
178
     6
175
     1
176
     0
 93
-1056964608
 45
0.18
292
     0
297
     0
 46
0.18
343
0
 94
-1056964608
 47
1.0
 49
1.0
140
1.0
293
     1
141
0.0
294
     1
177
     0
142
1.0
295
     0
296
     0
143
0.125
271
     0
272
     9
273
     9
298
     0
  0
MLINESTYLE
  5
18
102
{ACAD_REACTORS
330
17
102
}
330
17
100
AcDbMlineStyle
  2
Standard
 70
     0
  3

 62
   256
 51
90.0
 52
90.0
 71
     2
 49
0.5
 62
   256
  6
BYLAYER
 49
-0.5
 62
   256
  6
BYLAYER
  0
ACDBPLACEHOLDER
  5
F
102
{ACAD_REACTORS
330
E
102
}
330
E
  0
SCALE
  5
48
102
{ACAD_REACTORS
330
47
102
}
330
47
100
AcDbScale
 70
     0
300
1:1
140
1.0
141
1.0
290
     1
  0
SCALE
  5
49
102
{ACAD_REACTORS
330
47
102
}
330
47
100
AcDbScale
 70
     0
300
1:2
140
1.0
141
2.0
290
     0
  0
SCALE
  5
4A
102
{ACAD_REACTORS
330
47
102
}
330
47
100
AcDbScale
 70
     0
300
1:4
140
1.0
141
4.0
290
     0
  0
SCALE
  5
4B
102
{ACAD_REACTORS
330
47
102
}
330
47
100
AcDbScale
 70
     0
300
1:5
140
1.0
141
5.0
290
     0
  0
SCALE
  5
4C
102
{ACAD_REACTORS
330
47
102
}
330
47
100
AcDbScale
 70
     0
300
1:8
140
1.0
141
8.0
290
     0
  0
SCALE
  5
4D
102
{ACAD_REACTORS
330
47
102
}
330
47
100
AcDbScale
 70
     0
300
1:10
140
1.0
141
10.0
290
     0
  0
SCALE
  5
4E
102
{ACAD_REACTORS
330
47
102
}
330
47
100
AcDbScale
 70
     0
300
1:16
140
1.0
141
16.0
290
     0
  0
SCALE
  5
4F
102
{ACAD_REACTORS
330
47
102
}
330
47
100
AcDbScale
 70
     0
300
1:20
140
1.0
141
20.0
290
     0
  0
SCALE
  5
50
102
{ACAD_REACTORS
330
47
102
}
330
47
100
AcDbScale
 70
     0
300
1:30
140
1.0
141
30.0
290
     0
  0
SCALE
  5
51
102
{ACAD_REACTORS
330
47
102
}
330
47
100
AcDbScale
 70
     0
300
1:40
140
1.0
141
40.0
290
     0
  0
SCALE
  5
52
102
{ACAD_REACTORS
330
47
102
}
330
47
100
AcDbScale
 70
     0
300
1:50
140
1.0
141
50.0
290
     0
  0
SCALE
  5
53
102
{ACAD_REACTORS
330
47
102
}
330
47
100
AcDbScale
 70
     0
300
1:100
140
1.0
141
100.0
290
     0
  0
SCALE
  5
54
102
{ACAD_REACTORS
330
47
102
}
330
47
100
AcDbScale
 70
     0
300
2:1
140
2.0
141
1.0
290
     0
  0
SCALE
  5
55
102
{ACAD_REACTORS
330
47
102
}
330
47
100
AcDbScale
 70
     0
300
4:1
140
4.0
141
1.0
290
     0
  0
SCALE
  5
56
102
{ACAD_REACTORS
330
47
102
}
330
47
100
AcDbScale
 70
     0
300
8:1
140
8.0
141
1.0
290
     0
  0
SCALE
  5
57
102
{ACAD_REACTORS
330
47
102
}
330
47
100
AcDbScale
 70
     0
300
10:1
140
10.0
141
1.0
290
     0
  0
SCALE
  5
58
102
{ACAD_REACTORS
330
47
102
}
330
47
100
AcDbScale
 70
     0
300
100:1
140
100.0
141
1.0
290
     0
  0
SCALE
  5
59
102
{ACAD_REACTORS
330
47
102
}
330
47
100
AcDbScale
 70
     0
300
1/128" = 1'-0"
140
0.0078125
141
12.0
290
     0
  0
SCALE
  5
5A
102
{ACAD_REACTORS
330
47
102
}
330
47
100
AcDbScale
 70
     0
300
1/64" = 1'-0"
140
0.015625
141
12.0
290
     0
  0
SCALE
  5
5B
102
{ACAD_REACTORS
330
47
102
}
330
47
100
AcDbScale
 70
     0
300
1/32" = 1'-0"
140
0.03125
141
12.0
290
     0
  0
SCALE
  5
5C
102
{ACAD_REACTORS
330
47
102
}
330
47
100
AcDbScale
 70
     0
300
1/16" = 1'-0"
140
0.0625
141
12.0
290
     0
  0
SCALE
  5
5D
102
{ACAD_REACTORS
330
47
102
}
330
47
100
AcDbScale
 70
     0
300
3/32" = 1'-0"
140
0.09375
141
12.0
290
     0
  0
SCALE
  5
5E
102
{ACAD_REACTORS
330
47
102
}
330
47
100
AcDbScale
 70
     0
300
1/8" = 1'-0"
140
0.125
141
12.0
290
     0
  0
SCALE
  5
5F
102
{ACAD_REACTORS
330
47
102
}
330
47
100
AcDbScale
 70
     0
300
3/16" = 1'-0"
140
0.1875
141
12.0
290
     0
  0
SCALE
  5
60
102
{ACAD_REACTORS
330
47
102
}
330
47
100
AcDbScale
 70
     0
300
1/4" = 1'-0"
140
0.25
141
12.0
290
     0
  0
SCALE
  5
61
102
{ACAD_REACTORS
330
47
102
}
330
47
100
AcDbScale
 70
     0
300
3/8" = 1'-0"
140
0.375
141
12.0
290
     0
  0
SCALE
  5
62
102
{ACAD_REACTORS
330
47
102
}
330
47
100
AcDbScale
 70
     0
300
1/2" = 1'-0"
140
0.5
141
12.0
290
     0
  0
SCALE
  5
63
102
{ACAD_REACTORS
330
47
102
}
330
47
100
AcDbScale
 70
     0
300
3/4" = 1'-0"
140
0.75
141
12.0
290
     0
  0
SCALE
  5
64
102
{ACAD_REACTORS
330
47
102
}
330
47
100
AcDbScale
 70
     0
300
1" = 1'-0"
140
1.0
141
12.0
290
     0
  0
SCALE
  5
65
102
{ACAD_REACTORS
330
47
102
}
330
47
100
AcDbScale
 70
     0
300
1-1/2" = 1'-0"
140
1.5
141
12.0
290
     0
  0
SCALE
  5
66
102
{ACAD_REACTORS
330
47
102
}
330
47
100
AcDbScale
 70
     0
300
3" = 1'-0"
140
3.0
141
12.0
290
     0
  0
SCALE
  5
67
102
{ACAD_REACTORS
330
47
102
}
330
47
100
AcDbScale
 70
     0
300
6" = 1'-0"
140
6.0
141
12.0
290
     0
  0
SCALE
  5
68
102
{ACAD_REACTORS
330
47
102
}
330
47
100
AcDbScale
 70
     0
300
1'-0" = 1'-0"
140
12.0
141
12.0
290
     0
  0
TABLESTYLE
  5
6A
102
{ACAD_REACTORS
330
69
102
}
102
{ACAD_XDICTIONARY
360
209
102
}
330
69
100
AcDbTableStyle
  3
Standard
 70
     0
 71
     0
 40
0.06
 41
0.06
280
     0
281
     0
  7
Standard
140
0.18
170
     2
 62
     0
 63
   257
283
     0
 90
        4
 91
        0
  1

274
    -2
284
     1
 64
     0
275
    -2
285
     1
 65
     0
276
    -2
286
     1
 66
     0
277
    -2
287
     1
 67
     0
278
    -2
288
     1
 68
     0
279
    -2
289
     1
 69
     0
  7
Standard
140
0.25
170
     5
 62
     0
 63
   257
283
     0
 90
        4
 91
        0
  1

274
    -2
284
     1
 64
     0
275
    -2
285
     1
 65
     0
276
    -2
286
     1
 66
     0
277
    -2
287
     1
 67
     0
278
    -2
288
     1
 68
     0
279
    -2
289
     1
 69
     0
  7
Standard
140
0.18
170
     5
 62
     0
 63
   257
283
     0
 90
        4
 91
        0
  1

274
    -2
284
     1
 64
     0
275
    -2
285
     1
 65
     0
276
    -2
286
     1
 66
     0
277
    -2
287
     1
 67
     0
278
    -2
288
     1
 68
     0
279
    -2
289
     1
 69
     0
  0
VISUALSTYLE
  5
2F
102
{ACAD_REACTORS
330
2A
102
}
330
2A
100
AcDbVisualStyle
  2
2dWireframe
 70
     4
177
     3
291
     0
 70
    58
 90
        0
176
     1
 90
        2
176
     1
 90
        0
176
     1
 90
        0
176
     1
 40
0.6
176
     1
 40
30.0
176
     1
 62
     7
420
 16777215
176
     1
 90
        1
176
     1
 90
        4
176
     1
 62
     7
176
     1
 62
   257
176
     1
 90
        1
176
     1
 90
        1
176
     1
 40
1.0
176
     1
 90
        0
176
     1
 62
   257
176
     1
 40
1.0
176
     1
 90
        1
176
     1
 90
        6
176
     1
 90
        2
176
     1
 62
     7
176
     1
 90
        5
176
     1
 90
        0
176
     1
 90
        0
176
     1
290
     0
176
     1
 90
        1
176
     1
 40
0.0
176
     1
 90
        0
176
     1
290
     1
176
     1
290
     1
176
     1
290
     0
176
     1
290
     0
176
     1
290
     0
176
     1
290
     0
176
     1
290
     0
176
     1
290
     0
176
     1
290
     0
176
     1
 90
       50
176
     1
 40
0.0
176
     1
 40
1.0
176
     1
 90
        0
176
     1
 62
    18
420
        0
176
     1
 90
       50
176
     1
 90
        3
176
     1
 62
     5
420
      255
176
     1
290
     0
176
     1
 90
       50
176
     1
 90
       50
176
     1
 90
       50
176
     1
290
     0
176
     1
 90
       50
176
     1
 62
   256
176
     0
 40
1.0
176
     0
 90
        2
176
     1
  1
strokes_ogs.tif
176
     1
290
     0
176
     1
 40
1.0
176
     1
 40
1.0
176
     1
  0
VISUALSTYLE
  5
32
102
{ACAD_REACTORS
330
2A
102
}
330
2A
100
AcDbVisualStyle
  2
Basic
 70
     7
177
     3
291
     1
 70
    58
 90
        1
176
     1
 90
        0
176
     1
 90
        1
176
     1
 90
        0
176
     1
 40
0.6
176
     1
 40
30.0
176
     1
 62
     7
420
 16777215
176
     1
 90
        0
176
     1
 90
        4
176
     1
 62
     7
176
     1
 62
   257
176
     1
 90
        1
176
     1
 90
        1
176
     1
 40
1.0
176
     1
 90
        8
176
     1
 62
     7
176
     1
 40
1.0
176
     1
 90
        1
176
     1
 90
        6
176
     1
 90
        2
176
     1
 62
     7
176
     1
 90
        5
176
     1
 90
        0
176
     1
 90
        0
176
     1
290
     0
176
     1
 90
        1
176
     1
 40
0.0
176
     1
 90
        0
176
     1
290
     0
176
     1
290
     1
176
     1
290
     1
176
     1
290
     0
176
     1
290
     0
176
     1
290
     0
176
     1
290
     0
176
     1
290
     0
176
     1
290
     0
176
     1
 90
       50
176
     1
 40
0.0
176
     1
 40
1.0
176
     1
 90
        0
176
     1
 62
    18
420
        0
176
     1
 90
       50
176
     1
 90
        3
176
     1
 62
     5
420
      255
176
     1
290
     0
176
     1
 90
       50
176
     1
 90
       50
176
     1
 90
       50
176
     1
290
     0
176
     1
 90
       50
176
     1
 62
   256
176
     0
 40
1.0
176
     0
 90
        2
176
     1
  1
strokes_ogs.tif
176
     1
290
     0
176
     1
 40
1.0
176
     1
 40
1.0
176
     1
  0
VISUALSTYLE
  5
36
102
{ACAD_REACTORS
330
2A
102
}
330
2A
100
AcDbVisualStyle
  2
Brighten
 70
    12
177
     3
291
     1
 70
    58
 90
        2
176
     1
 90
        2
176
     1
 90
        0
176
     1
 90
        0
176
     1
 40
0.6
176
     1
 40
30.0
176
     1
 62
     7
420
 16777215
176
     1
 90
        1
176
     1
 90
        4
176
     1
 62
     7
176
     1
 62
   257
176
     1
 90
        1
176
     1
 90
        1
176
     1
 40
1.0
176
     1
 90
        8
176
     1
 62
     7
176
     1
 40
1.0
176
     1
 90
        1
176
     1
 90
        6
176
     1
 90
        2
176
     1
 62
     7
176
     1
 90
        5
176
     1
 90
        0
176
     1
 90
        0
176
     1
290
     0
176
     1
 90
        1
176
     1
 40
50.0
176
     1
 90
        0
176
     1
290
     0
176
     1
290
     1
176
     1
290
     1
176
     1
290
     0
176
     1
290
     0
176
     1
290
     0
176
     1
290
     0
176
     1
290
     0
176
     1
290
     0
176
     1
 90
       50
176
     1
 40
0.0
176
     1
 40
1.0
176
     1
 90
        0
176
     1
 62
    18
420
        0
176
     1
 90
       50
176
     1
 90
        3
176
     1
 62
     5
420
      255
176
     1
290
     0
176
     1
 90
       50
176
     1
 90
       50
176
     1
 90
       50
176
     1
290
     0
176
     1
 90
       50
176
     1
 62
   256
176
     0
 40
1.0
176
     0
 90
        2
176
     1
  1
strokes_ogs.tif
176
     1
290
     0
176
     1
 40
1.0
176
     1
 40
1.0
176
     1
  0
VISUALSTYLE
  5
3A
102
{ACAD_REACTORS
330
2A
102
}
330
2A
100
AcDbVisualStyle
  2
ColorChange
 70
    16
177
     3
291
     1
 70
    58
 90
        2
176
     1
 90
        2
176
     1
 90
        3
176
     1
 90
        0
176
     1
 40
0.6
176
     1
 40
30.0
176
     1
 62
     8
420
  8421504
176
     1
 90
        1
176
     1
 90
        4
176
     1
 62
     7
176
     1
 62
   257
176
     1
 90
        1
176
     1
 90
        1
176
     1
 40
1.0
176
     1
 90
        8
176
     1
 62
     8
420
  8421504
176
     1
 40
1.0
176
     1
 90
        1
176
     1
 90
        6
176
     1
 90
        2
176
     1
 62
     7
176
     1
 90
        5
176
     1
 90
        0
176
     1
 90
        0
176
     1
290
     0
176
     1
 90
        1
176
     1
 40
0.0
176
     1
 90
        0
176
     1
290
     0
176
     1
290
     1
176
     1
290
     1
176
     1
290
     0
176
     1
290
     0
176
     1
290
     0
176
     1
290
     0
176
     1
290
     0
176
     1
290
     0
176
     1
 90
       50
176
     1
 40
0.0
176
     1
 40
1.0
176
     1
 90
        0
176
     1
 62
    18
420
        0
176
     1
 90
       50
176
     1
 90
        3
176
     1
 62
     5
420
      255
176
     1
290
     0
176
     1
 90
       50
176
     1
 90
       50
176
     1
 90
       50
176
     1
290
     0
176
     1
 90
       50
176
     1
 62
   256
176
     0
 40
1.0
176
     0
 90
        2
176
     1
  1
strokes_ogs.tif
176
     1
290
     0
176
     1
 40
1.0
176
     1
 40
1.0
176
     1
  0
VISUALSTYLE
  5
34
102
{ACAD_REACTORS
330
2A
102
}
330
2A
100
AcDbVisualStyle
  2
Conceptual
 70
     9
177
     3
291
     0
 70
    58
 90
        3
176
     1
 90
        2
176
     1
 90
        0
176
     1
 90
        0
176
     1
 40
0.6
176
     1
 40
30.0
176
     1
 62
     7
420
 16777215
176
     1
 90
        2
176
     1
 90
        2
176
     1
 62
     7
176
     1
 62
   257
176
     1
 90
        1
176
     1
 90
        1
176
     1
 40
179.0
176
     1
 90
        8
176
     1
 62
     7
176
     1
 40
1.0
176
     1
 90
        1
176
     1
 90
        6
176
     1
 90
        2
176
     1
 62
     7
176
     1
 90
        3
176
     1
 90
        0
176
     1
 90
        0
176
     1
290
     0
176
     1
 90
        1
176
     1
 40
0.0
176
     1
 90
        0
176
     1
290
     0
176
     1
290
     1
176
     1
290
     1
176
     1
290
     0
176
     1
290
     0
176
     1
290
     0
176
     1
290
     0
176
     1
290
     0
176
     1
290
     0
176
     1
 90
       50
176
     1
 40
0.0
176
     1
 40
1.0
176
     1
 90
        0
176
     1
 62
    18
420
        0
176
     1
 90
       50
176
     1
 90
        3
176
     1
 62
     5
420
      255
176
     1
290
     0
176
     1
 90
       50
176
     1
 90
       50
176
     1
 90
       50
176
     1
290
     0
176
     1
 90
       50
176
     1
 62
   256
176
     0
 40
1.0
176
     0
 90
        2
176
     1
  1
strokes_ogs.tif
176
     1
290
     0
176
     1
 40
1.0
176
     1
 40
1.0
176
     1
  0
VISUALSTYLE
  5
35
102
{ACAD_REACTORS
330
2A
102
}
330
2A
100
AcDbVisualStyle
  2
Dim
 70
    11
177
     3
291
     1
 70
    58
 90
        2
176
     1
 90
        2
176
     1
 90
        0
176
     1
 90
        0
176
     1
 40
0.6
176
     1
 40
30.0
176
     1
 62
     7
420
 16777215
176
     1
 90
        1
176
     1
 90
        4
176
     1
 62
     7
176
     1
 62
   257
176
     1
 90
        1
176
     1
 90
        1
176
     1
 40
1.0
176
     1
 90
        8
176
     1
 62
     7
176
     1
 40
1.0
176
     1
 90
        1
176
     1
 90
        6
176
     1
 90
        2
176
     1
 62
     7
176
     1
 90
        5
176
     1
 90
        0
176
     1
 90
        0
176
     1
290
     0
176
     1
 90
        1
176
     1
 40
-50.0
176
     1
 90
        0
176
     1
290
     0
176
     1
290
     1
176
     1
290
     1
176
     1
290
     0
176
     1
290
     0
176
     1
290
     0
176
     1
290
     0
176
     1
290
     0
176
     1
290
     0
176
     1
 90
       50
176
     1
 40
0.0
176
     1
 40
1.0
176
     1
 90
        0
176
     1
 62
    18
420
        0
176
     1
 90
       50
176
     1
 90
        3
176
     1
 62
     5
420
      255
176
     1
290
     0
176
     1
 90
       50
176
     1
 90
       50
176
     1
 90
       50
176
     1
290
     0
176
     1
 90
       50
176
     1
 62
   256
176
     0
 40
1.0
176
     0
 90
        2
176
     1
  1
strokes_ogs.tif
176
     1
290
     0
176
     1
 40
1.0
176
     1
 40
1.0
176
     1
  0
VISUALSTYLE
  5
3D
102
{ACAD_REACTORS
330
2A
102
}
330
2A
100
AcDbVisualStyle
  2
EdgeColorOff
 70
    22
177
     3
291
     1
 70
    58
 90
        2
176
     0
 90
        2
176
     0
 90
        0
176
     0
 90
        0
176
     0
 40
0.6
176
     0
 40
30.0
176
     0
 62
     7
420
 16777215
176
     0
 90
        1
176
     0
 90
        4
176
     0
 62
     7
176
     0
 62
   257
176
     0
 90
        1
176
     0
 90
        1
176
     0
 40
1.0
176
     0
 90
        8
176
     2
 62
     7
176
     0
 40
1.0
176
     0
 90
        1
176
     0
 90
        6
176
     0
 90
        2
176
     0
 62
     7
176
     0
 90
        5
176
     0
 90
        0
176
     0
 90
        0
176
     0
290
     0
176
     0
 90
        1
176
     0
 40
0.0
176
     0
 90
        0
176
     0
290
     0
176
     0
290
     1
176
     0
290
     1
176
     0
290
     0
176
     0
290
     0
176
     0
290
     0
176
     0
290
     0
176
     0
290
     0
176
     0
290
     0
176
     0
 90
       50
176
     0
 40
0.0
176
     0
 40
1.0
176
     0
 90
        0
176
     0
 62
    18
420
        0
176
     0
 90
       50
176
     0
 90
        3
176
     0
 62
     5
420
      255
176
     0
290
     0
176
     0
 90
       50
176
     0
 90
       50
176
     0
 90
       50
176
     0
290
     0
176
     0
 90
       50
176
     0
 62
   256
176
     0
 40
1.0
176
     0
 90
        2
176
     0
  1
strokes_ogs.tif
176
     0
290
     0
176
     0
 40
1.0
176
     0
 40
1.0
176
     0
  0
VISUALSTYLE
  5
39
102
{ACAD_REACTORS
330
2A
102
}
330
2A
100
AcDbVisualStyle
  2
Facepattern
 70
    15
177
     3
291
     1
 70
    58
 90
        2
176
     1
 90
        2
176
     1
 90
        0
176
     1
 90
        0
176
     1
 40
0.6
176
     1
 40
30.0
176
     1
 62
     7
420
 16777215
176
     1
 90
        1
176
     1
 90
        4
176
     1
 62
     7
176
     1
 62
   257
176
     1
 90
        1
176
     1
 90
        1
176
     1
 40
1.0
176
     1
 90
        8
176
     1
 62
     7
176
     1
 40
1.0
176
     1
 90
        1
176
     1
 90
        6
176
     1
 90
        2
176
     1
 62
     7
176
     1
 90
        5
176
     1
 90
        0
176
     1
 90
        0
176
     1
290
     0
176
     1
 90
        1
176
     1
 40
0.0
176
     1
 90
        0
176
     1
290
     0
176
     1
290
     1
176
     1
290
     1
176
     1
290
     0
176
     1
290
     0
176
     1
290
     0
176
     1
290
     0
176
     1
290
     0
176
     1
290
     0
176
     1
 90
       50
176
     1
 40
0.0
176
     1
 40
1.0
176
     1
 90
        0
176
     1
 62
    18
420
        0
176
     1
 90
       50
176
     1
 90
        3
176
     1
 62
     5
420
      255
176
     1
290
     0
176
     1
 90
       50
176
     1
 90
       50
176
     1
 90
       50
176
     1
290
     0
176
     1
 90
       50
176
     1
 62
   256
176
     0
 40
1.0
176
     0
 90
        2
176
     1
  1
strokes_ogs.tif
176
     1
290
     0
176
     1
 40
1.0
176
     1
 40
1.0
176
     1
  0
VISUALSTYLE
  5
2B
102
{ACAD_REACTORS
330
2A
102
}
330
2A
100
AcDbVisualStyle
  2
Flat
 70
     0
177
     3
291
     1
 70
    58
 90
        2
176
     1
 90
        1
176
     1
 90
        1
176
     1
 90
        2
176
     1
 40
0.6
176
     1
 40
30.0
176
     1
 62
     7
420
 16777215
176
     1
 90
        0
176
     1
 90
        0
176
     1
 62
     7
176
     1
 62
   257
176
     1
 90
        1
176
     1
 90
        1
176
     1
 40
1.0
176
     1
 90
        8
176
     1
 62
     7
176
     1
 40
1.0
176
     1
 90
        1
176
     1
 90
        6
176
     1
 90
        2
176
     1
 62
     7
176
     1
 90
        5
176
     1
 90
        0
176
     1
 90
        0
176
     1
290
     0
176
     1
 90
       13
176
     1
 40
0.0
176
     1
 90
        0
176
     1
290
     0
176
     1
290
     1
176
     1
290
     1
176
     1
290
     0
176
     1
290
     0
176
     1
290
     0
176
     1
290
     0
176
     1
290
     0
176
     1
290
     0
176
     1
 90
       50
176
     1
 40
0.0
176
     1
 40
1.0
176
     1
 90
        0
176
     1
 62
    18
420
        0
176
     1
 90
       50
176
     1
 90
        3
176
     1
 62
     5
420
      255
176
     1
290
     0
176
     1
 90
       50
176
     1
 90
       50
176
     1
 90
       50
176
     1
290
     0
176
     1
 90
       50
176
     1
 62
   256
176
     0
 40
1.0
176
     0
 90
        2
176
     1
  1
strokes_ogs.tif
176
     1
290
     0
176
     1
 40
1.0
176
     1
 40
1.0
176
     1
  0
VISUALSTYLE
  5
2C
102
{ACAD_REACTORS
330
2A
102
}
330
2A
100
AcDbVisualStyle
  2
FlatWithEdges
 70
     1
177
     3
291
     1
 70
    58
 90
        2
176
     1
 90
        1
176
     1
 90
        1
176
     1
 90
        2
176
     1
 40
0.6
176
     1
 40
30.0
176
     1
 62
     7
420
 16777215
176
     1
 90
        1
176
     1
 90
        0
176
     1
 62
     7
176
     1
 62
   257
176
     1
 90
        1
176
     1
 90
        1
176
     1
 40
1.0
176
     1
 90
        0
176
     1
 62
   257
176
     1
 40
1.0
176
     1
 90
        1
176
     1
 90
        6
176
     1
 90
        2
176
     1
 62
     7
176
     1
 90
        5
176
     1
 90
        0
176
     1
 90
        0
176
     1
290
     0
176
     1
 90
       13
176
     1
 40
0.0
176
     1
 90
        0
176
     1
290
     0
176
     1
290
     1
176
     1
290
     1
176
     1
290
     0
176
     1
290
     0
176
     1
290
     0
176
     1
290
     0
176
     1
290
     0
176
     1
290
     0
176
     1
 90
       50
176
     1
 40
0.0
176
     1
 40
1.0
176
     1
 90
        0
176
     1
 62
    18
420
        0
176
     1
 90
       50
176
     1
 90
        3
176
     1
 62
     5
420
      255
176
     1
290
     0
176
     1
 90
       50
176
     1
 90
       50
176
     1
 90
       50
176
     1
290
     0
176
     1
 90
       50
176
     1
 62
   256
176
     0
 40
1.0
176
     0
 90
        2
176
     1
  1
strokes_ogs.tif
176
     1
290
     0
176
     1
 40
1.0
176
     1
 40
1.0
176
     1
  0
VISUALSTYLE
  5
2D
102
{ACAD_REACTORS
330
2A
102
}
330
2A
100
AcDbVisualStyle
  2
Gouraud
 70
     2
177
     3
291
     1
 70
    58
 90
        2
176
     1
 90
        2
176
     1
 90
        1
176
     1
 90
        2
176
     1
 40
0.6
176
     1
 40
30.0
176
     1
 62
     7
420
 16777215
176
     1
 90
        0
176
     1
 90
        0
176
     1
 62
     7
176
     1
 62
   257
176
     1
 90
        1
176
     1
 90
        1
176
     1
 40
1.0
176
     1
 90
        0
176
     1
 62
     7
176
     1
 40
1.0
176
     1
 90
        1
176
     1
 90
        6
176
     1
 90
        2
176
     1
 62
     7
176
     1
 90
        5
176
     1
 90
        0
176
     1
 90
        0
176
     1
290
     0
176
     1
 90
       13
176
     1
 40
0.0
176
     1
 90
        0
176
     1
290
     0
176
     1
290
     1
176
     1
290
     1
176
     1
290
     0
176
     1
290
     0
176
     1
290
     0
176
     1
290
     0
176
     1
290
     0
176
     1
290
     0
176
     1
 90
       50
176
     1
 40
0.0
176
     1
 40
1.0
176
     1
 90
        0
176
     1
 62
    18
420
        0
176
     1
 90
       50
176
     1
 90
        3
176
     1
 62
     5
420
      255
176
     1
290
     0
176
     1
 90
       50
176
     1
 90
       50
176
     1
 90
       50
176
     1
290
     0
176
     1
 90
       50
176
     1
 62
   256
176
     0
 40
1.0
176
     0
 90
        2
176
     1
  1
strokes_ogs.tif
176
     1
290
     0
176
     1
 40
1.0
176
     1
 40
1.0
176
     1
  0
VISUALSTYLE
  5
2E
102
{ACAD_REACTORS
330
2A
102
}
330
2A
100
AcDbVisualStyle
  2
GouraudWithEdges
 70
     3
177
     3
291
     1
 70
    58
 90
        2
176
     1
 90
        2
176
     1
 90
        1
176
     1
 90
        2
176
     1
 40
0.6
176
     1
 40
30.0
176
     1
 62
     7
420
 16777215
176
     1
 90
        1
176
     1
 90
        0
176
     1
 62
     7
176
     1
 62
   257
176
     1
 90
        1
176
     1
 90
        1
176
     1
 40
1.0
176
     1
 90
        0
176
     1
 62
   257
176
     1
 40
1.0
176
     1
 90
        1
176
     1
 90
        6
176
     1
 90
        2
176
     1
 62
     7
176
     1
 90
        5
176
     1
 90
        0
176
     1
 90
        0
176
     1
290
     0
176
     1
 90
       13
176
     1
 40
0.0
176
     1
 90
        0
176
     1
290
     0
176
     1
290
     1
176
     1
290
     1
176
     1
290
     0
176
     1
290
     0
176
     1
290
     0
176
     1
290
     0
176
     1
290
     0
176
     1
290
     0
176
     1
 90
       50
176
     1
 40
0.0
176
     1
 40
1.0
176
     1
 90
        0
176
     1
 62
    18
420
        0
176
     1
 90
       50
176
     1
 90
        3
176
     1
 62
     5
420
      255
176
     1
290
     0
176
     1
 90
       50
176
     1
 90
       50
176
     1
 90
       50
176
     1
290
     0
176
     1
 90
       50
176
     1
 62
   256
176
     0
 40
1.0
176
     0
 90
        2
176
     1
  1
strokes_ogs.tif
176
     1
290
     0
176
     1
 40
1.0
176
     1
 40
1.0
176
     1
  0
VISUALSTYLE
  5
31
102
{ACAD_REACTORS
330
2A
102
}
330
2A
100
AcDbVisualStyle
  2
Hidden
 70
     6
177
     3
291
     0
 70
    58
 90
        1
176
     1
 90
        2
176
     1
 90
        2
176
     1
 90
        0
176
     1
 40
0.6
176
     1
 40
30.0
176
     1
 62
     7
420
 16777215
176
     1
 90
        2
176
     1
 90
        2
176
     1
 62
     7
176
     1
 62
   257
176
     1
 90
        2
176
     1
 90
        1
176
     1
 40
40.0
176
     1
 90
        0
176
     1
 62
   257
176
     1
 40
1.0
176
     1
 90
        1
176
     1
 90
        6
176
     1
 90
        2
176
     1
 62
     7
176
     1
 90
        3
176
     1
 90
        0
176
     1
 90
        0
176
     1
290
     0
176
     1
 90
        1
176
     1
 40
0.0
176
     1
 90
        0
176
     1
290
     0
176
     1
290
     1
176
     1
290
     1
176
     1
290
     0
176
     1
290
     0
176
     1
290
     0
176
     1
290
     0
176
     1
290
     0
176
     1
290
     0
176
     1
 90
       50
176
     1
 40
0.0
176
     1
 40
1.0
176
     1
 90
        0
176
     1
 62
    18
420
        0
176
     1
 90
       50
176
     1
 90
        3
176
     1
 62
     5
420
      255
176
     1
290
     0
176
     1
 90
       50
176
     1
 90
       50
176
     1
 90
       50
176
     1
290
     0
176
     1
 90
       50
176
     1
 62
   256
176
     0
 40
1.0
176
     0
 90
        2
176
     1
  1
strokes_ogs.tif
176
     1
290
     0
176
     1
 40
1.0
176
     1
 40
1.0
176
     1
  0
VISUALSTYLE
  5
3B
102
{ACAD_REACTORS
330
2A
102
}
330
2A
100
AcDbVisualStyle
  2
JitterOff
 70
    20
177
     3
291
     1
 70
    58
 90
        2
176
     0
 90
        2
176
     0
 90
        0
176
     0
 90
        0
176
     0
 40
0.6
176
     0
 40
30.0
176
     0
 62
     7
420
 16777215
176
     0
 90
        1
176
     0
 90
        4
176
     0
 62
     7
176
     0
 62
   257
176
     0
 90
        1
176
     0
 90
        1
176
     0
 40
1.0
176
     0
 90
       10
176
     2
 62
     7
176
     0
 40
1.0
176
     0
 90
        1
176
     0
 90
        6
176
     0
 90
        2
176
     0
 62
     7
176
     0
 90
        5
176
     0
 90
        0
176
     0
 90
        0
176
     0
290
     0
176
     0
 90
        1
176
     0
 40
0.0
176
     0
 90
        0
176
     0
290
     0
176
     0
290
     1
176
     0
290
     1
176
     0
290
     0
176
     0
290
     0
176
     0
290
     0
176
     0
290
     0
176
     0
290
     0
176
     0
290
     0
176
     0
 90
       50
176
     0
 40
0.0
176
     0
 40
1.0
176
     0
 90
        0
176
     0
 62
    18
420
        0
176
     0
 90
       50
176
     0
 90
        3
176
     0
 62
     5
420
      255
176
     0
290
     0
176
     0
 90
       50
176
     0
 90
       50
176
     0
 90
       50
176
     0
290
     0
176
     0
 90
       50
176
     0
 62
   256
176
     0
 40
1.0
176
     0
 90
        2
176
     0
  1
strokes_ogs.tif
176
     0
290
     0
176
     0
 40
1.0
176
     0
 40
1.0
176
     0
  0
VISUALSTYLE
  5
38
102
{ACAD_REACTORS
330
2A
102
}
330
2A
100
AcDbVisualStyle
  2
Linepattern
 70
    14
177
     3
291
     1
 70
    58
 90
        2
176
     1
 90
        2
176
     1
 90
        0
176
     1
 90
        0
176
     1
 40
0.6
176
     1
 40
30.0
176
     1
 62
     7
420
 16777215
176
     1
 90
        1
176
     1
 90
        4
176
     1
 62
     7
176
     1
 62
   257
176
     1
 90
        7
176
     1
 90
        7
176
     1
 40
1.0
176
     1
 90
        8
176
     1
 62
     7
176
     1
 40
1.0
176
     1
 90
        1
176
     1
 90
        6
176
     1
 90
        2
176
     1
 62
     7
176
     1
 90
        5
176
     1
 90
        0
176
     1
 90
        0
176
     1
290
     0
176
     1
 90
        1
176
     1
 40
0.0
176
     1
 90
        0
176
     1
290
     0
176
     1
290
     1
176
     1
290
     1
176
     1
290
     0
176
     1
290
     0
176
     1
290
     0
176
     1
290
     0
176
     1
290
     0
176
     1
290
     0
176
     1
 90
       50
176
     1
 40
0.0
176
     1
 40
1.0
176
     1
 90
        0
176
     1
 62
    18
420
        0
176
     1
 90
       50
176
     1
 90
        3
176
     1
 62
     5
420
      255
176
     1
290
     0
176
     1
 90
       50
176
     1
 90
       50
176
     1
 90
       50
176
     1
290
     0
176
     1
 90
       50
176
     1
 62
   256
176
     0
 40
1.0
176
     0
 90
        2
176
     1
  1
strokes_ogs.tif
176
     1
290
     0
176
     1
 40
1.0
176
     1
 40
1.0
176
     1
  0
VISUALSTYLE
  5
3C
102
{ACAD_REACTORS
330
2A
102
}
330
2A
100
AcDbVisualStyle
  2
OverhangOff
 70
    21
177
     3
291
     1
 70
    58
 90
        2
176
     0
 90
        2
176
     0
 90
        0
176
     0
 90
        0
176
     0
 40
0.6
176
     0
 40
30.0
176
     0
 62
     7
420
 16777215
176
     0
 90
        1
176
     0
 90
        4
176
     0
 62
     7
176
     0
 62
   257
176
     0
 90
        1
176
     0
 90
        1
176
     0
 40
1.0
176
     0
 90
        9
176
     2
 62
     7
176
     0
 40
1.0
176
     0
 90
        1
176
     0
 90
        6
176
     0
 90
        2
176
     0
 62
     7
176
     0
 90
        5
176
     0
 90
        0
176
     0
 90
        0
176
     0
290
     0
176
     0
 90
        1
176
     0
 40
0.0
176
     0
 90
        0
176
     0
290
     0
176
     0
290
     1
176
     0
290
     1
176
     0
290
     0
176
     0
290
     0
176
     0
290
     0
176
     0
290
     0
176
     0
290
     0
176
     0
290
     0
176
     0
 90
       50
176
     0
 40
0.0
176
     0
 40
1.0
176
     0
 90
        0
176
     0
 62
    18
420
        0
176
     0
 90
       50
176
     0
 90
        3
176
     0
 62
     5
420
      255
176
     0
290
     0
176
     0
 90
       50
176
     0
 90
       50
176
     0
 90
       50
176
     0
290
     0
176
     0
 90
       50
176
     0
 62
   256
176
     0
 40
1.0
176
     0
 90
        2
176
     0
  1
strokes_ogs.tif
176
     0
290
     0
176
     0
 40
1.0
176
     0
 40
1.0
176
     0
  0
VISUALSTYLE
  5
33
102
{ACAD_REACTORS
330
2A
102
}
330
2A
100
AcDbVisualStyle
  2
Realistic
 70
     8
177
     3
291
     0
 70
    58
 90
        2
176
     1
 90
        3
176
     1
 90
        0
176
     1
 90
        2
176
     1
 40
0.6
176
     1
 40
30.0
176
     1
 62
     7
420
 16777215
176
     1
 90
        0
176
     1
 90
        0
176
     1
 62
     7
176
     1
 62
   257
176
     1
 90
        1
176
     1
 90
        1
176
     1
 40
1.0
176
     1
 90
        8
176
     1
 62
   257
176
     1
 40
1.0
176
     1
 90
        1
176
     1
 90
        6
176
     1
 90
        2
176
     1
 62
     7
176
     1
 90
        3
176
     1
 90
        0
176
     1
 90
        0
176
     1
290
     0
176
     1
 90
       13
176
     1
 40
0.0
176
     1
 90
        0
176
     1
290
     0
176
     1
290
     1
176
     1
290
     1
176
     1
290
     0
176
     1
290
     0
176
     1
290
     0
176
     1
290
     0
176
     1
290
     0
176
     1
290
     0
176
     1
 90
       50
176
     1
 40
0.0
176
     1
 40
1.0
176
     1
 90
        0
176
     1
 62
    18
420
        0
176
     1
 90
       50
176
     1
 90
        3
176
     1
 62
     5
420
      255
176
     1
290
     0
176
     1
 90
       50
176
     1
 90
       50
176
     1
 90
       50
176
     1
290
     0
176
     1
 90
       50
176
     1
 62
   256
176
     0
 40
1.0
176
     0
 90
        2
176
     1
  1
strokes_ogs.tif
176
     1
290
     0
176
     1
 40
1.0
176
     1
 40
1.0
176
     1
  0
VISUALSTYLE
  5
42
102
{ACAD_REACTORS
330
2A
102
}
330
2A
100
AcDbVisualStyle
  2
Shaded
 70
    27
177
     3
291
     0
 70
    58
 90
        2
176
     1
 90
        2
176
     1
 90
        1
176
     1
 90
        2
176
     1
 40
0.6
176
     1
 40
30.0
176
     1
 62
     7
420
 16777215
176
     1
 90
        0
176
     1
 90
        4
176
     1
 62
     7
176
     1
 62
   257
176
     1
 90
        1
176
     1
 90
        1
176
     1
 40
1.0
176
     1
 90
        8
176
     1
 62
   257
176
     1
 40
1.0
176
     1
 90
        1
176
     1
 90
        6
176
     1
 90
        2
176
     1
 62
     8
420
  7895160
176
     1
 90
        3
176
     1
 90
        0
176
     1
 90
        0
176
     1
290
     0
176
     1
 90
        5
176
     1
 40
0.0
176
     1
 90
        0
176
     1
290
     0
176
     1
290
     1
176
     1
290
     1
176
     1
290
     0
176
     1
290
     0
176
     1
290
     0
176
     1
290
     0
176
     1
290
     0
176
     1
290
     0
176
     1
 90
       50
176
     1
 40
0.0
176
     1
 40
1.0
176
     1
 90
        0
176
     1
 62
    18
420
        0
176
     1
 90
       50
176
     1
 90
        3
176
     1
 62
     5
420
      255
176
     1
290
     0
176
     1
 90
       50
176
     1
 90
       50
176
     1
 90
       50
176
     1
290
     0
176
     1
 90
       50
176
     1
 62
   256
176
     0
 40
1.0
176
     0
 90
        2
176
     1
  1
strokes_ogs.tif
176
     1
290
     0
176
     1
 40
1.0
176
     1
 40
1.0
176
     1
  0
VISUALSTYLE
  5
41
102
{ACAD_REACTORS
330
2A
102
}
330
2A
100
AcDbVisualStyle
  2
Shaded with edges
 70
    26
177
     3
291
     0
 70
    58
 90
        2
176
     1
 90
        2
176
     1
 90
        1
176
     1
 90
        2
176
     1
 40
0.6
176
     1
 40
30.0
176
     1
 62
     7
420
 16777215
176
     1
 90
        1
176
     1
 90
       10
176
     1
 62
     7
176
     1
 62
   257
176
     1
 90
        2
176
     1
 90
        1
176
     1
 40
1.0
176
     1
 90
        8
176
     1
 62
   257
176
     1
 40
1.0
176
     1
 90
        1
176
     1
 90
        6
176
     1
 90
        2
176
     1
 62
     7
176
     1
 90
        3
176
     1
 90
        0
176
     1
 90
        0
176
     1
290
     0
176
     1
 90
        5
176
     1
 40
0.0
176
     1
 90
        0
176
     1
290
     0
176
     1
290
     1
176
     1
290
     1
176
     1
290
     0
176
     1
290
     0
176
     1
290
     0
176
     1
290
     0
176
     1
290
     0
176
     1
290
     0
176
     1
 90
       50
176
     1
 40
0.0
176
     1
 40
1.0
176
     1
 90
        0
176
     1
 62
    18
420
        0
176
     1
 90
       50
176
     1
 90
        3
176
     1
 62
     5
420
      255
176
     1
290
     0
176
     1
 90
       50
176
     1
 90
       50
176
     1
 90
       50
176
     1
290
     0
176
     1
 90
       50
176
     1
 62
   256
176
     0
 40
1.0
176
     0
 90
        2
176
     1
  1
strokes_ogs.tif
176
     1
290
     0
176
     1
 40
1.0
176
     1
 40
1.0
176
     1
  0
VISUALSTYLE
  5
3E
102
{ACAD_REACTORS
330
2A
102
}
330
2A
100
AcDbVisualStyle
  2
Shades of Gray
 70
    23
177
     3
291
     0
 70
    58
 90
        2
176
     1
 90
        2
176
     1
 90
        3
176
     1
 90
        0
176
     1
 40
0.6
176
     1
 40
30.0
176
     1
 62
     7
420
 16777215
176
     1
 90
        2
176
     1
 90
        2
176
     1
 62
     7
176
     1
 62
     7
176
     1
 90
        1
176
     1
 90
        1
176
     1
 40
40.0
176
     1
 90
        8
176
     1
 62
     7
176
     1
 40
1.0
176
     1
 90
        1
176
     1
 90
        6
176
     1
 90
        2
176
     1
 62
     7
176
     1
 90
        3
176
     1
 90
        0
176
     1
 90
        0
176
     1
290
     0
176
     1
 90
        1
176
     1
 40
0.0
176
     1
 90
        0
176
     1
290
     0
176
     1
290
     1
176
     1
290
     1
176
     1
290
     0
176
     1
290
     0
176
     1
290
     0
176
     1
290
     0
176
     1
290
     0
176
     1
290
     0
176
     1
 90
       50
176
     1
 40
0.0
176
     1
 40
1.0
176
     1
 90
        0
176
     1
 62
    18
420
        0
176
     1
 90
       50
176
     1
 90
        3
176
     1
 62
     5
420
      255
176
     1
290
     0
176
     1
 90
       50
176
     1
 90
       50
176
     1
 90
       50
176
     1
290
     0
176
     1
 90
       50
176
     1
 62
   256
176
     0
 40
1.0
176
     0
 90
        2
176
     1
  1
strokes_ogs.tif
176
     1
290
     0
176
     1
 40
1.0
176
     1
 40
1.0
176
     1
  0
VISUALSTYLE
  5
3F
102
{ACAD_REACTORS
330
2A
102
}
330
2A
100
AcDbVisualStyle
  2
Sketchy
 70
    24
177
     3
291
     0
 70
    58
 90
        1
176
     1
 90
        2
176
     1
 90
        2
176
     1
 90
        0
176
     1
 40
0.6
176
     1
 40
30.0
176
     1
 62
     7
420
 16777215
176
     1
 90
        2
176
     1
 90
        2
176
     1
 62
     7
176
     1
 62
     7
176
     1
 90
        1
176
     1
 90
        1
176
     1
 40
40.0
176
     1
 90
       11
176
     1
 62
     7
176
     1
 40
1.0
176
     1
 90
        1
176
     1
 90
        6
176
     1
 90
        2
176
     1
 62
     7
176
     1
 90
        6
176
     1
 90
        0
176
     1
 90
        0
176
     1
290
     0
176
     1
 90
        1
176
     1
 40
0.0
176
     1
 90
        0
176
     1
290
     0
176
     1
290
     1
176
     1
290
     1
176
     1
290
     0
176
     1
290
     0
176
     1
290
     0
176
     1
290
     0
176
     1
290
     0
176
     1
290
     0
176
     1
 90
       50
176
     1
 40
0.0
176
     1
 40
1.0
176
     1
 90
        0
176
     1
 62
    18
420
        0
176
     1
 90
       50
176
     1
 90
        3
176
     1
 62
     5
420
      255
176
     1
290
     0
176
     1
 90
       50
176
     1
 90
       50
176
     1
 90
       50
176
     1
290
     0
176
     1
 90
       50
176
     1
 62
   256
176
     0
 40
1.0
176
     0
 90
        2
176
     1
  1
strokes_ogs.tif
176
     1
290
     0
176
     1
 40
1.0
176
     1
 40
1.0
176
     1
  0
VISUALSTYLE
  5
37
102
{ACAD_REACTORS
330
2A
102
}
330
2A
100
AcDbVisualStyle
  2
Thicken
 70
    13
177
     3
291
     1
 70
    58
 90
        2
176
     1
 90
        2
176
     1
 90
        0
176
     1
 90
        0
176
     1
 40
0.6
176
     1
 40
30.0
176
     1
 62
     7
420
 16777215
176
     1
 90
        1
176
     1
 90
        4
176
     1
 62
     7
176
     1
 62
   257
176
     1
 90
        1
176
     1
 90
        1
176
     1
 40
1.0
176
     1
 90
       12
176
     1
 62
     7
176
     1
 40
1.0
176
     1
 90
        1
176
     1
 90
        6
176
     1
 90
        2
176
     1
 62
     7
176
     1
 90
        5
176
     1
 90
        0
176
     1
 90
        0
176
     1
290
     0
176
     1
 90
        1
176
     1
 40
0.0
176
     1
 90
        0
176
     1
290
     0
176
     1
290
     1
176
     1
290
     1
176
     1
290
     0
176
     1
290
     0
176
     1
290
     0
176
     1
290
     0
176
     1
290
     0
176
     1
290
     0
176
     1
 90
       50
176
     1
 40
0.0
176
     1
 40
1.0
176
     1
 90
        0
176
     1
 62
    18
420
        0
176
     1
 90
       50
176
     1
 90
        3
176
     1
 62
     5
420
      255
176
     1
290
     0
176
     1
 90
       50
176
     1
 90
       50
176
     1
 90
       50
176
     1
290
     0
176
     1
 90
       50
176
     1
 62
   256
176
     0
 40
1.0
176
     0
 90
        2
176
     1
  1
strokes_ogs.tif
176
     1
290
     0
176
     1
 40
1.0
176
     1
 40
1.0
176
     1
  0
VISUALSTYLE
  5
30
102
{ACAD_REACTORS
330
2A
102
}
330
2A
100
AcDbVisualStyle
  2
Wireframe
 70
     5
177
     3
291
     0
 70
    58
 90
        0
176
     1
 90
        2
176
     1
 90
        0
176
     1
 90
        0
176
     1
 40
0.6
176
     1
 40
30.0
176
     1
 62
     7
420
 16777215
176
     1
 90
        1
176
     1
 90
        4
176
     1
 62
     7
176
     1
 62
   257
176
     1
 90
        1
176
     1
 90
        1
176
     1
 40
1.0
176
     1
 90
        0
176
     1
 62
   257
176
     1
 40
1.0
176
     1
 90
        1
176
     1
 90
        6
176
     1
 90
        2
176
     1
 62
     7
176
     1
 90
        3
176
     1
 90
        0
176
     1
 90
        0
176
     1
290
     0
176
     1
 90
        1
176
     1
 40
0.0
176
     1
 90
        0
176
     1
290
     0
176
     1
290
     1
176
     1
290
     1
176
     1
290
     0
176
     1
290
     0
176
     1
290
     0
176
     1
290
     0
176
     1
290
     0
176
     1
290
     0
176
     1
 90
       50
176
     1
 40
0.0
176
     1
 40
1.0
176
     1
 90
        0
176
     1
 62
    18
420
        0
176
     1
 90
       50
176
     1
 90
        3
176
     1
 62
     5
420
      255
176
     1
290
     0
176
     1
 90
       50
176
     1
 90
       50
176
     1
 90
       50
176
     1
290
     0
176
     1
 90
       50
176
     1
 62
   256
176
     0
 40
1.0
176
     0
 90
        2
176
     1
  1
strokes_ogs.tif
176
     1
290
     0
176
     1
 40
1.0
176
     1
 40
1.0
176
     1
  0
VISUALSTYLE
  5
40
102
{ACAD_REACTORS
330
2A
102
}
330
2A
100
AcDbVisualStyle
  2
X-Ray
 70
    25
177
     3
291
     0
 70
    58
 90
        2
176
     1
 90
        2
176
     1
 90
        1
176
     1
 90
        1
176
     1
 40
0.5
176
     1
 40
30.0
176
     1
 62
     7
420
 16777215
176
     1
 90
        1
176
     1
 90
        0
176
     1
 62
     7
176
     1
 62
   257
176
     1
 90
        1
176
     1
 90
        1
176
     1
 40
1.0
176
     1
 90
        8
176
     1
 62
     7
176
     1
 40
1.0
176
     1
 90
        1
176
     1
 90
        6
176
     1
 90
        2
176
     1
 62
     7
176
     1
 90
        3
176
     1
 90
        0
176
     1
 90
        0
176
     1
290
     0
176
     1
 90
       13
176
     1
 40
0.0
176
     1
 90
        0
176
     1
290
     0
176
     1
290
     1
176
     1
290
     1
176
     1
290
     0
176
     1
290
     0
176
     1
290
     0
176
     1
290
     0
176
     1
290
     0
176
     1
290
     0
176
     1
 90
       50
176
     1
 40
0.0
176
     1
 40
1.0
176
     1
 90
        0
176
     1
 62
    18
420
        0
176
     1
 90
       50
176
     1
 90
        3
176
     1
 62
     5
420
      255
176
     1
290
     0
176
     1
 90
       50
176
     1
 90
       50
176
     1
 90
       50
176
     1
290
     0
176
     1
 90
       50
176
     1
 62
   256
176
     0
 40
1.0
176
     0
 90
        2
176
     1
  1
strokes_ogs.tif
176
     1
290
     0
176
     1
 40
1.0
176
     1
 40
1.0
176
     1
  0
DICTIONARYVAR
  5
208
102
{ACAD_REACTORS
330
207
102
}
330
207
100
DictionaryVariables
280
     0
  1
1:1
  0
DICTIONARYVAR
  5
20D
102
{ACAD_REACTORS
330
207
102
}
330
207
100
DictionaryVariables
280
     0
  1
Standard
  0
DICTIONARYVAR
  5
20C
102
{ACAD_REACTORS
330
207
102
}
330
207
100
DictionaryVariables
280
     0
  1
Standard
  0
DICTIONARY
  5
209
330
6A
100
AcDbDictionary
280
     1
281
     1
  3
ACAD_ROUNDTRIP_2008_TABLESTYLE_CELLSTYLEMAP
360
20A
  0
CELLSTYLEMAP
  5
20A
102
{ACAD_REACTORS
330
209
102
}
330
209
100
AcDbCellStyleMap
 90
        3
300
CELLSTYLE
  1
TABLEFORMAT_BEGIN
 90
        5
170
     1
 91
        0
 92
    32768
 62
   257
 93
        1
300
CONTENTFORMAT
  1
CONTENTFORMAT_BEGIN
 90
        0
 91
        0
 92
        4
 93
        0
300

 40
0.0
140
1.0
 94
        5
 62
     0
340
11
144
0.25
309
CONTENTFORMAT_END
171
     1
301
MARGIN
  1
CELLMARGIN_BEGIN
 40
0.06
 40
0.06
 40
0.06
 40
0.06
 40
0.06
 40
0.06
309
CELLMARGIN_END
 94
        6
 95
        1
302
GRIDFORMAT
  1
GRIDFORMAT_BEGIN
 90
        0
 91
        1
 62
     0
 92
       -2
340
14
 93
        0
 40
0.045
309
GRIDFORMAT_END
 95
        2
302
GRIDFORMAT
  1
GRIDFORMAT_BEGIN
 90
        0
 91
        1
 62
     0
 92
       -2
340
14
 93
        0
 40
0.045
309
GRIDFORMAT_END
 95
        4
302
GRIDFORMAT
  1
GRIDFORMAT_BEGIN
 90
        0
 91
        1
 62
     0
 92
       -2
340
14
 93
        0
 40
0.045
309
GRIDFORMAT_END
 95
        8
302
GRIDFORMAT
  1
GRIDFORMAT_BEGIN
 90
        0
 91
        1
 62
     0
 92
       -2
340
14
 93
        0
 40
0.045
309
GRIDFORMAT_END
 95
       16
302
GRIDFORMAT
  1
GRIDFORMAT_BEGIN
 90
        0
 91
        1
 62
     0
 92
       -2
340
14
 93
        0
 40
0.045
309
GRIDFORMAT_END
 95
       32
302
GRIDFORMAT
  1
GRIDFORMAT_BEGIN
 90
        0
 91
        1
 62
     0
 92
       -2
340
14
 93
        0
 40
0.045
309
GRIDFORMAT_END
309
TABLEFORMAT_END
  1
CELLSTYLE_BEGIN
 90
        1
 91
        1
300
_TITLE
309
CELLSTYLE_END
300
CELLSTYLE
  1
TABLEFORMAT_BEGIN
 90
        5
170
     1
 91
        0
 92
        0
 62
   257
 93
        1
300
CONTENTFORMAT
  1
CONTENTFORMAT_BEGIN
 90
        0
 91
        0
 92
        4
 93
        0
300

 40
0.0
140
1.0
 94
        5
 62
     0
340
11
144
0.18
309
CONTENTFORMAT_END
171
     1
301
MARGIN
  1
CELLMARGIN_BEGIN
 40
0.06
 40
0.06
 40
0.06
 40
0.06
 40
0.06
 40
0.06
309
CELLMARGIN_END
 94
        6
 95
        1
302
GRIDFORMAT
  1
GRIDFORMAT_BEGIN
 90
        0
 91
        1
 62
     0
 92
       -2
340
14
 93
        0
 40
0.045
309
GRIDFORMAT_END
 95
        2
302
GRIDFORMAT
  1
GRIDFORMAT_BEGIN
 90
        0
 91
        1
 62
     0
 92
       -2
340
14
 93
        0
 40
0.045
309
GRIDFORMAT_END
 95
        4
302
GRIDFORMAT
  1
GRIDFORMAT_BEGIN
 90
        0
 91
        1
 62
     0
 92
       -2
340
14
 93
        0
 40
0.045
309
GRIDFORMAT_END
 95
        8
302
GRIDFORMAT
  1
GRIDFORMAT_BEGIN
 90
        0
 91
        1
 62
     0
 92
       -2
340
14
 93
        0
 40
0.045
309
GRIDFORMAT_END
 95
       16
302
GRIDFORMAT
  1
GRIDFORMAT_BEGIN
 90
        0
 91
        1
 62
     0
 92
       -2
340
14
 93
        0
 40
0.045
309
GRIDFORMAT_END
 95
       32
302
GRIDFORMAT
  1
GRIDFORMAT_BEGIN
 90
        0
 91
        1
 62
     0
 92
       -2
340
14
 93
        0
 40
0.045
309
GRIDFORMAT_END
309
TABLEFORMAT_END
  1
CELLSTYLE_BEGIN
 90
        2
 91
        1
300
_HEADER
309
CELLSTYLE_END
300
CELLSTYLE
  1
TABLEFORMAT_BEGIN
 90
        5
170
     1
 91
        0
 92
        0
 62
   257
 93
        1
300
CONTENTFORMAT
  1
CONTENTFORMAT_BEGIN
 90
        0
 91
        0
 92
        4
 93
        0
300

 40
0.0
140
1.0
 94
        2
 62
     0
340
11
144
0.18
309
CONTENTFORMAT_END
171
     1
301
MARGIN
  1
CELLMARGIN_BEGIN
 40
0.06
 40
0.06
 40
0.06
 40
0.06
 40
0.06
 40
0.06
309
CELLMARGIN_END
 94
        6
 95
        1
302
GRIDFORMAT
  1
GRIDFORMAT_BEGIN
 90
        0
 91
        1
 62
     0
 92
       -2
340
14
 93
        0
 40
0.045
309
GRIDFORMAT_END
 95
        2
302
GRIDFORMAT
  1
GRIDFORMAT_BEGIN
 90
        0
 91
        1
 62
     0
 92
       -2
340
14
 93
        0
 40
0.045
309
GRIDFORMAT_END
 95
        4
302
GRIDFORMAT
  1
GRIDFORMAT_BEGIN
 90
        0
 91
        1
 62
     0
 92
       -2
340
14
 93
        0
 40
0.045
309
GRIDFORMAT_END
 95
        8
302
GRIDFORMAT
  1
GRIDFORMAT_BEGIN
 90
        0
 91
        1
 62
     0
 92
       -2
340
14
 93
        0
 40
0.045
309
GRIDFORMAT_END
 95
       16
302
GRIDFORMAT
  1
GRIDFORMAT_BEGIN
 90
        0
 91
        1
 62
     0
 92
       -2
340
14
 93
        0
 40
0.045
309
GRIDFORMAT_END
 95
       32
302
GRIDFORMAT
  1
GRIDFORMAT_BEGIN
 90
        0
 91
        1
 62
     0
 92
       -2
340
14
 93
        0
 40
0.045
309
GRIDFORMAT_END
309
TABLEFORMAT_END
  1
CELLSTYLE_BEGIN
 90
        3
 91
        2
300
_DATA
309
CELLSTYLE_END
  0
ENDSEC
  0
EOF