0
SECTION
  2
HEADER
  9
$ACADVER
  1
AC1027
  9
$ACADMAINTVER
 70
     8
  9
$DWGCODEPAGE
  3
ANSI_1252
  9
$REQUIREDVERSIONS
160
                 0
  9
$COMMENTS
  1
File was created by Cadenas
  9
$CUSTOMPROPERTYTAG
  1
NN
  9
$CUSTOMPROPERTY
  1
Grip Tight Four-Bolt Flange Stainless Housing Corrosion Resistant Insert Inch Bore
  9
$CUSTOMPROPERTYTAG
  1
NT
  9
$CUSTOMPROPERTY
  1
GTEZ Normal Duty Stainless Steel Polymer Housed 4 Bolt Flange Bearings
  9
$CUSTOMPROPERTYTAG
  1
NB
  9
$CUSTOMPROPERTY
  1
129729
  9
$CUSTOMPROPERTYTAG
  1
NBSYN
  9
$CUSTOMPROPERTY
  1
$PN.$LUBE.
  9
$CUSTOMPROPERTYTAG
  1
LINA
  9
$CUSTOMPROPERTY
  1
129729
  9
$CUSTOMPROPERTYTAG
  1
SERIES
  9
$CUSTOMPROPERTY
  1
207
  9
$CUSTOMPROPERTYTAG
  1
SS
  9
$CUSTOMPROPERTY
  1
1-7/16
  9
$CUSTOMPROPERTYTAG
  1
PN
  9
$CUSTOMPROPERTY
  1
129729
  9
$CUSTOMPROPERTYTAG
  1
DESCRIPTION
  9
$CUSTOMPROPERTY
  1
F4B-GTEZ-107-SHCR
  9
$CUSTOMPROPERTYTAG
  1
A
  9
$CUSTOMPROPERTY
  1
1-5/8
  9
$CUSTOMPROPERTYTAG
  1
B
  9
$CUSTOMPROPERTY
  1
4-11/16
  9
$CUSTOMPROPERTYTAG
  1
C
  9
$CUSTOMPROPERTY
  1
1-25/32
  9
$CUSTOMPROPERTYTAG
  1
D
  9
$CUSTOMPROPERTY
  1
3-5/8
  9
$CUSTOMPROPERTYTAG
  1
F
  9
$CUSTOMPROPERTY
  1
1/2
  9
$CUSTOMPROPERTYTAG
  1
H
  9
$CUSTOMPROPERTY
  1
27/64
  9
$CUSTOMPROPERTYTAG
  1
J
  9
$CUSTOMPROPERTY
  1
35/64
  9
$CUSTOMPROPERTYTAG
  1
L
  9
$CUSTOMPROPERTY
  1
2-19/64
  9
$CUSTOMPROPERTYTAG
  1
Z
  9
$CUSTOMPROPERTY
  1
1-49/64
  9
$CUSTOMPROPERTYTAG
  1
COMPANY
  9
$CUSTOMPROPERTY
  1
baldor
  9
$INSBASE
 10
0.0
 20
0.0
 30
0.0
  9
$EXTMIN
 10
1.000000000000000E+20
 20
1.000000000000000E+20
 30
1.000000000000000E+20
  9
$EXTMAX
 10
-1.000000000000000E+20
 20
-1.000000000000000E+20
 30
-1.000000000000000E+20
  9
$LIMMIN
 10
0.0
 20
0.0
  9
$LIMMAX
 10
12.0
 20
9.0
  9
$ORTHOMODE
 70
     0
  9
$REGENMODE
 70
     1
  9
$FILLMODE
 70
     1
  9
$QTEXTMODE
 70
     0
  9
$MIRRTEXT
 70
     1
  9
$LTSCALE
 40
1.0
  9
$ATTMODE
 70
     1
  9
$TEXTSIZE
 40
0.2
  9
$TRACEWID
 40
0.05
  9
$TEXTSTYLE
  7
Standard
  9
$CLAYER
  8
0
  9
$CELTYPE
  6
ByLayer
  9
$CECOLOR
 62
   256
  9
$CELTSCALE
 40
1.0
  9
$DISPSILH
 70
     0
  9
$DIMSCALE
 40
1.0
  9
$DIMASZ
 40
0.18
  9
$DIMEXO
 40
0.0625
  9
$DIMDLI
 40
0.38
  9
$DIMRND
 40
0.0
  9
$DIMDLE
 40
0.0
  9
$DIMEXE
 40
0.18
  9
$DIMTP
 40
0.0
  9
$DIMTM
 40
0.0
  9
$DIMTXT
 40
0.18
  9
$DIMCEN
 40
0.09
  9
$DIMTSZ
 40
0.0
  9
$DIMTOL
 70
     0
  9
$DIMLIM
 70
     0
  9
$DIMTIH
 70
     1
  9
$DIMTOH
 70
     1
  9
$DIMSE1
 70
     0
  9
$DIMSE2
 70
     0
  9
$DIMTAD
 70
     0
  9
$DIMZIN
 70
     0
  9
$DIMBLK
  1

  9
$DIMASO
 70
     1
  9
$DIMSHO
 70
     1
  9
$DIMPOST
  1

  9
$DIMAPOST
  1

  9
$DIMALT
 70
     0
  9
$DIMALTD
 70
     2
  9
$DIMALTF
 40
25.4
  9
$DIMLFAC
 40
1.0
  9
$DIMTOFL
 70
     0
  9
$DIMTVP
 40
0.0
  9
$DIMTIX
 70
     0
  9
$DIMSOXD
 70
     0
  9
$DIMSAH
 70
     0
  9
$DIMBLK1
  1

  9
$DIMBLK2
  1

  9
$DIMSTYLE
  2
Standard
  9
$DIMCLRD
 70
     0
  9
$DIMCLRE
 70
     0
  9
$DIMCLRT
 70
     0
  9
$DIMTFAC
 40
1.0
  9
$DIMGAP
 40
0.09
  9
$DIMJUST
 70
     0
  9
$DIMSD1
 70
     0
  9
$DIMSD2
 70
     0
  9
$DIMTOLJ
 70
     1
  9
$DIMTZIN
 70
     0
  9
$DIMALTZ
 70
     0
  9
$DIMALTTZ
 70
     0
  9
$DIMUPT
 70
     0
  9
$DIMDEC
 70
     4
  9
$DIMTDEC
 70
     4
  9
$DIMALTU
 70
     2
  9
$DIMALTTD
 70
     2
  9
$DIMTXSTY
  7
Standard
  9
$DIMAUNIT
 70
     0
  9
$DIMADEC
 70
     0
  9
$DIMALTRND
 40
0.0
  9
$DIMAZIN
 70
     0
  9
$DIMDSEP
 70
    46
  9
$DIMATFIT
 70
     3
  9
$DIMFRAC
 70
     0
  9
$DIMLDRBLK
  1

  9
$DIMLUNIT
 70
     2
  9
$DIMLWD
 70
    -2
  9
$DIMLWE
 70
    -2
  9
$DIMTMOVE
 70
     0
  9
$DIMFXL
 40
1.0
  9
$DIMFXLON
 70
     0
  9
$DIMJOGANG
 40
0.7853981633974483
  9
$DIMTFILL
 70
     0
  9
$DIMTFILLCLR
 70
     0
  9
$DIMARCSYM
 70
     0
  9
$DIMLTYPE
  6

  9
$DIMLTEX1
  6

  9
$DIMLTEX2
  6

  9
$DIMTXTDIRECTION
 70
     0
  9
$LUNITS
 70
     2
  9
$LUPREC
 70
     4
  9
$SKETCHINC
 40
0.1
  9
$FILLETRAD
 40
0.5
  9
$AUNITS
 70
     0
  9
$AUPREC
 70
     0
  9
$MENU
  1
.
  9
$ELEVATION
 40
0.0
  9
$PELEVATION
 40
0.0
  9
$THICKNESS
 40
0.0
  9
$LIMCHECK
 70
     0
  9
$CHAMFERA
 40
0.0
  9
$CHAMFERB
 40
0.0
  9
$CHAMFERC
 40
0.0
  9
$CHAMFERD
 40
0.0
  9
$SKPOLY
 70
     0
  9
$TDCREATE
 40
2458168.973439711
  9
$TDUCREATE
 40
2458168.931773044
  9
$TDUPDATE
 40
2458168.973439896
  9
$TDUUPDATE
 40
2458168.931773229
  9
$TDINDWG
 40
0.0000000116
  9
$TDUSRTIMER
 40
0.0000000116
  9
$USRTIMER
 70
     1
  9
$ANGBASE
 50
0.0
  9
$ANGDIR
 70
     0
  9
$PDMODE
 70
     0
  9
$PDSIZE
 40
0.0
  9
$PLINEWID
 40
0.0
  9
$SPLFRAME
 70
     0
  9
$SPLINETYPE
 70
     6
  9
$SPLINESEGS
 70
     8
  9
$HANDSEED
  5
1F2
  9
$SURFTAB1
 70
     6
  9
$SURFTAB2
 70
     6
  9
$SURFTYPE
 70
     6
  9
$SURFU
 70
     6
  9
$SURFV
 70
     6
  9
$UCSBASE
  2

  9
$UCSNAME
  2

  9
$UCSORG
 10
0.0
 20
0.0
 30
0.0
  9
$UCSXDIR
 10
1.0
 20
0.0
 30
0.0
  9
$UCSYDIR
 10
0.0
 20
1.0
 30
0.0
  9
$UCSORTHOREF
  2

  9
$UCSORTHOVIEW
 70
     0
  9
$UCSORGTOP
 10
0.0
 20
0.0
 30
0.0
  9
$UCSORGBOTTOM
 10
0.0
 20
0.0
 30
0.0
  9
$UCSORGLEFT
 10
0.0
 20
0.0
 30
0.0
  9
$UCSORGRIGHT
 10
0.0
 20
0.0
 30
0.0
  9
$UCSORGFRONT
 10
0.0
 20
0.0
 30
0.0
  9
$UCSORGBACK
 10
0.0
 20
0.0
 30
0.0
  9
$PUCSBASE
  2

  9
$PUCSNAME
  2

  9
$PUCSORG
 10
0.0
 20
0.0
 30
0.0
  9
$PUCSXDIR
 10
1.0
 20
0.0
 30
0.0
  9
$PUCSYDIR
 10
0.0
 20
1.0
 30
0.0
  9
$PUCSORTHOREF
  2

  9
$PUCSORTHOVIEW
 70
     0
  9
$PUCSORGTOP
 10
0.0
 20
0.0
 30
0.0
  9
$PUCSORGBOTTOM
 10
0.0
 20
0.0
 30
0.0
  9
$PUCSORGLEFT
 10
0.0
 20
0.0
 30
0.0
  9
$PUCSORGRIGHT
 10
0.0
 20
0.0
 30
0.0
  9
$PUCSORGFRONT
 10
0.0
 20
0.0
 30
0.0
  9
$PUCSORGBACK
 10
0.0
 20
0.0
 30
0.0
  9
$USERI1
 70
     0
  9
$USERI2
 70
     0
  9
$USERI3
 70
     0
  9
$USERI4
 70
     0
  9
$USERI5
 70
     0
  9
$USERR1
 40
0.0
  9
$USERR2
 40
0.0
  9
$USERR3
 40
0.0
  9
$USERR4
 40
0.0
  9
$USERR5
 40
0.0
  9
$WORLDVIEW
 70
     1
  9
$SHADEDGE
 70
     3
  9
$SHADEDIF
 70
    70
  9
$TILEMODE
 70
     1
  9
$MAXACTVP
 70
    64
  9
$PINSBASE
 10
0.0
 20
0.0
 30
0.0
  9
$PLIMCHECK
 70
     0
  9
$PEXTMIN
 10
1.000000000000000E+20
 20
1.000000000000000E+20
 30
1.000000000000000E+20
  9
$PEXTMAX
 10
-1.000000000000000E+20
 20
-1.000000000000000E+20
 30
-1.000000000000000E+20
  9
$PLIMMIN
 10
0.0
 20
0.0
  9
$PLIMMAX
 10
12.0
 20
9.0
  9
$UNITMODE
 70
     0
  9
$VISRETAIN
 70
     1
  9
$PLINEGEN
 70
     0
  9
$PSLTSCALE
 70
     1
  9
$TREEDEPTH
 70
  3020
  9
$CMLSTYLE
  2
Standard
  9
$CMLJUST
 70
     0
  9
$CMLSCALE
 40
1.0
  9
$PROXYGRAPHICS
 70
     1
  9
$MEASUREMENT
 70
     0
  9
$CELWEIGHT
370
    -1
  9
$ENDCAPS
280
     0
  9
$JOINSTYLE
280
     0
  9
$LWDISPLAY
290
     0
  9
$INSUNITS
 70
     1
  9
$HYPERLINKBASE
  1

  9
$STYLESHEET
  1

  9
$XEDIT
290
     1
  9
$CEPSNTYPE
380
     0
  9
$PSTYLEMODE
290
     1
  9
$FINGERPRINTGUID
  2
{F67DD5C4-C337-44E5-BF69-23A5C82899FB}
  9
$VERSIONGUID
  2
{FAEB1C32-E019-11D5-929B-00C0DF256EC4}
  9
$EXTNAMES
290
     1
  9
$PSVPSCALE
 40
0.0
  9
$OLESTARTUP
290
     0
  9
$SORTENTS
280
   127
  9
$INDEXCTL
280
     0
  9
$HIDETEXT
280
     1
  9
$XCLIPFRAME
280
     2
  9
$HALOGAP
280
     0
  9
$OBSCOLOR
 70
   257
  9
$OBSLTYPE
280
     0
  9
$INTERSECTIONDISPLAY
280
     0
  9
$INTERSECTIONCOLOR
 70
   257
  9
$DIMASSOC
280
     2
  9
$PROJECTNAME
  1

  9
$CAMERADISPLAY
290
     0
  9
$LENSLENGTH
 40
50.0
  9
$CAMERAHEIGHT
 40
0.0
  9
$STEPSPERSEC
 40
2.0
  9
$STEPSIZE
 40
6.0
  9
$3DDWFPREC
 40
2.0
  9
$PSOLWIDTH
 40
0.25
  9
$PSOLHEIGHT
 40
4.0
  9
$LOFTANG1
 40
1.570796326794897
  9
$LOFTANG2
 40
1.570796326794897
  9
$LOFTMAG1
 40
0.0
  9
$LOFTMAG2
 40
0.0
  9
$LOFTPARAM
 70
     7
  9
$LOFTNORMALS
280
     1
  9
$LATITUDE
 40
37.795
  9
$LONGITUDE
 40
-122.394
  9
$NORTHDIRECTION
 40
0.0
  9
$TIMEZONE
 70
 -8000
  9
$LIGHTGLYPHDISPLAY
280
     1
  9
$TILEMODELIGHTSYNCH
280
     1
  9
$CMATERIAL
347
44
  9
$SOLIDHIST
280
     0
  9
$SHOWHIST
280
     1
  9
$DWFFRAME
280
     2
  9
$DGNFRAME
280
     2
  9
$REALWORLDSCALE
290
     1
  9
$INTERFERECOLOR
 62
   256
  9
$CSHADOW
280
     0
  9
$SHADOWPLANELOCATION
 40
0.0
  0
ENDSEC
  0
SECTION
  2
CLASSES
  0
CLASS
  1
ACDBDICTIONARYWDFLT
  2
AcDbDictionaryWithDefault
  3
ObjectDBX Classes
 90
        0
 91
        4
280
     0
281
     0
  0
CLASS
  1
VISUALSTYLE
  2
AcDbVisualStyle
  3
ObjectDBX Classes
 90
     4095
 91
        4
280
     0
281
     0
  0
CLASS
  1
MATERIAL
  2
AcDbMaterial
  3
ObjectDBX Classes
 90
     1153
 91
        4
280
     0
281
     0
  0
CLASS
  1
SCALE
  2
AcDbScale
  3
ObjectDBX Classes
 90
     1153
 91
        4
280
     0
281
     0
  0
CLASS
  1
TABLESTYLE
  2
AcDbTableStyle
  3
ObjectDBX Classes
 90
     4095
 91
        4
280
     0
281
     0
  0
CLASS
  1
MLEADERSTYLE
  2
AcDbMLeaderStyle
  3
ACDB_MLEADERSTYLE_CLASS
 90
     4095
 91
        4
280
     0
281
     0
  0
CLASS
  1
SUN
  2
AcDbSun
  3
SCENEOE
 90
     1153
 91
        4
280
     0
281
     0
  0
CLASS
  1
DICTIONARYVAR
  2
AcDbDictionaryVar
  3
ObjectDBX Classes
 90
        0
 91
        4
280
     0
281
     0
  0
CLASS
  1
CELLSTYLEMAP
  2
AcDbCellStyleMap
  3
ObjectDBX Classes
 90
     1152
 91
        4
280
     0
281
     0
  0
ENDSEC
  0
SECTION
  2
TABLES
  0
TABLE
  2
VPORT
  5
8
330
0
100
AcDbSymbolTable
 70
     1
  0
VPORT
  5
29
330
8
100
AcDbSymbolTableRecord
100
AcDbViewportTableRecord
  2
*Active
 70
     0
 10
0.0
 20
0.0
 11
1.0
 21
1.0
 12
0.0
 22
0.0
 13
0.0
 23
0.0
 14
0.5
 24
0.5
 15
0.5
 25
0.5
 16
0.0
 26
0.0
 36
1.0
 17
0.0
 27
0.0
 37
0.0
 40
4.781760000000003
 41
1.0
 42
50.0
 43
0.0
 44
0.0
 50
0.0
 51
0.0
 71
     0
 72
   100
 73
     1
 74
     3
 75
     0
 76
     0
 77
     0
 78
     0
281
     0
 65
     1
110
0.0
120
0.0
130
0.0
111
1.0
121
0.0
131
0.0
112
0.0
122
1.0
132
0.0
 79
     0
146
0.0
348
2F
 60
     3
 61
     5
292
     1
282
     1
141
0.0
142
0.0
 63
   250
361
6D
  0
ENDTAB
  0
TABLE
  2
LTYPE
  5
5
330
0
100
AcDbSymbolTable
 70
     3
  0
LTYPE
  5
14
330
5
100
AcDbSymbolTableRecord
100
AcDbLinetypeTableRecord
  2
ByBlock
 70
     0
  3

 72
    65
 73
     0
 40
0.0
  0
LTYPE
  5
15
330
5
100
AcDbSymbolTableRecord
100
AcDbLinetypeTableRecord
  2
ByLayer
 70
     0
  3

 72
    65
 73
     0
 40
0.0
  0
LTYPE
  5
16
330
5
100
AcDbSymbolTableRecord
100
AcDbLinetypeTableRecord
  2
Continuous
 70
     0
  3
Solid line
 72
    65
 73
     0
 40
0.0
  0
LTYPE
  5
9C
330
5
100
AcDbSymbolTableRecord
100
AcDbLinetypeTableRecord
  2
Dashed
 70
     0
  3

 72
    65
 73
     2
 40
2.0
 49
1.0
 74
     0
 49
-1.0
 74
     0
  0
LTYPE
  5
103
330
5
100
AcDbSymbolTableRecord
100
AcDbLinetypeTableRecord
  2
Center
 70
     0
  3

 72
    65
 73
     4
 40
1.5
 49
0.45
 74
     0
 49
-0.5
 74
     0
 49
0.05
 74
     0
 49
-0.5
 74
     0
  0
ENDTAB
  0
TABLE
  2
LAYER
  5
2
330
0
100
AcDbSymbolTable
 70
     7
  0
LAYER
  5
10
330
2
100
AcDbSymbolTableRecord
100
AcDbLayerTableRecord
  2
0
 70
     0
 62
     7
  6
Continuous
370
    -3
390
F
347
46
348
0
  0
LAYER
  5
72
330
2
100
AcDbSymbolTableRecord
100
AcDbLayerTableRecord
  2
AM_6
 70
     0
 62
    -2
  6
Continuous
370
    35
390
F
347
46
348
0
  0
LAYER
  5
9D
330
2
100
AcDbSymbolTableRecord
100
AcDbLayerTableRecord
  2
AM_9
 70
     0
 62
     6
  6
Dashed
370
    25
390
F
347
46
348
0
  0
LAYER
  5
A2
330
2
100
AcDbSymbolTableRecord
100
AcDbLayerTableRecord
  2
AM_4
 70
     0
 62
     3
  6
Continuous
370
    25
390
F
347
46
348
0
  0
LAYER
  5
D1
330
2
100
AcDbSymbolTableRecord
100
AcDbLayerTableRecord
  2
AM_5
 70
     0
 62
     3
  6
Continuous
370
    25
390
F
347
46
348
0
  0
LAYER
  5
104
330
2
100
AcDbSymbolTableRecord
100
AcDbLayerTableRecord
  2
AM_7
 70
     0
 62
     7
  6
Center
370
    25
390
F
347
46
348
0
  0
LAYER
  5
1E4
330
2
100
AcDbSymbolTableRecord
100
AcDbLayerTableRecord
  2
ConnectionPoints
 70
     0
 62
     7
  6
Continuous
370
    50
390
F
347
46
348
0
  0
ENDTAB
  0
TABLE
  2
STYLE
  5
3
330
0
100
AcDbSymbolTable
 70
     1
  0
STYLE
  5
11
330
3
100
AcDbSymbolTableRecord
100
AcDbTextStyleTableRecord
  2
Standard
 70
     0
 40
0.0
 41
1.0
 50
0.0
 71
     0
 42
0.2
  3
txt
  4

  0
ENDTAB
  0
TABLE
  2
VIEW
  5
6
330
0
100
AcDbSymbolTable
 70
     0
  0
ENDTAB
  0
TABLE
  2
UCS
  5
7
330
0
100
AcDbSymbolTable
 70
     0
  0
ENDTAB
  0
TABLE
  2
APPID
  5
9
330
0
100
AcDbSymbolTable
 70
     1
  0
APPID
  5
12
330
9
100
AcDbSymbolTableRecord
100
AcDbRegAppTableRecord
  2
ACAD
 70
     0
  0
ENDTAB
  0
TABLE
  2
DIMSTYLE
  5
A
330
0
100
AcDbSymbolTable
 70
     1
100
AcDbDimStyleTable
  0
DIMSTYLE
105
27
330
A
100
AcDbSymbolTableRecord
100
AcDbDimStyleTableRecord
  2
Standard
 70
     0
178
     0
340
11
  0
ENDTAB
  0
TABLE
  2
BLOCK_RECORD
  5
1
330
0
100
AcDbSymbolTable
 70
     5
  0
BLOCK_RECORD
  5
1F
330
1
100
AcDbSymbolTableRecord
100
AcDbBlockTableRecord
  2
*Model_Space
340
22
 70
     0
280
     1
281
     0
  0
BLOCK_RECORD
  5
1B
330
1
100
AcDbSymbolTableRecord
100
AcDbBlockTableRecord
  2
*Paper_Space
340
1E
 70
     0
280
     1
281
     0
  0
BLOCK_RECORD
  5
23
330
1
100
AcDbSymbolTableRecord
100
AcDbBlockTableRecord
  2
*Paper_Space0
340
26
 70
     0
280
     1
281
     0
  0
BLOCK_RECORD
  5
6E
330
1
100
AcDbSymbolTableRecord
100
AcDbBlockTableRecord
  2
1_129729_0
340
0
102
{BLKREFS
331
6F
102
}
 70
     0
280
     1
281
     0
  0
BLOCK_RECORD
  5
86
330
1
100
AcDbSymbolTableRecord
100
AcDbBlockTableRecord
  2
2_INS_GT_07_CRI_0_in_129729_0
340
0
102
{BLKREFS
331
87
102
}
 70
     0
280
     1
281
     0
  0
BLOCK_RECORD
  5
A9
330
1
100
AcDbSymbolTableRecord
100
AcDbBlockTableRecord
  2
3_129974_0_in_129729_0
340
0
102
{BLKREFS
331
AA
102
}
 70
     0
280
     1
281
     0
  0
BLOCK_RECORD
  5
EB
330
1
100
AcDbSymbolTableRecord
100
AcDbBlockTableRecord
  2
4_F4B_GTEZ_07_SHCR_II_0_in_129729_0
340
0
102
{BLKREFS
331
EC
102
}
 70
     0
280
     1
281
     0
  0
ENDTAB
  0
ENDSEC
  0
SECTION
  2
BLOCKS
  0
BLOCK
  5
20
330
1F
100
AcDbEntity
  8
0
100
AcDbBlockBegin
  2
*Model_Space
 70
     0
 10
0.0
 20
0.0
 30
0.0
  3
*Model_Space
  1

  0
ENDBLK
  5
21
330
1F
100
AcDbEntity
  8
0
100
AcDbBlockEnd
  0
BLOCK
  5
1C
330
1B
100
AcDbEntity
 67
     1
  8
0
100
AcDbBlockBegin
  2
*Paper_Space
 70
     0
 10
0.0
 20
0.0
 30
0.0
  3
*Paper_Space
  1

  0
ENDBLK
  5
1D
330
1B
100
AcDbEntity
 67
     1
  8
0
100
AcDbBlockEnd
  0
BLOCK
  5
24
330
23
100
AcDbEntity
  8
0
100
AcDbBlockBegin
  2
*Paper_Space0
 70
     0
 10
0.0
 20
0.0
 30
0.0
  3
*Paper_Space0
  1

  0
ENDBLK
  5
25
330
23
100
AcDbEntity
  8
0
100
AcDbBlockEnd
  0
BLOCK
  5
70
330
6E
100
AcDbEntity
  8
0
100
AcDbBlockBegin
  2
1_129729_0
 70
     2
 10
0.0
 20
0.0
 30
0.0
  3
1_129729_0
  1

  0
ATTDEF
  5
73
330
6E
100
AcDbEntity
  8
AM_6
100
AcDbText
 10
7.343908940803036
 20
2.343908940803036
 30
0.0
 40
0.5
  1
Grip Tight Four-Bolt Flange Stainless Housing Corrosion Resistant Insert Inch Bore
100
AcDbAttributeDefinition
  3

  2
NN
 70
     8
280
     0
  0
ATTDEF
  5
74
330
6E
100
AcDbEntity
  8
AM_6
100
AcDbText
 10
7.343908940803036
 20
1.843908940803036
 30
0.0
 40
0.5
  1
GTEZ Normal Duty Stainless Steel Polymer Housed 4 Bolt Flange Bearings
100
AcDbAttributeDefinition
  3

  2
NT
 70
     8
280
     0
  0
ATTDEF
  5
75
330
6E
100
AcDbEntity
  8
AM_6
100
AcDbText
 10
7.343908940803036
 20
1.343908940803036
 30
0.0
 40
0.5
  1
129729
100
AcDbAttributeDefinition
  3

  2
NB
 70
     8
280
     0
  0
ATTDEF
  5
76
330
6E
100
AcDbEntity
  8
AM_6
100
AcDbText
 10
7.343908940803036
 20
0.8439089408030362
 30
0.0
 40
0.5
  1
$PN.$LUBE.
100
AcDbAttributeDefinition
  3

  2
NBSYN
 70
     8
280
     0
  0
ATTDEF
  5
77
330
6E
100
AcDbEntity
  8
AM_6
100
AcDbText
 10
7.343908940803036
 20
0.3439089408030362
 30
0.0
 40
0.5
  1
129729
100
AcDbAttributeDefinition
  3

  2
LINA
 70
     8
280
     0
  0
ATTDEF
  5
78
330
6E
100
AcDbEntity
  8
AM_6
100
AcDbText
 10
7.343908940803036
 20
-0.1560910591969638
 30
0.0
 40
0.5
  1
207
100
AcDbAttributeDefinition
  3

  2
SERIES
 70
     8
280
     0
  0
ATTDEF
  5
79
330
6E
100
AcDbEntity
  8
AM_6
100
AcDbText
 10
7.343908940803036
 20
-0.6560910591969638
 30
0.0
 40
0.5
  1
1-7/16
100
AcDbAttributeDefinition
  3

  2
SS
 70
     8
280
     0
  0
ATTDEF
  5
7A
330
6E
100
AcDbEntity
  8
AM_6
100
AcDbText
 10
7.343908940803036
 20
-1.156091059196964
 30
0.0
 40
0.5
  1
129729
100
AcDbAttributeDefinition
  3

  2
PN
 70
     8
280
     0
  0
ATTDEF
  5
7B
330
6E
100
AcDbEntity
  8
AM_6
100
AcDbText
 10
7.343908940803036
 20
-1.656091059196964
 30
0.0
 40
0.5
  1
F4B-GTEZ-107-SHCR
100
AcDbAttributeDefinition
  3

  2
DESCRIPTION
 70
     8
280
     0
  0
ATTDEF
  5
7C
330
6E
100
AcDbEntity
  8
AM_6
100
AcDbText
 10
7.343908940803036
 20
-2.156091059196964
 30
0.0
 40
0.5
  1
1-5/8
100
AcDbAttributeDefinition
  3

  2
A
 70
     8
280
     0
  0
ATTDEF
  5
7D
330
6E
100
AcDbEntity
  8
AM_6
100
AcDbText
 10
7.343908940803036
 20
-2.656091059196964
 30
0.0
 40
0.5
  1
4-11/16
100
AcDbAttributeDefinition
  3

  2
B
 70
     8
280
     0
  0
ATTDEF
  5
7E
330
6E
100
AcDbEntity
  8
AM_6
100
AcDbText
 10
7.343908940803036
 20
-3.156091059196964
 30
0.0
 40
0.5
  1
1-25/32
100
AcDbAttributeDefinition
  3

  2
C
 70
     8
280
     0
  0
ATTDEF
  5
7F
330
6E
100
AcDbEntity
  8
AM_6
100
AcDbText
 10
7.343908940803036
 20
-3.656091059196964
 30
0.0
 40
0.5
  1
3-5/8
100
AcDbAttributeDefinition
  3

  2
D
 70
     8
280
     0
  0
ATTDEF
  5
80
330
6E
100
AcDbEntity
  8
AM_6
100
AcDbText
 10
7.343908940803036
 20
-4.156091059196964
 30
0.0
 40
0.5
  1
1/2
100
AcDbAttributeDefinition
  3

  2
F
 70
     8
280
     0
  0
ATTDEF
  5
81
330
6E
100
AcDbEntity
  8
AM_6
100
AcDbText
 10
7.343908940803036
 20
-4.656091059196964
 30
0.0
 40
0.5
  1
27/64
100
AcDbAttributeDefinition
  3

  2
H
 70
     8
280
     0
  0
ATTDEF
  5
82
330
6E
100
AcDbEntity
  8
AM_6
100
AcDbText
 10
7.343908940803036
 20
-5.156091059196964
 30
0.0
 40
0.5
  1
35/64
100
AcDbAttributeDefinition
  3

  2
J
 70
     8
280
     0
  0
ATTDEF
  5
83
330
6E
100
AcDbEntity
  8
AM_6
100
AcDbText
 10
7.343908940803036
 20
-5.656091059196964
 30
0.0
 40
0.5
  1
2-19/64
100
AcDbAttributeDefinition
  3

  2
L
 70
     8
280
     0
  0
ATTDEF
  5
84
330
6E
100
AcDbEntity
  8
AM_6
100
AcDbText
 10
7.343908940803036
 20
-6.156091059196964
 30
0.0
 40
0.5
  1
1-49/64
100
AcDbAttributeDefinition
  3

  2
Z
 70
     8
280
     0
  0
ATTDEF
  5
85
330
6E
100
AcDbEntity
  8
AM_6
100
AcDbText
 10
7.343908940803036
 20
-6.656091059196964
 30
0.0
 40
0.5
  1
baldor
100
AcDbAttributeDefinition
  3

  2
COMPANY
 70
     8
280
     0
  0
INSERT
  5
87
330
6E
100
AcDbEntity
  8
0
100
AcDbBlockReference
  2
2_INS_GT_07_CRI_0_in_129729_0
 10
0.0
 20
0.0
 30
0.0
  0
INSERT
  5
AA
330
6E
100
AcDbEntity
  8
0
100
AcDbBlockReference
  2
3_129974_0_in_129729_0
 10
0.0
 20
0.0
 30
0.0
  0
INSERT
  5
EC
330
6E
100
AcDbEntity
  8
0
100
AcDbBlockReference
  2
4_F4B_GTEZ_07_SHCR_II_0_in_129729_0
 10
0.0
 20
0.0
 30
0.0
  0
ENDBLK
  5
71
330
6E
100
AcDbEntity
  8
0
100
AcDbBlockEnd
  0
BLOCK
  5
88
330
86
100
AcDbEntity
  8
0
100
AcDbBlockBegin
  2
2_INS_GT_07_CRI_0_in_129729_0
 70
     2
 10
0.0
 20
0.0
 30
0.0
  3
2_INS_GT_07_CRI_0_in_129729_0
  1

  0
ATTDEF
  5
8A
330
86
100
AcDbEntity
  8
AM_6
100
AcDbText
 10
6.404816191682578
 20
1.404816191682578
 30
0.0
 40
0.5
  1
INS-GT-CR-I
100
AcDbAttributeDefinition
  3

  2
NN
 70
     8
280
     0
  0
ATTDEF
  5
8B
330
86
100
AcDbEntity
  8
AM_6
100
AcDbText
 10
6.404816191682578
 20
0.9048161916825781
 30
0.0
 40
0.5
  1
GT Normal Duty Corrosion Resistant Bearing Inserts
100
AcDbAttributeDefinition
  3

  2
NT
 70
     8
280
     0
  0
ATTDEF
  5
8C
330
86
100
AcDbEntity
  8
AM_6
100
AcDbText
 10
6.404816191682578
 20
0.4048161916825781
 30
0.0
 40
0.5
  1
INS-GT-07-CRI
100
AcDbAttributeDefinition
  3

  2
NB
 70
     8
280
     0
  0
ATTDEF
  5
8D
330
86
100
AcDbEntity
  8
AM_6
100
AcDbText
 10
6.404816191682578
 20
-0.0951838083174219
 30
0.0
 40
0.5
  1
$PN.I
100
AcDbAttributeDefinition
  3

  2
NBSYN
 70
     8
280
     0
  0
ATTDEF
  5
8E
330
86
100
AcDbEntity
  8
AM_6
100
AcDbText
 10
6.404816191682578
 20
-0.5951838083174219
 30
0.0
 40
0.5
  1
INS-GT-07-CR
100
AcDbAttributeDefinition
  3

  2
LINA
 70
     8
280
     0
  0
ATTDEF
  5
8F
330
86
100
AcDbEntity
  8
AM_6
100
AcDbText
 10
6.404816191682578
 20
-1.095183808317422
 30
0.0
 40
0.5
  1
207
100
AcDbAttributeDefinition
  3

  2
SERIES
 70
     8
280
     0
  0
ATTDEF
  5
90
330
86
100
AcDbEntity
  8
AM_6
100
AcDbText
 10
6.404816191682578
 20
-1.595183808317422
 30
0.0
 40
0.5
  1
INS-GT-07-CR
100
AcDbAttributeDefinition
  3

  2
PN
 70
     8
280
     0
  0
ATTDEF
  5
91
330
86
100
AcDbEntity
  8
AM_6
100
AcDbText
 10
6.404816191682578
 20
-2.095183808317422
 30
0.0
 40
0.5
  1
INS-GT-07-CR
100
AcDbAttributeDefinition
  3

  2
DESCRIPTION
 70
     8
280
     0
  0
ATTDEF
  5
92
330
86
100
AcDbEntity
  8
AM_6
100
AcDbText
 10
6.404816191682578
 20
-2.595183808317422
 30
0.0
 40
0.5
  1
1-5/8
100
AcDbAttributeDefinition
  3

  2
A
 70
     8
280
     0
  0
ATTDEF
  5
93
330
86
100
AcDbEntity
  8
AM_6
100
AcDbText
 10
6.404816191682578
 20
-3.095183808317422
 30
0.0
 40
0.5
  1
0.7480
100
AcDbAttributeDefinition
  3

  2
C
 70
     8
280
     0
  0
ATTDEF
  5
94
330
86
100
AcDbEntity
  8
AM_6
100
AcDbText
 10
6.404816191682578
 20
-3.595183808317422
 30
0.0
 40
0.5
  1
2.8346
100
AcDbAttributeDefinition
  3

  2
D
 70
     8
280
     0
  0
ATTDEF
  5
95
330
86
100
AcDbEntity
  8
AM_6
100
AcDbText
 10
6.404816191682578
 20
-4.095183808317422
 30
0.0
 40
0.5
  1
0.202
100
AcDbAttributeDefinition
  3

  2
J
 70
     8
280
     0
  0
ATTDEF
  5
96
330
86
100
AcDbEntity
  8
AM_6
100
AcDbText
 10
6.404816191682578
 20
-4.595183808317422
 30
0.0
 40
0.5
  1
2-19/64
100
AcDbAttributeDefinition
  3

  2
L
 70
     8
280
     0
  0
ATTDEF
  5
97
330
86
100
AcDbEntity
  8
AM_6
100
AcDbText
 10
6.404816191682578
 20
-5.095183808317422
 30
0.0
 40
0.5
  1
10 - 32 x 1/4
100
AcDbAttributeDefinition
  3

  2
N
 70
     8
280
     0
  0
ATTDEF
  5
98
330
86
100
AcDbEntity
  8
AM_6
100
AcDbText
 10
6.404816191682578
 20
-5.595183808317422
 30
0.0
 40
0.5
  1
9/16
100
AcDbAttributeDefinition
  3

  2
W
 70
     8
280
     0
  0
ATTDEF
  5
99
330
86
100
AcDbEntity
  8
AM_6
100
AcDbText
 10
6.404816191682578
 20
-6.095183808317422
 30
0.0
 40
0.5
  1
1-3/64
100
AcDbAttributeDefinition
  3

  2
X
 70
     8
280
     0
  0
ATTDEF
  5
9A
330
86
100
AcDbEntity
  8
AM_6
100
AcDbText
 10
6.404816191682578
 20
-6.595183808317422
 30
0.0
 40
0.5
  1
1-1/16
100
AcDbAttributeDefinition
  3

  2
Y
 70
     8
280
     0
  0
ATTDEF
  5
9B
330
86
100
AcDbEntity
  8
AM_6
100
AcDbText
 10
6.404816191682578
 20
-7.095183808317422
 30
0.0
 40
0.5
  1
baldor
100
AcDbAttributeDefinition
  3

  2
COMPANY
 70
     8
280
     0
  0
CIRCLE
  5
9E
330
86
100
AcDbEntity
  8
AM_9
100
AcDbCircle
 10
0.0000000000000001
 20
0.0
 30
0.0
 40
0.8881585142599845
  0
CIRCLE
  5
9F
330
86
100
AcDbEntity
  8
AM_9
100
AcDbCircle
 10
0.0000000000000001
 20
0.0
 30
0.0
 40
1.3425
  0
CIRCLE
  5
A0
330
86
100
AcDbEntity
  8
AM_9
100
AcDbCircle
 10
0.0000000000000001
 20
0.0
 30
0.0
 40
1.376903536473977
  0
CIRCLE
  5
A1
330
86
100
AcDbEntity
  8
AM_9
100
AcDbCircle
 10
0.0000000000000001
 20
0.0
 30
0.0
 40
0.9909133333333333
  0
CIRCLE
  5
A3
330
86
100
AcDbEntity
  8
AM_4
100
AcDbCircle
 10
0.0000000000000001
 20
0.0
 30
0.0
 40
1.404816191682578
  0
CIRCLE
  5
A4
330
86
100
AcDbEntity
  8
AM_4
100
AcDbCircle
 10
0.0000000000000001
 20
0.0
 30
0.0
 40
1.397432220977328
  0
CIRCLE
  5
A5
330
86
100
AcDbEntity
  8
AM_4
100
AcDbCircle
 10
0.0000000000000001
 20
0.0
 30
0.0
 40
1.384128370350267
  0
CIRCLE
  5
A6
330
86
100
AcDbEntity
  8
AM_4
100
AcDbCircle
 10
0.0000000000000001
 20
0.0
 30
0.0
 40
1.350181451274502
  0
CIRCLE
  5
A7
330
86
100
AcDbEntity
  8
AM_4
100
AcDbCircle
 10
0.0000000000000001
 20
0.0
 30
0.0
 40
1.322326637389132
  0
ARC
  5
A8
330
86
100
AcDbEntity
  8
AM_4
100
AcDbCircle
 10
0.0
 20
-0.0000000000000078
 30
0.0
 40
0.8567707677083412
100
AcDbArc
 50
86.65439405810875
 51
93.34560594189125
  0
ENDBLK
  5
89
330
86
100
AcDbEntity
  8
0
100
AcDbBlockEnd
  0
BLOCK
  5
AB
330
A9
100
AcDbEntity
  8
0
100
AcDbBlockBegin
  2
3_129974_0_in_129729_0
 70
     2
 10
0.0
 20
0.0
 30
0.0
  3
3_129974_0_in_129729_0
  1

  0
ATTDEF
  5
AD
330
A9
100
AcDbEntity
  8
AM_6
100
AcDbText
 10
6.143987627295965
 20
1.1484373925987
 30
0.0
 40
0.5
  1
Grip Tight Adapter and Nut - Corrosion Resistant Inch Bore
100
AcDbAttributeDefinition
  3

  2
NN
 70
     8
280
     0
  0
ATTDEF
  5
AE
330
A9
100
AcDbEntity
  8
AM_6
100
AcDbText
 10
6.143987627295965
 20
0.6484373925986997
 30
0.0
 40
0.5
  1
GT and GTM Adapter & Lock Nut Assemblies
100
AcDbAttributeDefinition
  3

  2
NT
 70
     8
280
     0
  0
ATTDEF
  5
AF
330
A9
100
AcDbEntity
  8
AM_6
100
AcDbText
 10
6.143987627295965
 20
0.1484373925986997
 30
0.0
 40
0.5
  1
129974
100
AcDbAttributeDefinition
  3

  2
NB
 70
     8
280
     0
  0
ATTDEF
  5
B0
330
A9
100
AcDbEntity
  8
AM_6
100
AcDbText
 10
6.143987627295965
 20
-0.3515626074013003
 30
0.0
 40
0.5
  1
$PN.
100
AcDbAttributeDefinition
  3

  2
NBSYN
 70
     8
280
     0
  0
ATTDEF
  5
B1
330
A9
100
AcDbEntity
  8
AM_6
100
AcDbText
 10
6.143987627295965
 20
-0.8515626074013003
 30
0.0
 40
0.5
  1
129974
100
AcDbAttributeDefinition
  3

  2
LINA
 70
     8
280
     0
  0
ATTDEF
  5
B2
330
A9
100
AcDbEntity
  8
AM_6
100
AcDbText
 10
6.143987627295965
 20
-1.3515626074013
 30
0.0
 40
0.5
  1
207
100
AcDbAttributeDefinition
  3

  2
SERIES
 70
     8
280
     0
  0
ATTDEF
  5
B3
330
A9
100
AcDbEntity
  8
AM_6
100
AcDbText
 10
6.143987627295965
 20
-1.8515626074013
 30
0.0
 40
0.5
  1
1-7/16
100
AcDbAttributeDefinition
  3

  2
SS
 70
     8
280
     0
  0
ATTDEF
  5
B4
330
A9
100
AcDbEntity
  8
AM_6
100
AcDbText
 10
6.143987627295965
 20
-2.3515626074013
 30
0.0
 40
0.5
  1
129974
100
AcDbAttributeDefinition
  3

  2
PN
 70
     8
280
     0
  0
ATTDEF
  5
B5
330
A9
100
AcDbEntity
  8
AM_6
100
AcDbText
 10
6.143987627295965
 20
-2.8515626074013
 30
0.0
 40
0.5
  1
AN-GT-07-107-CR
100
AcDbAttributeDefinition
  3

  2
DESCRIPTION
 70
     8
280
     0
  0
ATTDEF
  5
B6
330
A9
100
AcDbEntity
  8
AM_6
100
AcDbText
 10
6.143987627295965
 20
-3.3515626074013
 30
0.0
 40
0.5
  1
1-5/8
100
AcDbAttributeDefinition
  3

  2
A
 70
     8
280
     0
  0
ATTDEF
  5
B7
330
A9
100
AcDbEntity
  8
AM_6
100
AcDbText
 10
6.143987627295965
 20
-3.8515626074013
 30
0.0
 40
0.5
  1
0.7480
100
AcDbAttributeDefinition
  3

  2
C
 70
     8
280
     0
  0
ATTDEF
  5
B8
330
A9
100
AcDbEntity
  8
AM_6
100
AcDbText
 10
6.143987627295965
 20
-4.3515626074013
 30
0.0
 40
0.5
  1
2.8346
100
AcDbAttributeDefinition
  3

  2
D
 70
     8
280
     0
  0
ATTDEF
  5
B9
330
A9
100
AcDbEntity
  8
AM_6
100
AcDbText
 10
6.143987627295965
 20
-4.8515626074013
 30
0.0
 40
0.5
  1
0.202
100
AcDbAttributeDefinition
  3

  2
J
 70
     8
280
     0
  0
ATTDEF
  5
BA
330
A9
100
AcDbEntity
  8
AM_6
100
AcDbText
 10
6.143987627295965
 20
-5.3515626074013
 30
0.0
 40
0.5
  1
2-19/64
100
AcDbAttributeDefinition
  3

  2
L
 70
     8
280
     0
  0
ATTDEF
  5
BB
330
A9
100
AcDbEntity
  8
AM_6
100
AcDbText
 10
6.143987627295965
 20
-5.8515626074013
 30
0.0
 40
0.5
  1
10 - 32 x 1/4
100
AcDbAttributeDefinition
  3

  2
N
 70
     8
280
     0
  0
ATTDEF
  5
BC
330
A9
100
AcDbEntity
  8
AM_6
100
AcDbText
 10
6.143987627295965
 20
-6.3515626074013
 30
0.0
 40
0.5
  1
9/16
100
AcDbAttributeDefinition
  3

  2
W
 70
     8
280
     0
  0
ATTDEF
  5
BD
330
A9
100
AcDbEntity
  8
AM_6
100
AcDbText
 10
6.143987627295965
 20
-6.8515626074013
 30
0.0
 40
0.5
  1
1-3/64
100
AcDbAttributeDefinition
  3

  2
X
 70
     8
280
     0
  0
ATTDEF
  5
BE
330
A9
100
AcDbEntity
  8
AM_6
100
AcDbText
 10
6.143987627295965
 20
-7.3515626074013
 30
0.0
 40
0.5
  1
1-1/16
100
AcDbAttributeDefinition
  3

  2
Y
 70
     8
280
     0
  0
ATTDEF
  5
BF
330
A9
100
AcDbEntity
  8
AM_6
100
AcDbText
 10
6.143987627295965
 20
-7.8515626074013
 30
0.0
 40
0.5
  1
baldor
100
AcDbAttributeDefinition
  3

  2
COMPANY
 70
     8
280
     0
  0
LINE
  5
C0
330
A9
100
AcDbEntity
  8
AM_9
100
AcDbLine
 10
-0.0499999999999999
 20
0.8567788675498904
 30
0.0
 11
-0.0499999999999999
 21
0.8887174864181436
 31
0.0
  0
LINE
  5
C1
330
A9
100
AcDbEntity
  8
AM_9
100
AcDbLine
 10
0.0500000000000001
 20
0.8567788675498903
 30
0.0
 11
0.0500000000000001
 21
0.8887174864181436
 31
0.0
  0
ARC
  5
C2
330
A9
100
AcDbEntity
  8
AM_9
100
AcDbCircle
 10
0.0000000000000001
 20
0.0000000000000001
 30
0.0
 40
0.8901228963830687
100
AcDbArc
 50
93.22011451807202
 51
86.77988548192796
  0
CIRCLE
  5
C3
330
A9
100
AcDbEntity
  8
AM_9
100
AcDbCircle
 10
0.0000000000000001
 20
0.0
 30
0.0
 40
0.9388020833333335
  0
CIRCLE
  5
C4
330
A9
100
AcDbEntity
  8
AM_9
100
AcDbCircle
 10
0.0000000000000001
 20
0.0
 30
0.0
 40
1.020833333333333
  0
LINE
  5
C5
330
A9
100
AcDbEntity
  8
AM_9
100
AcDbLine
 10
-1.1314375
 20
-0.078
 30
0.0
 11
-0.878328125
 21
-0.078
 31
0.0
  0
LINE
  5
C6
330
A9
100
AcDbEntity
  8
AM_9
100
AcDbLine
 10
-0.878328125
 20
0.078
 30
0.0
 11
-1.1314375
 21
0.078
 31
0.0
  0
LINE
  5
C7
330
A9
100
AcDbEntity
  8
AM_9
100
AcDbLine
 10
-0.878328125
 20
-0.078
 30
0.0
 11
-0.8613281249999999
 21
-0.0950000000000001
 31
0.0
  0
LINE
  5
C8
330
A9
100
AcDbEntity
  8
AM_9
100
AcDbLine
 10
-0.8613281249999999
 20
0.0950000000000001
 30
0.0
 11
-0.878328125
 21
0.078
 31
0.0
  0
LINE
  5
C9
330
A9
100
AcDbEntity
  8
AM_9
100
AcDbLine
 10
-0.8613281249999999
 20
0.0950000000000001
 30
0.0
 11
-0.8613281249999999
 21
-0.0950000000000001
 31
0.0
  0
LINE
  5
CA
330
A9
100
AcDbEntity
  8
AM_9
100
AcDbLine
 10
-0.878328125
 20
0.078
 30
0.0
 11
-0.878328125
 21
-0.078
 31
0.0
  0
LINE
  5
CB
330
A9
100
AcDbEntity
  8
AM_9
100
AcDbLine
 10
-1.1314375
 20
0.078
 30
0.0
 11
-1.144244257137375
 21
0.090806757137375
 31
0.0
  0
LINE
  5
CC
330
A9
100
AcDbEntity
  8
AM_9
100
AcDbLine
 10
-1.144776503615392
 20
-0.0913390036153919
 30
0.0
 11
-1.1314375
 21
-0.078
 31
0.0
  0
LINE
  5
CD
330
A9
100
AcDbEntity
  8
AM_9
100
AcDbLine
 10
-1.1314375
 20
0.078
 30
0.0
 11
-1.1314375
 21
-0.078
 31
0.0
  0
LWPOLYLINE
  5
CE
330
A9
100
AcDbEntity
  8
AM_9
100
AcDbPolyline
 90
        5
 70
     0
 43
0.0
 10
-1.147355870624547
 20
0.0498316922212981
 10
-1.146603620382192
 20
0.0648754894601966
 10
-1.145492017330086
 20
0.0821993287034678
 10
-1.144843903647285
 20
0.0907806570140069
 10
-1.144797794265198
 20
0.0913602848714248
  0
LINE
  5
CF
330
A9
100
AcDbEntity
  8
AM_9
100
AcDbLine
 10
-1.147221805059965
 20
-0.0528282254216921
 30
0.0
 11
-1.147360499031598
 21
-0.0497250104898107
 31
0.0
  0
LWPOLYLINE
  5
D0
330
A9
100
AcDbEntity
  8
AM_9
100
AcDbPolyline
 90
        4
 70
     0
 43
0.0
 10
-1.144797793578997
 20
-0.091360293469917
 10
-1.145216408107165
 20
-0.0859538830325481
 10
-1.146299986377777
 20
-0.0700359381786167
 10
-1.147221805059965
 20
-0.0528282254216921
  0
LINE
  5
D2
330
A9
100
AcDbEntity
  8
AM_5
100
AcDbLine
 10
-1.144501503453032
 20
-0.0950000000000001
 30
0.0
 11
-0.8613281249999999
 21
-0.0950000000000001
 31
0.0
  0
LINE
  5
D3
330
A9
100
AcDbEntity
  8
AM_5
100
AcDbLine
 10
-1.144501503453032
 20
0.0950000000000002
 30
0.0
 11
-0.8613281249999999
 21
0.0950000000000002
 31
0.0
  0
LWPOLYLINE
  5
D4
330
A9
100
AcDbEntity
  8
AM_4
100
AcDbPolyline
 90
        6
 70
     0
 43
0.0
 10
-1.147360499031598
 20
-0.0497250104898107
 10
-1.147525790069069
 20
-0.0457520768119632
 10
-1.148315742261515
 20
-0.016722663682404
 10
-1.148361459032061
 20
0.0132155520507687
 10
-1.147700235991567
 20
0.0411443764219549
 10
-1.147355870624547
 20
0.0498316922212981
  0
LINE
  5
D5
330
A9
100
AcDbEntity
  8
AM_4
100
AcDbLine
 10
-0.6594623794302107
 20
0.9402223468533891
 30
0.0
 11
-0.6234059685476591
 21
0.87777081126623
 31
0.0
  0
LINE
  5
D6
330
A9
100
AcDbEntity
  8
AM_4
100
AcDbLine
 10
-0.6234059685476585
 20
-0.8777708112662306
 30
0.0
 11
-0.6594623794302101
 21
-0.9402223468533897
 31
0.0
  0
ARC
  5
D7
330
A9
100
AcDbEntity
  8
AM_4
100
AcDbCircle
 10
0.000000000000001
 20
-0.0000000000000003
 30
0.0
 40
1.148437500000001
100
AcDbArc
 50
125.0454286839746
 51
177.5326322353161
  0
LWPOLYLINE
  5
D8
330
A9
100
AcDbEntity
  8
AM_4
100
AcDbPolyline
 90
        6
 70
     0
 43
0.0
 10
-1.147372786500038
 20
0.0494406735935922
 10
-1.142896056280188
 20
0.0276490989623731
 10
-1.140922088836125
 20
0.0043007204488114
 10
-1.141701089946704
 20
-0.0176995504781212
 10
-1.145082964130279
 20
-0.0398391566671438
 10
-1.147372786500038
 20
-0.0494406735935925
  0
ARC
  5
D9
330
A9
100
AcDbEntity
  8
AM_4
100
AcDbCircle
 10
0.0000000000000016
 20
0.0000000000000008
 30
0.0
 40
1.148437500000002
100
AcDbArc
 50
182.4673677646839
 51
234.9545713160254
  0
LINE
  5
DA
330
A9
100
AcDbEntity
  8
AM_4
100
AcDbLine
 10
-0.4845252478657536
 20
-1.041222346853389
 30
0.0
 11
-0.4484688369832018
 21
-0.9787708112662304
 31
0.0
  0
ARC
  5
DB
330
A9
100
AcDbEntity
  8
AM_4
100
AcDbCircle
 10
0.0000000000000004
 20
-0.0000000000000004
 30
0.0
 40
1.1484375
100
AcDbArc
 50
245.0454286839745
 51
354.9545713160255
  0
LINE
  5
DC
330
A9
100
AcDbEntity
  8
AM_4
100
AcDbLine
 10
1.071874805530861
 20
-0.101
 30
0.0
 11
1.143987627295964
 21
-0.101
 31
0.0
  0
LINE
  5
DD
330
A9
100
AcDbEntity
  8
AM_4
100
AcDbLine
 10
-0.0499999999999999
 20
0.7170087604067331
 30
0.0
 11
-0.0499999999999999
 21
0.8567708333333334
 31
0.0
  0
LINE
  5
DE
330
A9
100
AcDbEntity
  8
AM_4
100
AcDbLine
 10
0.0500000000000001
 20
0.7170087604067331
 30
0.0
 11
0.0500000000000001
 21
0.8567708333333333
 31
0.0
  0
LINE
  5
DF
330
A9
100
AcDbEntity
  8
AM_4
100
AcDbLine
 10
1.143987627295964
 20
0.101
 30
0.0
 11
1.071874805530861
 21
0.101
 31
0.0
  0
LINE
  5
E0
330
A9
100
AcDbEntity
  8
AM_4
100
AcDbLine
 10
1.071874805530861
 20
0.101
 30
0.0
 11
1.071874805530861
 21
-0.101
 31
0.0
  0
LINE
  5
E1
330
A9
100
AcDbEntity
  8
AM_4
100
AcDbLine
 10
-0.0499999999999999
 20
0.8567708333333334
 30
0.0
 11
0.0500000000000001
 21
0.8567708333333333
 31
0.0
  0
LINE
  5
E2
330
A9
100
AcDbEntity
  8
AM_4
100
AcDbLine
 10
-0.4484688369832024
 20
0.9787708112662303
 30
0.0
 11
-0.4845252478657541
 21
1.041222346853389
 31
0.0
  0
LINE
  5
E3
330
A9
100
AcDbEntity
  8
AM_4
100
AcDbLine
 10
-0.6234059685476591
 20
0.87777081126623
 30
0.0
 11
-0.4484688369832024
 21
0.9787708112662303
 31
0.0
  0
ARC
  5
E4
330
A9
100
AcDbEntity
  8
AM_4
100
AcDbCircle
 10
-0.0000000000000008
 20
0.0000000000000001
 30
0.0
 40
1.1185175
100
AcDbArc
 50
125.1807565308709
 51
234.8192434691292
  0
LINE
  5
E5
330
A9
100
AcDbEntity
  8
AM_4
100
AcDbLine
 10
-0.4484688369832018
 20
-0.9787708112662304
 30
0.0
 11
-0.6234059685476585
 21
-0.8777708112662306
 31
0.0
  0
ARC
  5
E6
330
A9
100
AcDbEntity
  8
AM_4
100
AcDbCircle
 10
0.0000000000000001
 20
-0.0000000000000001
 30
0.0
 40
1.1185175
100
AcDbArc
 50
245.1807565308709
 51
354.8192434691292
  0
ARC
  5
E7
330
A9
100
AcDbEntity
  8
AM_4
100
AcDbCircle
 10
0.0
 20
-0.0000000000000001
 30
0.0
 40
1.1484375
100
AcDbArc
 50
5.04542868397455
 51
114.9545713160255
  0
ARC
  5
E8
330
A9
100
AcDbEntity
  8
AM_4
100
AcDbCircle
 10
0.0000000000000002
 20
0.0000000000000002
 30
0.0
 40
1.1185175
100
AcDbArc
 50
5.180756530870902
 51
114.8192434691291
  0
ARC
  5
E9
330
A9
100
AcDbEntity
  8
AM_4
100
AcDbCircle
 10
0.0000000000000001
 20
-0.0000000000000001
 30
0.0
 40
0.8567708333333331
100
AcDbArc
 50
93.34560594189128
 51
86.65439405810874
  0
ARC
  5
EA
330
A9
100
AcDbEntity
  8
AM_4
100
AcDbCircle
 10
0.0000000000000001
 20
0.0000000000000001
 30
0.0
 40
0.7187499999999999
100
AcDbArc
 50
93.98901513298222
 51
86.01098486701778
  0
ENDBLK
  5
AC
330
A9
100
AcDbEntity
  8
0
100
AcDbBlockEnd
  0
BLOCK
  5
ED
330
EB
100
AcDbEntity
  8
0
100
AcDbBlockBegin
  2
4_F4B_GTEZ_07_SHCR_II_0_in_129729_0
 70
     2
 10
0.0
 20
0.0
 30
0.0
  3
4_F4B_GTEZ_07_SHCR_II_0_in_129729_0
  1

  0
ATTDEF
  5
EF
330
EB
100
AcDbEntity
  8
AM_6
100
AcDbText
 10
7.343908940803036
 20
2.343908940803036
 30
0.0
 40
0.5
  1
GTEZ Normal Duty Stainless Steel Housed 4 Bolt Flange Bearings-inch
100
AcDbAttributeDefinition
  3

  2
NN
 70
     8
280
     0
  0
ATTDEF
  5
F0
330
EB
100
AcDbEntity
  8
AM_6
100
AcDbText
 10
7.343908940803036
 20
1.843908940803036
 30
0.0
 40
0.5
  1
GRIP TIGHT Adapter Ball Bearings -E-Z KLEEN
100
AcDbAttributeDefinition
  3

  2
NT
 70
     8
280
     0
  0
ATTDEF
  5
F1
330
EB
100
AcDbEntity
  8
AM_6
100
AcDbText
 10
7.343908940803036
 20
1.343908940803036
 30
0.0
 40
0.5
  1
F4B-GTEZ-07-SHCR-II
100
AcDbAttributeDefinition
  3

  2
NB
 70
     8
280
     0
  0
ATTDEF
  5
F2
330
EB
100
AcDbEntity
  8
AM_6
100
AcDbText
 10
7.343908940803036
 20
0.8439089408030362
 30
0.0
 40
0.5
  1
$PN.$LUBE.I
100
AcDbAttributeDefinition
  3

  2
NBSYN
 70
     8
280
     0
  0
ATTDEF
  5
F3
330
EB
100
AcDbEntity
  8
AM_6
100
AcDbText
 10
7.343908940803036
 20
0.3439089408030362
 30
0.0
 40
0.5
  1
F4B-GTEZ-07-SHCR-I
100
AcDbAttributeDefinition
  3

  2
LINA
 70
     8
280
     0
  0
ATTDEF
  5
F4
330
EB
100
AcDbEntity
  8
AM_6
100
AcDbText
 10
7.343908940803036
 20
-0.1560910591969638
 30
0.0
 40
0.5
  1
207
100
AcDbAttributeDefinition
  3

  2
SERIES
 70
     8
280
     0
  0
ATTDEF
  5
F5
330
EB
100
AcDbEntity
  8
AM_6
100
AcDbText
 10
7.343908940803036
 20
-0.6560910591969638
 30
0.0
 40
0.5
  1
1-1/4
100
AcDbAttributeDefinition
  3

  2
SS
 70
     8
280
     0
  0
ATTDEF
  5
F6
330
EB
100
AcDbEntity
  8
AM_6
100
AcDbText
 10
7.343908940803036
 20
-1.156091059196964
 30
0.0
 40
0.5
  1
F4B-GTEZ-07-SHCR-I
100
AcDbAttributeDefinition
  3

  2
PN
 70
     8
280
     0
  0
ATTDEF
  5
F7
330
EB
100
AcDbEntity
  8
AM_6
100
AcDbText
 10
7.343908940803036
 20
-1.656091059196964
 30
0.0
 40
0.5
  1
F4B-GTEZ-07-SHCR
100
AcDbAttributeDefinition
  3

  2
DESCRIPTION
 70
     8
280
     0
  0
ATTDEF
  5
F8
330
EB
100
AcDbEntity
  8
AM_6
100
AcDbText
 10
7.343908940803036
 20
-2.156091059196964
 30
0.0
 40
0.5
  1
3.42
100
AcDbAttributeDefinition
  3

  2
WEIGHT
 70
     8
280
     0
  0
ATTDEF
  5
F9
330
EB
100
AcDbEntity
  8
AM_6
100
AcDbText
 10
7.343908940803036
 20
-2.656091059196964
 30
0.0
 40
0.5
  1
1-5/8
100
AcDbAttributeDefinition
  3

  2
A
 70
     8
280
     0
  0
ATTDEF
  5
FA
330
EB
100
AcDbEntity
  8
AM_6
100
AcDbText
 10
7.343908940803036
 20
-3.156091059196964
 30
0.0
 40
0.5
  1
4-11/16
100
AcDbAttributeDefinition
  3

  2
B
 70
     8
280
     0
  0
ATTDEF
  5
FB
330
EB
100
AcDbEntity
  8
AM_6
100
AcDbText
 10
7.343908940803036
 20
-3.656091059196964
 30
0.0
 40
0.5
  1
1-25/32
100
AcDbAttributeDefinition
  3

  2
C
 70
     8
280
     0
  0
ATTDEF
  5
FC
330
EB
100
AcDbEntity
  8
AM_6
100
AcDbText
 10
7.343908940803036
 20
-4.156091059196964
 30
0.0
 40
0.5
  1
3-5/8
100
AcDbAttributeDefinition
  3

  2
D
 70
     8
280
     0
  0
ATTDEF
  5
FD
330
EB
100
AcDbEntity
  8
AM_6
100
AcDbText
 10
7.343908940803036
 20
-4.656091059196964
 30
0.0
 40
0.5
  1
1/2
100
AcDbAttributeDefinition
  3

  2
F
 70
     8
280
     0
  0
ATTDEF
  5
FE
330
EB
100
AcDbEntity
  8
AM_6
100
AcDbText
 10
7.343908940803036
 20
-5.156091059196964
 30
0.0
 40
0.5
  1
27/64
100
AcDbAttributeDefinition
  3

  2
H
 70
     8
280
     0
  0
ATTDEF
  5
FF
330
EB
100
AcDbEntity
  8
AM_6
100
AcDbText
 10
7.343908940803036
 20
-5.656091059196964
 30
0.0
 40
0.5
  1
35/64
100
AcDbAttributeDefinition
  3

  2
J
 70
     8
280
     0
  0
ATTDEF
  5
100
330
EB
100
AcDbEntity
  8
AM_6
100
AcDbText
 10
7.343908940803036
 20
-6.156091059196964
 30
0.0
 40
0.5
  1
2-19/64
100
AcDbAttributeDefinition
  3

  2
L
 70
     8
280
     0
  0
ATTDEF
  5
101
330
EB
100
AcDbEntity
  8
AM_6
100
AcDbText
 10
7.343908940803036
 20
-6.656091059196964
 30
0.0
 40
0.5
  1
1-49/64
100
AcDbAttributeDefinition
  3

  2
Z
 70
     8
280
     0
  0
ATTDEF
  5
102
330
EB
100
AcDbEntity
  8
AM_6
100
AcDbText
 10
7.343908940803036
 20
-7.156091059196964
 30
0.0
 40
0.5
  1
baldor
100
AcDbAttributeDefinition
  3

  2
COMPANY
 70
     8
280
     0
  0
LINE
  5
105
330
EB
100
AcDbEntity
  8
AM_7
100
AcDbLine
 10
1.55
 20
1.8125
 30
0.0
 11
2.075
 21
1.8125
 31
0.0
  0
LINE
  5
106
330
EB
100
AcDbEntity
  8
AM_7
100
AcDbLine
 10
1.8125
 20
1.55
 30
0.0
 11
1.8125
 21
2.075
 31
0.0
  0
LINE
  5
107
330
EB
100
AcDbEntity
  8
AM_7
100
AcDbLine
 10
-2.075
 20
-1.8125
 30
0.0
 11
-1.55
 21
-1.8125
 31
0.0
  0
LINE
  5
108
330
EB
100
AcDbEntity
  8
AM_7
100
AcDbLine
 10
-1.8125
 20
-2.075
 30
0.0
 11
-1.8125
 21
-1.55
 31
0.0
  0
LINE
  5
109
330
EB
100
AcDbEntity
  8
AM_7
100
AcDbLine
 10
-2.075
 20
1.8125
 30
0.0
 11
-1.55
 21
1.8125
 31
0.0
  0
LINE
  5
10A
330
EB
100
AcDbEntity
  8
AM_7
100
AcDbLine
 10
-1.8125
 20
1.55
 30
0.0
 11
-1.8125
 21
2.075
 31
0.0
  0
LINE
  5
10B
330
EB
100
AcDbEntity
  8
AM_7
100
AcDbLine
 10
1.55
 20
-1.8125
 30
0.0
 11
2.075
 21
-1.8125
 31
0.0
  0
LINE
  5
10C
330
EB
100
AcDbEntity
  8
AM_7
100
AcDbLine
 10
1.8125
 20
-2.075
 30
0.0
 11
1.8125
 21
-1.55
 31
0.0
  0
LINE
  5
10D
330
EB
100
AcDbEntity
  8
AM_7
100
AcDbLine
 10
0.0
 20
2.1658034385375
 30
0.0
 11
-0.00000000000001
 21
-1.922156250000015
 31
0.0
  0
LINE
  5
10E
330
EB
100
AcDbEntity
  8
AM_7
100
AcDbLine
 10
-1.922156250000022
 20
-0.0000000000000036
 30
0.0
 11
1.922156250000002
 21
-0.0000000000000036
 31
0.0
  0
CIRCLE
  5
10F
330
EB
100
AcDbEntity
  8
AM_4
100
AcDbCircle
 10
1.8125
 20
1.8125
 30
0.0
 40
0.25
  0
ARC
  5
110
330
EB
100
AcDbEntity
  8
AM_4
100
AcDbCircle
 10
2.005845548611145
 20
0.6677866593020948
 30
0.0
 40
0.2834600000000009
100
AcDbArc
 50
144.9999999999998
 51
198.4136405076733
  0
ARC
  5
111
330
EB
100
AcDbEntity
  8
AM_4
100
AcDbCircle
 10
0.6677866593020974
 20
2.005845548611145
 30
0.0
 40
0.2834600000000007
100
AcDbArc
 50
251.5863549743681
 51
304.9999999999999
  0
LINE
  5
112
330
EB
100
AcDbEntity
  8
AM_4
100
AcDbLine
 10
1.773648710136987
 20
0.8303726359501638
 30
0.0
 11
2.2478793115396
 21
1.507644124079418
 31
0.0
  0
ARC
  5
113
330
EB
100
AcDbEntity
  8
AM_4
100
AcDbCircle
 10
1.812500000000001
 20
1.8125
 30
0.0
 40
0.5314999999999999
100
AcDbArc
 50
324.9999999999999
 51
125.0000000000002
  0
LINE
  5
114
330
EB
100
AcDbEntity
  8
AM_4
100
AcDbLine
 10
1.507644124079419
 20
2.247879311539598
 30
0.0
 11
0.830372635950165
 21
1.773648710136987
 31
0.0
  0
LINE
  5
115
330
EB
100
AcDbEntity
  8
AM_4
100
AcDbLine
 10
-1.50764412407942
 20
-2.247879311539598
 30
0.0
 11
-0.8303726359501648
 21
-1.773648710136987
 31
0.0
  0
LINE
  5
116
330
EB
100
AcDbEntity
  8
AM_4
100
AcDbLine
 10
-1.773648710136987
 20
-0.8303726359501638
 30
0.0
 11
-2.2478793115396
 21
-1.507644124079419
 31
0.0
  0
ARC
  5
117
330
EB
100
AcDbEntity
  8
AM_4
100
AcDbCircle
 10
-1.812500000000001
 20
-1.8125
 30
0.0
 40
0.5314999999999995
100
AcDbArc
 50
145.0
 51
305.0000000000001
  0
ARC
  5
118
330
EB
100
AcDbEntity
  8
AM_4
100
AcDbCircle
 10
-0.667786659302097
 20
-2.005845548611147
 30
0.0
 40
0.2834600000000018
100
AcDbArc
 50
71.58635497436829
 51
124.9999999999998
  0
CIRCLE
  5
119
330
EB
100
AcDbEntity
  8
AM_4
100
AcDbCircle
 10
-1.8125
 20
-1.8125
 30
0.0
 40
0.25
  0
ARC
  5
11A
330
EB
100
AcDbEntity
  8
AM_4
100
AcDbCircle
 10
-2.005845548611144
 20
-0.6677866593020947
 30
0.0
 40
0.2834600000000003
100
AcDbArc
 50
324.9999999999995
 51
18.41364050767345
  0
LINE
  5
11B
330
EB
100
AcDbEntity
  8
AM_4
100
AcDbLine
 10
-2.247879311539598
 20
1.50764412407942
 30
0.0
 11
-1.773648710136987
 21
0.8303726359501646
 31
0.0
  0
ARC
  5
11C
330
EB
100
AcDbEntity
  8
AM_4
100
AcDbCircle
 10
-2.005845548611145
 20
0.6677866593020972
 30
0.0
 40
0.2834600000000006
100
AcDbArc
 50
341.5863519623958
 51
34.99999999999989
  0
CIRCLE
  5
11D
330
EB
100
AcDbEntity
  8
AM_4
100
AcDbCircle
 10
-1.8125
 20
1.8125
 30
0.0
 40
0.25
  0
ARC
  5
11E
330
EB
100
AcDbEntity
  8
AM_4
100
AcDbCircle
 10
-0.6677866593020948
 20
2.005845548611146
 30
0.0
 40
0.2834600000000018
100
AcDbArc
 50
234.9999999999999
 51
288.4136405076732
  0
LINE
  5
11F
330
EB
100
AcDbEntity
  8
AM_4
100
AcDbLine
 10
-0.8303726359501641
 20
1.773648710136987
 30
0.0
 11
-1.507644124079419
 21
2.2478793115396
 31
0.0
  0
ARC
  5
120
330
EB
100
AcDbEntity
  8
AM_4
100
AcDbCircle
 10
-1.8125
 20
1.812500000000001
 30
0.0
 40
0.5314999999999995
100
AcDbArc
 50
54.99999999999991
 51
215.0000000000001
  0
ARC
  5
121
330
EB
100
AcDbEntity
  8
AM_4
100
AcDbCircle
 10
0.6677866593020948
 20
-2.005845548611145
 30
0.0
 40
0.2834600000000009
100
AcDbArc
 50
54.99999999999977
 51
108.4136405076733
  0
CIRCLE
  5
122
330
EB
100
AcDbEntity
  8
AM_4
100
AcDbCircle
 10
1.8125
 20
-1.8125
 30
0.0
 40
0.25
  0
LINE
  5
123
330
EB
100
AcDbEntity
  8
AM_4
100
AcDbLine
 10
0.8303726359501638
 20
-1.773648710136987
 30
0.0
 11
1.507644124079418
 21
-2.2478793115396
 31
0.0
  0
ARC
  5
124
330
EB
100
AcDbEntity
  8
AM_4
100
AcDbCircle
 10
1.812500000000001
 20
-1.812500000000002
 30
0.0
 40
0.5314999999999998
100
AcDbArc
 50
234.9999999999998
 51
35.00000000000014
  0
LINE
  5
125
330
EB
100
AcDbEntity
  8
AM_4
100
AcDbLine
 10
2.247879311539599
 20
-1.50764412407942
 30
0.0
 11
1.773648710136987
 21
-0.8303726359501649
 31
0.0
  0
ARC
  5
126
330
EB
100
AcDbEntity
  8
AM_4
100
AcDbCircle
 10
2.005845548611145
 20
-0.6677866593020974
 30
0.0
 40
0.2834600000000002
100
AcDbArc
 50
161.5863549743681
 51
214.9999999999999
  0
LINE
  5
127
330
EB
100
AcDbEntity
  8
AM_4
100
AcDbLine
 10
-0.0654127621516706
 20
2.1455868885375
 30
0.0
 11
0.0654127621516706
 21
2.1455868885375
 31
0.0
  0
ARC
  5
128
330
EB
100
AcDbEntity
  8
AM_4
100
AcDbCircle
 10
0.0654127621516705
 20
2.1259018885375
 30
0.0
 40
0.0196850000000004
100
AcDbArc
 50
21.80123384503194
 51
90.0
  0
ARC
  5
129
330
EB
100
AcDbEntity
  8
AM_4
100
AcDbCircle
 10
-0.0654127621516704
 20
2.1259018885375
 30
0.0
 40
0.0196850000000004
100
AcDbArc
 50
90.0
 51
158.1987661549681
  0
LINE
  5
12A
330
EB
100
AcDbEntity
  8
AM_4
100
AcDbLine
 10
-0.083689848223138
 20
2.133212657972804
 30
0.0
 11
0.083689848223138
 21
2.133212657972804
 31
0.0
  0
LINE
  5
12B
330
EB
100
AcDbEntity
  8
AM_4
100
AcDbLine
 10
-0.083689848223138
 20
2.133212657972804
 30
0.0
 11
-0.1048774357720921
 21
2.080243218202354
 31
0.0
  0
LINE
  5
12C
330
EB
100
AcDbEntity
  8
AM_4
100
AcDbLine
 10
0.1048774357720921
 20
2.080243218202354
 30
0.0
 11
0.083689848223138
 21
2.133212657972804
 31
0.0
  0
LINE
  5
12D
330
EB
100
AcDbEntity
  8
AM_4
100
AcDbLine
 10
-0.1048774357720921
 20
2.080243218202354
 30
0.0
 11
0.1048774357720921
 21
2.080243218202354
 31
0.0
  0
ARC
  5
12E
330
EB
100
AcDbEntity
  8
AM_4
100
AcDbCircle
 10
0.0866003497006261
 20
2.07293244876705
 30
0.0
 40
0.0196849999999988
100
AcDbArc
 50
314.1572236855053
 51
21.80123384503362
  0
ARC
  5
12F
330
EB
100
AcDbEntity
  8
AM_4
100
AcDbCircle
 10
-0.0866003497006261
 20
2.07293244876705
 30
0.0
 40
0.0196849999999989
100
AcDbArc
 50
158.1987661549664
 51
225.8427763144947
  0
LINE
  5
130
330
EB
100
AcDbEntity
  8
AM_4
100
AcDbLine
 10
0.110236
 20
1.7862558885375
 30
0.0
 11
0.110236
 21
1.8109408885375
 31
0.0
  0
LINE
  5
131
330
EB
100
AcDbEntity
  8
AM_4
100
AcDbLine
 10
-0.110236
 20
1.8109408885375
 30
0.0
 11
-0.110236
 21
1.7862558885375
 31
0.0
  0
LINE
  5
132
330
EB
100
AcDbEntity
  8
AM_4
100
AcDbLine
 10
0.110236
 20
1.9290518885375
 30
0.0
 11
0.110236
 21
1.9487368885375
 31
0.0
  0
LINE
  5
133
330
EB
100
AcDbEntity
  8
AM_4
100
AcDbLine
 10
-0.110236
 20
1.9487368885375
 30
0.0
 11
-0.110236
 21
1.9290518885375
 31
0.0
  0
LINE
  5
134
330
EB
100
AcDbEntity
  8
AM_4
100
AcDbLine
 10
-0.1003135047956614
 20
2.058809821449887
 30
0.0
 11
0.1003135047956614
 21
2.058809821449887
 31
0.0
  0
LINE
  5
135
330
EB
100
AcDbEntity
  8
AM_4
100
AcDbLine
 10
-0.110236
 20
1.9487368885375
 30
0.0
 11
0.110236
 21
1.9487368885375
 31
0.0
  0
ARC
  5
136
330
EB
100
AcDbEntity
  8
AM_4
100
AcDbCircle
 10
0.1498523265635426
 20
2.007791788537501
 30
0.0
 40
0.0711121265636127
100
AcDbArc
 50
134.1572285802594
 51
236.1447523006501
  0
ARC
  5
137
330
EB
100
AcDbEntity
  8
AM_4
100
AcDbCircle
 10
-0.1498523265635422
 20
2.007791788537501
 30
0.0
 40
0.0711121265636128
100
AcDbArc
 50
303.8552476993496
 51
45.84277141974088
  0
LINE
  5
138
330
EB
100
AcDbEntity
  8
AM_4
100
AcDbLine
 10
-0.15748
 20
1.8109408885375
 30
0.0
 11
0.15748
 21
1.8109408885375
 31
0.0
  0
LINE
  5
139
330
EB
100
AcDbEntity
  8
AM_4
100
AcDbLine
 10
0.15748
 20
1.8109408885375
 30
0.0
 11
0.1818428181342338
 21
1.817468885981914
 31
0.0
  0
LINE
  5
13A
330
EB
100
AcDbEntity
  8
AM_4
100
AcDbLine
 10
-0.1818428181342336
 20
1.817468885981914
 30
0.0
 11
-0.15748
 21
1.8109408885375
 31
0.0
  0
LINE
  5
13B
330
EB
100
AcDbEntity
  8
AM_4
100
AcDbLine
 10
-0.1818428181342336
 20
1.922523891093086
 30
0.0
 11
-0.1818428181342336
 21
1.817468885981914
 31
0.0
  0
LWPOLYLINE
  5
13C
330
EB
100
AcDbEntity
  8
AM_4
100
AcDbPolyline
 90
        4
 70
     0
 43
0.0
 10
-0.0909214090671168
 20
1.817468885981914
 10
-0.135944873244218
 20
1.810941673080241
 10
-0.1589447741026428
 20
1.812660640623022
 10
-0.1818428181342336
 20
1.817468885981914
  0
LINE
  5
13D
330
EB
100
AcDbEntity
  8
AM_4
100
AcDbLine
 10
-0.0909214090671168
 20
1.922523891093086
 30
0.0
 11
-0.0909214090671168
 21
1.817468885981914
 31
0.0
  0
LWPOLYLINE
  5
13E
330
EB
100
AcDbEntity
  8
AM_4
100
AcDbPolyline
 90
        4
 70
     0
 43
0.0
 10
0.0909214090671169
 20
1.817468885981914
 10
0.011689647322317
 20
1.811057114295807
 10
-0.0689030164206415
 20
1.814803253412199
 10
-0.0909214090671168
 20
1.817468885981914
  0
LINE
  5
13F
330
EB
100
AcDbEntity
  8
AM_4
100
AcDbLine
 10
-0.15748
 20
1.9290518885375
 30
0.0
 11
0.15748
 21
1.9290518885375
 31
0.0
  0
LWPOLYLINE
  5
140
330
EB
100
AcDbEntity
  8
AM_4
100
AcDbPolyline
 90
        4
 70
     0
 43
0.0
 10
-0.1818428181342336
 20
1.922523891093086
 10
-0.1368193539571325
 20
1.929051103994758
 10
-0.1138194530987076
 20
1.927332136451978
 10
-0.0909214090671168
 20
1.922523891093086
  0
LWPOLYLINE
  5
141
330
EB
100
AcDbEntity
  8
AM_4
100
AcDbPolyline
 90
        4
 70
     0
 43
0.0
 10
-0.0909214090671168
 20
1.922523891093086
 10
-0.0689030164206415
 20
1.925189523662801
 10
0.0104612057225505
 20
1.928958755014603
 10
0.0909214090671169
 20
1.922523891093086
  0
LINE
  5
142
330
EB
100
AcDbEntity
  8
AM_4
100
AcDbLine
 10
-0.15748
 20
1.9290518885375
 30
0.0
 11
-0.1818428181342336
 21
1.922523891093086
 31
0.0
  0
LINE
  5
143
330
EB
100
AcDbEntity
  8
AM_4
100
AcDbLine
 10
0.1818428181342338
 20
1.922523891093086
 30
0.0
 11
0.15748
 21
1.9290518885375
 31
0.0
  0
LINE
  5
144
330
EB
100
AcDbEntity
  8
AM_4
100
AcDbLine
 10
0.1818428181342338
 20
1.922523891093086
 30
0.0
 11
0.1818428181342338
 21
1.817468885981914
 31
0.0
  0
LWPOLYLINE
  5
145
330
EB
100
AcDbEntity
  8
AM_4
100
AcDbPolyline
 90
        4
 70
     0
 43
0.0
 10
0.0909214090671169
 20
1.922523891093086
 10
0.135944873244218
 20
1.929051103994758
 10
0.1589447741026429
 20
1.927332136451978
 10
0.1818428181342338
 20
1.922523891093086
  0
LINE
  5
146
330
EB
100
AcDbEntity
  8
AM_4
100
AcDbLine
 10
0.0909214090671169
 20
1.922523891093086
 30
0.0
 11
0.0909214090671169
 21
1.817468885981914
 31
0.0
  0
LWPOLYLINE
  5
147
330
EB
100
AcDbEntity
  8
AM_4
100
AcDbPolyline
 90
        4
 70
     0
 43
0.0
 10
0.1818428181342338
 20
1.817468885981914
 10
0.1368193539571326
 20
1.810941673080242
 10
0.1138194530987077
 20
1.812660640623022
 10
0.0909214090671169
 20
1.817468885981914
  0
LINE
  5
148
330
EB
100
AcDbEntity
  8
AM_4
100
AcDbLine
 10
-0.4313069044177568
 20
1.489286304667632
 30
0.0
 11
-0.4381692404823141
 21
1.499190652780814
 31
0.0
  0
LINE
  5
149
330
EB
100
AcDbEntity
  8
AM_4
100
AcDbLine
 10
-0.4163601111242101
 20
1.448220327600357
 30
0.0
 11
-0.4313069044177568
 21
1.489286304667632
 31
0.0
  0
LINE
  5
14A
330
EB
100
AcDbEntity
  8
AM_4
100
AcDbLine
 10
-0.4152506074861184
 20
1.436222226138998
 30
0.0
 11
-0.4163601111242101
 21
1.448220327600357
 31
0.0
  0
LINE
  5
14B
330
EB
100
AcDbEntity
  8
AM_4
100
AcDbLine
 10
-0.4180136711748121
 20
1.425915320216161
 30
0.0
 11
-0.4152506074861184
 21
1.436222226138998
 31
0.0
  0
LINE
  5
14C
330
EB
100
AcDbEntity
  8
AM_4
100
AcDbLine
 10
-0.4246496352285442
 20
1.417299062944725
 30
0.0
 11
-0.4180136711748121
 21
1.425915320216161
 31
0.0
  0
LINE
  5
14D
330
EB
100
AcDbEntity
  8
AM_4
100
AcDbLine
 10
-0.4351585082840955
 20
1.41037377043449
 30
0.0
 11
-0.4246496352285442
 21
1.417299062944725
 31
0.0
  0
LINE
  5
14E
330
EB
100
AcDbEntity
  8
AM_4
100
AcDbLine
 10
-0.4869315310111297
 20
1.391529931223862
 30
0.0
 11
-0.4351585082840955
 21
1.41037377043449
 31
0.0
  0
LINE
  5
14F
330
EB
100
AcDbEntity
  8
AM_4
100
AcDbLine
 10
-0.5218077696522346
 20
1.487351609365808
 30
0.0
 11
-0.4869315310111297
 21
1.391529931223862
 31
0.0
  0
LINE
  5
150
330
EB
100
AcDbEntity
  8
AM_4
100
AcDbLine
 10
-0.4700347469252004
 20
1.506195448576437
 30
0.0
 11
-0.5218077696522346
 21
1.487351609365808
 31
0.0
  0
LINE
  5
151
330
EB
100
AcDbEntity
  8
AM_4
100
AcDbLine
 10
-0.4575327856864329
 20
1.507644776308303
 30
0.0
 11
-0.4700347469252004
 21
1.506195448576437
 31
0.0
  0
LINE
  5
152
330
EB
100
AcDbEntity
  8
AM_4
100
AcDbLine
 10
-0.4469109188823834
 20
1.5053098557771
 30
0.0
 11
-0.4575327856864329
 21
1.507644776308303
 31
0.0
  0
LINE
  5
153
330
EB
100
AcDbEntity
  8
AM_4
100
AcDbLine
 10
-0.4381692404823141
 20
1.499190652780814
 30
0.0
 11
-0.4469109188823834
 21
1.5053098557771
 31
0.0
  0
LINE
  5
154
330
EB
100
AcDbEntity
  8
AM_4
100
AcDbLine
 10
-0.2077536251302276
 20
1.460259382802209
 30
0.0
 11
-0.1836386376822177
 21
1.464511505728739
 31
0.0
  0
LINE
  5
155
330
EB
100
AcDbEntity
  8
AM_4
100
AcDbLine
 10
-0.2203170254550474
 20
1.46100246024657
 30
0.0
 11
-0.2077536251302276
 21
1.460259382802209
 31
0.0
  0
LINE
  5
156
330
EB
100
AcDbEntity
  8
AM_4
100
AcDbLine
 10
-0.2303719690591225
 20
1.465146393267128
 30
0.0
 11
-0.2203170254550474
 21
1.46100246024657
 31
0.0
  0
LINE
  5
157
330
EB
100
AcDbEntity
  8
AM_4
100
AcDbLine
 10
-0.2379185023287749
 20
1.472690869056739
 30
0.0
 11
-0.2303719690591225
 21
1.465146393267128
 31
0.0
  0
LINE
  5
158
330
EB
100
AcDbEntity
  8
AM_4
100
AcDbLine
 10
-0.2429565962425004
 20
1.483636298903322
 30
0.0
 11
-0.2379185023287749
 21
1.472690869056739
 31
0.0
  0
LINE
  5
159
330
EB
100
AcDbEntity
  8
AM_4
100
AcDbLine
 10
-0.2505452820788118
 20
1.526673874921585
 30
0.0
 11
-0.2429565962425004
 21
1.483636298903322
 31
0.0
  0
LINE
  5
15A
330
EB
100
AcDbEntity
  8
AM_4
100
AcDbLine
 10
-0.2495545972549649
 20
1.538682442662986
 30
0.0
 11
-0.2505452820788118
 21
1.526673874921585
 31
0.0
  0
LINE
  5
15B
330
EB
100
AcDbEntity
  8
AM_4
100
AcDbLine
 10
-0.1836386376822177
 20
1.464511505728739
 30
0.0
 11
-0.1720868535974769
 21
1.469506740829266
 31
0.0
  0
LINE
  5
15C
330
EB
100
AcDbEntity
  8
AM_4
100
AcDbLine
 10
-0.1720868535974769
 20
1.469506740829266
 30
0.0
 11
-0.1640559012982581
 21
1.476839705267859
 31
0.0
  0
LINE
  5
15D
330
EB
100
AcDbEntity
  8
AM_4
100
AcDbLine
 10
-0.1640559012982581
 20
1.476839705267859
 30
0.0
 11
-0.1595446454015796
 21
1.486510294615189
 31
0.0
  0
LINE
  5
15E
330
EB
100
AcDbEntity
  8
AM_4
100
AcDbLine
 10
-0.1595446454015796
 20
1.486510294615189
 30
0.0
 11
-0.1585538447321397
 21
1.498518781240631
 31
0.0
  0
LINE
  5
15F
330
EB
100
AcDbEntity
  8
AM_4
100
AcDbLine
 10
-0.1585538447321397
 20
1.498518781240631
 30
0.0
 11
-0.1661425305684511
 21
1.541556357258894
 31
0.0
  0
LINE
  5
160
330
EB
100
AcDbEntity
  8
AM_4
100
AcDbLine
 10
-0.1661425305684511
 20
1.541556357258894
 30
0.0
 11
-0.1711807403277696
 21
1.552501868221435
 31
0.0
  0
LINE
  5
161
330
EB
100
AcDbEntity
  8
AM_4
100
AcDbLine
 10
-0.1711807403277696
 20
1.552501868221435
 30
0.0
 11
-0.1787274184645193
 21
1.560046013839085
 31
0.0
  0
LINE
  5
162
330
EB
100
AcDbEntity
  8
AM_4
100
AcDbLine
 10
-0.1787274184645193
 20
1.560046013839085
 30
0.0
 11
-0.1887820666262685
 21
1.564189998954096
 31
0.0
  0
LINE
  5
163
330
EB
100
AcDbEntity
  8
AM_4
100
AcDbLine
 10
-0.1887820666262685
 20
1.564189998954096
 30
0.0
 11
-0.2013457681015455
 21
1.564933632553473
 31
0.0
  0
LINE
  5
164
330
EB
100
AcDbEntity
  8
AM_4
100
AcDbLine
 10
-0.2013457681015455
 20
1.564933632553473
 30
0.0
 11
-0.2254607555495555
 21
1.560681509626943
 31
0.0
  0
LINE
  5
165
330
EB
100
AcDbEntity
  8
AM_4
100
AcDbLine
 10
-0.2254607555495555
 20
1.560681509626943
 30
0.0
 11
-0.237012238483839
 21
1.5556857183714
 31
0.0
  0
LINE
  5
166
330
EB
100
AcDbEntity
  8
AM_4
100
AcDbLine
 10
-0.237012238483839
 20
1.5556857183714
 30
0.0
 11
-0.2450434862253837
 21
1.548352701838353
 31
0.0
  0
LINE
  5
167
330
EB
100
AcDbEntity
  8
AM_4
100
AcDbLine
 10
-0.2450434862253837
 20
1.548352701838353
 30
0.0
 11
-0.2495545972549649
 21
1.538682442662986
 31
0.0
  0
LINE
  5
168
330
EB
100
AcDbEntity
  8
AM_4
100
AcDbLine
 10
0.0948874
 20
1.5673811
 30
0.0
 11
0.0857047
 21
1.5732081
 31
0.0
  0
LINE
  5
169
330
EB
100
AcDbEntity
  8
AM_4
100
AcDbLine
 10
0.0183653
 20
1.5761221
 30
0.0
 11
0.0183653
 21
1.4741508
 31
0.0
  0
LINE
  5
16A
330
EB
100
AcDbEntity
  8
AM_4
100
AcDbLine
 10
0.10407
 20
1.546987
 30
0.0
 11
0.101009
 21
1.5586411
 31
0.0
  0
LINE
  5
16B
330
EB
100
AcDbEntity
  8
AM_4
100
AcDbLine
 10
0.0857047
 20
1.5732081
 30
0.0
 11
0.073461
 21
1.5761221
 31
0.0
  0
LINE
  5
16C
330
EB
100
AcDbEntity
  8
AM_4
100
AcDbLine
 10
0.073461
 20
1.5761221
 30
0.0
 11
0.0183653
 21
1.5761221
 31
0.0
  0
LINE
  5
16D
330
EB
100
AcDbEntity
  8
AM_4
100
AcDbLine
 10
0.101009
 20
1.5586411
 30
0.0
 11
0.0948874
 21
1.5673811
 31
0.0
  0
LINE
  5
16E
330
EB
100
AcDbEntity
  8
AM_4
100
AcDbLine
 10
0.10407
 20
1.5032855
 30
0.0
 11
0.10407
 21
1.546987
 31
0.0
  0
LINE
  5
16F
330
EB
100
AcDbEntity
  8
AM_4
100
AcDbLine
 10
0.0948874
 20
1.4828912
 30
0.0
 11
0.101009
 21
1.4916315
 31
0.0
  0
LINE
  5
170
330
EB
100
AcDbEntity
  8
AM_4
100
AcDbLine
 10
0.0857047
 20
1.4770642
 30
0.0
 11
0.0948874
 21
1.4828912
 31
0.0
  0
LINE
  5
171
330
EB
100
AcDbEntity
  8
AM_4
100
AcDbLine
 10
0.073461
 20
1.4741508
 30
0.0
 11
0.0857047
 21
1.4770642
 31
0.0
  0
LINE
  5
172
330
EB
100
AcDbEntity
  8
AM_4
100
AcDbLine
 10
0.0183653
 20
1.4741508
 30
0.0
 11
0.073461
 21
1.4741508
 31
0.0
  0
LINE
  5
173
330
EB
100
AcDbEntity
  8
AM_4
100
AcDbLine
 10
0.101009
 20
1.4916315
 30
0.0
 11
0.10407
 21
1.5032855
 31
0.0
  0
LINE
  5
174
330
EB
100
AcDbEntity
  8
AM_4
100
AcDbLine
 10
0.101009
 20
1.5848621
 30
0.0
 11
0.0887654
 21
1.5906891
 31
0.0
  0
LINE
  5
175
330
EB
100
AcDbEntity
  8
AM_4
100
AcDbLine
 10
0.2655326416921823
 20
1.453029727154603
 30
0.0
 11
0.2755664435733912
 21
1.439426969285599
 31
0.0
  0
LINE
  5
176
330
EB
100
AcDbEntity
  8
AM_4
100
AcDbLine
 10
0.2615275362669197
 20
1.465569513951253
 30
0.0
 11
0.2655326416921823
 21
1.453029727154603
 31
0.0
  0
LINE
  5
177
330
EB
100
AcDbEntity
  8
AM_4
100
AcDbLine
 10
-0.476013259030533
 20
1.522621275587774
 30
0.0
 11
-0.5450440186460866
 21
1.497496133838927
 31
0.0
  0
LINE
  5
178
330
EB
100
AcDbEntity
  8
AM_4
100
AcDbLine
 10
-0.5450440186460866
 20
1.497496133838927
 30
0.0
 11
-0.4982105163802162
 21
1.368822143889471
 31
0.0
  0
LINE
  5
179
330
EB
100
AcDbEntity
  8
AM_4
100
AcDbLine
 10
-0.4291797567646626
 20
1.393947285638318
 30
0.0
 11
-0.4157947836056789
 21
1.40191944618586
 31
0.0
  0
LINE
  5
17A
330
EB
100
AcDbEntity
  8
AM_4
100
AcDbLine
 10
-0.4157947836056789
 20
1.40191944618586
 30
0.0
 11
-0.4062824802069688
 21
1.41158249894474
 31
0.0
  0
LINE
  5
17B
330
EB
100
AcDbEntity
  8
AM_4
100
AcDbLine
 10
-0.3987636406959685
 20
1.42672079443896
 30
0.0
 11
-0.3969966768178058
 21
1.439765631620515
 31
0.0
  0
LINE
  5
17C
330
EB
100
AcDbEntity
  8
AM_4
100
AcDbLine
 10
-0.3969966768178058
 20
1.439765631620515
 30
0.0
 11
-0.3991026561434769
 21
1.454501527532533
 31
0.0
  0
LINE
  5
17D
330
EB
100
AcDbEntity
  8
AM_4
100
AcDbLine
 10
-0.3991026561434769
 20
1.454501527532533
 30
0.0
 11
-0.4140494494370235
 21
1.495567504599808
 31
0.0
  0
LINE
  5
17E
330
EB
100
AcDbEntity
  8
AM_4
100
AcDbLine
 10
-0.4140494494370235
 20
1.495567504599808
 30
0.0
 11
-0.4219080901790886
 21
1.508209177317339
 31
0.0
  0
LINE
  5
17F
330
EB
100
AcDbEntity
  8
AM_4
100
AcDbLine
 10
-0.4982105163802162
 20
1.368822143889471
 30
0.0
 11
-0.4291797567646626
 21
1.393947285638318
 31
0.0
  0
LINE
  5
180
330
EB
100
AcDbEntity
  8
AM_4
100
AcDbLine
 10
-0.4316467911538572
 20
1.517066507802538
 30
0.0
 11
-0.4471373506604565
 21
1.523830332990441
 31
0.0
  0
LINE
  5
181
330
EB
100
AcDbEntity
  8
AM_4
100
AcDbLine
 10
-0.4471373506604565
 20
1.523830332990441
 30
0.0
 11
-0.4606355226074695
 21
1.525118364064938
 31
0.0
  0
LINE
  5
182
330
EB
100
AcDbEntity
  8
AM_4
100
AcDbLine
 10
-0.4062824802069688
 20
1.41158249894474
 30
0.0
 11
-0.3987636406959685
 21
1.42672079443896
 31
0.0
  0
LINE
  5
183
330
EB
100
AcDbEntity
  8
AM_4
100
AcDbLine
 10
0.3606015737750837
 20
1.533893584031729
 30
0.0
 11
0.3686328215166284
 21
1.526560567498682
 31
0.0
  0
CIRCLE
  5
184
330
EB
100
AcDbEntity
  8
AM_4
100
AcDbCircle
 10
0.0
 20
0.0
 30
0.0
 40
1.4173
  0
LINE
  5
185
330
EB
100
AcDbEntity
  8
AM_4
100
AcDbLine
 10
0.113252
 20
1.5732081
 30
0.0
 11
0.101009
 21
1.5848621
 31
0.0
  0
LINE
  5
186
330
EB
100
AcDbEntity
  8
AM_4
100
AcDbLine
 10
-0.4219080901790886
 20
1.508209177317339
 30
0.0
 11
-0.4316467911538572
 21
1.517066507802538
 31
0.0
  0
LINE
  5
187
330
EB
100
AcDbEntity
  8
AM_4
100
AcDbLine
 10
0.0
 20
1.4566701
 30
0.0
 11
0.073461
 21
1.4566701
 31
0.0
  0
LINE
  5
188
330
EB
100
AcDbEntity
  8
AM_4
100
AcDbLine
 10
0.0
 20
1.5936021
 30
0.0
 11
0.0
 21
1.4566701
 31
0.0
  0
LINE
  5
189
330
EB
100
AcDbEntity
  8
AM_4
100
AcDbLine
 10
0.073461
 20
1.5936021
 30
0.0
 11
0.0
 21
1.5936021
 31
0.0
  0
LINE
  5
18A
330
EB
100
AcDbEntity
  8
AM_4
100
AcDbLine
 10
0.0887654
 20
1.5906891
 30
0.0
 11
0.073461
 21
1.5936021
 31
0.0
  0
LINE
  5
18B
330
EB
100
AcDbEntity
  8
AM_4
100
AcDbLine
 10
0.119374
 20
1.5615541
 30
0.0
 11
0.113252
 21
1.5732081
 31
0.0
  0
LINE
  5
18C
330
EB
100
AcDbEntity
  8
AM_4
100
AcDbLine
 10
0.122435
 20
1.546987
 30
0.0
 11
0.119374
 21
1.5615541
 31
0.0
  0
LINE
  5
18D
330
EB
100
AcDbEntity
  8
AM_4
100
AcDbLine
 10
0.122435
 20
1.5032855
 30
0.0
 11
0.122435
 21
1.546987
 31
0.0
  0
LINE
  5
18E
330
EB
100
AcDbEntity
  8
AM_4
100
AcDbLine
 10
0.119374
 20
1.488718
 30
0.0
 11
0.122435
 21
1.5032855
 31
0.0
  0
LINE
  5
18F
330
EB
100
AcDbEntity
  8
AM_4
100
AcDbLine
 10
0.113252
 20
1.4770642
 30
0.0
 11
0.119374
 21
1.488718
 31
0.0
  0
LINE
  5
190
330
EB
100
AcDbEntity
  8
AM_4
100
AcDbLine
 10
0.101009
 20
1.46541045
 30
0.0
 11
0.113252
 21
1.4770642
 31
0.0
  0
LINE
  5
191
330
EB
100
AcDbEntity
  8
AM_4
100
AcDbLine
 10
0.0887654
 20
1.45958355
 30
0.0
 11
0.101009
 21
1.46541045
 31
0.0
  0
LINE
  5
192
330
EB
100
AcDbEntity
  8
AM_4
100
AcDbLine
 10
0.073461
 20
1.4566701
 30
0.0
 11
0.0887654
 21
1.45958355
 31
0.0
  0
LINE
  5
193
330
EB
100
AcDbEntity
  8
AM_4
100
AcDbLine
 10
0.4982105163802162
 20
1.368822143889471
 30
0.0
 11
0.6017571256498571
 21
1.331134260256129
 31
0.0
  0
LINE
  5
194
330
EB
100
AcDbEntity
  8
AM_4
100
AcDbLine
 10
0.5450440186460866
 20
1.497496133838927
 30
0.0
 11
0.4982105163802162
 21
1.368822143889471
 31
0.0
  0
LINE
  5
195
330
EB
100
AcDbEntity
  8
AM_4
100
AcDbLine
 10
0.6485906279157273
 20
1.459808250205585
 30
0.0
 11
0.5450440186460866
 21
1.497496133838927
 31
0.0
  0
LINE
  5
196
330
EB
100
AcDbEntity
  8
AM_4
100
AcDbLine
 10
0.6426121158103948
 20
1.443382423194248
 30
0.0
 11
0.6485906279157273
 21
1.459808250205585
 31
0.0
  0
LINE
  5
197
330
EB
100
AcDbEntity
  8
AM_4
100
AcDbLine
 10
0.5563232434292734
 20
1.474789004289371
 30
0.0
 11
0.6426121158103948
 21
1.443382423194248
 31
0.0
  0
LINE
  5
198
330
EB
100
AcDbEntity
  8
AM_4
100
AcDbLine
 10
0.543369162096785
 20
1.43919795833858
 30
0.0
 11
0.5563232434292734
 21
1.474789004289371
 31
0.0
  0
LINE
  5
199
330
EB
100
AcDbEntity
  8
AM_4
100
AcDbLine
 10
0.6181524380290038
 20
1.411979071878336
 30
0.0
 11
0.543369162096785
 21
1.43919795833858
 31
0.0
  0
LINE
  5
19A
330
EB
100
AcDbEntity
  8
AM_4
100
AcDbLine
 10
0.6121736865095707
 20
1.395552587082164
 30
0.0
 11
0.6181524380290038
 21
1.411979071878336
 31
0.0
  0
LINE
  5
19B
330
EB
100
AcDbEntity
  8
AM_4
100
AcDbLine
 10
0.5373904105773519
 20
1.422771473542408
 30
0.0
 11
0.6121736865095707
 21
1.395552587082164
 31
0.0
  0
LINE
  5
19C
330
EB
100
AcDbEntity
  8
AM_4
100
AcDbLine
 10
0.5214470047881685
 20
1.378967326147424
 30
0.0
 11
0.5373904105773519
 21
1.422771473542408
 31
0.0
  0
LINE
  5
19D
330
EB
100
AcDbEntity
  8
AM_4
100
AcDbLine
 10
0.60773587716929
 20
1.347560745052301
 30
0.0
 11
0.5214470047881685
 21
1.378967326147424
 31
0.0
  0
LINE
  5
19E
330
EB
100
AcDbEntity
  8
AM_4
100
AcDbLine
 10
0.6017571256498571
 20
1.331134260256129
 30
0.0
 11
0.60773587716929
 21
1.347560745052301
 31
0.0
  0
LINE
  5
19F
330
EB
100
AcDbEntity
  8
AM_4
100
AcDbLine
 10
0.2610427875881202
 20
1.480447215390834
 30
0.0
 11
0.2615275362669197
 21
1.465569513951253
 31
0.0
  0
LINE
  5
1A0
330
EB
100
AcDbEntity
  8
AM_4
100
AcDbLine
 10
0.2686314734244316
 20
1.523484791409097
 30
0.0
 11
0.2610427875881202
 21
1.480447215390834
 31
0.0
  0
LINE
  5
1A1
330
EB
100
AcDbEntity
  8
AM_4
100
AcDbLine
 10
0.2741753923002859
 20
1.537299069930425
 30
0.0
 11
0.2686314734244316
 21
1.523484791409097
 31
0.0
  0
LINE
  5
1A2
330
EB
100
AcDbEntity
  8
AM_4
100
AcDbLine
 10
0.2822278547209739
 20
1.547712985279434
 30
0.0
 11
0.2741753923002859
 21
1.537299069930425
 31
0.0
  0
LINE
  5
1A3
330
EB
100
AcDbEntity
  8
AM_4
100
AcDbLine
 10
0.2963090049151992
 20
1.5570638803157
 30
0.0
 11
0.2822278547209739
 21
1.547712985279434
 31
0.0
  0
LINE
  5
1A4
330
EB
100
AcDbEntity
  8
AM_4
100
AcDbLine
 10
0.3093784450512446
 20
1.560676276264419
 30
0.0
 11
0.2963090049151992
 21
1.5570638803157
 31
0.0
  0
LINE
  5
1A5
330
EB
100
AcDbEntity
  8
AM_4
100
AcDbLine
 10
0.3249560754872132
 20
1.560887457443476
 30
0.0
 11
0.3093784450512446
 21
1.560676276264419
 31
0.0
  0
LINE
  5
1A6
330
EB
100
AcDbEntity
  8
AM_4
100
AcDbLine
 10
0.3520856579479688
 20
1.556103780080289
 30
0.0
 11
0.3249560754872132
 21
1.560887457443476
 31
0.0
  0
LINE
  5
1A7
330
EB
100
AcDbEntity
  8
AM_4
100
AcDbLine
 10
0.3666516141008497
 20
1.550577471290297
 30
0.0
 11
0.3520856579479688
 21
1.556103780080289
 31
0.0
  0
LINE
  5
1A8
330
EB
100
AcDbEntity
  8
AM_4
100
AcDbLine
 10
0.3776973583743648
 20
1.542712917685412
 30
0.0
 11
0.3666516141008497
 21
1.550577471290297
 31
0.0
  0
LINE
  5
1A9
330
EB
100
AcDbEntity
  8
AM_4
100
AcDbLine
 10
0.3877306638319629
 20
1.529109993492632
 30
0.0
 11
0.3776973583743648
 21
1.542712917685412
 31
0.0
  0
LINE
  5
1AA
330
EB
100
AcDbEntity
  8
AM_4
100
AcDbLine
 10
0.388215627359859
 20
1.514232761882664
 30
0.0
 11
0.3877306638319629
 21
1.529109993492632
 31
0.0
  0
LINE
  5
1AB
330
EB
100
AcDbEntity
  8
AM_4
100
AcDbLine
 10
0.3701296329757898
 20
1.517421810665517
 30
0.0
 11
0.388215627359859
 21
1.514232761882664
 31
0.0
  0
LINE
  5
1AC
330
EB
100
AcDbEntity
  8
AM_4
100
AcDbLine
 10
0.3686328215166284
 20
1.526560567498682
 30
0.0
 11
0.3701296329757898
 21
1.517421810665517
 31
0.0
  0
LINE
  5
1AD
330
EB
100
AcDbEntity
  8
AM_4
100
AcDbLine
 10
0.3490502878023508
 20
1.538889340557636
 30
0.0
 11
0.3606015737750837
 21
1.533893584031729
 31
0.0
  0
LINE
  5
1AE
330
EB
100
AcDbEntity
  8
AM_4
100
AcDbLine
 10
0.3219207053415952
 20
1.543673017920822
 30
0.0
 11
0.3490502878023508
 21
1.538889340557636
 31
0.0
  0
LINE
  5
1AF
330
EB
100
AcDbEntity
  8
AM_4
100
AcDbLine
 10
0.3093572008278688
 20
1.54292934959181
 30
0.0
 11
0.3219207053415952
 21
1.543673017920822
 31
0.0
  0
LINE
  5
1B0
330
EB
100
AcDbEntity
  8
AM_4
100
AcDbLine
 10
0.2993022572237937
 20
1.538785416571252
 30
0.0
 11
0.3093572008278688
 21
1.54292934959181
 31
0.0
  0
LINE
  5
1B1
330
EB
100
AcDbEntity
  8
AM_4
100
AcDbLine
 10
0.2917557760485946
 20
1.531241236223967
 30
0.0
 11
0.2993022572237937
 21
1.538785416571252
 31
0.0
  0
LINE
  5
1B2
330
EB
100
AcDbEntity
  8
AM_4
100
AcDbLine
 10
0.2867177632508267
 20
1.52029569053179
 30
0.0
 11
0.2917557760485946
 21
1.531241236223967
 31
0.0
  0
LINE
  5
1B3
330
EB
100
AcDbEntity
  8
AM_4
100
AcDbLine
 10
0.2791290774145153
 20
1.477258114513527
 30
0.0
 11
0.2867177632508267
 21
1.52029569053179
 31
0.0
  0
LINE
  5
1B4
330
EB
100
AcDbEntity
  8
AM_4
100
AcDbLine
 10
0.2801196811224047
 20
1.46524966261772
 30
0.0
 11
0.2791290774145153
 21
1.477258114513527
 31
0.0
  0
LINE
  5
1B5
330
EB
100
AcDbEntity
  8
AM_4
100
AcDbLine
 10
0.2846307400575325
 20
1.455579108000026
 30
0.0
 11
0.2801196811224047
 21
1.46524966261772
 31
0.0
  0
LINE
  5
1B6
330
EB
100
AcDbEntity
  8
AM_4
100
AcDbLine
 10
0.2926619877990773
 20
1.448246091466979
 30
0.0
 11
0.2846307400575325
 21
1.455579108000026
 31
0.0
  0
LINE
  5
1B7
330
EB
100
AcDbEntity
  8
AM_4
100
AcDbLine
 10
0.3042135749222674
 20
1.443250891096088
 30
0.0
 11
0.2926619877990773
 21
1.448246091466979
 31
0.0
  0
LINE
  5
1B8
330
EB
100
AcDbEntity
  8
AM_4
100
AcDbLine
 10
0.3313431573830229
 20
1.438467213732902
 30
0.0
 11
0.3042135749222674
 21
1.443250891096088
 31
0.0
  0
LINE
  5
1B9
330
EB
100
AcDbEntity
  8
AM_4
100
AcDbLine
 10
0.3439063607462922
 20
1.439210325906898
 30
0.0
 11
0.3313431573830229
 21
1.438467213732902
 31
0.0
  0
LINE
  5
1BA
330
EB
100
AcDbEntity
  8
AM_4
100
AcDbLine
 10
0.3539613043503673
 20
1.443354258927456
 30
0.0
 11
0.3439063607462922
 21
1.439210325906898
 31
0.0
  0
LINE
  5
1BB
330
EB
100
AcDbEntity
  8
AM_4
100
AcDbLine
 10
0.3584935380495999
 20
1.45143023705927
 30
0.0
 11
0.3539613043503673
 21
1.443354258927456
 31
0.0
  0
LINE
  5
1BC
330
EB
100
AcDbEntity
  8
AM_4
100
AcDbLine
 10
0.3625408429505719
 20
1.474383643762602
 30
0.0
 11
0.3584935380495999
 21
1.45143023705927
 31
0.0
  0
LINE
  5
1BD
330
EB
100
AcDbEntity
  8
AM_4
100
AcDbLine
 10
0.3354113589705916
 20
1.479167303760971
 30
0.0
 11
0.3625408429505719
 21
1.474383643762602
 31
0.0
  0
LINE
  5
1BE
330
EB
100
AcDbEntity
  8
AM_4
100
AcDbLine
 10
0.3384468506699339
 20
1.496382432649051
 30
0.0
 11
0.3354113589705916
 21
1.479167303760971
 31
0.0
  0
LINE
  5
1BF
330
EB
100
AcDbEntity
  8
AM_4
100
AcDbLine
 10
0.3836623290339834
 20
1.48840972386783
 30
0.0
 11
0.3384468506699339
 21
1.496382432649051
 31
0.0
  0
LINE
  5
1C0
330
EB
100
AcDbEntity
  8
AM_4
100
AcDbLine
 10
0.3760736084680365
 20
1.445371950888016
 30
0.0
 11
0.3836623290339834
 21
1.48840972386783
 31
0.0
  0
LINE
  5
1C1
330
EB
100
AcDbEntity
  8
AM_4
100
AcDbLine
 10
0.3710354508031713
 20
1.434426735367801
 30
0.0
 11
0.3760736084680365
 21
1.445371950888016
 31
0.0
  0
LINE
  5
1C2
330
EB
100
AcDbEntity
  8
AM_4
100
AcDbLine
 10
0.3569547970325568
 20
1.425076006655311
 30
0.0
 11
0.3710354508031713
 21
1.434426735367801
 31
0.0
  0
LINE
  5
1C3
330
EB
100
AcDbEntity
  8
AM_4
100
AcDbLine
 10
0.3438853742613291
 20
1.421463709187367
 30
0.0
 11
0.3569547970325568
 21
1.425076006655311
 31
0.0
  0
LINE
  5
1C4
330
EB
100
AcDbEntity
  8
AM_4
100
AcDbLine
 10
0.3283076656836806
 20
1.421252084844822
 30
0.0
 11
0.3438853742613291
 21
1.421463709187367
 31
0.0
  0
LINE
  5
1C5
330
EB
100
AcDbEntity
  8
AM_4
100
AcDbLine
 10
0.3011780832229251
 20
1.426035762208008
 30
0.0
 11
0.3283076656836806
 21
1.421252084844822
 31
0.0
  0
LINE
  5
1C6
330
EB
100
AcDbEntity
  8
AM_4
100
AcDbLine
 10
0.286612205211724
 20
1.43156251416149
 30
0.0
 11
0.3011780832229251
 21
1.426035762208008
 31
0.0
  0
LINE
  5
1C7
330
EB
100
AcDbEntity
  8
AM_4
100
AcDbLine
 10
0.2755664435733912
 20
1.439426969285599
 30
0.0
 11
0.286612205211724
 21
1.43156251416149
 31
0.0
  0
LINE
  5
1C8
330
EB
100
AcDbEntity
  8
AM_4
100
AcDbLine
 10
-0.2686314734244316
 20
1.523484791409097
 30
0.0
 11
-0.2610427875881202
 21
1.480447215390834
 31
0.0
  0
LINE
  5
1C9
330
EB
100
AcDbEntity
  8
AM_4
100
AcDbLine
 10
-0.268146655286361
 20
1.538362098925576
 30
0.0
 11
-0.2686314734244316
 21
1.523484791409097
 31
0.0
  0
LINE
  5
1CA
330
EB
100
AcDbEntity
  8
AM_4
100
AcDbLine
 10
-0.2641415845907339
 20
1.550902082683777
 30
0.0
 11
-0.268146655286361
 21
1.538362098925576
 31
0.0
  0
LINE
  5
1CB
330
EB
100
AcDbEntity
  8
AM_4
100
AcDbLine
 10
-0.2541078261215695
 20
1.564505086754719
 30
0.0
 11
-0.2641415845907339
 21
1.550902082683777
 31
0.0
  0
LINE
  5
1CC
330
EB
100
AcDbEntity
  8
AM_4
100
AcDbLine
 10
-0.2430620818480544
 20
1.572369640359603
 30
0.0
 11
-0.2541078261215695
 21
1.564505086754719
 31
0.0
  0
LINE
  5
1CD
330
EB
100
AcDbEntity
  8
AM_4
100
AcDbLine
 10
-0.2284961256951734
 20
1.577895949149596
 30
0.0
 11
-0.2430620818480544
 21
1.572369640359603
 31
0.0
  0
LINE
  5
1CE
330
EB
100
AcDbEntity
  8
AM_4
100
AcDbLine
 10
-0.2043811382471634
 20
1.582148072076127
 30
0.0
 11
-0.2284961256951734
 21
1.577895949149596
 31
0.0
  0
LINE
  5
1CF
330
EB
100
AcDbEntity
  8
AM_4
100
AcDbLine
 10
-0.1888034093304197
 20
1.581936908261888
 30
0.0
 11
-0.2043811382471634
 21
1.582148072076127
 31
0.0
  0
LINE
  5
1D0
330
EB
100
AcDbEntity
  8
AM_4
100
AcDbLine
 10
-0.1757339691943742
 20
1.578324512313168
 30
0.0
 11
-0.1888034093304197
 21
1.581936908261888
 31
0.0
  0
LINE
  5
1D1
330
EB
100
AcDbEntity
  8
AM_4
100
AcDbLine
 10
-0.1616532720117153
 20
1.56897353739874
 30
0.0
 11
-0.1757339691943742
 21
1.578324512313168
 31
0.0
  0
LINE
  5
1D2
330
EB
100
AcDbEntity
  8
AM_4
100
AcDbLine
 10
-0.1536005830852442
 20
1.558559661988813
 30
0.0
 11
-0.1616532720117153
 21
1.56897353739874
 31
0.0
  0
LINE
  5
1D3
330
EB
100
AcDbEntity
  8
AM_4
100
AcDbLine
 10
-0.1480565361843819
 20
1.544745406041747
 30
0.0
 11
-0.1536005830852442
 21
1.558559661988813
 31
0.0
  0
LINE
  5
1D4
330
EB
100
AcDbEntity
  8
AM_4
100
AcDbLine
 10
-0.1404678503480705
 20
1.501707830023484
 30
0.0
 11
-0.1480565361843819
 21
1.544745406041747
 31
0.0
  0
LINE
  5
1D5
330
EB
100
AcDbEntity
  8
AM_4
100
AcDbLine
 10
-0.1409527270518779
 20
1.48683010600964
 30
0.0
 11
-0.1404678503480705
 21
1.501707830023484
 31
0.0
  0
LINE
  5
1D6
330
EB
100
AcDbEntity
  8
AM_4
100
AcDbLine
 10
-0.1449580589829237
 20
1.47429027927391
 30
0.0
 11
-0.1409527270518779
 21
1.48683010600964
 31
0.0
  0
LINE
  5
1D7
330
EB
100
AcDbEntity
  8
AM_4
100
AcDbLine
 10
-0.1549914078525662
 20
1.460687601283067
 30
0.0
 11
-0.1449580589829237
 21
1.47429027927391
 31
0.0
  0
LINE
  5
1D8
330
EB
100
AcDbEntity
  8
AM_4
100
AcDbLine
 10
-0.1660371694908991
 20
1.452823146158958
 30
0.0
 11
-0.1549914078525662
 21
1.460687601283067
 31
0.0
  0
LINE
  5
1D9
330
EB
100
AcDbEntity
  8
AM_4
100
AcDbLine
 10
-0.1806031459828754
 20
1.447296376840659
 30
0.0
 11
-0.1660371694908991
 21
1.452823146158958
 31
0.0
  0
LINE
  5
1DA
330
EB
100
AcDbEntity
  8
AM_4
100
AcDbLine
 10
-0.2047181334308853
 20
1.443044253914129
 30
0.0
 11
-0.1806031459828754
 21
1.447296376840659
 31
0.0
  0
LINE
  5
1DB
330
EB
100
AcDbEntity
  8
AM_4
100
AcDbLine
 10
-0.2202958420085337
 20
1.443255878256674
 30
0.0
 11
-0.2047181334308853
 21
1.443044253914129
 31
0.0
  0
LINE
  5
1DC
330
EB
100
AcDbEntity
  8
AM_4
100
AcDbLine
 10
-0.2333652647797615
 20
1.446868175724618
 30
0.0
 11
-0.2202958420085337
 21
1.443255878256674
 31
0.0
  0
LINE
  5
1DD
330
EB
100
AcDbEntity
  8
AM_4
100
AcDbLine
 10
-0.2474463715619423
 20
1.456218824558946
 30
0.0
 11
-0.2333652647797615
 21
1.446868175724618
 31
0.0
  0
LINE
  5
1DE
330
EB
100
AcDbEntity
  8
AM_4
100
AcDbLine
 10
-0.2554987992529947
 20
1.466632542946404
 30
0.0
 11
-0.2474463715619423
 21
1.456218824558946
 31
0.0
  0
LINE
  5
1DF
330
EB
100
AcDbEntity
  8
AM_4
100
AcDbLine
 10
-0.2610427875881202
 20
1.480447215390834
 30
0.0
 11
-0.2554987992529947
 21
1.466632542946404
 31
0.0
  0
LINE
  5
1E0
330
EB
100
AcDbEntity
  8
AM_4
100
AcDbLine
 10
-0.4606355226074695
 20
1.525118364064938
 30
0.0
 11
-0.476013259030533
 21
1.522621275587774
 31
0.0
  0
CIRCLE
  5
1E1
330
EB
100
AcDbEntity
  8
AM_4
100
AcDbCircle
 10
0.0
 20
0.0
 30
0.0
 40
1.7715699
  0
LINE
  5
1E2
330
EB
100
AcDbEntity
  8
AM_4
100
AcDbLine
 10
0.4005967939089445
 20
1.7862558885375
 30
0.0
 11
-0.400596793908925
 21
1.7862558885375
 31
0.0
  0
ARC
  5
1E3
330
EB
100
AcDbEntity
  8
AM_4
100
AcDbCircle
 10
0.0000000000000098
 20
-0.0000000000000058
 30
0.0
 40
1.830625000000009
100
AcDbArc
 50
102.6403586563931
 51
77.35964134360695
  0
ENDBLK
  5
EE
330
EB
100
AcDbEntity
  8
0
100
AcDbBlockEnd
  0
ENDSEC
  0
SECTION
  2
ENTITIES
  0
INSERT
  5
6F
330
1F
100
AcDbEntity
  8
0
100
AcDbBlockReference
  2
1_129729_0
 10
0.0
 20
0.0
 30
0.0
  0
POINT
  5
1E5
330
1F
100
AcDbEntity
  8
ConnectionPoints
100
AcDbPoint
 10
0.0000000000000001
 20
0.0
 30
0.7184999999999999
  0
POINT
  5
1E6
330
1F
100
AcDbEntity
  8
ConnectionPoints
100
AcDbPoint
 10
0.0000000000000001
 20
0.0
 30
0.1559999999999999
  0
POINT
  5
1E7
330
1F
100
AcDbEntity
  8
ConnectionPoints
100
AcDbPoint
 10
0.0
 20
0.0
 30
0.1559999999999999
  0
POINT
  5
1E8
330
1F
100
AcDbEntity
  8
ConnectionPoints
100
AcDbPoint
 10
0.0
 20
0.0
 30
0.1559999999999999
  0
ENDSEC
  0
SECTION
  2
OBJECTS
  0
DICTIONARY
  5
C
330
0
100
AcDbDictionary
281
     1
  3
ACAD_DETAILVIEWSTYLE
350
1F0
  3
ACAD_GROUP
350
D
  3
ACAD_LAYOUT
350
1A
  3
ACAD_MATERIAL
350
43
  3
ACAD_MLEADERSTYLE
350
6B
  3
ACAD_MLINESTYLE
350
17
  3
ACAD_PLOTSETTINGS
350
19
  3
ACAD_PLOTSTYLENAME
350
E
  3
ACAD_SCALELIST
350
47
  3
ACAD_SECTIONVIEWSTYLE
350
1F1
  3
ACAD_TABLESTYLE
350
69
  3
ACAD_VISUALSTYLE
350
2A
  3
ACDB_RECOMPOSE_DATA
350
1ED
  3
AcDbVariableDictionary
350
1E9
  0
SUN
  5
6D
330
29
100
AcDbSun
 90
        1
290
     0
 63
     7
421
 16777215
 40
1.0
291
     1
 91
  2455826
 92
 54000000
292
     0
 70
     2
 71
   256
280
     1
  0
DICTIONARY
  5
1F0
102
{ACAD_REACTORS
330
C
102
}
330
C
100
AcDbDictionary
281
     1
  0
DICTIONARY
  5
D
102
{ACAD_REACTORS
330
C
102
}
330
C
100
AcDbDictionary
281
     1
  0
DICTIONARY
  5
1A
102
{ACAD_REACTORS
330
C
102
}
330
C
100
AcDbDictionary
281
     1
  3
Layout1
350
1E
  3
Layout2
350
26
  3
Model
350
22
  0
DICTIONARY
  5
43
102
{ACAD_REACTORS
330
C
102
}
330
C
100
AcDbDictionary
281
     1
  3
ByBlock
350
45
  3
ByLayer
350
44
  3
Global
350
46
  0
DICTIONARY
  5
6B
102
{ACAD_REACTORS
330
C
102
}
330
C
100
AcDbDictionary
281
     1
  3
Standard
350
6C
  0
DICTIONARY
  5
17
102
{ACAD_REACTORS
330
C
102
}
330
C
100
AcDbDictionary
281
     1
  3
Standard
350
18
  0
DICTIONARY
  5
19
102
{ACAD_REACTORS
330
C
102
}
330
C
100
AcDbDictionary
281
     1
  0
ACDBDICTIONARYWDFLT
  5
E
102
{ACAD_REACTORS
330
C
102
}
330
C
100
AcDbDictionary
281
     1
  3
Normal
350
F
100
AcDbDictionaryWithDefault
340
F
  0
DICTIONARY
  5
47
102
{ACAD_REACTORS
330
C
102
}
330
C
100
AcDbDictionary
281
     1
  3
A0
350
48
  3
A1
350
49
  3
A2
350
4A
  3
A3
350
4B
  3
A4
350
4C
  3
A5
350
4D
  3
A6
350
4E
  3
A7
350
4F
  3
A8
350
50
  3
A9
350
51
  3
B0
350
52
  3
B1
350
53
  3
B2
350
54
  3
B3
350
55
  3
B4
350
56
  3
B5
350
57
  3
B6
350
58
  3
B7
350
59
  3
B8
350
5A
  3
B9
350
5B
  3
C0
350
5C
  3
C1
350
5D
  3
C2
350
5E
  3
C3
350
5F
  3
C4
350
60
  3
C5
350
61
  3
C6
350
62
  3
C7
350
63
  3
C8
350
64
  3
C9
350
65
  3
D0
350
66
  3
D1
350
67
  3
D2
350
68
  0
DICTIONARY
  5
1F1
102
{ACAD_REACTORS
330
C
102
}
330
C
100
AcDbDictionary
281
     1
  0
DICTIONARY
  5
69
102
{ACAD_REACTORS
330
C
102
}
330
C
100
AcDbDictionary
281
     1
  3
Standard
350
6A
  0
DICTIONARY
  5
2A
102
{ACAD_REACTORS
330
C
102
}
330
C
100
AcDbDictionary
281
     1
  3
2dWireframe
350
2F
  3
Basic
350
32
  3
Brighten
350
36
  3
ColorChange
350
3A
  3
Conceptual
350
34
  3
Dim
350
35
  3
EdgeColorOff
350
3D
  3
Facepattern
350
39
  3
Flat
350
2B
  3
FlatWithEdges
350
2C
  3
Gouraud
350
2D
  3
GouraudWithEdges
350
2E
  3
Hidden
350
31
  3
JitterOff
350
3B
  3
Linepattern
350
38
  3
OverhangOff
350
3C
  3
Realistic
350
33
  3
Shaded
350
42
  3
Shaded with edges
350
41
  3
Shades of Gray
350
3E
  3
Sketchy
350
3F
  3
Thicken
350
37
  3
Wireframe
350
30
  3
X-Ray
350
40
  0
XRECORD
  5
1ED
102
{ACAD_REACTORS
330
C
102
}
330
C
100
AcDbXrecord
280
     1
 90
        1
330
6A
  0
DICTIONARY
  5
1E9
102
{ACAD_REACTORS
330
C
102
}
330
C
100
AcDbDictionary
281
     1
  3
CANNOSCALE
350
1EA
  3
CMLEADERSTYLE
350
1EF
  3
CTABLESTYLE
350
1EE
  0
LAYOUT
  5
1E
102
{ACAD_REACTORS
330
1A
102
}
330
1A
100
AcDbPlotSettings
  1

  2
none_device
  4

  6

 40
0.0
 41
0.0
 42
0.0
 43
0.0
 44
0.0
 45
0.0
 46
0.0
 47
0.0
 48
0.0
 49
0.0
140
0.0
141
0.0
142
1.0
143
1.0
 70
   688
 72
     0
 73
     0
 74
     5
  7

 75
    16
 76
     0
 77
     2
 78
   300
147
1.0
148
0.0
149
0.0
100
AcDbLayout
  1
Layout1
 70
     1
 71
     1
 10
0.0
 20
0.0
 11
12.0
 21
9.0
 12
0.0
 22
0.0
 32
0.0
 14
1.000000000000000E+20
 24
1.000000000000000E+20
 34
1.000000000000000E+20
 15
-1.000000000000000E+20
 25
-1.000000000000000E+20
 35
-1.000000000000000E+20
146
0.0
 13
0.0
 23
0.0
 33
0.0
 16
1.0
 26
0.0
 36
0.0
 17
0.0
 27
1.0
 37
0.0
 76
     0
330
1B
  0
LAYOUT
  5
26
102
{ACAD_REACTORS
330
1A
102
}
330
1A
100
AcDbPlotSettings
  1

  2
none_device
  4

  6

 40
0.0
 41
0.0
 42
0.0
 43
0.0
 44
0.0
 45
0.0
 46
0.0
 47
0.0
 48
0.0
 49
0.0
140
0.0
141
0.0
142
1.0
143
1.0
 70
   688
 72
     0
 73
     0
 74
     5
  7

 75
    16
 76
     0
 77
     2
 78
   300
147
1.0
148
0.0
149
0.0
100
AcDbLayout
  1
Layout2
 70
     1
 71
     2
 10
0.0
 20
0.0
 11
0.0
 21
0.0
 12
0.0
 22
0.0
 32
0.0
 14
0.0
 24
0.0
 34
0.0
 15
0.0
 25
0.0
 35
0.0
146
0.0
 13
0.0
 23
0.0
 33
0.0
 16
1.0
 26
0.0
 36
0.0
 17
0.0
 27
1.0
 37
0.0
 76
     0
330
23
  0
LAYOUT
  5
22
102
{ACAD_REACTORS
330
1A
102
}
330
1A
100
AcDbPlotSettings
  1

  2
none_device
  4
Letter_(8.50_x_11.00_Inches)
  6

 40
6.35
 41
6.35
 42
6.35000508
 43
6.35000508
 44
215.9
 45
279.4
 46
0.0
 47
0.0
 48
0.0
 49
0.0
140
0.0
141
0.0
142
1.0
143
1.0
 70
  1712
 72
     0
 73
     0
 74
     0
  7

 75
     0
 76
     0
 77
     2
 78
   300
147
1.0
148
0.0
149
0.0
100
AcDbLayout
  1
Model
 70
     1
 71
     0
 10
0.0
 20
0.0
 11
12.0
 21
9.0
 12
0.0
 22
0.0
 32
0.0
 14
1.000000000000000E+20
 24
1.000000000000000E+20
 34
1.000000000000000E+20
 15
-1.000000000000000E+20
 25
-1.000000000000000E+20
 35
-1.000000000000000E+20
146
0.0
 13
0.0
 23
0.0
 33
0.0
 16
1.0
 26
0.0
 36
0.0
 17
0.0
 27
1.0
 37
0.0
 76
     0
330
1F
331
29
  0
MATERIAL
  5
45
102
{ACAD_REACTORS
330
43
102
}
330
43
100
AcDbMaterial
  1
ByBlock
 72
     1
 94
      127
  0
MATERIAL
  5
44
102
{ACAD_REACTORS
330
43
102
}
330
43
100
AcDbMaterial
  1
ByLayer
 72
     1
 94
      127
  0
MATERIAL
  5
46
102
{ACAD_REACTORS
330
43
102
}
330
43
100
AcDbMaterial
  1
Global
 72
     1
 94
      127
  0
MLEADERSTYLE
  5
6C
102
{ACAD_REACTORS
330
6B
102
}
330
6B
100
AcDbMLeaderStyle
179
     2
170
     2
171
     1
172
     0
 90
        2
 40
0.0
 41
0.0
173
     1
 91
-1056964608
340
14
 92
       -2
290
     1
 42
0.09
291
     1
 43
0.36
  3
Standard
341
0
 44
0.18
300

342
11
174
     1
178
     6
175
     1
176
     0
 93
-1056964608
 45
0.18
292
     0
297
     0
 46
0.18
343
0
 94
-1056964608
 47
1.0
 49
1.0
140
1.0
293
     1
141
0.0
294
     1
177
     0
142
1.0
295
     0
296
     0
143
0.125
271
     0
272
     9
273
     9
298
     0
  0
MLINESTYLE
  5
18
102
{ACAD_REACTORS
330
17
102
}
330
17
100
AcDbMlineStyle
  2
Standard
 70
     0
  3

 62
   256
 51
90.0
 52
90.0
 71
     2
 49
0.5
 62
   256
  6
BYLAYER
 49
-0.5
 62
   256
  6
BYLAYER
  0
ACDBPLACEHOLDER
  5
F
102
{ACAD_REACTORS
330
E
102
}
330
E
  0
SCALE
  5
48
102
{ACAD_REACTORS
330
47
102
}
330
47
100
AcDbScale
 70
     0
300
1:1
140
1.0
141
1.0
290
     1
  0
SCALE
  5
49
102
{ACAD_REACTORS
330
47
102
}
330
47
100
AcDbScale
 70
     0
300
1:2
140
1.0
141
2.0
290
     0
  0
SCALE
  5
4A
102
{ACAD_REACTORS
330
47
102
}
330
47
100
AcDbScale
 70
     0
300
1:4
140
1.0
141
4.0
290
     0
  0
SCALE
  5
4B
102
{ACAD_REACTORS
330
47
102
}
330
47
100
AcDbScale
 70
     0
300
1:5
140
1.0
141
5.0
290
     0
  0
SCALE
  5
4C
102
{ACAD_REACTORS
330
47
102
}
330
47
100
AcDbScale
 70
     0
300
1:8
140
1.0
141
8.0
290
     0
  0
SCALE
  5
4D
102
{ACAD_REACTORS
330
47
102
}
330
47
100
AcDbScale
 70
     0
300
1:10
140
1.0
141
10.0
290
     0
  0
SCALE
  5
4E
102
{ACAD_REACTORS
330
47
102
}
330
47
100
AcDbScale
 70
     0
300
1:16
140
1.0
141
16.0
290
     0
  0
SCALE
  5
4F
102
{ACAD_REACTORS
330
47
102
}
330
47
100
AcDbScale
 70
     0
300
1:20
140
1.0
141
20.0
290
     0
  0
SCALE
  5
50
102
{ACAD_REACTORS
330
47
102
}
330
47
100
AcDbScale
 70
     0
300
1:30
140
1.0
141
30.0
290
     0
  0
SCALE
  5
51
102
{ACAD_REACTORS
330
47
102
}
330
47
100
AcDbScale
 70
     0
300
1:40
140
1.0
141
40.0
290
     0
  0
SCALE
  5
52
102
{ACAD_REACTORS
330
47
102
}
330
47
100
AcDbScale
 70
     0
300
1:50
140
1.0
141
50.0
290
     0
  0
SCALE
  5
53
102
{ACAD_REACTORS
330
47
102
}
330
47
100
AcDbScale
 70
     0
300
1:100
140
1.0
141
100.0
290
     0
  0
SCALE
  5
54
102
{ACAD_REACTORS
330
47
102
}
330
47
100
AcDbScale
 70
     0
300
2:1
140
2.0
141
1.0
290
     0
  0
SCALE
  5
55
102
{ACAD_REACTORS
330
47
102
}
330
47
100
AcDbScale
 70
     0
300
4:1
140
4.0
141
1.0
290
     0
  0
SCALE
  5
56
102
{ACAD_REACTORS
330
47
102
}
330
47
100
AcDbScale
 70
     0
300
8:1
140
8.0
141
1.0
290
     0
  0
SCALE
  5
57
102
{ACAD_REACTORS
330
47
102
}
330
47
100
AcDbScale
 70
     0
300
10:1
140
10.0
141
1.0
290
     0
  0
SCALE
  5
58
102
{ACAD_REACTORS
330
47
102
}
330
47
100
AcDbScale
 70
     0
300
100:1
140
100.0
141
1.0
290
     0
  0
SCALE
  5
59
102
{ACAD_REACTORS
330
47
102
}
330
47
100
AcDbScale
 70
     0
300
1/128" = 1'-0"
140
0.0078125
141
12.0
290
     0
  0
SCALE
  5
5A
102
{ACAD_REACTORS
330
47
102
}
330
47
100
AcDbScale
 70
     0
300
1/64" = 1'-0"
140
0.015625
141
12.0
290
     0
  0
SCALE
  5
5B
102
{ACAD_REACTORS
330
47
102
}
330
47
100
AcDbScale
 70
     0
300
1/32" = 1'-0"
140
0.03125
141
12.0
290
     0
  0
SCALE
  5
5C
102
{ACAD_REACTORS
330
47
102
}
330
47
100
AcDbScale
 70
     0
300
1/16" = 1'-0"
140
0.0625
141
12.0
290
     0
  0
SCALE
  5
5D
102
{ACAD_REACTORS
330
47
102
}
330
47
100
AcDbScale
 70
     0
300
3/32" = 1'-0"
140
0.09375
141
12.0
290
     0
  0
SCALE
  5
5E
102
{ACAD_REACTORS
330
47
102
}
330
47
100
AcDbScale
 70
     0
300
1/8" = 1'-0"
140
0.125
141
12.0
290
     0
  0
SCALE
  5
5F
102
{ACAD_REACTORS
330
47
102
}
330
47
100
AcDbScale
 70
     0
300
3/16" = 1'-0"
140
0.1875
141
12.0
290
     0
  0
SCALE
  5
60
102
{ACAD_REACTORS
330
47
102
}
330
47
100
AcDbScale
 70
     0
300
1/4" = 1'-0"
140
0.25
141
12.0
290
     0
  0
SCALE
  5
61
102
{ACAD_REACTORS
330
47
102
}
330
47
100
AcDbScale
 70
     0
300
3/8" = 1'-0"
140
0.375
141
12.0
290
     0
  0
SCALE
  5
62
102
{ACAD_REACTORS
330
47
102
}
330
47
100
AcDbScale
 70
     0
300
1/2" = 1'-0"
140
0.5
141
12.0
290
     0
  0
SCALE
  5
63
102
{ACAD_REACTORS
330
47
102
}
330
47
100
AcDbScale
 70
     0
300
3/4" = 1'-0"
140
0.75
141
12.0
290
     0
  0
SCALE
  5
64
102
{ACAD_REACTORS
330
47
102
}
330
47
100
AcDbScale
 70
     0
300
1" = 1'-0"
140
1.0
141
12.0
290
     0
  0
SCALE
  5
65
102
{ACAD_REACTORS
330
47
102
}
330
47
100
AcDbScale
 70
     0
300
1-1/2" = 1'-0"
140
1.5
141
12.0
290
     0
  0
SCALE
  5
66
102
{ACAD_REACTORS
330
47
102
}
330
47
100
AcDbScale
 70
     0
300
3" = 1'-0"
140
3.0
141
12.0
290
     0
  0
SCALE
  5
67
102
{ACAD_REACTORS
330
47
102
}
330
47
100
AcDbScale
 70
     0
300
6" = 1'-0"
140
6.0
141
12.0
290
     0
  0
SCALE
  5
68
102
{ACAD_REACTORS
330
47
102
}
330
47
100
AcDbScale
 70
     0
300
1'-0" = 1'-0"
140
12.0
141
12.0
290
     0
  0
TABLESTYLE
  5
6A
102
{ACAD_REACTORS
330
69
102
}
102
{ACAD_XDICTIONARY
360
1EB
102
}
330
69
100
AcDbTableStyle
  3
Standard
 70
     0
 71
     0
 40
0.06
 41
0.06
280
     0
281
     0
  7
Standard
140
0.18
170
     2
 62
     0
 63
   257
283
     0
 90
        4
 91
        0
  1

274
    -2
284
     1
 64
     0
275
    -2
285
     1
 65
     0
276
    -2
286
     1
 66
     0
277
    -2
287
     1
 67
     0
278
    -2
288
     1
 68
     0
279
    -2
289
     1
 69
     0
  7
Standard
140
0.25
170
     5
 62
     0
 63
   257
283
     0
 90
        4
 91
        0
  1

274
    -2
284
     1
 64
     0
275
    -2
285
     1
 65
     0
276
    -2
286
     1
 66
     0
277
    -2
287
     1
 67
     0
278
    -2
288
     1
 68
     0
279
    -2
289
     1
 69
     0
  7
Standard
140
0.18
170
     5
 62
     0
 63
   257
283
     0
 90
        4
 91
        0
  1

274
    -2
284
     1
 64
     0
275
    -2
285
     1
 65
     0
276
    -2
286
     1
 66
     0
277
    -2
287
     1
 67
     0
278
    -2
288
     1
 68
     0
279
    -2
289
     1
 69
     0
  0
VISUALSTYLE
  5
2F
102
{ACAD_REACTORS
330
2A
102
}
330
2A
100
AcDbVisualStyle
  2
2dWireframe
 70
     4
177
     3
291
     0
 70
    58
 90
        0
176
     1
 90
        2
176
     1
 90
        0
176
     1
 90
        0
176
     1
 40
0.6
176
     1
 40
30.0
176
     1
 62
     7
420
 16777215
176
     1
 90
        1
176
     1
 90
        4
176
     1
 62
     7
176
     1
 62
   257
176
     1
 90
        1
176
     1
 90
        1
176
     1
 40
1.0
176
     1
 90
        0
176
     1
 62
   257
176
     1
 40
1.0
176
     1
 90
        1
176
     1
 90
        6
176
     1
 90
        2
176
     1
 62
     7
176
     1
 90
        5
176
     1
 90
        0
176
     1
 90
        0
176
     1
290
     0
176
     1
 90
        1
176
     1
 40
0.0
176
     1
 90
        0
176
     1
290
     1
176
     1
290
     1
176
     1
290
     0
176
     1
290
     0
176
     1
290
     0
176
     1
290
     0
176
     1
290
     0
176
     1
290
     0
176
     1
290
     0
176
     1
 90
       50
176
     1
 40
0.0
176
     1
 40
1.0
176
     1
 90
        0
176
     1
 62
    18
420
        0
176
     1
 90
       50
176
     1
 90
        3
176
     1
 62
     5
420
      255
176
     1
290
     0
176
     1
 90
       50
176
     1
 90
       50
176
     1
 90
       50
176
     1
290
     0
176
     1
 90
       50
176
     1
 62
   256
176
     0
 40
1.0
176
     0
 90
        2
176
     1
  1
strokes_ogs.tif
176
     1
290
     0
176
     1
 40
1.0
176
     1
 40
1.0
176
     1
  0
VISUALSTYLE
  5
32
102
{ACAD_REACTORS
330
2A
102
}
330
2A
100
AcDbVisualStyle
  2
Basic
 70
     7
177
     3
291
     1
 70
    58
 90
        1
176
     1
 90
        0
176
     1
 90
        1
176
     1
 90
        0
176
     1
 40
0.6
176
     1
 40
30.0
176
     1
 62
     7
420
 16777215
176
     1
 90
        0
176
     1
 90
        4
176
     1
 62
     7
176
     1
 62
   257
176
     1
 90
        1
176
     1
 90
        1
176
     1
 40
1.0
176
     1
 90
        8
176
     1
 62
     7
176
     1
 40
1.0
176
     1
 90
        1
176
     1
 90
        6
176
     1
 90
        2
176
     1
 62
     7
176
     1
 90
        5
176
     1
 90
        0
176
     1
 90
        0
176
     1
290
     0
176
     1
 90
        1
176
     1
 40
0.0
176
     1
 90
        0
176
     1
290
     0
176
     1
290
     1
176
     1
290
     1
176
     1
290
     0
176
     1
290
     0
176
     1
290
     0
176
     1
290
     0
176
     1
290
     0
176
     1
290
     0
176
     1
 90
       50
176
     1
 40
0.0
176
     1
 40
1.0
176
     1
 90
        0
176
     1
 62
    18
420
        0
176
     1
 90
       50
176
     1
 90
        3
176
     1
 62
     5
420
      255
176
     1
290
     0
176
     1
 90
       50
176
     1
 90
       50
176
     1
 90
       50
176
     1
290
     0
176
     1
 90
       50
176
     1
 62
   256
176
     0
 40
1.0
176
     0
 90
        2
176
     1
  1
strokes_ogs.tif
176
     1
290
     0
176
     1
 40
1.0
176
     1
 40
1.0
176
     1
  0
VISUALSTYLE
  5
36
102
{ACAD_REACTORS
330
2A
102
}
330
2A
100
AcDbVisualStyle
  2
Brighten
 70
    12
177
     3
291
     1
 70
    58
 90
        2
176
     1
 90
        2
176
     1
 90
        0
176
     1
 90
        0
176
     1
 40
0.6
176
     1
 40
30.0
176
     1
 62
     7
420
 16777215
176
     1
 90
        1
176
     1
 90
        4
176
     1
 62
     7
176
     1
 62
   257
176
     1
 90
        1
176
     1
 90
        1
176
     1
 40
1.0
176
     1
 90
        8
176
     1
 62
     7
176
     1
 40
1.0
176
     1
 90
        1
176
     1
 90
        6
176
     1
 90
        2
176
     1
 62
     7
176
     1
 90
        5
176
     1
 90
        0
176
     1
 90
        0
176
     1
290
     0
176
     1
 90
        1
176
     1
 40
50.0
176
     1
 90
        0
176
     1
290
     0
176
     1
290
     1
176
     1
290
     1
176
     1
290
     0
176
     1
290
     0
176
     1
290
     0
176
     1
290
     0
176
     1
290
     0
176
     1
290
     0
176
     1
 90
       50
176
     1
 40
0.0
176
     1
 40
1.0
176
     1
 90
        0
176
     1
 62
    18
420
        0
176
     1
 90
       50
176
     1
 90
        3
176
     1
 62
     5
420
      255
176
     1
290
     0
176
     1
 90
       50
176
     1
 90
       50
176
     1
 90
       50
176
     1
290
     0
176
     1
 90
       50
176
     1
 62
   256
176
     0
 40
1.0
176
     0
 90
        2
176
     1
  1
strokes_ogs.tif
176
     1
290
     0
176
     1
 40
1.0
176
     1
 40
1.0
176
     1
  0
VISUALSTYLE
  5
3A
102
{ACAD_REACTORS
330
2A
102
}
330
2A
100
AcDbVisualStyle
  2
ColorChange
 70
    16
177
     3
291
     1
 70
    58
 90
        2
176
     1
 90
        2
176
     1
 90
        3
176
     1
 90
        0
176
     1
 40
0.6
176
     1
 40
30.0
176
     1
 62
     8
420
  8421504
176
     1
 90
        1
176
     1
 90
        4
176
     1
 62
     7
176
     1
 62
   257
176
     1
 90
        1
176
     1
 90
        1
176
     1
 40
1.0
176
     1
 90
        8
176
     1
 62
     8
420
  8421504
176
     1
 40
1.0
176
     1
 90
        1
176
     1
 90
        6
176
     1
 90
        2
176
     1
 62
     7
176
     1
 90
        5
176
     1
 90
        0
176
     1
 90
        0
176
     1
290
     0
176
     1
 90
        1
176
     1
 40
0.0
176
     1
 90
        0
176
     1
290
     0
176
     1
290
     1
176
     1
290
     1
176
     1
290
     0
176
     1
290
     0
176
     1
290
     0
176
     1
290
     0
176
     1
290
     0
176
     1
290
     0
176
     1
 90
       50
176
     1
 40
0.0
176
     1
 40
1.0
176
     1
 90
        0
176
     1
 62
    18
420
        0
176
     1
 90
       50
176
     1
 90
        3
176
     1
 62
     5
420
      255
176
     1
290
     0
176
     1
 90
       50
176
     1
 90
       50
176
     1
 90
       50
176
     1
290
     0
176
     1
 90
       50
176
     1
 62
   256
176
     0
 40
1.0
176
     0
 90
        2
176
     1
  1
strokes_ogs.tif
176
     1
290
     0
176
     1
 40
1.0
176
     1
 40
1.0
176
     1
  0
VISUALSTYLE
  5
34
102
{ACAD_REACTORS
330
2A
102
}
330
2A
100
AcDbVisualStyle
  2
Conceptual
 70
     9
177
     3
291
     0
 70
    58
 90
        3
176
     1
 90
        2
176
     1
 90
        0
176
     1
 90
        0
176
     1
 40
0.6
176
     1
 40
30.0
176
     1
 62
     7
420
 16777215
176
     1
 90
        2
176
     1
 90
        2
176
     1
 62
     7
176
     1
 62
   257
176
     1
 90
        1
176
     1
 90
        1
176
     1
 40
179.0
176
     1
 90
        8
176
     1
 62
     7
176
     1
 40
1.0
176
     1
 90
        1
176
     1
 90
        6
176
     1
 90
        2
176
     1
 62
     7
176
     1
 90
        3
176
     1
 90
        0
176
     1
 90
        0
176
     1
290
     0
176
     1
 90
        1
176
     1
 40
0.0
176
     1
 90
        0
176
     1
290
     0
176
     1
290
     1
176
     1
290
     1
176
     1
290
     0
176
     1
290
     0
176
     1
290
     0
176
     1
290
     0
176
     1
290
     0
176
     1
290
     0
176
     1
 90
       50
176
     1
 40
0.0
176
     1
 40
1.0
176
     1
 90
        0
176
     1
 62
    18
420
        0
176
     1
 90
       50
176
     1
 90
        3
176
     1
 62
     5
420
      255
176
     1
290
     0
176
     1
 90
       50
176
     1
 90
       50
176
     1
 90
       50
176
     1
290
     0
176
     1
 90
       50
176
     1
 62
   256
176
     0
 40
1.0
176
     0
 90
        2
176
     1
  1
strokes_ogs.tif
176
     1
290
     0
176
     1
 40
1.0
176
     1
 40
1.0
176
     1
  0
VISUALSTYLE
  5
35
102
{ACAD_REACTORS
330
2A
102
}
330
2A
100
AcDbVisualStyle
  2
Dim
 70
    11
177
     3
291
     1
 70
    58
 90
        2
176
     1
 90
        2
176
     1
 90
        0
176
     1
 90
        0
176
     1
 40
0.6
176
     1
 40
30.0
176
     1
 62
     7
420
 16777215
176
     1
 90
        1
176
     1
 90
        4
176
     1
 62
     7
176
     1
 62
   257
176
     1
 90
        1
176
     1
 90
        1
176
     1
 40
1.0
176
     1
 90
        8
176
     1
 62
     7
176
     1
 40
1.0
176
     1
 90
        1
176
     1
 90
        6
176
     1
 90
        2
176
     1
 62
     7
176
     1
 90
        5
176
     1
 90
        0
176
     1
 90
        0
176
     1
290
     0
176
     1
 90
        1
176
     1
 40
-50.0
176
     1
 90
        0
176
     1
290
     0
176
     1
290
     1
176
     1
290
     1
176
     1
290
     0
176
     1
290
     0
176
     1
290
     0
176
     1
290
     0
176
     1
290
     0
176
     1
290
     0
176
     1
 90
       50
176
     1
 40
0.0
176
     1
 40
1.0
176
     1
 90
        0
176
     1
 62
    18
420
        0
176
     1
 90
       50
176
     1
 90
        3
176
     1
 62
     5
420
      255
176
     1
290
     0
176
     1
 90
       50
176
     1
 90
       50
176
     1
 90
       50
176
     1
290
     0
176
     1
 90
       50
176
     1
 62
   256
176
     0
 40
1.0
176
     0
 90
        2
176
     1
  1
strokes_ogs.tif
176
     1
290
     0
176
     1
 40
1.0
176
     1
 40
1.0
176
     1
  0
VISUALSTYLE
  5
3D
102
{ACAD_REACTORS
330
2A
102
}
330
2A
100
AcDbVisualStyle
  2
EdgeColorOff
 70
    22
177
     3
291
     1
 70
    58
 90
        2
176
     0
 90
        2
176
     0
 90
        0
176
     0
 90
        0
176
     0
 40
0.6
176
     0
 40
30.0
176
     0
 62
     7
420
 16777215
176
     0
 90
        1
176
     0
 90
        4
176
     0
 62
     7
176
     0
 62
   257
176
     0
 90
        1
176
     0
 90
        1
176
     0
 40
1.0
176
     0
 90
        8
176
     2
 62
     7
176
     0
 40
1.0
176
     0
 90
        1
176
     0
 90
        6
176
     0
 90
        2
176
     0
 62
     7
176
     0
 90
        5
176
     0
 90
        0
176
     0
 90
        0
176
     0
290
     0
176
     0
 90
        1
176
     0
 40
0.0
176
     0
 90
        0
176
     0
290
     0
176
     0
290
     1
176
     0
290
     1
176
     0
290
     0
176
     0
290
     0
176
     0
290
     0
176
     0
290
     0
176
     0
290
     0
176
     0
290
     0
176
     0
 90
       50
176
     0
 40
0.0
176
     0
 40
1.0
176
     0
 90
        0
176
     0
 62
    18
420
        0
176
     0
 90
       50
176
     0
 90
        3
176
     0
 62
     5
420
      255
176
     0
290
     0
176
     0
 90
       50
176
     0
 90
       50
176
     0
 90
       50
176
     0
290
     0
176
     0
 90
       50
176
     0
 62
   256
176
     0
 40
1.0
176
     0
 90
        2
176
     0
  1
strokes_ogs.tif
176
     0
290
     0
176
     0
 40
1.0
176
     0
 40
1.0
176
     0
  0
VISUALSTYLE
  5
39
102
{ACAD_REACTORS
330
2A
102
}
330
2A
100
AcDbVisualStyle
  2
Facepattern
 70
    15
177
     3
291
     1
 70
    58
 90
        2
176
     1
 90
        2
176
     1
 90
        0
176
     1
 90
        0
176
     1
 40
0.6
176
     1
 40
30.0
176
     1
 62
     7
420
 16777215
176
     1
 90
        1
176
     1
 90
        4
176
     1
 62
     7
176
     1
 62
   257
176
     1
 90
        1
176
     1
 90
        1
176
     1
 40
1.0
176
     1
 90
        8
176
     1
 62
     7
176
     1
 40
1.0
176
     1
 90
        1
176
     1
 90
        6
176
     1
 90
        2
176
     1
 62
     7
176
     1
 90
        5
176
     1
 90
        0
176
     1
 90
        0
176
     1
290
     0
176
     1
 90
        1
176
     1
 40
0.0
176
     1
 90
        0
176
     1
290
     0
176
     1
290
     1
176
     1
290
     1
176
     1
290
     0
176
     1
290
     0
176
     1
290
     0
176
     1
290
     0
176
     1
290
     0
176
     1
290
     0
176
     1
 90
       50
176
     1
 40
0.0
176
     1
 40
1.0
176
     1
 90
        0
176
     1
 62
    18
420
        0
176
     1
 90
       50
176
     1
 90
        3
176
     1
 62
     5
420
      255
176
     1
290
     0
176
     1
 90
       50
176
     1
 90
       50
176
     1
 90
       50
176
     1
290
     0
176
     1
 90
       50
176
     1
 62
   256
176
     0
 40
1.0
176
     0
 90
        2
176
     1
  1
strokes_ogs.tif
176
     1
290
     0
176
     1
 40
1.0
176
     1
 40
1.0
176
     1
  0
VISUALSTYLE
  5
2B
102
{ACAD_REACTORS
330
2A
102
}
330
2A
100
AcDbVisualStyle
  2
Flat
 70
     0
177
     3
291
     1
 70
    58
 90
        2
176
     1
 90
        1
176
     1
 90
        1
176
     1
 90
        2
176
     1
 40
0.6
176
     1
 40
30.0
176
     1
 62
     7
420
 16777215
176
     1
 90
        0
176
     1
 90
        0
176
     1
 62
     7
176
     1
 62
   257
176
     1
 90
        1
176
     1
 90
        1
176
     1
 40
1.0
176
     1
 90
        8
176
     1
 62
     7
176
     1
 40
1.0
176
     1
 90
        1
176
     1
 90
        6
176
     1
 90
        2
176
     1
 62
     7
176
     1
 90
        5
176
     1
 90
        0
176
     1
 90
        0
176
     1
290
     0
176
     1
 90
       13
176
     1
 40
0.0
176
     1
 90
        0
176
     1
290
     0
176
     1
290
     1
176
     1
290
     1
176
     1
290
     0
176
     1
290
     0
176
     1
290
     0
176
     1
290
     0
176
     1
290
     0
176
     1
290
     0
176
     1
 90
       50
176
     1
 40
0.0
176
     1
 40
1.0
176
     1
 90
        0
176
     1
 62
    18
420
        0
176
     1
 90
       50
176
     1
 90
        3
176
     1
 62
     5
420
      255
176
     1
290
     0
176
     1
 90
       50
176
     1
 90
       50
176
     1
 90
       50
176
     1
290
     0
176
     1
 90
       50
176
     1
 62
   256
176
     0
 40
1.0
176
     0
 90
        2
176
     1
  1
strokes_ogs.tif
176
     1
290
     0
176
     1
 40
1.0
176
     1
 40
1.0
176
     1
  0
VISUALSTYLE
  5
2C
102
{ACAD_REACTORS
330
2A
102
}
330
2A
100
AcDbVisualStyle
  2
FlatWithEdges
 70
     1
177
     3
291
     1
 70
    58
 90
        2
176
     1
 90
        1
176
     1
 90
        1
176
     1
 90
        2
176
     1
 40
0.6
176
     1
 40
30.0
176
     1
 62
     7
420
 16777215
176
     1
 90
        1
176
     1
 90
        0
176
     1
 62
     7
176
     1
 62
   257
176
     1
 90
        1
176
     1
 90
        1
176
     1
 40
1.0
176
     1
 90
        0
176
     1
 62
   257
176
     1
 40
1.0
176
     1
 90
        1
176
     1
 90
        6
176
     1
 90
        2
176
     1
 62
     7
176
     1
 90
        5
176
     1
 90
        0
176
     1
 90
        0
176
     1
290
     0
176
     1
 90
       13
176
     1
 40
0.0
176
     1
 90
        0
176
     1
290
     0
176
     1
290
     1
176
     1
290
     1
176
     1
290
     0
176
     1
290
     0
176
     1
290
     0
176
     1
290
     0
176
     1
290
     0
176
     1
290
     0
176
     1
 90
       50
176
     1
 40
0.0
176
     1
 40
1.0
176
     1
 90
        0
176
     1
 62
    18
420
        0
176
     1
 90
       50
176
     1
 90
        3
176
     1
 62
     5
420
      255
176
     1
290
     0
176
     1
 90
       50
176
     1
 90
       50
176
     1
 90
       50
176
     1
290
     0
176
     1
 90
       50
176
     1
 62
   256
176
     0
 40
1.0
176
     0
 90
        2
176
     1
  1
strokes_ogs.tif
176
     1
290
     0
176
     1
 40
1.0
176
     1
 40
1.0
176
     1
  0
VISUALSTYLE
  5
2D
102
{ACAD_REACTORS
330
2A
102
}
330
2A
100
AcDbVisualStyle
  2
Gouraud
 70
     2
177
     3
291
     1
 70
    58
 90
        2
176
     1
 90
        2
176
     1
 90
        1
176
     1
 90
        2
176
     1
 40
0.6
176
     1
 40
30.0
176
     1
 62
     7
420
 16777215
176
     1
 90
        0
176
     1
 90
        0
176
     1
 62
     7
176
     1
 62
   257
176
     1
 90
        1
176
     1
 90
        1
176
     1
 40
1.0
176
     1
 90
        0
176
     1
 62
     7
176
     1
 40
1.0
176
     1
 90
        1
176
     1
 90
        6
176
     1
 90
        2
176
     1
 62
     7
176
     1
 90
        5
176
     1
 90
        0
176
     1
 90
        0
176
     1
290
     0
176
     1
 90
       13
176
     1
 40
0.0
176
     1
 90
        0
176
     1
290
     0
176
     1
290
     1
176
     1
290
     1
176
     1
290
     0
176
     1
290
     0
176
     1
290
     0
176
     1
290
     0
176
     1
290
     0
176
     1
290
     0
176
     1
 90
       50
176
     1
 40
0.0
176
     1
 40
1.0
176
     1
 90
        0
176
     1
 62
    18
420
        0
176
     1
 90
       50
176
     1
 90
        3
176
     1
 62
     5
420
      255
176
     1
290
     0
176
     1
 90
       50
176
     1
 90
       50
176
     1
 90
       50
176
     1
290
     0
176
     1
 90
       50
176
     1
 62
   256
176
     0
 40
1.0
176
     0
 90
        2
176
     1
  1
strokes_ogs.tif
176
     1
290
     0
176
     1
 40
1.0
176
     1
 40
1.0
176
     1
  0
VISUALSTYLE
  5
2E
102
{ACAD_REACTORS
330
2A
102
}
330
2A
100
AcDbVisualStyle
  2
GouraudWithEdges
 70
     3
177
     3
291
     1
 70
    58
 90
        2
176
     1
 90
        2
176
     1
 90
        1
176
     1
 90
        2
176
     1
 40
0.6
176
     1
 40
30.0
176
     1
 62
     7
420
 16777215
176
     1
 90
        1
176
     1
 90
        0
176
     1
 62
     7
176
     1
 62
   257
176
     1
 90
        1
176
     1
 90
        1
176
     1
 40
1.0
176
     1
 90
        0
176
     1
 62
   257
176
     1
 40
1.0
176
     1
 90
        1
176
     1
 90
        6
176
     1
 90
        2
176
     1
 62
     7
176
     1
 90
        5
176
     1
 90
        0
176
     1
 90
        0
176
     1
290
     0
176
     1
 90
       13
176
     1
 40
0.0
176
     1
 90
        0
176
     1
290
     0
176
     1
290
     1
176
     1
290
     1
176
     1
290
     0
176
     1
290
     0
176
     1
290
     0
176
     1
290
     0
176
     1
290
     0
176
     1
290
     0
176
     1
 90
       50
176
     1
 40
0.0
176
     1
 40
1.0
176
     1
 90
        0
176
     1
 62
    18
420
        0
176
     1
 90
       50
176
     1
 90
        3
176
     1
 62
     5
420
      255
176
     1
290
     0
176
     1
 90
       50
176
     1
 90
       50
176
     1
 90
       50
176
     1
290
     0
176
     1
 90
       50
176
     1
 62
   256
176
     0
 40
1.0
176
     0
 90
        2
176
     1
  1
strokes_ogs.tif
176
     1
290
     0
176
     1
 40
1.0
176
     1
 40
1.0
176
     1
  0
VISUALSTYLE
  5
31
102
{ACAD_REACTORS
330
2A
102
}
330
2A
100
AcDbVisualStyle
  2
Hidden
 70
     6
177
     3
291
     0
 70
    58
 90
        1
176
     1
 90
        2
176
     1
 90
        2
176
     1
 90
        0
176
     1
 40
0.6
176
     1
 40
30.0
176
     1
 62
     7
420
 16777215
176
     1
 90
        2
176
     1
 90
        2
176
     1
 62
     7
176
     1
 62
   257
176
     1
 90
        2
176
     1
 90
        1
176
     1
 40
40.0
176
     1
 90
        0
176
     1
 62
   257
176
     1
 40
1.0
176
     1
 90
        1
176
     1
 90
        6
176
     1
 90
        2
176
     1
 62
     7
176
     1
 90
        3
176
     1
 90
        0
176
     1
 90
        0
176
     1
290
     0
176
     1
 90
        1
176
     1
 40
0.0
176
     1
 90
        0
176
     1
290
     0
176
     1
290
     1
176
     1
290
     1
176
     1
290
     0
176
     1
290
     0
176
     1
290
     0
176
     1
290
     0
176
     1
290
     0
176
     1
290
     0
176
     1
 90
       50
176
     1
 40
0.0
176
     1
 40
1.0
176
     1
 90
        0
176
     1
 62
    18
420
        0
176
     1
 90
       50
176
     1
 90
        3
176
     1
 62
     5
420
      255
176
     1
290
     0
176
     1
 90
       50
176
     1
 90
       50
176
     1
 90
       50
176
     1
290
     0
176
     1
 90
       50
176
     1
 62
   256
176
     0
 40
1.0
176
     0
 90
        2
176
     1
  1
strokes_ogs.tif
176
     1
290
     0
176
     1
 40
1.0
176
     1
 40
1.0
176
     1
  0
VISUALSTYLE
  5
3B
102
{ACAD_REACTORS
330
2A
102
}
330
2A
100
AcDbVisualStyle
  2
JitterOff
 70
    20
177
     3
291
     1
 70
    58
 90
        2
176
     0
 90
        2
176
     0
 90
        0
176
     0
 90
        0
176
     0
 40
0.6
176
     0
 40
30.0
176
     0
 62
     7
420
 16777215
176
     0
 90
        1
176
     0
 90
        4
176
     0
 62
     7
176
     0
 62
   257
176
     0
 90
        1
176
     0
 90
        1
176
     0
 40
1.0
176
     0
 90
       10
176
     2
 62
     7
176
     0
 40
1.0
176
     0
 90
        1
176
     0
 90
        6
176
     0
 90
        2
176
     0
 62
     7
176
     0
 90
        5
176
     0
 90
        0
176
     0
 90
        0
176
     0
290
     0
176
     0
 90
        1
176
     0
 40
0.0
176
     0
 90
        0
176
     0
290
     0
176
     0
290
     1
176
     0
290
     1
176
     0
290
     0
176
     0
290
     0
176
     0
290
     0
176
     0
290
     0
176
     0
290
     0
176
     0
290
     0
176
     0
 90
       50
176
     0
 40
0.0
176
     0
 40
1.0
176
     0
 90
        0
176
     0
 62
    18
420
        0
176
     0
 90
       50
176
     0
 90
        3
176
     0
 62
     5
420
      255
176
     0
290
     0
176
     0
 90
       50
176
     0
 90
       50
176
     0
 90
       50
176
     0
290
     0
176
     0
 90
       50
176
     0
 62
   256
176
     0
 40
1.0
176
     0
 90
        2
176
     0
  1
strokes_ogs.tif
176
     0
290
     0
176
     0
 40
1.0
176
     0
 40
1.0
176
     0
  0
VISUALSTYLE
  5
38
102
{ACAD_REACTORS
330
2A
102
}
330
2A
100
AcDbVisualStyle
  2
Linepattern
 70
    14
177
     3
291
     1
 70
    58
 90
        2
176
     1
 90
        2
176
     1
 90
        0
176
     1
 90
        0
176
     1
 40
0.6
176
     1
 40
30.0
176
     1
 62
     7
420
 16777215
176
     1
 90
        1
176
     1
 90
        4
176
     1
 62
     7
176
     1
 62
   257
176
     1
 90
        7
176
     1
 90
        7
176
     1
 40
1.0
176
     1
 90
        8
176
     1
 62
     7
176
     1
 40
1.0
176
     1
 90
        1
176
     1
 90
        6
176
     1
 90
        2
176
     1
 62
     7
176
     1
 90
        5
176
     1
 90
        0
176
     1
 90
        0
176
     1
290
     0
176
     1
 90
        1
176
     1
 40
0.0
176
     1
 90
        0
176
     1
290
     0
176
     1
290
     1
176
     1
290
     1
176
     1
290
     0
176
     1
290
     0
176
     1
290
     0
176
     1
290
     0
176
     1
290
     0
176
     1
290
     0
176
     1
 90
       50
176
     1
 40
0.0
176
     1
 40
1.0
176
     1
 90
        0
176
     1
 62
    18
420
        0
176
     1
 90
       50
176
     1
 90
        3
176
     1
 62
     5
420
      255
176
     1
290
     0
176
     1
 90
       50
176
     1
 90
       50
176
     1
 90
       50
176
     1
290
     0
176
     1
 90
       50
176
     1
 62
   256
176
     0
 40
1.0
176
     0
 90
        2
176
     1
  1
strokes_ogs.tif
176
     1
290
     0
176
     1
 40
1.0
176
     1
 40
1.0
176
     1
  0
VISUALSTYLE
  5
3C
102
{ACAD_REACTORS
330
2A
102
}
330
2A
100
AcDbVisualStyle
  2
OverhangOff
 70
    21
177
     3
291
     1
 70
    58
 90
        2
176
     0
 90
        2
176
     0
 90
        0
176
     0
 90
        0
176
     0
 40
0.6
176
     0
 40
30.0
176
     0
 62
     7
420
 16777215
176
     0
 90
        1
176
     0
 90
        4
176
     0
 62
     7
176
     0
 62
   257
176
     0
 90
        1
176
     0
 90
        1
176
     0
 40
1.0
176
     0
 90
        9
176
     2
 62
     7
176
     0
 40
1.0
176
     0
 90
        1
176
     0
 90
        6
176
     0
 90
        2
176
     0
 62
     7
176
     0
 90
        5
176
     0
 90
        0
176
     0
 90
        0
176
     0
290
     0
176
     0
 90
        1
176
     0
 40
0.0
176
     0
 90
        0
176
     0
290
     0
176
     0
290
     1
176
     0
290
     1
176
     0
290
     0
176
     0
290
     0
176
     0
290
     0
176
     0
290
     0
176
     0
290
     0
176
     0
290
     0
176
     0
 90
       50
176
     0
 40
0.0
176
     0
 40
1.0
176
     0
 90
        0
176
     0
 62
    18
420
        0
176
     0
 90
       50
176
     0
 90
        3
176
     0
 62
     5
420
      255
176
     0
290
     0
176
     0
 90
       50
176
     0
 90
       50
176
     0
 90
       50
176
     0
290
     0
176
     0
 90
       50
176
     0
 62
   256
176
     0
 40
1.0
176
     0
 90
        2
176
     0
  1
strokes_ogs.tif
176
     0
290
     0
176
     0
 40
1.0
176
     0
 40
1.0
176
     0
  0
VISUALSTYLE
  5
33
102
{ACAD_REACTORS
330
2A
102
}
330
2A
100
AcDbVisualStyle
  2
Realistic
 70
     8
177
     3
291
     0
 70
    58
 90
        2
176
     1
 90
        3
176
     1
 90
        0
176
     1
 90
        2
176
     1
 40
0.6
176
     1
 40
30.0
176
     1
 62
     7
420
 16777215
176
     1
 90
        0
176
     1
 90
        0
176
     1
 62
     7
176
     1
 62
   257
176
     1
 90
        1
176
     1
 90
        1
176
     1
 40
1.0
176
     1
 90
        8
176
     1
 62
   257
176
     1
 40
1.0
176
     1
 90
        1
176
     1
 90
        6
176
     1
 90
        2
176
     1
 62
     7
176
     1
 90
        3
176
     1
 90
        0
176
     1
 90
        0
176
     1
290
     0
176
     1
 90
       13
176
     1
 40
0.0
176
     1
 90
        0
176
     1
290
     0
176
     1
290
     1
176
     1
290
     1
176
     1
290
     0
176
     1
290
     0
176
     1
290
     0
176
     1
290
     0
176
     1
290
     0
176
     1
290
     0
176
     1
 90
       50
176
     1
 40
0.0
176
     1
 40
1.0
176
     1
 90
        0
176
     1
 62
    18
420
        0
176
     1
 90
       50
176
     1
 90
        3
176
     1
 62
     5
420
      255
176
     1
290
     0
176
     1
 90
       50
176
     1
 90
       50
176
     1
 90
       50
176
     1
290
     0
176
     1
 90
       50
176
     1
 62
   256
176
     0
 40
1.0
176
     0
 90
        2
176
     1
  1
strokes_ogs.tif
176
     1
290
     0
176
     1
 40
1.0
176
     1
 40
1.0
176
     1
  0
VISUALSTYLE
  5
42
102
{ACAD_REACTORS
330
2A
102
}
330
2A
100
AcDbVisualStyle
  2
Shaded
 70
    27
177
     3
291
     0
 70
    58
 90
        2
176
     1
 90
        2
176
     1
 90
        1
176
     1
 90
        2
176
     1
 40
0.6
176
     1
 40
30.0
176
     1
 62
     7
420
 16777215
176
     1
 90
        0
176
     1
 90
        4
176
     1
 62
     7
176
     1
 62
   257
176
     1
 90
        1
176
     1
 90
        1
176
     1
 40
1.0
176
     1
 90
        8
176
     1
 62
   257
176
     1
 40
1.0
176
     1
 90
        1
176
     1
 90
        6
176
     1
 90
        2
176
     1
 62
     8
420
  7895160
176
     1
 90
        3
176
     1
 90
        0
176
     1
 90
        0
176
     1
290
     0
176
     1
 90
        5
176
     1
 40
0.0
176
     1
 90
        0
176
     1
290
     0
176
     1
290
     1
176
     1
290
     1
176
     1
290
     0
176
     1
290
     0
176
     1
290
     0
176
     1
290
     0
176
     1
290
     0
176
     1
290
     0
176
     1
 90
       50
176
     1
 40
0.0
176
     1
 40
1.0
176
     1
 90
        0
176
     1
 62
    18
420
        0
176
     1
 90
       50
176
     1
 90
        3
176
     1
 62
     5
420
      255
176
     1
290
     0
176
     1
 90
       50
176
     1
 90
       50
176
     1
 90
       50
176
     1
290
     0
176
     1
 90
       50
176
     1
 62
   256
176
     0
 40
1.0
176
     0
 90
        2
176
     1
  1
strokes_ogs.tif
176
     1
290
     0
176
     1
 40
1.0
176
     1
 40
1.0
176
     1
  0
VISUALSTYLE
  5
41
102
{ACAD_REACTORS
330
2A
102
}
330
2A
100
AcDbVisualStyle
  2
Shaded with edges
 70
    26
177
     3
291
     0
 70
    58
 90
        2
176
     1
 90
        2
176
     1
 90
        1
176
     1
 90
        2
176
     1
 40
0.6
176
     1
 40
30.0
176
     1
 62
     7
420
 16777215
176
     1
 90
        1
176
     1
 90
       10
176
     1
 62
     7
176
     1
 62
   257
176
     1
 90
        2
176
     1
 90
        1
176
     1
 40
1.0
176
     1
 90
        8
176
     1
 62
   257
176
     1
 40
1.0
176
     1
 90
        1
176
     1
 90
        6
176
     1
 90
        2
176
     1
 62
     7
176
     1
 90
        3
176
     1
 90
        0
176
     1
 90
        0
176
     1
290
     0
176
     1
 90
        5
176
     1
 40
0.0
176
     1
 90
        0
176
     1
290
     0
176
     1
290
     1
176
     1
290
     1
176
     1
290
     0
176
     1
290
     0
176
     1
290
     0
176
     1
290
     0
176
     1
290
     0
176
     1
290
     0
176
     1
 90
       50
176
     1
 40
0.0
176
     1
 40
1.0
176
     1
 90
        0
176
     1
 62
    18
420
        0
176
     1
 90
       50
176
     1
 90
        3
176
     1
 62
     5
420
      255
176
     1
290
     0
176
     1
 90
       50
176
     1
 90
       50
176
     1
 90
       50
176
     1
290
     0
176
     1
 90
       50
176
     1
 62
   256
176
     0
 40
1.0
176
     0
 90
        2
176
     1
  1
strokes_ogs.tif
176
     1
290
     0
176
     1
 40
1.0
176
     1
 40
1.0
176
     1
  0
VISUALSTYLE
  5
3E
102
{ACAD_REACTORS
330
2A
102
}
330
2A
100
AcDbVisualStyle
  2
Shades of Gray
 70
    23
177
     3
291
     0
 70
    58
 90
        2
176
     1
 90
        2
176
     1
 90
        3
176
     1
 90
        0
176
     1
 40
0.6
176
     1
 40
30.0
176
     1
 62
     7
420
 16777215
176
     1
 90
        2
176
     1
 90
        2
176
     1
 62
     7
176
     1
 62
     7
176
     1
 90
        1
176
     1
 90
        1
176
     1
 40
40.0
176
     1
 90
        8
176
     1
 62
     7
176
     1
 40
1.0
176
     1
 90
        1
176
     1
 90
        6
176
     1
 90
        2
176
     1
 62
     7
176
     1
 90
        3
176
     1
 90
        0
176
     1
 90
        0
176
     1
290
     0
176
     1
 90
        1
176
     1
 40
0.0
176
     1
 90
        0
176
     1
290
     0
176
     1
290
     1
176
     1
290
     1
176
     1
290
     0
176
     1
290
     0
176
     1
290
     0
176
     1
290
     0
176
     1
290
     0
176
     1
290
     0
176
     1
 90
       50
176
     1
 40
0.0
176
     1
 40
1.0
176
     1
 90
        0
176
     1
 62
    18
420
        0
176
     1
 90
       50
176
     1
 90
        3
176
     1
 62
     5
420
      255
176
     1
290
     0
176
     1
 90
       50
176
     1
 90
       50
176
     1
 90
       50
176
     1
290
     0
176
     1
 90
       50
176
     1
 62
   256
176
     0
 40
1.0
176
     0
 90
        2
176
     1
  1
strokes_ogs.tif
176
     1
290
     0
176
     1
 40
1.0
176
     1
 40
1.0
176
     1
  0
VISUALSTYLE
  5
3F
102
{ACAD_REACTORS
330
2A
102
}
330
2A
100
AcDbVisualStyle
  2
Sketchy
 70
    24
177
     3
291
     0
 70
    58
 90
        1
176
     1
 90
        2
176
     1
 90
        2
176
     1
 90
        0
176
     1
 40
0.6
176
     1
 40
30.0
176
     1
 62
     7
420
 16777215
176
     1
 90
        2
176
     1
 90
        2
176
     1
 62
     7
176
     1
 62
     7
176
     1
 90
        1
176
     1
 90
        1
176
     1
 40
40.0
176
     1
 90
       11
176
     1
 62
     7
176
     1
 40
1.0
176
     1
 90
        1
176
     1
 90
        6
176
     1
 90
        2
176
     1
 62
     7
176
     1
 90
        6
176
     1
 90
        0
176
     1
 90
        0
176
     1
290
     0
176
     1
 90
        1
176
     1
 40
0.0
176
     1
 90
        0
176
     1
290
     0
176
     1
290
     1
176
     1
290
     1
176
     1
290
     0
176
     1
290
     0
176
     1
290
     0
176
     1
290
     0
176
     1
290
     0
176
     1
290
     0
176
     1
 90
       50
176
     1
 40
0.0
176
     1
 40
1.0
176
     1
 90
        0
176
     1
 62
    18
420
        0
176
     1
 90
       50
176
     1
 90
        3
176
     1
 62
     5
420
      255
176
     1
290
     0
176
     1
 90
       50
176
     1
 90
       50
176
     1
 90
       50
176
     1
290
     0
176
     1
 90
       50
176
     1
 62
   256
176
     0
 40
1.0
176
     0
 90
        2
176
     1
  1
strokes_ogs.tif
176
     1
290
     0
176
     1
 40
1.0
176
     1
 40
1.0
176
     1
  0
VISUALSTYLE
  5
37
102
{ACAD_REACTORS
330
2A
102
}
330
2A
100
AcDbVisualStyle
  2
Thicken
 70
    13
177
     3
291
     1
 70
    58
 90
        2
176
     1
 90
        2
176
     1
 90
        0
176
     1
 90
        0
176
     1
 40
0.6
176
     1
 40
30.0
176
     1
 62
     7
420
 16777215
176
     1
 90
        1
176
     1
 90
        4
176
     1
 62
     7
176
     1
 62
   257
176
     1
 90
        1
176
     1
 90
        1
176
     1
 40
1.0
176
     1
 90
       12
176
     1
 62
     7
176
     1
 40
1.0
176
     1
 90
        1
176
     1
 90
        6
176
     1
 90
        2
176
     1
 62
     7
176
     1
 90
        5
176
     1
 90
        0
176
     1
 90
        0
176
     1
290
     0
176
     1
 90
        1
176
     1
 40
0.0
176
     1
 90
        0
176
     1
290
     0
176
     1
290
     1
176
     1
290
     1
176
     1
290
     0
176
     1
290
     0
176
     1
290
     0
176
     1
290
     0
176
     1
290
     0
176
     1
290
     0
176
     1
 90
       50
176
     1
 40
0.0
176
     1
 40
1.0
176
     1
 90
        0
176
     1
 62
    18
420
        0
176
     1
 90
       50
176
     1
 90
        3
176
     1
 62
     5
420
      255
176
     1
290
     0
176
     1
 90
       50
176
     1
 90
       50
176
     1
 90
       50
176
     1
290
     0
176
     1
 90
       50
176
     1
 62
   256
176
     0
 40
1.0
176
     0
 90
        2
176
     1
  1
strokes_ogs.tif
176
     1
290
     0
176
     1
 40
1.0
176
     1
 40
1.0
176
     1
  0
VISUALSTYLE
  5
30
102
{ACAD_REACTORS
330
2A
102
}
330
2A
100
AcDbVisualStyle
  2
Wireframe
 70
     5
177
     3
291
     0
 70
    58
 90
        0
176
     1
 90
        2
176
     1
 90
        0
176
     1
 90
        0
176
     1
 40
0.6
176
     1
 40
30.0
176
     1
 62
     7
420
 16777215
176
     1
 90
        1
176
     1
 90
        4
176
     1
 62
     7
176
     1
 62
   257
176
     1
 90
        1
176
     1
 90
        1
176
     1
 40
1.0
176
     1
 90
        0
176
     1
 62
   257
176
     1
 40
1.0
176
     1
 90
        1
176
     1
 90
        6
176
     1
 90
        2
176
     1
 62
     7
176
     1
 90
        3
176
     1
 90
        0
176
     1
 90
        0
176
     1
290
     0
176
     1
 90
        1
176
     1
 40
0.0
176
     1
 90
        0
176
     1
290
     0
176
     1
290
     1
176
     1
290
     1
176
     1
290
     0
176
     1
290
     0
176
     1
290
     0
176
     1
290
     0
176
     1
290
     0
176
     1
290
     0
176
     1
 90
       50
176
     1
 40
0.0
176
     1
 40
1.0
176
     1
 90
        0
176
     1
 62
    18
420
        0
176
     1
 90
       50
176
     1
 90
        3
176
     1
 62
     5
420
      255
176
     1
290
     0
176
     1
 90
       50
176
     1
 90
       50
176
     1
 90
       50
176
     1
290
     0
176
     1
 90
       50
176
     1
 62
   256
176
     0
 40
1.0
176
     0
 90
        2
176
     1
  1
strokes_ogs.tif
176
     1
290
     0
176
     1
 40
1.0
176
     1
 40
1.0
176
     1
  0
VISUALSTYLE
  5
40
102
{ACAD_REACTORS
330
2A
102
}
330
2A
100
AcDbVisualStyle
  2
X-Ray
 70
    25
177
     3
291
     0
 70
    58
 90
        2
176
     1
 90
        2
176
     1
 90
        1
176
     1
 90
        1
176
     1
 40
0.5
176
     1
 40
30.0
176
     1
 62
     7
420
 16777215
176
     1
 90
        1
176
     1
 90
        0
176
     1
 62
     7
176
     1
 62
   257
176
     1
 90
        1
176
     1
 90
        1
176
     1
 40
1.0
176
     1
 90
        8
176
     1
 62
     7
176
     1
 40
1.0
176
     1
 90
        1
176
     1
 90
        6
176
     1
 90
        2
176
     1
 62
     7
176
     1
 90
        3
176
     1
 90
        0
176
     1
 90
        0
176
     1
290
     0
176
     1
 90
       13
176
     1
 40
0.0
176
     1
 90
        0
176
     1
290
     0
176
     1
290
     1
176
     1
290
     1
176
     1
290
     0
176
     1
290
     0
176
     1
290
     0
176
     1
290
     0
176
     1
290
     0
176
     1
290
     0
176
     1
 90
       50
176
     1
 40
0.0
176
     1
 40
1.0
176
     1
 90
        0
176
     1
 62
    18
420
        0
176
     1
 90
       50
176
     1
 90
        3
176
     1
 62
     5
420
      255
176
     1
290
     0
176
     1
 90
       50
176
     1
 90
       50
176
     1
 90
       50
176
     1
290
     0
176
     1
 90
       50
176
     1
 62
   256
176
     0
 40
1.0
176
     0
 90
        2
176
     1
  1
strokes_ogs.tif
176
     1
290
     0
176
     1
 40
1.0
176
     1
 40
1.0
176
     1
  0
DICTIONARYVAR
  5
1EA
102
{ACAD_REACTORS
330
1E9
102
}
330
1E9
100
DictionaryVariables
280
     0
  1
1:1
  0
DICTIONARYVAR
  5
1EF
102
{ACAD_REACTORS
330
1E9
102
}
330
1E9
100
DictionaryVariables
280
     0
  1
Standard
  0
DICTIONARYVAR
  5
1EE
102
{ACAD_REACTORS
330
1E9
102
}
330
1E9
100
DictionaryVariables
280
     0
  1
Standard
  0
DICTIONARY
  5
1EB
330
6A
100
AcDbDictionary
280
     1
281
     1
  3
ACAD_ROUNDTRIP_2008_TABLESTYLE_CELLSTYLEMAP
360
1EC
  0
CELLSTYLEMAP
  5
1EC
102
{ACAD_REACTORS
330
1EB
102
}
330
1EB
100
AcDbCellStyleMap
 90
        3
300
CELLSTYLE
  1
TABLEFORMAT_BEGIN
 90
        5
170
     1
 91
        0
 92
    32768
 62
   257
 93
        1
300
CONTENTFORMAT
  1
CONTENTFORMAT_BEGIN
 90
        0
 91
        0
 92
        4
 93
        0
300

 40
0.0
140
1.0
 94
        5
 62
     0
340
11
144
0.25
309
CONTENTFORMAT_END
171
     1
301
MARGIN
  1
CELLMARGIN_BEGIN
 40
0.06
 40
0.06
 40
0.06
 40
0.06
 40
0.06
 40
0.06
309
CELLMARGIN_END
 94
        6
 95
        1
302
GRIDFORMAT
  1
GRIDFORMAT_BEGIN
 90
        0
 91
        1
 62
     0
 92
       -2
340
14
 93
        0
 40
0.045
309
GRIDFORMAT_END
 95
        2
302
GRIDFORMAT
  1
GRIDFORMAT_BEGIN
 90
        0
 91
        1
 62
     0
 92
       -2
340
14
 93
        0
 40
0.045
309
GRIDFORMAT_END
 95
        4
302
GRIDFORMAT
  1
GRIDFORMAT_BEGIN
 90
        0
 91
        1
 62
     0
 92
       -2
340
14
 93
        0
 40
0.045
309
GRIDFORMAT_END
 95
        8
302
GRIDFORMAT
  1
GRIDFORMAT_BEGIN
 90
        0
 91
        1
 62
     0
 92
       -2
340
14
 93
        0
 40
0.045
309
GRIDFORMAT_END
 95
       16
302
GRIDFORMAT
  1
GRIDFORMAT_BEGIN
 90
        0
 91
        1
 62
     0
 92
       -2
340
14
 93
        0
 40
0.045
309
GRIDFORMAT_END
 95
       32
302
GRIDFORMAT
  1
GRIDFORMAT_BEGIN
 90
        0
 91
        1
 62
     0
 92
       -2
340
14
 93
        0
 40
0.045
309
GRIDFORMAT_END
309
TABLEFORMAT_END
  1
CELLSTYLE_BEGIN
 90
        1
 91
        1
300
_TITLE
309
CELLSTYLE_END
300
CELLSTYLE
  1
TABLEFORMAT_BEGIN
 90
        5
170
     1
 91
        0
 92
        0
 62
   257
 93
        1
300
CONTENTFORMAT
  1
CONTENTFORMAT_BEGIN
 90
        0
 91
        0
 92
        4
 93
        0
300

 40
0.0
140
1.0
 94
        5
 62
     0
340
11
144
0.18
309
CONTENTFORMAT_END
171
     1
301
MARGIN
  1
CELLMARGIN_BEGIN
 40
0.06
 40
0.06
 40
0.06
 40
0.06
 40
0.06
 40
0.06
309
CELLMARGIN_END
 94
        6
 95
        1
302
GRIDFORMAT
  1
GRIDFORMAT_BEGIN
 90
        0
 91
        1
 62
     0
 92
       -2
340
14
 93
        0
 40
0.045
309
GRIDFORMAT_END
 95
        2
302
GRIDFORMAT
  1
GRIDFORMAT_BEGIN
 90
        0
 91
        1
 62
     0
 92
       -2
340
14
 93
        0
 40
0.045
309
GRIDFORMAT_END
 95
        4
302
GRIDFORMAT
  1
GRIDFORMAT_BEGIN
 90
        0
 91
        1
 62
     0
 92
       -2
340
14
 93
        0
 40
0.045
309
GRIDFORMAT_END
 95
        8
302
GRIDFORMAT
  1
GRIDFORMAT_BEGIN
 90
        0
 91
        1
 62
     0
 92
       -2
340
14
 93
        0
 40
0.045
309
GRIDFORMAT_END
 95
       16
302
GRIDFORMAT
  1
GRIDFORMAT_BEGIN
 90
        0
 91
        1
 62
     0
 92
       -2
340
14
 93
        0
 40
0.045
309
GRIDFORMAT_END
 95
       32
302
GRIDFORMAT
  1
GRIDFORMAT_BEGIN
 90
        0
 91
        1
 62
     0
 92
       -2
340
14
 93
        0
 40
0.045
309
GRIDFORMAT_END
309
TABLEFORMAT_END
  1
CELLSTYLE_BEGIN
 90
        2
 91
        1
300
_HEADER
309
CELLSTYLE_END
300
CELLSTYLE
  1
TABLEFORMAT_BEGIN
 90
        5
170
     1
 91
        0
 92
        0
 62
   257
 93
        1
300
CONTENTFORMAT
  1
CONTENTFORMAT_BEGIN
 90
        0
 91
        0
 92
        4
 93
        0
300

 40
0.0
140
1.0
 94
        2
 62
     0
340
11
144
0.18
309
CONTENTFORMAT_END
171
     1
301
MARGIN
  1
CELLMARGIN_BEGIN
 40
0.06
 40
0.06
 40
0.06
 40
0.06
 40
0.06
 40
0.06
309
CELLMARGIN_END
 94
        6
 95
        1
302
GRIDFORMAT
  1
GRIDFORMAT_BEGIN
 90
        0
 91
        1
 62
     0
 92
       -2
340
14
 93
        0
 40
0.045
309
GRIDFORMAT_END
 95
        2
302
GRIDFORMAT
  1
GRIDFORMAT_BEGIN
 90
        0
 91
        1
 62
     0
 92
       -2
340
14
 93
        0
 40
0.045
309
GRIDFORMAT_END
 95
        4
302
GRIDFORMAT
  1
GRIDFORMAT_BEGIN
 90
        0
 91
        1
 62
     0
 92
       -2
340
14
 93
        0
 40
0.045
309
GRIDFORMAT_END
 95
        8
302
GRIDFORMAT
  1
GRIDFORMAT_BEGIN
 90
        0
 91
        1
 62
     0
 92
       -2
340
14
 93
        0
 40
0.045
309
GRIDFORMAT_END
 95
       16
302
GRIDFORMAT
  1
GRIDFORMAT_BEGIN
 90
        0
 91
        1
 62
     0
 92
       -2
340
14
 93
        0
 40
0.045
309
GRIDFORMAT_END
 95
       32
302
GRIDFORMAT
  1
GRIDFORMAT_BEGIN
 90
        0
 91
        1
 62
     0
 92
       -2
340
14
 93
        0
 40
0.045
309
GRIDFORMAT_END
309
TABLEFORMAT_END
  1
CELLSTYLE_BEGIN
 90
        3
 91
        2
300
_DATA
309
CELLSTYLE_END
  0
ENDSEC
  0
EOF